  0
SECTION
  2
HEADER
  9
$ACADVER
  1
AC1015
  9
$DWGCODEPAGE
  3
ANSI_1252
  9
$EXTMAX
 10
33.1102362205
 20
23.3858267717
 30
0.0
  9
$EXTMIN
 10
0.0
 20
0.0
 30
0.0
  9
$LIMMIN
 10
0.0
 20
0.0
  9
$LIMMAX
 10
33.1102362205
 20
23.3858267717
  9
$VIEWCTR
 10
16.5551181102
 20
11.6929133858
  9
$VIEWSIZE
 40
23.3858267717
  9
$CLAYER
  8
0
  9
$LTSCALE
 40
1.8210629921
  9
$CELTYPE
  6
BYLAYER
  9
$DIMSCALE
 40
1.0
  9
$DIMASZ
 40
0.1875
  9
$DIMEXO
 40
0.2069389764
  9
$DIMDLI
 40
1.2581889764
  9
$DIMEXE
 40
0.595984252
  9
$DIMCEN
 40
0.297992126
  9
$DIMLFAC
 40
1.0
  9
$DIMBLK
  1
_CLOSED
  9
$DIMTXT
 40
0.15625
  9
$DIMTOL
 70
0
  9
$DIMLIM
 70
0
  9
$DIMTFAC
 40
1.0
  9
$PDMODE
 70
3
  9
$PDSIZE
 40
0.3125
  9
$HANDSEED
  5
5D8
  9
$TILEMODE
 70
1
  9
$MEASUREMENT
 70
0
  9
$INSUNITS
 70
1
  0
ENDSEC
  0
SECTION
  2
CLASSES
  0
CLASS
  1
ACDBDICTIONARYWDFLT
  2
AcDbDictionaryWithDefault
  3
AutoCAD 2000
 90
0
280
0
281
0
  0
CLASS
  1
ACDBPLACEHOLDER
  2
AcDbPlaceHolder
  3
AutoCAD 2000
 90
0
280
0
281
0
  0
CLASS
  1
LAYOUT
  2
AcDbLayout
  3
AutoCAD 2000
 90
0
280
0
281
0
  0
ENDSEC
  0
SECTION
  2
TABLES
  0
TABLE
  2
VPORT
  5
8
100
AcDbSymbolTable
 70
2
  0
VPORT
  5
1F4
100
AcDbSymbolTableRecord
100
AcDbViewportTableRecord
  2
*ACTIVE
 70
0
 10
0.0
 20
0.0
 11
1.0
 21
1.0
 12
16.5551181102
 22
11.6929133858
 13
0.0
 23
0.0
 14
1.0
 24
1.0
 15
0.0
 25
0.0
 16
0.0
 26
0.0
 36
1.0
 17
0.0
 27
0.0
 37
0.0
 40
23.3858267717
 41
1.4158249158
 42
50.0
 43
0.0
 44
0.0
 50
0.0
 51
0.0
 71
0
 72
100
 73
1
 74
1
 75
0
 76
0
 77
0
 78
0
  0
ENDTAB
  0
TABLE
  2
LTYPE
  5
5
100
AcDbSymbolTable
 70
6
  0
LTYPE
  5
14
100
AcDbSymbolTableRecord
100
AcDbLinetypeTableRecord
  2
BYBLOCK
 70
0
  3

 72
65
 73
0
 40
0.0
  0
LTYPE
  5
15
100
AcDbSymbolTableRecord
100
AcDbLinetypeTableRecord
  2
BYLAYER
 70
0
  3

 72
65
 73
0
 40
0.0
  0
LTYPE
  5
16
100
AcDbSymbolTableRecord
100
AcDbLinetypeTableRecord
  2
CONTINUOUS
 70
64
  3
Solid line
 72
65
 73
0
 40
0.0
  0
LTYPE
  5
1F5
100
AcDbSymbolTableRecord
100
AcDbLinetypeTableRecord
  2
CENTER
 70
64
  3
____ _ ____ _ ____ _ ____ _ ____ _ ____ _ ____
 72
65
 73
4
 40
0.6
 49
0.375
 74
0
 49
-0.075
 74
0
 49
0.075
 74
0
 49
-0.075
 74
0
  0
LTYPE
  5
1F6
100
AcDbSymbolTableRecord
100
AcDbLinetypeTableRecord
  2
HIDDEN
 70
64
  3
- - - - - - - - - - - - - - - - - - - -
 72
65
 73
2
 40
0.2
 49
0.1
 74
0
 49
-0.1
 74
0
  0
LTYPE
  5
1F7
100
AcDbSymbolTableRecord
100
AcDbLinetypeTableRecord
  2
PHANTOM
 70
64
  3
_____ _ _ _____ _ _ _____ _ _ _____
 72
65
 73
6
 40
0.8
 49
0.45
 74
0
 49
-0.05
 74
0
 49
0.1
 74
0
 49
-0.05
 74
0
 49
0.1
 74
0
 49
-0.05
 74
0
  0
LTYPE
  5
1F8
100
AcDbSymbolTableRecord
100
AcDbLinetypeTableRecord
  2
DOT
 70
64
  3
. . . . . . . . . . . . . . . . . . . .
 72
65
 73
2
 40
0.2
 49
0.1
 74
0
 49
-0.1
 74
0
  0
LTYPE
  5
1F9
100
AcDbSymbolTableRecord
100
AcDbLinetypeTableRecord
  2
DASHED
 70
64
  3
- - - - - - - - - - - - - - - - - - - -
 72
65
 73
2
 40
0.2
 49
0.1
 74
0
 49
-0.1
 74
0
  0
ENDTAB
  0
TABLE
  2
LAYER
  5
2
100
AcDbSymbolTable
 70
36
  0
LAYER
  5
10
100
AcDbSymbolTableRecord
100
AcDbLayerTableRecord
  2
0
 70
0
 62
7
  6
CONTINUOUS
370
-3
390
F
  0
LAYER
  5
1FA
100
AcDbSymbolTableRecord
100
AcDbLayerTableRecord
  2
DEFAULT_1
 70
0
 62
7
  6
CENTER
370
-3
390
F
  0
LAYER
  5
1FB
100
AcDbSymbolTableRecord
100
AcDbLayerTableRecord
  2
DEFAULT_2
 70
0
 62
8
  6
HIDDEN
370
-3
390
F
  0
LAYER
  5
1FC
100
AcDbSymbolTableRecord
100
AcDbLayerTableRecord
  2
DEFAULT_3
 70
0
 62
7
  6
PHANTOM
370
-3
390
F
  0
LAYER
  5
1FD
100
AcDbSymbolTableRecord
100
AcDbLayerTableRecord
  2
_  SHELL
 70
0
 62
7
  6
CONTINUOUS
370
-3
390
F
  0
LAYER
  5
1FE
100
AcDbSymbolTableRecord
100
AcDbLayerTableRecord
  2
1-595
 70
0
 62
7
  6
CONTINUOUS
370
-3
390
F
  0
LAYER
  5
1FF
100
AcDbSymbolTableRecord
100
AcDbLayerTableRecord
  2
10016
 70
0
 62
7
  6
CONTINUOUS
370
-3
390
F
  0
LAYER
  5
200
100
AcDbSymbolTableRecord
100
AcDbLayerTableRecord
  2
10496
 70
0
 62
7
  6
CONTINUOUS
370
-3
390
F
  0
LAYER
  5
201
100
AcDbSymbolTableRecord
100
AcDbLayerTableRecord
  2
10497
 70
0
 62
7
  6
CONTINUOUS
370
-3
390
F
  0
LAYER
  5
202
100
AcDbSymbolTableRecord
100
AcDbLayerTableRecord
  2
10498
 70
0
 62
7
  6
CONTINUOUS
370
-3
390
F
  0
LAYER
  5
203
100
AcDbSymbolTableRecord
100
AcDbLayerTableRecord
  2
10521
 70
0
 62
7
  6
CONTINUOUS
370
-3
390
F
  0
LAYER
  5
204
100
AcDbSymbolTableRecord
100
AcDbLayerTableRecord
  2
10632
 70
0
 62
7
  6
CONTINUOUS
370
-3
390
F
  0
LAYER
  5
205
100
AcDbSymbolTableRecord
100
AcDbLayerTableRecord
  2
2-217
 70
0
 62
7
  6
CONTINUOUS
370
-3
390
F
  0
LAYER
  5
206
100
AcDbSymbolTableRecord
100
AcDbLayerTableRecord
  2
2-224
 70
0
 62
7
  6
CONTINUOUS
370
-3
390
F
  0
LAYER
  5
207
100
AcDbSymbolTableRecord
100
AcDbLayerTableRecord
  2
200
 70
0
 62
7
  6
CONTINUOUS
370
-3
390
F
  0
LAYER
  5
208
100
AcDbSymbolTableRecord
100
AcDbLayerTableRecord
  2
206
 70
0
 62
7
  6
CONTINUOUS
370
-3
390
F
  0
LAYER
  5
209
100
AcDbSymbolTableRecord
100
AcDbLayerTableRecord
  2
212E
 70
0
 62
7
  6
CONTINUOUS
370
-3
390
F
  0
LAYER
  5
20A
100
AcDbSymbolTableRecord
100
AcDbLayerTableRecord
  2
220
 70
0
 62
7
  6
CONTINUOUS
370
-3
390
F
  0
LAYER
  5
20B
100
AcDbSymbolTableRecord
100
AcDbLayerTableRecord
  2
3_ALL_SYMBOLS
 70
0
 62
7
  6
CONTINUOUS
370
-3
390
F
  0
LAYER
  5
20C
100
AcDbSymbolTableRecord
100
AcDbLayerTableRecord
  2
5-002_212E
 70
0
 62
7
  6
CONTINUOUS
370
-3
390
F
  0
LAYER
  5
20D
100
AcDbSymbolTableRecord
100
AcDbLayerTableRecord
  2
5-039_212E
 70
0
 62
7
  6
CONTINUOUS
370
-3
390
F
  0
LAYER
  5
20E
100
AcDbSymbolTableRecord
100
AcDbLayerTableRecord
  2
50167_212E
 70
0
 62
7
  6
CONTINUOUS
370
-3
390
F
  0
LAYER
  5
20F
100
AcDbSymbolTableRecord
100
AcDbLayerTableRecord
  2
50168_212E
 70
0
 62
7
  6
CONTINUOUS
370
-3
390
F
  0
LAYER
  5
210
100
AcDbSymbolTableRecord
100
AcDbLayerTableRecord
  2
50169_212E
 70
0
 62
7
  6
CONTINUOUS
370
-3
390
F
  0
LAYER
  5
211
100
AcDbSymbolTableRecord
100
AcDbLayerTableRecord
  2
50170_212E
 70
0
 62
7
  6
CONTINUOUS
370
-3
390
F
  0
LAYER
  5
212
100
AcDbSymbolTableRecord
100
AcDbLayerTableRecord
  2
50171_212E
 70
0
 62
7
  6
CONTINUOUS
370
-3
390
F
  0
LAYER
  5
213
100
AcDbSymbolTableRecord
100
AcDbLayerTableRecord
  2
50172_212E
 70
0
 62
7
  6
CONTINUOUS
370
-3
390
F
  0
LAYER
  5
214
100
AcDbSymbolTableRecord
100
AcDbLayerTableRecord
  2
50173_212E
 70
0
 62
7
  6
CONTINUOUS
370
-3
390
F
  0
LAYER
  5
215
100
AcDbSymbolTableRecord
100
AcDbLayerTableRecord
  2
50173_212E_1
 70
0
 62
7
  6
CONTINUOUS
370
-3
390
F
  0
LAYER
  5
216
100
AcDbSymbolTableRecord
100
AcDbLayerTableRecord
  2
50173_212E_2
 70
0
 62
7
  6
CONTINUOUS
370
-3
390
F
  0
LAYER
  5
217
100
AcDbSymbolTableRecord
100
AcDbLayerTableRecord
  2
50173_212E_3
 70
0
 62
7
  6
CONTINUOUS
370
-3
390
F
  0
LAYER
  5
218
100
AcDbSymbolTableRecord
100
AcDbLayerTableRecord
  2
50173_212E_4
 70
0
 62
7
  6
CONTINUOUS
370
-3
390
F
  0
LAYER
  5
219
100
AcDbSymbolTableRecord
100
AcDbLayerTableRecord
  2
50173_212E_5
 70
0
 62
7
  6
CONTINUOUS
370
-3
390
F
  0
LAYER
  5
21A
100
AcDbSymbolTableRecord
100
AcDbLayerTableRecord
  2
50174_212E
 70
0
 62
7
  6
CONTINUOUS
370
-3
390
F
  0
LAYER
  5
21B
100
AcDbSymbolTableRecord
100
AcDbLayerTableRecord
  2
50175_212E
 70
0
 62
7
  6
CONTINUOUS
370
-3
390
F
  0
LAYER
  5
21C
100
AcDbSymbolTableRecord
100
AcDbLayerTableRecord
  2
50176_212E
 70
0
 62
7
  6
CONTINUOUS
370
-3
390
F
  0
LAYER
  5
21D
100
AcDbSymbolTableRecord
100
AcDbLayerTableRecord
  2
91033
 70
0
 62
7
  6
CONTINUOUS
370
-3
390
F
  0
LAYER
  5
21E
100
AcDbSymbolTableRecord
100
AcDbLayerTableRecord
  2
91065
 70
0
 62
7
  6
CONTINUOUS
370
-3
390
F
  0
LAYER
  5
21F
100
AcDbSymbolTableRecord
100
AcDbLayerTableRecord
  2
91151_212E
 70
0
 62
7
  6
CONTINUOUS
370
-3
390
F
  0
LAYER
  5
220
100
AcDbSymbolTableRecord
100
AcDbLayerTableRecord
  2
91152_212E
 70
0
 62
7
  6
CONTINUOUS
370
-3
390
F
  0
LAYER
  5
221
100
AcDbSymbolTableRecord
100
AcDbLayerTableRecord
  2
91153_212E
 70
0
 62
7
  6
CONTINUOUS
370
-3
390
F
  0
LAYER
  5
222
100
AcDbSymbolTableRecord
100
AcDbLayerTableRecord
  2
91154_212E
 70
0
 62
7
  6
CONTINUOUS
370
-3
390
F
  0
LAYER
  5
223
100
AcDbSymbolTableRecord
100
AcDbLayerTableRecord
  2
91522
 70
0
 62
7
  6
CONTINUOUS
370
-3
390
F
  0
LAYER
  5
224
100
AcDbSymbolTableRecord
100
AcDbLayerTableRecord
  2
92042_212E
 70
0
 62
7
  6
CONTINUOUS
370
-3
390
F
  0
LAYER
  5
225
100
AcDbSymbolTableRecord
100
AcDbLayerTableRecord
  2
92043_212E
 70
0
 62
7
  6
CONTINUOUS
370
-3
390
F
  0
LAYER
  5
226
100
AcDbSymbolTableRecord
100
AcDbLayerTableRecord
  2
ALL_ASSEMBLY_MEMBERS
 70
0
 62
7
  6
CONTINUOUS
370
-3
390
F
  0
LAYER
  5
227
100
AcDbSymbolTableRecord
100
AcDbLayerTableRecord
  2
ALL_ASSEMBLY_MEMBERS_1
 70
0
 62
7
  6
CONTINUOUS
370
-3
390
F
  0
LAYER
  5
228
100
AcDbSymbolTableRecord
100
AcDbLayerTableRecord
  2
ALL_ASSEMBLY_MEMBERS_2
 70
0
 62
7
  6
CONTINUOUS
370
-3
390
F
  0
LAYER
  5
229
100
AcDbSymbolTableRecord
100
AcDbLayerTableRecord
  2
ALL_ASSEMBLY_MEMBERS_3
 70
0
 62
7
  6
CONTINUOUS
370
-3
390
F
  0
LAYER
  5
22A
100
AcDbSymbolTableRecord
100
AcDbLayerTableRecord
  2
ALL_FEATURES_14
 70
0
 62
7
  6
CONTINUOUS
370
-3
390
F
  0
LAYER
  5
22B
100
AcDbSymbolTableRecord
100
AcDbLayerTableRecord
  2
COLOR4
 70
0
 62
7
  6
CONTINUOUS
370
-3
390
F
  0
LAYER
  5
22C
100
AcDbSymbolTableRecord
100
AcDbLayerTableRecord
  2
DEFAULT_COORDINATE_SYSTEM
 70
0
 62
7
  6
CONTINUOUS
370
-3
390
F
  0
LAYER
  5
22D
100
AcDbSymbolTableRecord
100
AcDbLayerTableRecord
  2
DEFAULT_DATUM_AXES
 70
0
 62
7
  6
CONTINUOUS
370
-3
390
F
  0
LAYER
  5
22E
100
AcDbSymbolTableRecord
100
AcDbLayerTableRecord
  2
DEFAULT_DATUM_CURVES
 70
0
 62
7
  6
CONTINUOUS
370
-3
390
F
  0
LAYER
  5
22F
100
AcDbSymbolTableRecord
100
AcDbLayerTableRecord
  2
DEFAULT_DATUM_PLANES
 70
0
 62
7
  6
CONTINUOUS
370
-3
390
F
  0
LAYER
  5
230
100
AcDbSymbolTableRecord
100
AcDbLayerTableRecord
  2
H-78
 70
0
 62
7
  6
CONTINUOUS
370
-3
390
F
  0
LAYER
  5
231
100
AcDbSymbolTableRecord
100
AcDbLayerTableRecord
  2
INTF_10016
 70
0
 62
7
  6
CONTINUOUS
370
-3
390
F
  0
LAYER
  5
232
100
AcDbSymbolTableRecord
100
AcDbLayerTableRecord
  2
INTF_10496
 70
0
 62
7
  6
CONTINUOUS
370
-3
390
F
  0
LAYER
  5
233
100
AcDbSymbolTableRecord
100
AcDbLayerTableRecord
  2
INTF_10497
 70
0
 62
7
  6
CONTINUOUS
370
-3
390
F
  0
LAYER
  5
234
100
AcDbSymbolTableRecord
100
AcDbLayerTableRecord
  2
INTF_10498
 70
0
 62
7
  6
CONTINUOUS
370
-3
390
F
  0
LAYER
  5
235
100
AcDbSymbolTableRecord
100
AcDbLayerTableRecord
  2
INTF_10521
 70
0
 62
7
  6
CONTINUOUS
370
-3
390
F
  0
LAYER
  5
236
100
AcDbSymbolTableRecord
100
AcDbLayerTableRecord
  2
INTF_10632
 70
0
 62
7
  6
CONTINUOUS
370
-3
390
F
  0
LAYER
  5
237
100
AcDbSymbolTableRecord
100
AcDbLayerTableRecord
  2
INTF_200
 70
0
 62
7
  6
CONTINUOUS
370
-3
390
F
  0
LAYER
  5
238
100
AcDbSymbolTableRecord
100
AcDbLayerTableRecord
  2
INTF_206
 70
0
 62
7
  6
CONTINUOUS
370
-3
390
F
  0
LAYER
  5
239
100
AcDbSymbolTableRecord
100
AcDbLayerTableRecord
  2
INTF_220
 70
0
 62
7
  6
CONTINUOUS
370
-3
390
F
  0
LAYER
  5
23A
100
AcDbSymbolTableRecord
100
AcDbLayerTableRecord
  2
INTF_91033
 70
0
 62
7
  6
CONTINUOUS
370
-3
390
F
  0
LAYER
  5
23B
100
AcDbSymbolTableRecord
100
AcDbLayerTableRecord
  2
INTF_91065
 70
0
 62
7
  6
CONTINUOUS
370
-3
390
F
  0
LAYER
  5
23C
100
AcDbSymbolTableRecord
100
AcDbLayerTableRecord
  2
INTF_91522
 70
0
 62
7
  6
CONTINUOUS
370
-3
390
F
  0
LAYER
  5
23D
100
AcDbSymbolTableRecord
100
AcDbLayerTableRecord
  2
INTF_BLANK
 70
0
 62
7
  6
CONTINUOUS
370
-3
390
F
  0
LAYER
  5
23E
100
AcDbSymbolTableRecord
100
AcDbLayerTableRecord
  2
PLATED_AREA
 70
0
 62
7
  6
CONTINUOUS
370
-3
390
F
  0
LAYER
  5
23F
100
AcDbSymbolTableRecord
100
AcDbLayerTableRecord
  2
PLATED_AREA_1
 70
0
 62
7
  6
CONTINUOUS
370
-3
390
F
  0
LAYER
  5
240
100
AcDbSymbolTableRecord
100
AcDbLayerTableRecord
  2
PLATED_AREA_2
 70
0
 62
7
  6
CONTINUOUS
370
-3
390
F
  0
LAYER
  5
241
100
AcDbSymbolTableRecord
100
AcDbLayerTableRecord
  2
PLATED_AREA_3
 70
0
 62
7
  6
CONTINUOUS
370
-3
390
F
  0
LAYER
  5
242
100
AcDbSymbolTableRecord
100
AcDbLayerTableRecord
  2
PLATED_AREA_4
 70
0
 62
7
  6
CONTINUOUS
370
-3
390
F
  0
LAYER
  5
243
100
AcDbSymbolTableRecord
100
AcDbLayerTableRecord
  2
PROTRUSION
 70
0
 62
7
  6
CONTINUOUS
370
-3
390
F
  0
LAYER
  5
244
100
AcDbSymbolTableRecord
100
AcDbLayerTableRecord
  2
QUILT
 70
0
 62
7
  6
CONTINUOUS
370
-3
390
F
  0
LAYER
  5
245
100
AcDbSymbolTableRecord
100
AcDbLayerTableRecord
  2
QUILTED_AREA
 70
0
 62
7
  6
CONTINUOUS
370
-3
390
F
  0
LAYER
  5
246
100
AcDbSymbolTableRecord
100
AcDbLayerTableRecord
  2
QUILTS_2
 70
0
 62
7
  6
CONTINUOUS
370
-3
390
F
  0
LAYER
  5
247
100
AcDbSymbolTableRecord
100
AcDbLayerTableRecord
  2
QUILT_1
 70
0
 62
7
  6
CONTINUOUS
370
-3
390
F
  0
LAYER
  5
248
100
AcDbSymbolTableRecord
100
AcDbLayerTableRecord
  2
_BLACK_HOLE
 70
0
 62
7
  6
CONTINUOUS
370
-3
390
F
  0
LAYER
  5
249
100
AcDbSymbolTableRecord
100
AcDbLayerTableRecord
  2
___SHELL
 70
0
 62
7
  6
CONTINUOUS
370
-3
390
F
  0
ENDTAB
  0
TABLE
  2
STYLE
  5
3
100
AcDbSymbolTable
 70
1
  0
STYLE
  5
11
100
AcDbSymbolTableRecord
100
AcDbTextStyleTableRecord
  2
STANDARD
 70
0
 40
0.0
 41
0.8
 50
0.0
 71
0
 42
0.2
  3
txt
  4

  0
STYLE
  5
24A
100
AcDbSymbolTableRecord
100
AcDbTextStyleTableRecord
  2
TEXTSTYLE_1
 70
0
 40
0.0
 41
0.8
 50
0.0
 71
0
 42
0.2
  3
gdt
  4

  0
ENDTAB
  0
TABLE
  2
VIEW
  5
6
100
AcDbSymbolTable
 70
0
  0
ENDTAB
  0
TABLE
  2
UCS
  5
7
100
AcDbSymbolTable
 70
0
  0
ENDTAB
  0
TABLE
  2
APPID
  5
9
100
AcDbSymbolTable
 70
1
  0
APPID
  5
24B
100
AcDbSymbolTableRecord
100
AcDbRegAppTableRecord
  2
ACAD
 70
0
  0
ENDTAB
  0
TABLE
  2
BLOCK_RECORD
  5
1
100
AcDbSymbolTable
 70
0
  0
BLOCK_RECORD
  5
24C
100
AcDbSymbolTableRecord
100
AcDbBlockTableRecord
  2
*Model_Space
  0
BLOCK_RECORD
  5
24D
100
AcDbSymbolTableRecord
100
AcDbBlockTableRecord
  2
*Paper_Space
  0
ENDTAB
  0
TABLE
  2
DIMSTYLE
  5
A
100
AcDbSymbolTable
 70
1
100
AcDbDimStyleTable
 71
0
  0
DIMSTYLE
105
24E
100
AcDbSymbolTableRecord
100
AcDbDimStyleTableRecord
  2
STANDARD
 70
0
  3

  4

 40
1.0
 41
0.1875
 42
0.0625
 43
0.38
 44
0.18
 45
0.0
 46
0.0
 47
0.01
 48
0.01
140
0.15625
141
0.09
142
0.0
143
25.4
144
1.0
145
0.0
146
1.0
147
0.09
 71
0.0
 72
0.0
 73
1
 74
1
 75
0
 76
0
 77
0
 78
4
170
0
171
2
172
0
173
0
174
0
175
0
176
0
177
0
178
0
270
2
271
2
272
2
273
2
274
2
275
0
280
0
281
0
282
0
283
1
284
4
285
0
286
0
287
3
288
0
340
11
  0
ENDTAB
  0
ENDSEC
  0
SECTION
  2
BLOCKS
  0
BLOCK
  5
20
100
AcDbEntity
  8
0
100
AcDbBlockBegin
  2
*Model_Space
 70
0
 10
0.0
 20
0.0
 30
0.0
  3
*Model_Space
  1

  0
ENDBLK
  5
21
100
AcDbEntity
  8
0
100
AcDbBlockEnd
  0
BLOCK
  5
1C
100
AcDbEntity
  8
0
100
AcDbBlockBegin
  2
*Paper_Space
 70
0
 10
0.0
 20
0.0
 30
0.0
  3
*Paper_Space
  1

  0
ENDBLK
  5
1D
100
AcDbEntity
  8
0
100
AcDbBlockEnd
  0
ENDSEC
  0
SECTION
  2
ENTITIES
  0
LINE
  5
24F
100
AcDbEntity
  8
0
100
AcDbLine
 62
7
  6
CONTINUOUS
 10
18.8079617944
 20
0.460587365
 11
19.8079617944
 21
0.373087365
  0
LINE
  5
250
100
AcDbEntity
  8
0
100
AcDbLine
 62
7
  6
CONTINUOUS
 10
14.8429348718
 20
1.003240096
 11
15.8579622383
 21
0.8605873027
  0
LINE
  5
251
100
AcDbEntity
  8
0
100
AcDbLine
 62
7
  6
CONTINUOUS
 10
16.2579617941
 20
1.0605873651
 11
17.8079617974
 21
0.6388957055
  0
LINE
  5
252
100
AcDbEntity
  8
0
100
AcDbLine
 62
7
  6
CONTINUOUS
 10
19.8079669062
 20
2.7480289413
 11
18.8079665296
 21
2.6605332462
  0
LINE
  5
253
100
AcDbEntity
  8
0
100
AcDbLine
 62
9
  6
CONTINUOUS
 10
19.069247837
 20
2.2794796073
 11
19.807961934
 21
2.3208618322
  0
LINE
  5
254
100
AcDbEntity
  8
0
100
AcDbLine
 62
7
  6
CONTINUOUS
 10
14.0558425135
 20
19.7976308864
 11
14.167565385
 21
19.9093537578
  0
LINE
  5
255
100
AcDbEntity
  8
0
100
AcDbLine
 62
7
  6
CONTINUOUS
 10
14.0820054644
 20
19.7714679355
 11
14.0112947863
 21
19.7007572574
  0
LINE
  5
256
100
AcDbEntity
  8
0
100
AcDbLine
 62
7
  6
CONTINUOUS
 10
14.6488649496
 20
20.1379894015
 11
14.7902863059
 21
20.2794107577
  0
LINE
  5
257
100
AcDbEntity
  8
0
100
AcDbLine
 62
7
  6
CONTINUOUS
 10
14.6515826671
 20
20.135271684
 11
14.7930040234
 21
20.2766930402
  0
LINE
  5
258
100
AcDbEntity
  8
0
100
AcDbLine
 62
7
  6
CONTINUOUS
 10
14.7957142918
 20
20.2739827718
 11
14.6542929356
 21
20.1325614155
  0
LINE
  5
259
100
AcDbEntity
  8
0
100
AcDbLine
 62
7
  6
CONTINUOUS
 10
14.6578950605
 20
20.1289592906
 11
14.7993164168
 21
20.2703806468
  0
LINE
  5
25A
100
AcDbEntity
  8
0
100
AcDbLine
 62
7
  6
CONTINUOUS
 10
14.8038005251
 20
20.2658965385
 11
14.6623791689
 21
20.1244751822
  0
LINE
  5
25B
100
AcDbEntity
  8
0
100
AcDbLine
 62
7
  6
CONTINUOUS
 10
14.9047242043
 20
20.362962758
 11
14.805729255
 21
20.2639678086
  0
LINE
  5
25C
100
AcDbEntity
  8
0
100
AcDbLine
 62
7
  6
CONTINUOUS
 10
14.6643078987
 20
20.1225464524
 11
14.4861169899
 21
19.9443555435
  0
LINE
  5
25D
100
AcDbEntity
  8
0
100
AcDbLine
 62
7
  6
CONTINUOUS
 10
14.66773297
 20
20.1191213811
 11
14.8091543262
 21
20.2605427374
  0
LINE
  5
25E
100
AcDbEntity
  8
0
100
AcDbLine
 62
7
  6
CONTINUOUS
 10
14.8153631456
 20
20.254333918
 11
14.6739417894
 21
20.1129125617
  0
LINE
  5
25F
100
AcDbEntity
  8
0
100
AcDbLine
 62
7
  6
CONTINUOUS
 10
14.6809886092
 20
20.1058657419
 11
14.8224099654
 21
20.2472870982
  0
LINE
  5
260
100
AcDbEntity
  8
0
100
AcDbLine
 62
7
  6
CONTINUOUS
 10
14.8302754708
 20
20.2394215928
 11
14.6888541145
 21
20.0980002366
  0
LINE
  5
261
100
AcDbEntity
  8
0
100
AcDbLine
 62
7
  6
CONTINUOUS
 10
15.9332627975
 20
21.335286362
 11
15.1559599292
 21
20.5579834937
  0
LINE
  5
262
100
AcDbEntity
  8
0
100
AcDbLine
 62
7
  6
CONTINUOUS
 10
15.1251281914
 20
20.5271517559
 11
15.1186928689
 21
20.5207164334
  0
LINE
  5
263
100
AcDbEntity
  8
0
100
AcDbLine
 62
7
  6
CONTINUOUS
 10
15.0866693064
 20
20.488692871
 11
15.0688960085
 21
20.470919573
  0
LINE
  5
264
100
AcDbEntity
  8
0
100
AcDbLine
 62
7
  6
CONTINUOUS
 10
15.0354295594
 20
20.4374531239
 11
15.0192485176
 21
20.4212720821
  0
LINE
  5
265
100
AcDbEntity
  8
0
100
AcDbLine
 62
7
  6
CONTINUOUS
 10
14.9840597636
 20
20.3860833281
 11
14.9694398577
 21
20.3714634222
  0
LINE
  5
266
100
AcDbEntity
  8
0
100
AcDbLine
 62
7
  6
CONTINUOUS
 10
14.6975167466
 20
20.0893376045
 11
14.8389381029
 21
20.2307589607
  0
LINE
  5
267
100
AcDbEntity
  8
0
100
AcDbLine
 62
7
  6
CONTINUOUS
 10
14.7052578234
 20
20.0815965277
 11
14.8466791796
 21
20.223017884
  0
LINE
  5
268
100
AcDbEntity
  8
0
100
AcDbLine
 62
7
  6
CONTINUOUS
 10
14.8483741181
 20
20.2213229455
 11
14.7069527618
 21
20.0799015893
  0
LINE
  5
269
100
AcDbEntity
  8
0
100
AcDbLine
 62
7
  6
CONTINUOUS
 10
15.1499936932
 20
20.5204890648
 11
15.1626226203
 21
20.5331179919
  0
LINE
  5
26A
100
AcDbEntity
  8
0
100
AcDbLine
 62
7
  6
CONTINUOUS
 10
15.1258104268
 20
20.4942644367
 11
15.1131559179
 21
20.4816099278
  0
LINE
  5
26B
100
AcDbEntity
  8
0
100
AcDbLine
 62
7
  6
CONTINUOUS
 10
15.0766033809
 20
20.4423777566
 11
15.063974533
 21
20.4297489086
  0
LINE
  5
26C
100
AcDbEntity
  8
0
100
AcDbLine
 62
7
  6
CONTINUOUS
 10
15.0275313959
 20
20.3904107445
 11
15.0149052742
 21
20.3777846229
  0
LINE
  5
26D
100
AcDbEntity
  8
0
100
AcDbLine
 62
7
  6
CONTINUOUS
 10
14.9782146756
 20
20.3387235859
 11
14.9655857485
 21
20.3260946588
  0
LINE
  5
26E
100
AcDbEntity
  8
0
100
AcDbLine
 62
7
  6
CONTINUOUS
 10
14.7171362966
 20
20.0697180545
 11
14.8585576528
 21
20.2111394107
  0
LINE
  5
26F
100
AcDbEntity
  8
0
100
AcDbLine
 62
7
  6
CONTINUOUS
 10
14.7243391113
 20
20.0625152398
 11
14.8657604675
 21
20.203936596
  0
LINE
  5
270
100
AcDbEntity
  8
0
100
AcDbLine
 62
7
  6
CONTINUOUS
 10
14.8694607949
 20
20.2002362687
 11
14.7280394387
 21
20.0588149124
  0
LINE
  5
271
100
AcDbEntity
  8
0
100
AcDbLine
 62
7
  6
CONTINUOUS
 10
14.7396323032
 20
20.0472220479
 11
14.8810536594
 21
20.1886434041
  0
LINE
  5
272
100
AcDbEntity
  8
0
100
AcDbLine
 62
7
  6
CONTINUOUS
 10
14.7462179403
 20
20.0406364108
 11
14.8876392965
 21
20.1820577671
  0
LINE
  5
273
100
AcDbEntity
  8
0
100
AcDbLine
 62
7
  6
CONTINUOUS
 10
14.8933044712
 20
20.1763925923
 11
14.751883115
 21
20.0349712361
  0
LINE
  5
274
100
AcDbEntity
  8
0
100
AcDbLine
 62
7
  6
CONTINUOUS
 10
12.6424216705
 20
17.1338282204
 11
13.3817957038
 21
17.9484560681
  0
LINE
  5
275
100
AcDbEntity
  8
0
100
AcDbLine
 62
7
  6
CONTINUOUS
 10
14.7647582955
 20
20.0220960556
 11
14.9061796517
 21
20.1635174119
  0
LINE
  5
276
100
AcDbEntity
  8
0
100
AcDbLine
 62
7
  6
CONTINUOUS
 10
14.7706546013
 20
20.0161997498
 11
14.9120759575
 21
20.157621106
  0
LINE
  5
277
100
AcDbEntity
  8
0
100
AcDbLine
 62
7
  6
CONTINUOUS
 10
14.9196439108
 20
20.1500531528
 11
14.7782225546
 21
20.0086317965
  0
LINE
  5
278
100
AcDbEntity
  8
0
100
AcDbLine
 62
7
  6
CONTINUOUS
 10
14.7922389877
 20
19.9946153634
 11
14.933660344
 21
20.1360367196
  0
LINE
  5
279
100
AcDbEntity
  8
0
100
AcDbLine
 62
7
  6
CONTINUOUS
 10
14.7973813612
 20
19.9894729899
 11
14.9388027174
 21
20.1308943461
  0
LINE
  5
27A
100
AcDbEntity
  8
0
100
AcDbLine
 62
7
  6
CONTINUOUS
 10
14.9481905332
 20
20.1215065304
 11
14.8067691769
 21
19.9800851742
  0
LINE
  5
27B
100
AcDbEntity
  8
0
100
AcDbLine
 62
7
  6
CONTINUOUS
 10
14.8217732959
 20
19.9650810553
 11
14.9631946521
 21
20.1065024115
  0
LINE
  5
27C
100
AcDbEntity
  8
0
100
AcDbLine
 62
7
  6
CONTINUOUS
 10
14.826105396
 20
19.9607489551
 11
14.9675267522
 21
20.1021703113
  0
LINE
  5
27D
100
AcDbEntity
  8
0
100
AcDbLine
 62
7
  6
CONTINUOUS
 10
14.9786315755
 20
20.091065488
 11
14.8372102193
 21
19.9496441318
  0
LINE
  5
27E
100
AcDbEntity
  8
0
100
AcDbLine
 62
7
  6
CONTINUOUS
 10
14.8530376357
 20
19.9338167154
 11
14.994458992
 21
20.0752380716
  0
LINE
  5
27F
100
AcDbEntity
  8
0
100
AcDbLine
 62
7
  6
CONTINUOUS
 10
14.9979333554
 20
20.0717637082
 11
14.8565119992
 21
19.9303423519
  0
LINE
  5
280
100
AcDbEntity
  8
0
100
AcDbLine
 62
7
  6
CONTINUOUS
 10
15.0106335195
 20
20.0590635441
 11
14.8692121633
 21
19.9176421878
  0
LINE
  5
281
100
AcDbEntity
  8
0
100
AcDbLine
 62
7
  6
CONTINUOUS
 10
14.8856894687
 20
19.9011648824
 11
15.0271108249
 21
20.0425862386
  0
LINE
  5
282
100
AcDbEntity
  8
0
100
AcDbLine
 62
7
  6
CONTINUOUS
 10
15.0296893858
 20
20.0400076778
 11
14.8882680296
 21
19.8985863215
  0
LINE
  5
283
100
AcDbEntity
  8
0
100
AcDbLine
 62
7
  6
CONTINUOUS
 10
15.0438457451
 20
20.0258513185
 11
14.9024243888
 21
19.8844299623
  0
LINE
  5
284
100
AcDbEntity
  8
0
100
AcDbLine
 62
7
  6
CONTINUOUS
 10
14.9193710545
 20
19.8674832966
 11
15.0607924107
 21
20.0089046529
  0
LINE
  5
285
100
AcDbEntity
  8
0
100
AcDbLine
 62
7
  6
CONTINUOUS
 10
15.0779043721
 20
19.9917926914
 11
14.9364830159
 21
19.8503713352
  0
LINE
  5
286
100
AcDbEntity
  8
0
100
AcDbLine
 62
7
  6
CONTINUOUS
 10
14.9537133705
 20
19.8331409806
 11
15.0951347267
 21
19.9745623368
  0
LINE
  5
287
100
AcDbEntity
  8
0
100
AcDbLine
 62
7
  6
CONTINUOUS
 10
13.4497386853
 20
18.3055222614
 11
13.426630795
 21
18.282414371
  0
LINE
  5
288
100
AcDbEntity
  8
0
100
AcDbLine
 62
7
  6
CONTINUOUS
 10
13.3929999621
 20
18.2417124703
 11
13.4240426045
 21
18.2727551128
  0
LINE
  5
289
100
AcDbEntity
  8
0
100
AcDbLine
 62
7
  6
CONTINUOUS
 10
13.4593979436
 20
18.3081104518
 11
13.4879497779
 21
18.3366622861
  0
LINE
  5
28A
100
AcDbEntity
  8
0
100
AcDbLine
 62
7
  6
CONTINUOUS
 10
15.1124362473
 20
19.9572608163
 11
14.971014891
 21
19.8158394601
  0
LINE
  5
28B
100
AcDbEntity
  8
0
100
AcDbLine
 62
7
  6
CONTINUOUS
 10
12.5501623219
 20
17.3776616366
 11
12.5023431411
 21
17.3298424506
  0
LINE
  5
28C
100
AcDbEntity
  8
0
100
AcDbLine
 62
7
  6
CONTINUOUS
 10
12.3777203923
 20
17.2052197019
 11
12.3735771859
 21
17.2010764904
  0
LINE
  5
28D
100
AcDbEntity
  8
0
100
AcDbLine
 62
9
  6
CONTINUOUS
 10
13.5354132553
 20
18.362912543
 11
13.5851121476
 21
18.4126114523
  0
LINE
  5
28E
100
AcDbEntity
  8
0
100
AcDbLine
 62
9
  6
CONTINUOUS
 10
12.5501629399
 20
17.3776622544
 11
13.3692407288
 21
18.1967401274
  0
LINE
  5
28F
100
AcDbEntity
  8
0
100
AcDbLine
 62
7
  6
CONTINUOUS
 10
14.9883401553
 20
19.7985141958
 11
15.1297615115
 21
19.9399355521
  0
LINE
  5
290
100
AcDbEntity
  8
0
100
AcDbLine
 62
7
  6
CONTINUOUS
 10
13.4142131846
 20
18.2204992859
 11
13.445255808
 21
18.2515419093
  0
LINE
  5
291
100
AcDbEntity
  8
0
100
AcDbLine
 62
7
  6
CONTINUOUS
 10
13.480611147
 20
18.2868972484
 11
13.5091629813
 21
18.3154490827
  0
LINE
  5
292
100
AcDbEntity
  8
0
100
AcDbLine
 62
7
  6
CONTINUOUS
 10
13.4549150662
 20
18.2541300998
 11
13.4780229566
 21
18.2772379901
  0
LINE
  5
293
100
AcDbEntity
  8
0
100
AcDbLine
 62
7
  6
CONTINUOUS
 10
15.147063032
 20
19.9226340315
 11
15.0056416758
 21
19.7812126753
  0
LINE
  5
294
100
AcDbEntity
  8
0
100
AcDbLine
 62
7
  6
CONTINUOUS
 10
15.0228720304
 20
19.7639823207
 11
15.1642933866
 21
19.9054036769
  0
LINE
  5
295
100
AcDbEntity
  8
0
100
AcDbLine
 62
7
  6
CONTINUOUS
 10
15.1814053481
 20
19.8882917155
 11
15.0399839918
 21
19.7468703593
  0
LINE
  5
296
100
AcDbEntity
  8
0
100
AcDbLine
 62
7
  6
CONTINUOUS
 10
15.0569306575
 20
19.7299236936
 11
15.1983520137
 21
19.8713450499
  0
LINE
  5
297
100
AcDbEntity
  8
0
100
AcDbLine
 62
7
  6
CONTINUOUS
 10
15.212508373
 20
19.8571886906
 11
15.0710870167
 21
19.7157673344
  0
LINE
  5
298
100
AcDbEntity
  8
0
100
AcDbLine
 62
7
  6
CONTINUOUS
 10
15.2150869338
 20
19.8546101297
 11
15.0736655776
 21
19.7131887735
  0
LINE
  5
299
100
AcDbEntity
  8
0
100
AcDbLine
 62
7
  6
CONTINUOUS
 10
15.090142883
 20
19.6967114681
 11
15.2315642393
 21
19.8381328243
  0
LINE
  5
29A
100
AcDbEntity
  8
0
100
AcDbLine
 62
7
  6
CONTINUOUS
 10
15.2442644034
 20
19.8254326602
 11
15.1028430471
 21
19.684011304
  0
LINE
  5
29B
100
AcDbEntity
  8
0
100
AcDbLine
 62
7
  6
CONTINUOUS
 10
15.2477387668
 20
19.8219582968
 11
15.1063174106
 21
19.6805369405
  0
LINE
  5
29C
100
AcDbEntity
  8
0
100
AcDbLine
 62
7
  6
CONTINUOUS
 10
15.122144827
 20
19.6647095241
 11
15.2635661832
 21
19.8061308803
  0
LINE
  5
29D
100
AcDbEntity
  8
0
100
AcDbLine
 62
7
  6
CONTINUOUS
 10
15.2746710065
 20
19.795026057
 11
15.1332496503
 21
19.6536047008
  0
LINE
  5
29E
100
AcDbEntity
  8
0
100
AcDbLine
 62
7
  6
CONTINUOUS
 10
15.2790031067
 20
19.7906939569
 11
15.1375817504
 21
19.6492726007
  0
LINE
  5
29F
100
AcDbEntity
  8
0
100
AcDbLine
 62
7
  6
CONTINUOUS
 10
15.1525858694
 20
19.6342684817
 11
15.2940072256
 21
19.775689838
  0
LINE
  5
2A0
100
AcDbEntity
  8
0
100
AcDbLine
 62
7
  6
CONTINUOUS
 10
15.3033950413
 20
19.7663020222
 11
15.1619736851
 21
19.624880666
  0
LINE
  5
2A1
100
AcDbEntity
  8
0
100
AcDbLine
 62
7
  6
CONTINUOUS
 10
15.3085374148
 20
19.7611596488
 11
15.1671160586
 21
19.6197382925
  0
LINE
  5
2A2
100
AcDbEntity
  8
0
100
AcDbLine
 62
7
  6
CONTINUOUS
 10
15.1811324917
 20
19.6057218594
 11
15.322553848
 21
19.7471432156
  0
LINE
  5
2A3
100
AcDbEntity
  8
0
100
AcDbLine
 62
7
  6
CONTINUOUS
 10
15.3301218012
 20
19.7395752623
 11
15.188700445
 21
19.5981539061
  0
LINE
  5
2A4
100
AcDbEntity
  8
0
100
AcDbLine
 62
7
  6
CONTINUOUS
 10
15.3360181071
 20
19.7336789565
 11
15.1945967508
 21
19.5922576003
  0
LINE
  5
2A5
100
AcDbEntity
  8
0
100
AcDbLine
 62
7
  6
CONTINUOUS
 10
15.2074719313
 20
19.5793824198
 11
15.3488932875
 21
19.720803776
  0
LINE
  5
2A6
100
AcDbEntity
  8
0
100
AcDbLine
 62
7
  6
CONTINUOUS
 10
15.3545584623
 20
19.7151386013
 11
15.213137106
 21
19.5737172451
  0
LINE
  5
2A7
100
AcDbEntity
  8
0
100
AcDbLine
 62
7
  6
CONTINUOUS
 10
15.3611440993
 20
19.7085529642
 11
15.2197227431
 21
19.567131608
  0
LINE
  5
2A8
100
AcDbEntity
  8
0
100
AcDbLine
 62
7
  6
CONTINUOUS
 10
15.2313156076
 20
19.5555387435
 11
15.3727369639
 21
19.6969600997
  0
LINE
  5
2A9
100
AcDbEntity
  8
0
100
AcDbLine
 62
7
  6
CONTINUOUS
 10
15.3764372912
 20
19.6932597723
 11
15.235015935
 21
19.5518384161
  0
LINE
  5
2AA
100
AcDbEntity
  8
0
100
AcDbLine
 62
7
  6
CONTINUOUS
 10
15.3836401059
 20
19.6860569576
 11
15.2422187497
 21
19.5446356014
  0
LINE
  5
2AB
100
AcDbEntity
  8
0
100
AcDbLine
 62
7
  6
CONTINUOUS
 10
15.5244740096
 20
19.8177034028
 11
15.5371029367
 21
19.8303323299
  0
LINE
  5
2AC
100
AcDbEntity
  8
0
100
AcDbLine
 62
7
  6
CONTINUOUS
 10
15.5763873207
 20
19.8668493239
 11
15.5890161709
 21
19.8794781741
  0
LINE
  5
2AD
100
AcDbEntity
  8
0
100
AcDbLine
 62
7
  6
CONTINUOUS
 10
15.6281544629
 20
19.916116632
 11
15.6407746802
 21
19.9287368492
  0
LINE
  5
2AE
100
AcDbEntity
  8
0
100
AcDbLine
 62
7
  6
CONTINUOUS
 10
15.6800150627
 20
19.9652199659
 11
15.7056186871
 21
19.9901219251
  0
LINE
  5
2AF
100
AcDbEntity
  8
0
100
AcDbLine
 62
7
  6
CONTINUOUS
 10
15.2524022845
 20
19.5344520666
 11
15.3938236407
 21
19.6758734229
  0
LINE
  5
2B0
100
AcDbEntity
  8
0
100
AcDbLine
 62
7
  6
CONTINUOUS
 10
15.3955185792
 20
19.6741784844
 11
15.2540972229
 21
19.5327571282
  0
LINE
  5
2B1
100
AcDbEntity
  8
0
100
AcDbLine
 62
7
  6
CONTINUOUS
 10
15.4032596559
 20
19.6664374077
 11
15.2618382997
 21
19.5250160514
  0
LINE
  5
2B2
100
AcDbEntity
  8
0
100
AcDbLine
 62
7
  6
CONTINUOUS
 10
16.5077870572
 20
20.7607621023
 11
15.7304841889
 21
19.983459234
  0
LINE
  5
2B3
100
AcDbEntity
  8
0
100
AcDbLine
 62
7
  6
CONTINUOUS
 10
15.6868408616
 20
19.9398159067
 11
15.6683248416
 21
19.9212998867
  0
LINE
  5
2B4
100
AcDbEntity
  8
0
100
AcDbLine
 62
7
  6
CONTINUOUS
 10
15.6355578887
 20
19.8885329338
 11
15.6185677249
 21
19.87154277
  0
LINE
  5
2B5
100
AcDbEntity
  8
0
100
AcDbLine
 62
7
  6
CONTINUOUS
 10
15.5842977245
 20
19.8372727696
 11
15.5688257446
 21
19.8218007897
  0
LINE
  5
2B6
100
AcDbEntity
  8
0
100
AcDbLine
 62
7
  6
CONTINUOUS
 10
15.5330224536
 20
19.7859974987
 11
15.519086885
 21
19.7720619301
  0
LINE
  5
2B7
100
AcDbEntity
  8
0
100
AcDbLine
 62
7
  6
CONTINUOUS
 10
15.2705009318
 20
19.5163534193
 11
15.411922288
 21
19.6577747756
  0
LINE
  5
2B8
100
AcDbEntity
  8
0
100
AcDbLine
 62
7
  6
CONTINUOUS
 10
15.4197877934
 20
19.6499092702
 11
15.2783664371
 21
19.508487914
  0
LINE
  5
2B9
100
AcDbEntity
  8
0
100
AcDbLine
 62
7
  6
CONTINUOUS
 10
15.2854132569
 20
19.5014410942
 11
15.4268346132
 21
19.6428624504
  0
LINE
  5
2BA
100
AcDbEntity
  8
0
100
AcDbLine
 62
7
  6
CONTINUOUS
 10
15.4330434326
 20
19.636653631
 11
15.2916220763
 21
19.4952322748
  0
LINE
  5
2BB
100
AcDbEntity
  8
0
100
AcDbLine
 62
7
  6
CONTINUOUS
 10
15.5354634532
 20
19.7322235091
 11
15.4364685038
 21
19.6332285598
  0
LINE
  5
2BC
100
AcDbEntity
  8
0
100
AcDbLine
 62
7
  6
CONTINUOUS
 10
15.2950471476
 20
19.4918072035
 11
15.1168562387
 21
19.3136162947
  0
LINE
  5
2BD
100
AcDbEntity
  8
0
100
AcDbLine
 62
7
  6
CONTINUOUS
 10
15.2969758774
 20
19.4898784737
 11
15.4383972336
 21
19.6312998299
  0
LINE
  5
2BE
100
AcDbEntity
  8
0
100
AcDbLine
 62
7
  6
CONTINUOUS
 10
15.442881342
 20
19.6268157216
 11
15.3014599858
 21
19.4853943653
  0
LINE
  5
2BF
100
AcDbEntity
  8
0
100
AcDbLine
 62
7
  6
CONTINUOUS
 10
15.3050621107
 20
19.4817922404
 11
15.446483467
 21
19.6232135966
  0
LINE
  5
2C0
100
AcDbEntity
  8
0
100
AcDbLine
 62
7
  6
CONTINUOUS
 10
15.4491937354
 20
19.6205033282
 11
15.3077723792
 21
19.4790819719
  0
LINE
  5
2C1
100
AcDbEntity
  8
0
100
AcDbLine
 62
7
  6
CONTINUOUS
 10
15.4519114529
 20
19.6177856107
 11
15.3104900967
 21
19.4763642544
  0
LINE
  5
2C2
100
AcDbEntity
  8
0
100
AcDbLine
 62
7
  6
CONTINUOUS
 10
13.1209328847
 20
18.2092733361
 11
12.3063258151
 21
17.4699241803
  0
LINE
  5
2C3
100
AcDbEntity
  8
0
100
AcDbLine
 62
7
  6
CONTINUOUS
 10
14.9439686307
 20
18.9095047692
 11
14.8732579526
 21
18.8387940911
  0
LINE
  5
2C4
100
AcDbEntity
  8
0
100
AcDbLine
 62
7
  6
CONTINUOUS
 10
15.081854453
 20
18.9950646898
 11
14.9701315816
 21
18.8833418183
  0
LINE
  5
2C5
100
AcDbEntity
  8
0
100
AcDbLine
 62
6
  6
CONTINUOUS
 10
18.1439617944
 20
6.935587365
 11
18.0539617944
 21
6.935587365
  0
LINE
  5
2C6
100
AcDbEntity
  8
0
100
AcDbLine
 62
6
  6
CONTINUOUS
 10
21.8089617944
 20
7.149587365
 11
19.8079617944
 21
7.149587365
  0
LINE
  5
2C7
100
AcDbEntity
  8
0
100
AcDbLine
 62
7
  6
CONTINUOUS
 10
18.9589617944
 20
7.208587365
 11
18.3799617944
 21
7.208587365
  0
LINE
  5
2C8
100
AcDbEntity
  8
0
100
AcDbLine
 62
9
  6
CONTINUOUS
 10
19.8079617944
 20
7.385587365
 11
21.8089617944
 21
7.385587365
  0
LINE
  5
2C9
100
AcDbEntity
  8
0
100
AcDbLine
 62
6
  6
CONTINUOUS
 10
18.0539617944
 20
6.935587365
 11
18.0469668249
 21
6.9363868617
  0
LINE
  5
2CA
100
AcDbEntity
  8
0
100
AcDbLine
 62
6
  6
CONTINUOUS
 10
18.0469668249
 20
6.9363868617
 11
17.9109668249
 21
6.9678868617
  0
LINE
  5
2CB
100
AcDbEntity
  8
0
100
AcDbLine
 62
6
  6
CONTINUOUS
 10
18.0469668249
 20
7.8347878684
 11
17.9109668249
 21
7.8032878684
  0
LINE
  5
2CC
100
AcDbEntity
  8
0
100
AcDbLine
 62
6
  6
CONTINUOUS
 10
18.0539617944
 20
7.835587365
 11
18.0469668249
 21
7.8347878684
  0
LINE
  5
2CD
100
AcDbEntity
  8
0
100
AcDbLine
 62
7
  6
CONTINUOUS
 10
18.9589617944
 20
7.562587365
 11
18.3770217943
 21
7.562587365
  0
LINE
  5
2CE
100
AcDbEntity
  8
0
100
AcDbLine
 62
6
  6
CONTINUOUS
 10
21.8089617944
 20
7.621587365
 11
19.8079617944
 21
7.621587365
  0
LINE
  5
2CF
100
AcDbEntity
  8
0
100
AcDbLine
 62
6
  6
CONTINUOUS
 10
18.1439617944
 20
7.835587365
 11
18.0539617944
 21
7.835587365
  0
LINE
  5
2D0
100
AcDbEntity
  8
0
100
AcDbLine
 62
7
  6
CONTINUOUS
 10
14.4861169899
 20
19.9443555435
 11
14.4799849547
 21
19.8500244381
  0
LINE
  5
2D1
100
AcDbEntity
  8
0
100
AcDbLine
 62
7
  6
CONTINUOUS
 10
19.0399617944
 20
8.390587365
 11
19.0539617944
 21
8.390587365
  0
LINE
  5
2D2
100
AcDbEntity
  8
0
100
AcDbLine
 62
7
  6
CONTINUOUS
 10
17.110417232
 20
9.9704525977
 11
17.2510667843
 21
9.9952529086
  0
LINE
  5
2D3
100
AcDbEntity
  8
0
100
AcDbLine
 62
7
  6
CONTINUOUS
 10
16.7120017961
 20
9.376838741
 11
17.0459617944
 21
9.3768383211
  0
LINE
  5
2D4
100
AcDbEntity
  8
0
100
AcDbLine
 62
7
  6
CONTINUOUS
 10
17.0459617944
 20
9.3826064438
 11
16.7120011645
 21
9.3826064438
  0
LINE
  5
2D5
100
AcDbEntity
  8
0
100
AcDbLine
 62
7
  6
CONTINUOUS
 10
16.7120017961
 20
9.3990445248
 11
17.0459617944
 21
9.3990442296
  0
LINE
  5
2D6
100
AcDbEntity
  8
0
100
AcDbLine
 62
7
  6
CONTINUOUS
 10
16.7014082542
 20
9.4061119728
 11
16.690500532
 21
9.4061119706
  0
LINE
  5
2D7
100
AcDbEntity
  8
0
100
AcDbLine
 62
7
  6
CONTINUOUS
 10
17.0459617944
 20
9.4154706314
 11
16.7120011645
 21
9.4154706314
  0
LINE
  5
2D8
100
AcDbEntity
  8
0
100
AcDbLine
 62
7
  6
CONTINUOUS
 10
17.0459617944
 20
9.438371216
 11
16.690500532
 21
9.4383711438
  0
LINE
  5
2D9
100
AcDbEntity
  8
0
100
AcDbLine
 62
7
  6
CONTINUOUS
 10
16.7120017961
 20
9.4458437416
 11
17.0459617944
 21
9.4458436161
  0
LINE
  5
2DA
100
AcDbEntity
  8
0
100
AcDbLine
 62
7
  6
CONTINUOUS
 10
17.0459617944
 20
9.4704275261
 11
16.7120011645
 21
9.4704275261
  0
LINE
  5
2DB
100
AcDbEntity
  8
0
100
AcDbLine
 62
7
  6
CONTINUOUS
 10
16.690500532
 20
9.4892366288
 11
17.0459617944
 21
9.4892366881
  0
LINE
  5
2DC
100
AcDbEntity
  8
0
100
AcDbLine
 62
7
  6
CONTINUOUS
 10
16.6905011645
 20
9.5070170756
 11
17.0459617944
 21
9.5070170756
  0
LINE
  5
2DD
100
AcDbEntity
  8
0
100
AcDbLine
 62
7
  6
CONTINUOUS
 10
17.0459617944
 20
9.5101116983
 11
16.7120017961
 21
9.510111635
  0
LINE
  5
2DE
100
AcDbEntity
  8
0
100
AcDbLine
 62
7
  6
CONTINUOUS
 10
16.7120011645
 20
9.5391104391
 11
17.0459617944
 21
9.5391104391
  0
LINE
  5
2DF
100
AcDbEntity
  8
0
100
AcDbLine
 62
7
  6
CONTINUOUS
 10
16.690500532
 20
9.5509646166
 11
17.0459617954
 21
9.550964654
  0
LINE
  5
2E0
100
AcDbEntity
  8
0
100
AcDbLine
 62
7
  6
CONTINUOUS
 10
17.0459617944
 20
9.5702098304
 11
16.6905011645
 21
9.5702098304
  0
LINE
  5
2E1
100
AcDbEntity
  8
0
100
AcDbLine
 62
7
  6
CONTINUOUS
 10
16.7120017961
 20
9.5820640007
 11
17.0459617788
 21
9.5820642431
  0
LINE
  5
2E2
100
AcDbEntity
  8
0
100
AcDbLine
 62
7
  6
CONTINUOUS
 10
17.0459617944
 20
9.6110630193
 11
16.7120011645
 21
9.6110630193
  0
LINE
  5
2E3
100
AcDbEntity
  8
0
100
AcDbLine
 62
7
  6
CONTINUOUS
 10
17.0459617944
 20
9.6141575904
 11
16.690500532
 21
9.6141575806
  0
LINE
  5
2E4
100
AcDbEntity
  8
0
100
AcDbLine
 62
7
  6
CONTINUOUS
 10
17.0459617944
 20
9.6319376521
 11
16.6905011645
 21
9.6319376521
  0
LINE
  5
2E5
100
AcDbEntity
  8
0
100
AcDbLine
 62
7
  6
CONTINUOUS
 10
16.7120017961
 20
9.6507467433
 11
17.0459617944
 21
9.6507471279
  0
LINE
  5
2E6
100
AcDbEntity
  8
0
100
AcDbLine
 62
7
  6
CONTINUOUS
 10
17.0459617944
 20
9.6753311388
 11
16.7120011645
 21
9.6753311388
  0
LINE
  5
2E7
100
AcDbEntity
  8
0
100
AcDbLine
 62
7
  6
CONTINUOUS
 10
17.0459617944
 20
9.6828030395
 11
16.6905011645
 21
9.6828030395
  0
LINE
  5
2E8
100
AcDbEntity
  8
0
100
AcDbLine
 62
7
  6
CONTINUOUS
 10
16.7120017961
 20
9.7057035379
 11
17.0459617944
 21
9.7057040061
  0
LINE
  5
2E9
100
AcDbEntity
  8
0
100
AcDbLine
 62
7
  6
CONTINUOUS
 10
16.701408861
 20
9.7150621982
 11
16.6905011645
 21
9.7150621982
  0
LINE
  5
2EA
100
AcDbEntity
  8
0
100
AcDbLine
 62
7
  6
CONTINUOUS
 10
17.0459617944
 20
9.7221305588
 11
16.7120011645
 21
9.7221305588
  0
LINE
  5
2EB
100
AcDbEntity
  8
0
100
AcDbLine
 62
7
  6
CONTINUOUS
 10
16.7120017961
 20
9.7385677106
 11
17.0459617944
 21
9.7385681912
  0
LINE
  5
2EC
100
AcDbEntity
  8
0
100
AcDbLine
 62
7
  6
CONTINUOUS
 10
17.0459617944
 20
9.744336492
 11
16.7120011645
 21
9.744336492
  0
LINE
  5
2ED
100
AcDbEntity
  8
0
100
AcDbLine
 62
7
  6
CONTINUOUS
 10
17.110417232
 20
9.1507221323
 11
17.2510667843
 21
9.1259218215
  0
LINE
  5
2EE
100
AcDbEntity
  8
0
100
AcDbLine
 62
7
  6
CONTINUOUS
 10
19.0399617944
 20
10.730587365
 11
19.0539617944
 21
10.730587365
  0
LINE
  5
2EF
100
AcDbEntity
  8
0
100
AcDbLine
 62
7
  6
CONTINUOUS
 10
16.6820011645
 20
9.405587365
 11
16.6905011645
 21
9.397087365
  0
LINE
  5
2F0
100
AcDbEntity
  8
0
100
AcDbLine
 62
6
  6
CONTINUOUS
 10
18.3799617944
 20
7.610587365
 11
18.1659757535
 21
7.8264136246
  0
LINE
  5
2F1
100
AcDbEntity
  8
0
100
AcDbLine
 62
7
  6
CONTINUOUS
 10
16.6820011645
 20
9.715587365
 11
16.6820011645
 21
9.4061119706
  0
LINE
  5
2F2
100
AcDbEntity
  8
0
100
AcDbLine
 62
7
  6
CONTINUOUS
 10
16.6905011645
 20
9.5702098304
 11
16.6905011645
 21
9.5509648997
  0
LINE
  5
2F3
100
AcDbEntity
  8
0
100
AcDbLine
 62
7
  6
CONTINUOUS
 10
16.6905011645
 20
9.397087365
 11
16.6905011645
 21
9.3972133413
  0
LINE
  5
2F4
100
AcDbEntity
  8
0
100
AcDbLine
 62
7
  6
CONTINUOUS
 10
16.6905011645
 20
9.4061125319
 11
16.6905011645
 21
9.413477248
  0
LINE
  5
2F5
100
AcDbEntity
  8
0
100
AcDbLine
 62
7
  6
CONTINUOUS
 10
16.6905011645
 20
9.4383716906
 11
16.6905011645
 21
9.4519799117
  0
LINE
  5
2F6
100
AcDbEntity
  8
0
100
AcDbLine
 62
7
  6
CONTINUOUS
 10
16.6905011645
 20
9.489237078
 11
16.6905011645
 21
9.5070170756
  0
LINE
  5
2F7
100
AcDbEntity
  8
0
100
AcDbLine
 62
7
  6
CONTINUOUS
 10
16.6905011645
 20
9.6141576545
 11
16.6905011645
 21
9.6319376521
  0
LINE
  5
2F8
100
AcDbEntity
  8
0
100
AcDbLine
 62
7
  6
CONTINUOUS
 10
16.6905011645
 20
9.6691948184
 11
16.6905011645
 21
9.6828030395
  0
LINE
  5
2F9
100
AcDbEntity
  8
0
100
AcDbLine
 62
7
  6
CONTINUOUS
 10
16.6905011645
 20
9.7076974821
 11
16.6905011645
 21
9.7150621982
  0
LINE
  5
2FA
100
AcDbEntity
  8
0
100
AcDbLine
 62
7
  6
CONTINUOUS
 10
16.6905011645
 20
9.723803964
 11
16.6905011645
 21
9.7240558679
  0
LINE
  5
2FB
100
AcDbEntity
  8
0
100
AcDbLine
 62
7
  6
CONTINUOUS
 10
16.7120011645
 20
9.744336492
 11
16.7120011645
 21
9.7385682863
  0
LINE
  5
2FC
100
AcDbEntity
  8
0
100
AcDbLine
 62
7
  6
CONTINUOUS
 10
16.7120011645
 20
9.7221305588
 11
16.7120011645
 21
9.7057040987
  0
LINE
  5
2FD
100
AcDbEntity
  8
0
100
AcDbLine
 62
7
  6
CONTINUOUS
 10
16.7120011645
 20
9.6753311388
 11
16.7120011645
 21
9.6507472039
  0
LINE
  5
2FE
100
AcDbEntity
  8
0
100
AcDbLine
 62
7
  6
CONTINUOUS
 10
16.7120011645
 20
9.6110630193
 11
16.7120011645
 21
9.582064291
  0
LINE
  5
2FF
100
AcDbEntity
  8
0
100
AcDbLine
 62
7
  6
CONTINUOUS
 10
16.7120011645
 20
9.5391104391
 11
16.7120011645
 21
9.5101117108
  0
LINE
  5
300
100
AcDbEntity
  8
0
100
AcDbLine
 62
7
  6
CONTINUOUS
 10
16.7120011645
 20
9.4704275261
 11
16.7120011645
 21
9.4458435913
  0
LINE
  5
301
100
AcDbEntity
  8
0
100
AcDbLine
 62
7
  6
CONTINUOUS
 10
16.7120011645
 20
9.4154706314
 11
16.7120011645
 21
9.3990441713
  0
LINE
  5
302
100
AcDbEntity
  8
0
100
AcDbLine
 62
7
  6
CONTINUOUS
 10
16.7120011645
 20
9.3782443116
 11
16.7120011645
 21
9.3768382381
  0
LINE
  5
303
100
AcDbEntity
  8
0
100
AcDbLine
 62
9
  6
CONTINUOUS
 10
17.8079617974
 20
0.6388957055
 11
17.799695062
 21
0.9102259757
  0
LINE
  5
304
100
AcDbEntity
  8
0
100
AcDbLine
 62
7
  6
CONTINUOUS
 10
17.0459617944
 20
9.8936336017
 11
17.0459617944
 21
9.2275411284
  0
LINE
  5
305
100
AcDbEntity
  8
0
100
AcDbLine
 62
9
  6
CONTINUOUS
 10
17.110417232
 20
9.9704525977
 11
17.110417232
 21
9.1507221329
  0
LINE
  5
306
100
AcDbEntity
  8
0
100
AcDbLine
 62
9
  6
CONTINUOUS
 10
17.2510667843
 20
9.9952529086
 11
17.2510667843
 21
9.1259218215
  0
LINE
  5
307
100
AcDbEntity
  8
0
100
AcDbLine
 62
9
  6
CONTINUOUS
 10
17.4414673145
 20
10.0850824656
 11
17.4414673145
 21
9.0360922645
  0
LINE
  5
308
100
AcDbEntity
  8
0
100
AcDbLine
 62
9
  6
CONTINUOUS
 10
17.4579617944
 20
21.966837365
 11
17.4579617944
 21
21.154337365
  0
LINE
  5
309
100
AcDbEntity
  8
0
100
AcDbLine
 62
7
  6
CONTINUOUS
 10
19.3912924984
 20
22.0111539152
 11
19.5276162702
 21
22.7139825778
  0
LINE
  5
30A
100
AcDbEntity
  8
0
100
AcDbLine
 62
7
  6
CONTINUOUS
 10
15.1626226203
 20
20.5331179919
 11
15.1559599292
 21
20.5579834937
  0
LINE
  5
30B
100
AcDbEntity
  8
0
100
AcDbLine
 62
7
  6
CONTINUOUS
 10
14.9693886931
 20
20.3707605015
 11
14.9781587078
 21
20.3379609754
  0
LINE
  5
30C
100
AcDbEntity
  8
0
100
AcDbLine
 62
7
  6
CONTINUOUS
 10
15.0192122911
 20
20.4205428383
 11
15.0274743656
 21
20.3896368048
  0
LINE
  5
30D
100
AcDbEntity
  8
0
100
AcDbLine
 62
7
  6
CONTINUOUS
 10
15.0688934549
 20
20.4702305576
 11
15.0765463594
 21
20.4415939631
  0
LINE
  5
30E
100
AcDbEntity
  8
0
100
AcDbLine
 62
7
  6
CONTINUOUS
 10
15.1186540084
 20
20.5200128761
 11
15.1257566032
 21
20.4934410848
  0
LINE
  5
30F
100
AcDbEntity
  8
0
100
AcDbLine
 62
9
  6
CONTINUOUS
 10
17.8869617944
 20
7.7730355857
 11
17.8869617944
 21
6.9981391444
  0
LINE
  5
310
100
AcDbEntity
  8
0
100
AcDbLine
 62
9
  6
CONTINUOUS
 10
17.9109668249
 20
7.8032878684
 11
17.9109668249
 21
6.9678868617
  0
LINE
  5
311
100
AcDbEntity
  8
0
100
AcDbLine
 62
9
  6
CONTINUOUS
 10
17.9799617944
 20
10.3483349285
 11
17.9799617944
 21
8.7728398016
  0
LINE
  5
312
100
AcDbEntity
  8
0
100
AcDbLine
 62
9
  6
CONTINUOUS
 10
18.0469668249
 20
7.8347878684
 11
18.0469668249
 21
6.9363868617
  0
LINE
  5
313
100
AcDbEntity
  8
0
100
AcDbLine
 62
9
  6
CONTINUOUS
 10
18.0539617944
 20
7.835587365
 11
18.0539617944
 21
6.9363868617
  0
LINE
  5
314
100
AcDbEntity
  8
0
100
AcDbLine
 62
9
  6
CONTINUOUS
 10
18.1439617944
 20
7.835587365
 11
18.1439617944
 21
6.935587365
  0
LINE
  5
315
100
AcDbEntity
  8
0
100
AcDbLine
 62
9
  6
CONTINUOUS
 10
18.1659757535
 20
7.8264136246
 11
18.1659757535
 21
6.9447611055
  0
LINE
  5
316
100
AcDbEntity
  8
0
100
AcDbLine
 62
7
  6
CONTINUOUS
 10
16.6905011645
 20
9.724087365
 11
16.6820011645
 21
9.715587365
  0
LINE
  5
317
100
AcDbEntity
  8
0
100
AcDbLine
 62
7
  6
CONTINUOUS
 10
11.4052942119
 20
18.2055385009
 11
12.2908840174
 21
17.3199486954
  0
LINE
  5
318
100
AcDbEntity
  8
0
100
AcDbLine
 62
7
  6
CONTINUOUS
 10
12.4920977248
 20
17.118734988
 11
13.3780391961
 21
16.2327935167
  0
LINE
  5
319
100
AcDbEntity
  8
0
100
AcDbLine
 62
7
  6
CONTINUOUS
 10
15.5843546055
 20
19.8380141448
 11
15.5764425124
 21
19.8676081624
  0
LINE
  5
31A
100
AcDbEntity
  8
0
100
AcDbLine
 62
7
  6
CONTINUOUS
 10
15.5330363661
 20
19.7866617676
 11
15.5245305839
 21
19.818489866
  0
LINE
  5
31B
100
AcDbEntity
  8
0
100
AcDbLine
 62
7
  6
CONTINUOUS
 10
15.6355828092
 20
19.8893040795
 11
15.6282109124
 21
19.9168871466
  0
LINE
  5
31C
100
AcDbEntity
  8
0
100
AcDbLine
 62
7
  6
CONTINUOUS
 10
15.6868826297
 20
19.9404992361
 11
15.6800697145
 21
19.9659841983
  0
LINE
  5
31D
100
AcDbEntity
  8
0
100
AcDbLine
 62
6
  6
CONTINUOUS
 10
18.3799617944
 20
7.1606961314
 11
18.3799617944
 21
7.6104785987
  0
LINE
  5
31E
100
AcDbEntity
  8
0
100
AcDbLine
 62
9
  6
CONTINUOUS
 10
18.3849617944
 20
10.3760579275
 11
18.3849617944
 21
8.7451168026
  0
LINE
  5
31F
100
AcDbEntity
  8
0
100
AcDbLine
 62
9
  6
CONTINUOUS
 10
18.6739617944
 20
10.5024111353
 11
18.6739617944
 21
8.6187635948
  0
LINE
  5
320
100
AcDbEntity
  8
0
100
AcDbLine
 62
9
  6
CONTINUOUS
 10
18.6889617944
 20
10.5125355187
 11
18.6889617944
 21
8.6086392114
  0
LINE
  5
321
100
AcDbEntity
  8
0
100
AcDbLine
 62
9
  6
CONTINUOUS
 10
18.7239617944
 20
10.5399309221
 11
18.7239617944
 21
8.581243808
  0
LINE
  5
322
100
AcDbEntity
  8
0
100
AcDbLine
 62
9
  6
CONTINUOUS
 10
18.7799617944
 20
10.5770578714
 11
18.7799617944
 21
8.5441168587
  0
LINE
  5
323
100
AcDbEntity
  8
0
100
AcDbLine
 62
7
  6
CONTINUOUS
 10
18.8079595956
 20
0.7935412746
 11
18.8079617944
 21
0.460587365
  0
LINE
  5
324
100
AcDbEntity
  8
0
100
AcDbLine
 62
7
  6
CONTINUOUS
 10
18.8079623152
 20
0.9330574801
 11
18.8079688992
 21
2.1882259523
  0
LINE
  5
325
100
AcDbEntity
  8
0
100
AcDbLine
 62
9
  6
CONTINUOUS
 10
18.8209617944
 20
10.6013332927
 11
18.8209617944
 21
8.5198414374
  0
LINE
  5
326
100
AcDbEntity
  8
0
100
AcDbLine
 62
9
  6
CONTINUOUS
 10
18.8789617944
 20
10.6325097347
 11
18.8789617944
 21
8.4886649954
  0
LINE
  5
327
100
AcDbEntity
  8
0
100
AcDbLine
 62
9
  6
CONTINUOUS
 10
18.9299617944
 20
10.6649590755
 11
18.9299617944
 21
8.4562156546
  0
LINE
  5
328
100
AcDbEntity
  8
0
100
AcDbLine
 62
7
  6
CONTINUOUS
 10
18.9589617944
 20
7.6655840222
 11
18.9589617944
 21
7.1055907079
  0
LINE
  5
329
100
AcDbEntity
  8
0
100
AcDbLine
 62
9
  6
CONTINUOUS
 10
19.0399617944
 20
10.730587365
 11
19.0399617944
 21
8.390587365
  0
LINE
  5
32A
100
AcDbEntity
  8
0
100
AcDbLine
 62
7
  6
CONTINUOUS
 10
19.0539617944
 20
12.3140925946
 11
19.0539617944
 21
6.8070821355
  0
LINE
  5
32B
100
AcDbEntity
  8
0
100
AcDbLine
 62
9
  6
CONTINUOUS
 10
19.1819617944
 20
12.5323764579
 11
19.1819617944
 21
6.5887982722
  0
LINE
  5
32C
100
AcDbEntity
  8
0
100
AcDbLine
 62
9
  6
CONTINUOUS
 10
18.8079665296
 20
2.6605332462
 11
18.8079638681
 21
2.3275566804
  0
LINE
  5
32D
100
AcDbEntity
  8
0
100
AcDbLine
 62
7
  6
CONTINUOUS
 10
13.4497386853
 20
18.2541300998
 11
13.426630795
 21
18.2772379901
  0
LINE
  5
32E
100
AcDbEntity
  8
0
100
AcDbLine
 62
7
  6
CONTINUOUS
 10
13.4879497779
 20
18.222990075
 11
13.4593979436
 21
18.2515419093
  0
LINE
  5
32F
100
AcDbEntity
  8
0
100
AcDbLine
 62
7
  6
CONTINUOUS
 10
13.4240426045
 20
18.2868972484
 11
13.3929999811
 21
18.3179398718
  0
LINE
  5
330
100
AcDbEntity
  8
0
100
AcDbLine
 62
7
  6
CONTINUOUS
 10
13.480611147
 20
18.2727551128
 11
13.5091629813
 21
18.2442032785
  0
LINE
  5
331
100
AcDbEntity
  8
0
100
AcDbLine
 62
7
  6
CONTINUOUS
 10
13.445255808
 20
18.3081104518
 11
13.4142131655
 21
18.3391530943
  0
LINE
  5
332
100
AcDbEntity
  8
0
100
AcDbLine
 62
7
  6
CONTINUOUS
 10
13.4780229566
 20
18.282414371
 11
13.4549150662
 21
18.3055222614
  0
LINE
  5
333
100
AcDbEntity
  8
0
100
AcDbLine
 62
7
  6
CONTINUOUS
 10
19.3099519592
 20
12.752116924
 11
19.3099519592
 21
6.3690578061
  0
LINE
  5
334
100
AcDbEntity
  8
0
100
AcDbLine
 62
7
  6
CONTINUOUS
 10
19.3911046921
 20
22.0032503288
 11
19.3911046921
 21
21.153786322
  0
LINE
  5
335
100
AcDbEntity
  8
0
100
AcDbLine
 62
9
  6
CONTINUOUS
 10
19.3912924984
 20
22.0111539152
 11
19.3911046921
 21
22.0032503288
  0
LINE
  5
336
100
AcDbEntity
  8
0
100
AcDbLine
 62
9
  6
CONTINUOUS
 10
19.3912924984
 20
21.1100208149
 11
19.3911046921
 21
21.153786322
  0
LINE
  5
337
100
AcDbEntity
  8
0
100
AcDbLine
 62
9
  6
CONTINUOUS
 10
19.4339595992
 20
12.9696601709
 11
19.4339595992
 21
6.1515145592
  0
LINE
  5
338
100
AcDbEntity
  8
0
100
AcDbLine
 62
9
  6
CONTINUOUS
 10
19.5276162702
 20
20.4071921523
 11
19.5276162702
 21
22.7139825778
  0
LINE
  5
339
100
AcDbEntity
  8
0
100
AcDbLine
 62
7
  6
CONTINUOUS
 10
19.5579617944
 20
13.185587365
 11
19.5579617944
 21
5.935587365
  0
LINE
  5
33A
100
AcDbEntity
  8
0
100
AcDbLine
 62
9
  6
CONTINUOUS
 10
19.5757885471
 20
22.750587365
 11
19.5757885471
 21
20.370587365
  0
LINE
  5
33B
100
AcDbEntity
  8
0
100
AcDbLine
 62
7
  6
CONTINUOUS
 10
19.8079617944
 20
0.373087365
 11
19.8079617944
 21
2.748087365
  0
LINE
  5
33C
100
AcDbEntity
  8
0
100
AcDbLine
 62
7
  6
CONTINUOUS
 10
19.8079617944
 20
5.6856500689
 11
19.8079617944
 21
13.4355246612
  0
LINE
  5
33D
100
AcDbEntity
  8
0
100
AcDbLine
 62
7
  6
CONTINUOUS
 10
19.8079617944
 20
20.3705909793
 11
19.8079617944
 21
22.7505837507
  0
LINE
  5
33E
100
AcDbEntity
  8
0
100
AcDbLine
 62
7
  6
CONTINUOUS
 10
19.8424108249
 20
21.966837365
 11
19.8424108249
 21
21.154337365
  0
LINE
  5
33F
100
AcDbEntity
  8
0
100
AcDbLine
 62
7
  6
CONTINUOUS
 10
19.8860134867
 20
21.5601406789
 11
19.8860134867
 21
21.966837365
  0
LINE
  5
340
100
AcDbEntity
  8
0
100
AcDbLine
 62
7
  6
CONTINUOUS
 10
20.4179617944
 20
21.1909137314
 11
20.4179617944
 21
21.154337365
  0
LINE
  5
341
100
AcDbEntity
  8
0
100
AcDbLine
 62
7
  6
CONTINUOUS
 10
20.4579617944
 20
21.218337365
 11
20.4579617944
 21
21.902837365
  0
LINE
  5
342
100
AcDbEntity
  8
0
100
AcDbLine
 62
7
  6
CONTINUOUS
 10
14.9407837944
 20
18.7712682493
 11
13.9437689445
 21
19.7682830992
  0
LINE
  5
343
100
AcDbEntity
  8
0
100
AcDbLine
 62
7
  6
CONTINUOUS
 10
14.0558425135
 20
19.7976308864
 11
14.9701315816
 21
18.8833418183
  0
LINE
  5
344
100
AcDbEntity
  8
0
100
AcDbLine
 62
7
  6
CONTINUOUS
 10
14.9984158529
 20
18.9116260896
 11
14.0841267848
 21
19.8259151577
  0
LINE
  5
345
100
AcDbEntity
  8
0
100
AcDbLine
 62
7
  6
CONTINUOUS
 10
15.0677123174
 20
18.9809225541
 11
14.1534232493
 21
19.8952116222
  0
LINE
  5
346
100
AcDbEntity
  8
0
100
AcDbLine
 62
7
  6
CONTINUOUS
 10
15.081854453
 20
18.9950646898
 11
14.167565385
 21
19.9093537578
  0
LINE
  5
347
100
AcDbEntity
  8
0
100
AcDbLine
 62
6
  6
CONTINUOUS
 10
18.3799617944
 20
7.160587365
 11
18.1659757535
 21
6.9447611055
  0
LINE
  5
348
100
AcDbEntity
  8
0
100
AcDbLine
 62
9
  6
CONTINUOUS
 10
14.421670874
 20
19.7917103575
 11
14.9642110527
 21
19.2491701788
  0
LINE
  5
349
100
AcDbEntity
  8
0
100
AcDbLine
 62
9
  6
CONTINUOUS
 10
14.4799849547
 20
19.8500244381
 11
15.0225251333
 21
19.3074842595
  0
LINE
  5
34A
100
AcDbEntity
  8
0
100
AcDbLine
 62
7
  6
CONTINUOUS
 10
14.4861169899
 20
19.9443555435
 11
15.1168562387
 21
19.3136162947
  0
LINE
  5
34B
100
AcDbEntity
  8
0
100
AcDbLine
 62
7
  6
CONTINUOUS
 10
15.3104900967
 20
19.4763642544
 11
15.3105908961
 21
19.476263455
  0
LINE
  5
34C
100
AcDbEntity
  8
0
100
AcDbLine
 62
7
  6
CONTINUOUS
 10
15.3084762568
 20
19.4783780943
 11
15.3039600601
 21
19.482894291
  0
LINE
  5
34D
100
AcDbEntity
  8
0
100
AcDbLine
 62
7
  6
CONTINUOUS
 10
15.3014599858
 20
19.4853943653
 11
14.6515826671
 21
20.135271684
  0
LINE
  5
34E
100
AcDbEntity
  8
0
100
AcDbLine
 62
7
  6
CONTINUOUS
 10
15.4491937354
 20
19.6205033282
 11
14.7993164168
 21
20.2703806468
  0
LINE
  5
34F
100
AcDbEntity
  8
0
100
AcDbLine
 62
7
  6
CONTINUOUS
 10
14.7968163425
 20
20.2728807211
 11
14.7923001457
 21
20.2773969179
  0
LINE
  5
350
100
AcDbEntity
  8
0
100
AcDbLine
 62
7
  6
CONTINUOUS
 10
14.7902863059
 20
20.2794107577
 11
14.7901855064
 21
20.2795115571
  0
LINE
  5
351
100
AcDbEntity
  8
0
100
AcDbLine
 62
7
  6
CONTINUOUS
 10
15.5354213122
 20
19.7322656501
 11
14.9047663453
 21
20.362920617
  0
LINE
  5
352
100
AcDbEntity
  8
0
100
AcDbLine
 62
7
  6
CONTINUOUS
 10
19.3912924984
 20
21.1100208149
 11
19.5276162702
 21
20.4071921523
  0
LINE
  5
353
100
AcDbEntity
  8
0
100
AcDbLine
 62
7
  6
CONTINUOUS
 10
21.8089617944
 20
7.621587365
 11
21.8089617944
 21
7.149587365
  0
LINE
  5
354
100
AcDbEntity
  8
0
100
AcDbLine
 62
7
  6
CONTINUOUS
 10
15.2154952899
 20
20.4367846575
 11
15.1254605303
 21
20.526819417
  0
LINE
  5
355
100
AcDbEntity
  8
0
100
AcDbLine
 62
7
  6
CONTINUOUS
 10
15.1254605303
 20
20.526819417
 11
15.1251281914
 21
20.5271517559
  0
LINE
  5
356
100
AcDbEntity
  8
0
100
AcDbLine
 62
7
  6
CONTINUOUS
 10
15.6821558415
 20
19.9883269165
 11
15.1499936932
 21
20.5204890648
  0
LINE
  5
357
100
AcDbEntity
  8
0
100
AcDbLine
 62
7
  6
CONTINUOUS
 10
15.7056186871
 20
19.9901219251
 11
15.1626226203
 21
20.5331179919
  0
LINE
  5
358
100
AcDbEntity
  8
0
100
AcDbLine
 62
7
  6
CONTINUOUS
 10
15.1559599292
 20
20.5579834937
 11
15.7304841889
 21
19.983459234
  0
LINE
  5
359
100
AcDbEntity
  8
0
100
AcDbLine
 62
9
  6
CONTINUOUS
 10
15.9332627975
 20
21.335286362
 11
16.5077870572
 21
20.7607621023
  0
LINE
  5
35A
100
AcDbEntity
  8
0
100
AcDbLine
 62
7
  6
CONTINUOUS
 10
15.5184373219
 20
19.772016049
 11
15.519086885
 21
19.7720619301
  0
LINE
  5
35B
100
AcDbEntity
  8
0
100
AcDbLine
 62
7
  6
CONTINUOUS
 10
15.1168562387
 20
19.3136162947
 11
15.0225251333
 21
19.3074842595
  0
LINE
  5
35C
100
AcDbEntity
  8
0
100
AcDbLine
 62
7
  6
CONTINUOUS
 10
15.5680851861
 20
19.8217660487
 11
15.5688257446
 21
19.8218007897
  0
LINE
  5
35D
100
AcDbEntity
  8
0
100
AcDbLine
 62
7
  6
CONTINUOUS
 10
15.064759845
 20
20.4298058265
 11
15.0361293076
 21
20.4374561428
  0
LINE
  5
35E
100
AcDbEntity
  8
0
100
AcDbLine
 62
7
  6
CONTINUOUS
 10
15.490517095
 20
19.7794875928
 11
15.5184427011
 21
19.7720214414
  0
LINE
  5
35F
100
AcDbEntity
  8
0
100
AcDbLine
 62
7
  6
CONTINUOUS
 10
15.5363235377
 20
19.8302752788
 11
15.5681008247
 21
19.8217817296
  0
LINE
  5
360
100
AcDbEntity
  8
0
100
AcDbLine
 62
7
  6
CONTINUOUS
 10
15.5882477981
 20
19.8794233317
 11
15.617903095
 21
19.8714937483
  0
LINE
  5
361
100
AcDbEntity
  8
0
100
AcDbLine
 62
7
  6
CONTINUOUS
 10
15.6399109949
 20
19.9286737582
 11
15.6676094209
 21
19.9212693302
  0
LINE
  5
362
100
AcDbEntity
  8
0
100
AcDbLine
 62
7
  6
CONTINUOUS
 10
14.9663594464
 20
20.3261499099
 11
14.9414134049
 21
20.3328189262
  0
LINE
  5
363
100
AcDbEntity
  8
0
100
AcDbLine
 62
7
  6
CONTINUOUS
 10
15.0156889411
 20
20.3778409801
 11
14.9847446154
 21
20.3861120287
  0
LINE
  5
364
100
AcDbEntity
  8
0
100
AcDbLine
 62
7
  6
CONTINUOUS
 10
15.1139064431
 20
20.4816647941
 11
15.0874113318
 21
20.4887485174
  0
LINE
  5
365
100
AcDbEntity
  8
0
100
AcDbLine
 62
7
  6
CONTINUOUS
 10
15.7056186871
 20
19.9901219251
 11
15.7304841889
 21
19.983459234
  0
LINE
  5
366
100
AcDbEntity
  8
0
100
AcDbLine
 62
7
  6
CONTINUOUS
 10
15.1251281914
 20
20.5271517559
 11
15.1499936932
 21
20.5204890648
  0
LINE
  5
367
100
AcDbEntity
  8
0
100
AcDbLine
 62
7
  6
CONTINUOUS
 10
14.9847731792
 20
20.3861406693
 11
14.9840597636
 21
20.3860833281
  0
LINE
  5
368
100
AcDbEntity
  8
0
100
AcDbLine
 62
7
  6
CONTINUOUS
 10
15.0361806941
 20
20.4375076735
 11
15.0354295594
 21
20.4374531239
  0
LINE
  5
369
100
AcDbEntity
  8
0
100
AcDbLine
 62
7
  6
CONTINUOUS
 10
15.6179044943
 20
19.871495151
 11
15.6185677249
 21
19.87154277
  0
LINE
  5
36A
100
AcDbEntity
  8
0
100
AcDbLine
 62
7
  6
CONTINUOUS
 10
15.087398916
 20
20.488736068
 11
15.0866693064
 21
20.488692871
  0
LINE
  5
36B
100
AcDbEntity
  8
0
100
AcDbLine
 62
7
  6
CONTINUOUS
 10
15.6675988354
 20
19.9212587164
 11
15.6683248416
 21
19.9212998867
  0
LINE
  5
36C
100
AcDbEntity
  8
0
100
AcDbLine
 62
7
  6
CONTINUOUS
 10
19.5757885471
 20
20.370587365
 11
19.8079617944
 21
20.370587365
  0
LINE
  5
36D
100
AcDbEntity
  8
0
100
AcDbLine
 62
6
  6
CONTINUOUS
 10
20.4179617944
 20
21.154337365
 11
20.4117143391
 21
21.154337365
  0
LINE
  5
36E
100
AcDbEntity
  8
0
100
AcDbLine
 62
6
  6
CONTINUOUS
 10
20.352427651
 20
21.154337365
 11
20.3391962914
 21
21.154337365
  0
LINE
  5
36F
100
AcDbEntity
  8
0
100
AcDbLine
 62
6
  6
CONTINUOUS
 10
20.2820779841
 20
21.154337365
 11
20.2667091852
 21
21.154337365
  0
LINE
  5
370
100
AcDbEntity
  8
0
100
AcDbLine
 62
6
  6
CONTINUOUS
 10
20.2117051306
 20
21.154337365
 11
20.1941825474
 21
21.154337365
  0
LINE
  5
371
100
AcDbEntity
  8
0
100
AcDbLine
 62
6
  6
CONTINUOUS
 10
20.1413717592
 20
21.154337365
 11
20.1216638891
 21
21.154337365
  0
LINE
  5
372
100
AcDbEntity
  8
0
100
AcDbLine
 62
6
  6
CONTINUOUS
 10
20.0710303894
 20
21.154337365
 11
20.0491497056
 21
21.154337365
  0
LINE
  5
373
100
AcDbEntity
  8
0
100
AcDbLine
 62
6
  6
CONTINUOUS
 10
20.0006846062
 20
21.154337365
 11
19.9766568862
 21
21.154337365
  0
LINE
  5
374
100
AcDbEntity
  8
0
100
AcDbLine
 62
6
  6
CONTINUOUS
 10
19.9303174169
 20
21.154337365
 11
19.9041318103
 21
21.154337365
  0
LINE
  5
375
100
AcDbEntity
  8
0
100
AcDbLine
 62
6
  6
CONTINUOUS
 10
19.8424108249
 20
21.154337365
 11
19.8079617944
 21
21.154337365
  0
LINE
  5
376
100
AcDbEntity
  8
0
100
AcDbLine
 62
7
  6
CONTINUOUS
 10
19.3911046921
 20
21.154337365
 11
17.4579617944
 21
21.154337365
  0
LINE
  5
377
100
AcDbEntity
  8
0
100
AcDbLine
 62
6
  6
CONTINUOUS
 10
20.4579617944
 20
21.218337365
 11
20.4165477025
 21
21.218337365
  0
LINE
  5
378
100
AcDbEntity
  8
0
100
AcDbLine
 62
6
  6
CONTINUOUS
 10
20.405154796
 20
21.218337365
 11
20.3460629489
 21
21.218337365
  0
LINE
  5
379
100
AcDbEntity
  8
0
100
AcDbLine
 62
6
  6
CONTINUOUS
 10
20.3326773933
 20
21.218337365
 11
20.2757655227
 21
21.218337365
  0
LINE
  5
37A
100
AcDbEntity
  8
0
100
AcDbLine
 62
6
  6
CONTINUOUS
 10
20.2601515963
 20
21.218337365
 11
20.205388812
 21
21.218337365
  0
LINE
  5
37B
100
AcDbEntity
  8
0
100
AcDbLine
 62
6
  6
CONTINUOUS
 10
20.1876541885
 20
21.218337365
 11
20.1350376251
 21
21.218337365
  0
LINE
  5
37C
100
AcDbEntity
  8
0
100
AcDbLine
 62
6
  6
CONTINUOUS
 10
20.1151964338
 20
21.218337365
 11
20.0647562405
 21
21.218337365
  0
LINE
  5
37D
100
AcDbEntity
  8
0
100
AcDbLine
 62
6
  6
CONTINUOUS
 10
20.042589537
 20
21.218337365
 11
19.9943739154
 21
21.218337365
  0
LINE
  5
37E
100
AcDbEntity
  8
0
100
AcDbLine
 62
6
  6
CONTINUOUS
 10
19.970137737
 20
21.218337365
 11
19.9239518233
 21
21.218337365
  0
LINE
  5
37F
100
AcDbEntity
  8
0
100
AcDbLine
 62
6
  6
CONTINUOUS
 10
19.8976320072
 20
21.218337365
 11
19.8424108249
 21
21.218337365
  0
LINE
  5
380
100
AcDbEntity
  8
0
100
AcDbLine
 62
6
  6
CONTINUOUS
 10
20.4579617944
 20
21.902837365
 11
20.3939832541
 21
21.902837365
  0
LINE
  5
381
100
AcDbEntity
  8
0
100
AcDbLine
 62
6
  6
CONTINUOUS
 10
20.3820239111
 20
21.902837365
 11
20.3236078638
 21
21.902837365
  0
LINE
  5
382
100
AcDbEntity
  8
0
100
AcDbLine
 62
6
  6
CONTINUOUS
 10
20.308979507
 20
21.902837365
 11
20.2527781379
 21
21.902837365
  0
LINE
  5
383
100
AcDbEntity
  8
0
100
AcDbLine
 62
6
  6
CONTINUOUS
 10
20.2369341013
 20
21.902837365
 11
20.1829673118
 21
21.902837365
  0
LINE
  5
384
100
AcDbEntity
  8
0
100
AcDbLine
 62
6
  6
CONTINUOUS
 10
20.1644737654
 20
21.902837365
 11
20.1125425472
 21
21.902837365
  0
LINE
  5
385
100
AcDbEntity
  8
0
100
AcDbLine
 62
6
  6
CONTINUOUS
 10
20.0919657971
 20
21.902837365
 11
20.0420914103
 21
21.902837365
  0
LINE
  5
386
100
AcDbEntity
  8
0
100
AcDbLine
 62
6
  6
CONTINUOUS
 10
20.0193915338
 20
21.902837365
 11
19.9718945825
 21
21.902837365
  0
LINE
  5
387
100
AcDbEntity
  8
0
100
AcDbLine
 62
6
  6
CONTINUOUS
 10
19.9469560742
 20
21.902837365
 11
19.9015022856
 21
21.902837365
  0
LINE
  5
388
100
AcDbEntity
  8
0
100
AcDbLine
 62
6
  6
CONTINUOUS
 10
19.8860134867
 20
21.902837365
 11
19.8424108249
 21
21.902837365
  0
LINE
  5
389
100
AcDbEntity
  8
0
100
AcDbLine
 62
6
  6
CONTINUOUS
 10
20.3876503406
 20
21.966837365
 11
20.3754653076
 21
21.966837365
  0
LINE
  5
38A
100
AcDbEntity
  8
0
100
AcDbLine
 62
6
  6
CONTINUOUS
 10
20.3172389783
 20
21.966837365
 11
20.3030046509
 21
21.966837365
  0
LINE
  5
38B
100
AcDbEntity
  8
0
100
AcDbLine
 62
6
  6
CONTINUOUS
 10
20.2468396713
 20
21.966837365
 11
20.2303886636
 21
21.966837365
  0
LINE
  5
38C
100
AcDbEntity
  8
0
100
AcDbLine
 62
6
  6
CONTINUOUS
 10
20.1765956463
 20
21.966837365
 11
20.1579342421
 21
21.966837365
  0
LINE
  5
38D
100
AcDbEntity
  8
0
100
AcDbLine
 62
6
  6
CONTINUOUS
 10
20.1061900398
 20
21.966837365
 11
20.0855143705
 21
21.966837365
  0
LINE
  5
38E
100
AcDbEntity
  8
0
100
AcDbLine
 62
6
  6
CONTINUOUS
 10
20.0357499574
 20
21.966837365
 11
20.0128665086
 21
21.966837365
  0
LINE
  5
38F
100
AcDbEntity
  8
0
100
AcDbLine
 62
6
  6
CONTINUOUS
 10
19.9655378024
 20
21.966837365
 11
19.9404025634
 21
21.966837365
  0
LINE
  5
390
100
AcDbEntity
  8
0
100
AcDbLine
 62
6
  6
CONTINUOUS
 10
19.8951417133
 20
21.966837365
 11
19.8860134867
 21
21.966837365
  0
LINE
  5
391
100
AcDbEntity
  8
0
100
AcDbLine
 62
6
  6
CONTINUOUS
 10
19.8424108249
 20
21.966837365
 11
19.8079617944
 21
21.966837365
  0
LINE
  5
392
100
AcDbEntity
  8
0
100
AcDbLine
 62
7
  6
CONTINUOUS
 10
19.3911046921
 20
21.966837365
 11
17.4579617944
 21
21.966837365
  0
LINE
  5
393
100
AcDbEntity
  8
0
100
AcDbLine
 62
7
  6
CONTINUOUS
 10
19.5757885471
 20
22.750587365
 11
19.8079617944
 21
22.750587365
  0
ARC
  5
394
100
AcDbEntity
  8
0
100
AcDbCircle
 62
7
  6
CONTINUOUS
 10
-37.8708902783
 20
-36.0267778843
 40
77.2897097767
100
AcDbArc
 50
46.5654808889
 51
46.6877682542
  0
ARC
  5
395
100
AcDbEntity
  8
0
100
AcDbCircle
 62
7
  6
CONTINUOUS
 10
-19.6475868181
 20
-15.6776426218
 40
50.1964774838
100
AcDbArc
 50
45.7753236435
 51
46.010029384
  0
ARC
  5
396
100
AcDbEntity
  8
0
100
AcDbCircle
 62
7
  6
CONTINUOUS
 10
-12.4014749839
 20
-9.1016358555
 40
40.1756509431
100
AcDbArc
 50
46.6234671823
 51
46.781815839
  0
ARC
  5
397
100
AcDbEntity
  8
0
100
AcDbCircle
 62
7
  6
CONTINUOUS
 10
-11.3920115881
 20
-8.1570822039
 40
38.9731405506
100
AcDbArc
 50
46.6517040812
 51
46.9613546645
  0
ARC
  5
398
100
AcDbEntity
  8
0
100
AcDbCircle
 62
7
  6
CONTINUOUS
 10
-10.0120255037
 20
-6.5525311804
 40
36.733055909
100
AcDbArc
 50
46.5119629555
 51
46.7580576802
  0
ARC
  5
399
100
AcDbEntity
  8
0
100
AcDbCircle
 62
9
  6
CONTINUOUS
 10
39.0897274728
 20
-219.8217187175
 40
222.9343620152
100
AcDbArc
 50
95.2197782977
 51
95.9304759666
  0
ARC
  5
39A
100
AcDbEntity
  8
0
100
AcDbCircle
 62
7
  6
CONTINUOUS
 10
4.4297519403
 20
8.8005834028
 40
15.6037312795
100
AcDbArc
 50
46.9314820044
 51
47.1662051925
  0
ARC
  5
39B
100
AcDbEntity
  8
0
100
AcDbCircle
 62
7
  6
CONTINUOUS
 10
4.5345103324
 20
8.8611600727
 40
15.5756217692
100
AcDbArc
 50
46.9373735626
 51
47.0628546574
  0
ARC
  5
39C
100
AcDbEntity
  8
0
100
AcDbCircle
 62
7
  6
CONTINUOUS
 10
4.6484395723
 20
8.9873109012
 40
15.4235336341
100
AcDbArc
 50
46.9383684274
 51
47.0531360155
  0
ARC
  5
39D
100
AcDbEntity
  8
0
100
AcDbCircle
 62
7
  6
CONTINUOUS
 10
5.4036714023
 20
9.8608941825
 40
14.2364361422
100
AcDbArc
 50
46.8746510336
 51
47.1249614608
  0
ARC
  5
39E
100
AcDbEntity
  8
0
100
AcDbCircle
 62
7
  6
CONTINUOUS
 10
5.4500061156
 20
9.9309306417
 40
14.2030709089
100
AcDbArc
 50
46.8252679635
 51
47.0552393787
  0
ARC
  5
39F
100
AcDbEntity
  8
0
100
AcDbCircle
 62
7
  6
CONTINUOUS
 10
5.5167099605
 20
9.9636895783
 40
14.011784775
100
AcDbArc
 50
46.8138710348
 51
46.9307071794
  0
ARC
  5
3A0
100
AcDbEntity
  8
0
100
AcDbCircle
 62
7
  6
CONTINUOUS
 10
6.3542387628
 20
10.8862610301
 40
12.9108519876
100
AcDbArc
 50
46.8440834027
 51
47.0970779131
  0
ARC
  5
3A1
100
AcDbEntity
  8
0
100
AcDbCircle
 62
7
  6
CONTINUOUS
 10
6.4426013135
 20
10.9968829092
 40
12.6761260664
100
AcDbArc
 50
46.8992657507
 51
47.0695780849
  0
ARC
  5
3A2
100
AcDbEntity
  8
0
100
AcDbCircle
 62
7
  6
CONTINUOUS
 10
6.5956935541
 20
11.1556089757
 40
12.5260674101
100
AcDbArc
 50
46.8137361763
 51
47.084945122
  0
ARC
  5
3A3
100
AcDbEntity
  8
0
100
AcDbCircle
 62
7
  6
CONTINUOUS
 10
6.5216963483
 20
11.0625287938
 40
12.5227902015
100
AcDbArc
 50
46.8568280789
 51
47.1465633984
  0
ARC
  5
3A4
100
AcDbEntity
  8
0
100
AcDbCircle
 62
7
  6
CONTINUOUS
 10
7.4202873999
 20
12.0247388974
 40
11.2785988972
100
AcDbArc
 50
46.95844805
 51
47.1575592547
  0
ARC
  5
3A5
100
AcDbEntity
  8
0
100
AcDbCircle
 62
7
  6
CONTINUOUS
 10
8.5931948722
 20
13.2292842671
 40
9.6129545068
100
AcDbArc
 50
47.0379502243
 51
47.3936717139
  0
ARC
  5
3A6
100
AcDbEntity
  8
0
100
AcDbCircle
 62
7
  6
CONTINUOUS
 10
2.5065263765
 20
21.184992758
 40
17.5279668774
100
AcDbArc
 50
1.7690009957
 51
2.0898970347
  0
ARC
  5
3A7
100
AcDbEntity
  8
0
100
AcDbCircle
 62
7
  6
CONTINUOUS
 10
8.7088074872
 20
13.356284181
 40
9.5126729499
100
AcDbArc
 50
47.0108371268
 51
47.1307944707
  0
ARC
  5
3A8
100
AcDbEntity
  8
0
100
AcDbCircle
 62
7
  6
CONTINUOUS
 10
9.2055088713
 20
13.8906864316
 40
8.7295118974
100
AcDbArc
 50
47.0199475852
 51
47.4232623664
  0
ARC
  5
3A9
100
AcDbEntity
  8
0
100
AcDbCircle
 62
7
  6
CONTINUOUS
 10
9.1628041902
 20
13.9219157052
 40
8.6817811347
100
AcDbArc
 50
46.8171949105
 51
47.091983406
  0
ARC
  5
3AA
100
AcDbEntity
  8
0
100
AcDbCircle
 62
7
  6
CONTINUOUS
 10
11.5985246363
 20
16.5458814789
 40
5.1015687791
100
AcDbArc
 50
47.064810261
 51
47.8097830921
  0
ARC
  5
3AB
100
AcDbEntity
  8
0
100
AcDbCircle
 62
7
  6
CONTINUOUS
 10
9.2101326009
 20
20.5487929369
 40
6.0
100
AcDbArc
 50
313.9999713273
 51
342.7672166343
  0
ARC
  5
3AC
100
AcDbEntity
  8
0
100
AcDbCircle
 62
7
  6
CONTINUOUS
 10
13.0374693852
 20
17.8652914039
 40
0.652021868
100
AcDbArc
 50
44.9799477433
 51
45.8530416899
  0
ARC
  5
3AD
100
AcDbEntity
  8
0
100
AcDbCircle
 62
7
  6
CONTINUOUS
 10
13.0384282457
 20
17.865601063
 40
0.6511248902
100
AcDbArc
 50
44.1383024304
 51
45.0203146774
  0
ARC
  5
3AE
100
AcDbEntity
  8
0
100
AcDbCircle
 62
7
  6
CONTINUOUS
 10
13.150240326
 20
17.9813699327
 40
0.4901839759
100
AcDbArc
 50
45.8612945682
 51
46.4534016358
  0
ARC
  5
3AF
100
AcDbEntity
  8
0
100
AcDbCircle
 62
7
  6
CONTINUOUS
 10
13.1546802494
 20
17.9785108307
 40
0.489065837
100
AcDbArc
 50
43.5464586454
 51
44.1296471948
  0
ARC
  5
3B0
100
AcDbEntity
  8
0
100
AcDbCircle
 62
9
  6
CONTINUOUS
 10
13.2873104482
 20
18.2026430735
 40
0.2081346668
100
AcDbArc
 50
173.3983038867
 51
178.7267439706
  0
ARC
  5
3B1
100
AcDbEntity
  8
0
100
AcDbCircle
 62
7
  6
CONTINUOUS
 10
13.6928628956
 20
18.0391324775
 40
0.4094525035
100
AcDbArc
 50
134.2844722989
 51
137.083846998
  0
ARC
  5
3B2
100
AcDbEntity
  8
0
100
AcDbCircle
 62
7
  6
CONTINUOUS
 10
13.6753248484
 20
18.0580136779
 40
0.3836908682
100
AcDbArc
 50
132.8847747069
 51
134.3782628882
  0
ARC
  5
3B3
100
AcDbEntity
  8
0
100
AcDbCircle
 62
7
  6
CONTINUOUS
 10
13.4523268758
 20
18.2798261806
 40
0.4215
100
AcDbArc
 50
251.7883121794
 51
198.2087737929
  0
ARC
  5
3B4
100
AcDbEntity
  8
0
100
AcDbCircle
 62
7
  6
CONTINUOUS
 10
13.4523268758
 20
18.2798261806
 40
0.4
100
AcDbArc
 50
253.2006892366
 51
196.7993107634
  0
ARC
  5
3B5
100
AcDbEntity
  8
0
100
AcDbCircle
 62
9
  6
CONTINUOUS
 10
13.428844412
 20
18.3544259043
 40
0.202631738
100
AcDbArc
 50
292.7279152617
 51
293.8313326015
  0
ARC
  5
3B6
100
AcDbEntity
  8
0
100
AcDbCircle
 62
9
  6
CONTINUOUS
 10
13.4602354812
 20
18.2876344361
 40
0.131267953
100
AcDbArc
 50
211.7660229106
 51
224.9690316016
  0
ARC
  5
3B7
100
AcDbEntity
  8
0
100
AcDbCircle
 62
9
  6
CONTINUOUS
 10
13.4491081646
 20
18.2761934478
 40
0.1297370491
100
AcDbArc
 50
57.2873416634
 51
63.443789311
  0
ARC
  5
3B8
100
AcDbEntity
  8
0
100
AcDbCircle
 62
9
  6
CONTINUOUS
 10
13.4497429542
 20
18.2772039584
 40
0.12852763
100
AcDbArc
 50
26.528886946
 51
57.2357236953
  0
ARC
  5
3B9
100
AcDbEntity
  8
0
100
AcDbCircle
 62
9
  6
CONTINUOUS
 10
13.4576940999
 20
18.2860022539
 40
0.1282480024
100
AcDbArc
 50
196.9165474527
 51
211.7437855429
  0
ARC
  5
3BA
100
AcDbEntity
  8
0
100
AcDbCircle
 62
9
  6
CONTINUOUS
 10
13.4519228062
 20
18.2765644358
 40
0.128162789
100
AcDbArc
 50
64.4937028098
 51
83.5766319031
  0
ARC
  5
3BB
100
AcDbEntity
  8
0
100
AcDbCircle
 62
9
  6
CONTINUOUS
 10
13.4555809846
 20
18.2856125425
 40
0.1261131572
100
AcDbArc
 50
183.1467601112
 51
197.0265033999
  0
ARC
  5
3BC
100
AcDbEntity
  8
0
100
AcDbCircle
 62
9
  6
CONTINUOUS
 10
13.4519082637
 20
18.2847709687
 40
0.1225964756
100
AcDbArc
 50
154.1535506388
 51
155.9822701107
  0
ARC
  5
3BD
100
AcDbEntity
  8
0
100
AcDbCircle
 62
9
  6
CONTINUOUS
 10
13.4509321864
 20
18.2853767859
 40
0.1214584284
100
AcDbArc
 50
156.0558993997
 51
183.1560950504
  0
CIRCLE
  5
3BE
100
AcDbEntity
  8
0
100
AcDbCircle
 62
7
  6
CONTINUOUS
 10
13.4523268758
 20
18.2798261806
 40
0.1175
  0
CIRCLE
  5
3BF
100
AcDbEntity
  8
0
100
AcDbCircle
 62
7
  6
CONTINUOUS
 10
13.4523268758
 20
18.2798261806
 40
0.1
  0
ARC
  5
3C0
100
AcDbEntity
  8
0
100
AcDbCircle
 62
9
  6
CONTINUOUS
 10
13.4523268758
 20
18.2798261806
 40
0.06
100
AcDbArc
 50
239.4775121859
 51
300.5224878135
  0
ARC
  5
3C1
100
AcDbEntity
  8
0
100
AcDbCircle
 62
9
  6
CONTINUOUS
 10
13.4523268758
 20
18.2798261806
 40
0.06
100
AcDbArc
 50
59.4775121859
 51
120.5224878143
  0
ARC
  5
3C2
100
AcDbEntity
  8
0
100
AcDbCircle
 62
9
  6
CONTINUOUS
 10
13.4523268758
 20
18.2798261806
 40
0.06
100
AcDbArc
 50
149.4775121859
 51
210.5224878143
  0
ARC
  5
3C3
100
AcDbEntity
  8
0
100
AcDbCircle
 62
9
  6
CONTINUOUS
 10
13.4523268758
 20
18.2798261806
 40
0.06
100
AcDbArc
 50
329.4775121859
 51
30.522487814
  0
ARC
  5
3C4
100
AcDbEntity
  8
0
100
AcDbCircle
 62
7
  6
CONTINUOUS
 10
13.4523268758
 20
18.2444708415
 40
0.01
100
AcDbArc
 50
45.0
 51
135.0
  0
ARC
  5
3C5
100
AcDbEntity
  8
0
100
AcDbCircle
 62
7
  6
CONTINUOUS
 10
13.4523268758
 20
18.3151815196
 40
0.01
100
AcDbArc
 50
225.0
 51
315.0
  0
ARC
  5
3C6
100
AcDbEntity
  8
0
100
AcDbCircle
 62
7
  6
CONTINUOUS
 10
13.4169715367
 20
18.2798261806
 40
0.01
100
AcDbArc
 50
315.0
 51
45.0
  0
ARC
  5
3C7
100
AcDbEntity
  8
0
100
AcDbCircle
 62
7
  6
CONTINUOUS
 10
13.4876822148
 20
18.2798261806
 40
0.01
100
AcDbArc
 50
135.0
 51
225.0
  0
ARC
  5
3C8
100
AcDbEntity
  8
0
100
AcDbCircle
 62
7
  6
CONTINUOUS
 10
13.7139954693
 20
18.5414719408
 40
0.4392071849
100
AcDbArc
 50
224.3565635683
 51
225.6549526317
  0
ARC
  5
3C9
100
AcDbEntity
  8
0
100
AcDbCircle
 62
7
  6
CONTINUOUS
 10
13.6741023961
 20
18.5027875712
 40
0.3836388753
100
AcDbArc
 50
222.8845302236
 51
224.3856805663
  0
ARC
  5
3CA
100
AcDbEntity
  8
0
100
AcDbCircle
 62
7
  6
CONTINUOUS
 10
13.6750993813
 20
18.5014003231
 40
0.3833627798
100
AcDbArc
 50
225.626124231
 51
227.1156728746
  0
ARC
  5
3CB
100
AcDbEntity
  8
0
100
AcDbCircle
 62
7
  6
CONTINUOUS
 10
13.6193177606
 20
18.7794055108
 40
2.0380720078
100
AcDbArc
 50
47.9941807311
 51
48.2065415882
  0
ARC
  5
3CC
100
AcDbEntity
  8
0
100
AcDbCircle
 62
7
  6
CONTINUOUS
 10
13.709287115
 20
18.8809405967
 40
1.9024183992
100
AcDbArc
 50
47.9471899507
 51
48.6166364424
  0
ARC
  5
3CD
100
AcDbEntity
  8
0
100
AcDbCircle
 62
7
  6
CONTINUOUS
 10
13.8876855232
 20
19.0797533003
 40
1.6352941014
100
AcDbArc
 50
48.2036040205
 51
48.7025400627
  0
ARC
  5
3CE
100
AcDbEntity
  8
0
100
AcDbCircle
 62
7
  6
CONTINUOUS
 10
14.266698426
 20
19.4896423724
 40
1.3393432633
100
AcDbArc
 50
48.0129277726
 51
48.984908649
  0
ARC
  5
3CF
100
AcDbEntity
  8
0
100
AcDbCircle
 62
7
  6
CONTINUOUS
 10
14.3019710307
 20
19.5547207032
 40
1.0050595966
100
AcDbArc
 50
48.5744820528
 51
49.4149655703
  0
ARC
  5
3D0
100
AcDbEntity
  8
0
100
AcDbCircle
 62
7
  6
CONTINUOUS
 10
14.4908765682
 20
19.774809346
 40
0.7150178686
100
AcDbArc
 50
49.437266186
 51
49.6112902483
  0
ARC
  5
3D1
100
AcDbEntity
  8
0
100
AcDbCircle
 62
7
  6
CONTINUOUS
 10
14.5297301049
 20
19.8166854972
 40
0.7093991188
100
AcDbArc
 50
49.3359947589
 51
49.5880631993
  0
ARC
  5
3D2
100
AcDbEntity
  8
0
100
AcDbCircle
 62
7
  6
CONTINUOUS
 10
14.6832274414
 20
19.9692129638
 40
0.7041393496
100
AcDbArc
 50
48.949473095
 51
49.9076608885
  0
ARC
  5
3D3
100
AcDbEntity
  8
0
100
AcDbCircle
 62
7
  6
CONTINUOUS
 10
14.546749796
 20
19.8385875037
 40
0.6817418731
100
AcDbArc
 50
49.2640208233
 51
49.4355884289
  0
ARC
  5
3D4
100
AcDbEntity
  8
0
100
AcDbCircle
 62
7
  6
CONTINUOUS
 10
14.5904611799
 20
19.8830183504
 40
0.6402436005
100
AcDbArc
 50
49.6057181631
 51
49.7633580561
  0
ARC
  5
3D5
100
AcDbEntity
  8
0
100
AcDbCircle
 62
7
  6
CONTINUOUS
 10
14.6362857519
 20
19.9329825835
 40
0.6220194236
100
AcDbArc
 50
49.5182770341
 51
49.7245238694
  0
ARC
  5
3D6
100
AcDbEntity
  8
0
100
AcDbCircle
 62
7
  6
CONTINUOUS
 10
13.0668138235
 20
18.6656323149
 40
0.6109625277
100
AcDbArc
 50
314.5115325053
 51
316.3873936519
  0
ARC
  5
3D7
100
AcDbEntity
  8
0
100
AcDbCircle
 62
7
  6
CONTINUOUS
 10
14.6795117491
 20
19.978911992
 40
0.5819202817
100
AcDbArc
 50
49.7556161178
 51
49.8905294435
  0
ARC
  5
3D8
100
AcDbEntity
  8
0
100
AcDbCircle
 62
7
  6
CONTINUOUS
 10
14.7147359553
 20
20.0152390979
 40
0.5785061066
100
AcDbArc
 50
49.7262521102
 51
49.950164149
  0
ARC
  5
3D9
100
AcDbEntity
  8
0
100
AcDbCircle
 62
7
  6
CONTINUOUS
 10
13.1134018037
 20
18.6166654463
 40
0.5433842866
100
AcDbArc
 50
313.573731514
 51
314.6281557966
  0
ARC
  5
3DA
100
AcDbEntity
  8
0
100
AcDbCircle
 62
7
  6
CONTINUOUS
 10
14.7726112655
 20
20.0797483424
 40
0.5170272211
100
AcDbArc
 50
49.9357217532
 51
50.096194445
  0
ARC
  5
3DB
100
AcDbEntity
  8
0
100
AcDbCircle
 62
7
  6
CONTINUOUS
 10
14.8079877682
 20
20.1170777644
 40
0.5106733965
100
AcDbArc
 50
49.9317270208
 51
50.117131318
  0
ARC
  5
3DC
100
AcDbEntity
  8
0
100
AcDbCircle
 62
7
  6
CONTINUOUS
 10
14.4547862581
 20
19.2822855629
 40
0.5105
100
AcDbArc
 50
93.7193044772
 51
106.7537204422
  0
ARC
  5
3DD
100
AcDbEntity
  8
0
100
AcDbCircle
 62
7
  6
CONTINUOUS
 10
14.4547862581
 20
19.2822855629
 40
0.5105
100
AcDbArc
 50
343.2462795577
 51
356.2806955228
  0
ARC
  5
3DE
100
AcDbEntity
  8
0
100
AcDbCircle
 62
7
  6
CONTINUOUS
 10
14.6640171384
 20
19.9746178813
 40
0.5020935024
100
AcDbArc
 50
49.5723622599
 51
50.4905767077
  0
ARC
  5
3DF
100
AcDbEntity
  8
0
100
AcDbCircle
 62
7
  6
CONTINUOUS
 10
14.7657446797
 20
20.0766470361
 40
0.4986692121
100
AcDbArc
 50
49.5894982884
 51
50.5096279461
  0
ARC
  5
3E0
100
AcDbEntity
  8
0
100
AcDbCircle
 62
7
  6
CONTINUOUS
 10
14.8371425827
 20
20.1519559205
 40
0.4652147459
100
AcDbArc
 50
50.1180635585
 51
50.2451583293
  0
ARC
  5
3E1
100
AcDbEntity
  8
0
100
AcDbCircle
 62
7
  6
CONTINUOUS
 10
14.8055209652
 20
20.123594399
 40
0.4371458539
100
AcDbArc
 50
49.9204054656
 51
50.5975125652
  0
ARC
  5
3E2
100
AcDbEntity
  8
0
100
AcDbCircle
 62
7
  6
CONTINUOUS
 10
14.758635593
 20
20.0780370002
 40
0.4322563975
100
AcDbArc
 50
49.668038491
 51
50.5924004555
  0
ARC
  5
3E3
100
AcDbEntity
  8
0
100
AcDbCircle
 62
7
  6
CONTINUOUS
 10
14.7257147778
 20
20.0437156395
 40
0.4302038379
100
AcDbArc
 50
49.6899123181
 51
50.7602639987
  0
ARC
  5
3E4
100
AcDbEntity
  8
0
100
AcDbCircle
 62
7
  6
CONTINUOUS
 10
14.782207477
 20
20.1013716371
 40
0.4220997355
100
AcDbArc
 50
49.8428293259
 51
50.6993364061
  0
ARC
  5
3E5
100
AcDbEntity
  8
0
100
AcDbCircle
 62
7
  6
CONTINUOUS
 10
14.7279399741
 20
20.0572267975
 40
0.3462258426
100
AcDbArc
 50
50.8274265243
 51
50.9733621716
  0
ARC
  5
3E6
100
AcDbEntity
  8
0
100
AcDbCircle
 62
7
  6
CONTINUOUS
 10
14.8081441347
 20
20.1442861765
 40
0.3001498672
100
AcDbArc
 50
50.7351384269
 51
51.2799146529
  0
ARC
  5
3E7
100
AcDbEntity
  8
0
100
AcDbCircle
 62
7
  6
CONTINUOUS
 10
14.417616591
 20
19.8540787212
 40
0.0625
100
AcDbArc
 50
273.7193044771
 51
356.2806955205
  0
ARC
  5
3E8
100
AcDbEntity
  8
0
100
AcDbCircle
 62
7
  6
CONTINUOUS
 10
21.7884372512
 20
-31.3981315321
 40
34.1888830645
100
AcDbArc
 50
95.6605465062
 51
98.0331699646
  0
ARC
  5
3E9
100
AcDbEntity
  8
0
100
AcDbCircle
 62
7
  6
CONTINUOUS
 10
21.7871122247
 20
-31.3890862628
 40
34.1797413858
100
AcDbArc
 50
98.0330895338
 51
99.8619844235
  0
ARC
  5
3EA
100
AcDbEntity
  8
0
100
AcDbCircle
 62
7
  6
CONTINUOUS
 10
21.7863071232
 20
-31.3774677627
 40
34.1681099533
100
AcDbArc
 50
95.0006728753
 51
95.6604097072
  0
ARC
  5
3EB
100
AcDbEntity
  8
0
100
AcDbCircle
 62
9
  6
CONTINUOUS
 10
16.602958393
 20
-3.2833540827
 40
5.2314080365
100
AcDbArc
 50
96.0035569502
 51
98.3801459525
  0
ARC
  5
3EC
100
AcDbEntity
  8
0
100
AcDbCircle
 62
9
  6
CONTINUOUS
 10
16.6386389314
 20
-3.0743399766
 40
5.0302590192
100
AcDbArc
 50
99.1292009407
 51
100.0846785382
  0
ARC
  5
3ED
100
AcDbEntity
  8
0
100
AcDbCircle
 62
7
  6
CONTINUOUS
 10
17.5442931786
 20
3.6512106635
 40
5.9177216511
100
AcDbArc
 50
98.0851069869
 51
98.2954227933
  0
ARC
  5
3EE
100
AcDbEntity
  8
0
100
AcDbCircle
 62
7
  6
CONTINUOUS
 10
17.62192179
 20
6.4458104004
 40
3.3552585213
100
AcDbArc
 50
105.7352341747
 51
105.9903020131
  0
ARC
  5
3EF
100
AcDbEntity
  8
0
100
AcDbCircle
 62
7
  6
CONTINUOUS
 10
17.6953432618
 20
7.7727959135
 40
2.05922423
100
AcDbArc
 50
118.75254906
 51
119.207320767
  0
ARC
  5
3F0
100
AcDbEntity
  8
0
100
AcDbCircle
 62
7
  6
CONTINUOUS
 10
16.1582153417
 20
0.9896322723
 40
1.3153400816
100
AcDbArc
 50
99.8621713451
 51
179.4072741492
  0
ARC
  5
3F1
100
AcDbEntity
  8
0
100
AcDbCircle
 62
9
  6
CONTINUOUS
 10
15.8461616276
 20
1.0714941629
 40
0.950280296
100
AcDbArc
 50
96.472751738
 51
128.7565111383
  0
ARC
  5
3F2
100
AcDbEntity
  8
0
100
AcDbCircle
 62
9
  6
CONTINUOUS
 10
16.195947685
 20
0.7253319494
 40
0.5851646645
100
AcDbArc
 50
87.3083351527
 51
104.3243858184
  0
ARC
  5
3F3
100
AcDbEntity
  8
0
100
AcDbCircle
 62
9
  6
CONTINUOUS
 10
16.2192726022
 20
0.6964054395
 40
0.4164082767
100
AcDbArc
 50
89.1350108785
 51
105.0649679447
  0
ARC
  5
3F4
100
AcDbEntity
  8
0
100
AcDbCircle
 62
7
  6
CONTINUOUS
 10
16.1698802352
 20
0.7366720222
 40
0.335675928
100
AcDbArc
 50
74.7875297033
 51
158.3188260855
  0
ARC
  5
3F5
100
AcDbEntity
  8
0
100
AcDbCircle
 62
7
  6
CONTINUOUS
 10
15.7212936321
 20
14.0376319057
 40
6.0
100
AcDbArc
 50
107.2327833657
 51
136.0000286727
  0
ARC
  5
3F6
100
AcDbEntity
  8
0
100
AcDbCircle
 62
7
  6
CONTINUOUS
 10
17.5475873047
 20
15.4928522265
 40
5.940845771
100
AcDbArc
 50
261.7049819096
 51
261.9144790939
  0
ARC
  5
3F7
100
AcDbEntity
  8
0
100
AcDbCircle
 62
7
  6
CONTINUOUS
 10
17.525256226
 20
12.3366474721
 40
3.0030189722
100
AcDbArc
 50
253.860797997
 51
254.1597129947
  0
ARC
  5
3F8
100
AcDbEntity
  8
0
100
AcDbCircle
 62
7
  6
CONTINUOUS
 10
17.6664493735
 20
11.296604428
 40
1.999933622
100
AcDbArc
 50
240.7914040095
 51
241.2565558799
  0
ARC
  5
3F9
100
AcDbEntity
  8
0
100
AcDbCircle
 62
7
  6
CONTINUOUS
 10
17.5702705957
 20
8.4156276338
 40
1.563150904
100
AcDbArc
 50
124.0996605521
 51
124.2509326531
  0
ARC
  5
3FA
100
AcDbEntity
  8
0
100
AcDbCircle
 62
7
  6
CONTINUOUS
 10
17.1816075132
 20
10.3891760098
 40
0.4
100
AcDbArc
 50
280.0
 51
310.5151811264
  0
ARC
  5
3FB
100
AcDbEntity
  8
0
100
AcDbCircle
 62
7
  6
CONTINUOUS
 10
17.1816075132
 20
8.7319987202
 40
0.4
100
AcDbArc
 50
49.4848188736
 51
80.0
  0
ARC
  5
3FC
100
AcDbEntity
  8
0
100
AcDbCircle
 62
7
  6
CONTINUOUS
 10
17.1239617944
 20
9.8936375938
 40
0.078
100
AcDbArc
 50
100.0000033931
 51
180.000011697
  0
ARC
  5
3FD
100
AcDbEntity
  8
0
100
AcDbCircle
 62
7
  6
CONTINUOUS
 10
17.1239617944
 20
9.2275371363
 40
0.078
100
AcDbArc
 50
179.999988303
 51
259.9999966069
  0
ARC
  5
3FE
100
AcDbEntity
  8
0
100
AcDbCircle
 62
7
  6
CONTINUOUS
 10
19.3057274375
 20
6.145473275
 40
5.706636351
100
AcDbArc
 50
254.7839005615
 51
264.9960162447
  0
ARC
  5
3FF
100
AcDbEntity
  8
0
100
AcDbCircle
 62
7
  6
CONTINUOUS
 10
18.7631862572
 20
7.8379952482
 40
2.7963428578
100
AcDbArc
 50
137.1826386018
 51
137.4002182448
  0
ARC
  5
400
100
AcDbEntity
  8
0
100
AcDbCircle
 62
7
  6
CONTINUOUS
 10
18.706782321
 20
7.8085620389
 40
2.7528703583
100
AcDbArc
 50
136.4371127805
 51
136.655075163
  0
ARC
  5
401
100
AcDbEntity
  8
0
100
AcDbCircle
 62
7
  6
CONTINUOUS
 10
17.9355231223
 20
7.3340849414
 40
2.5593777147
100
AcDbArc
 50
118.5583972202
 51
118.7421349866
  0
ARC
  5
402
100
AcDbEntity
  8
0
100
AcDbCircle
 62
7
  6
CONTINUOUS
 10
18.0100144481
 20
7.7637222658
 40
2.3495109122
100
AcDbArc
 50
123.5360161851
 51
123.7469532548
  0
ARC
  5
403
100
AcDbEntity
  8
0
100
AcDbCircle
 62
7
  6
CONTINUOUS
 10
18.2961574717
 20
8.063764803
 40
2.309517444
100
AcDbArc
 50
133.4179803609
 51
133.800261386
  0
ARC
  5
404
100
AcDbEntity
  8
0
100
AcDbCircle
 62
7
  6
CONTINUOUS
 10
17.9234268811
 20
7.8942132782
 40
2.192906155
100
AcDbArc
 50
123.7598515967
 51
123.9853838469
  0
ARC
  5
405
100
AcDbEntity
  8
0
100
AcDbCircle
 62
7
  6
CONTINUOUS
 10
19.5599629366
 20
6.3674512346
 40
0.2500109774
100
AcDbArc
 50
179.6406314602
 51
239.7355898686
  0
ARC
  5
406
100
AcDbEntity
  8
0
100
AcDbCircle
 62
7
  6
CONTINUOUS
 10
19.3039617944
 20
6.8070091794
 40
0.25
100
AcDbArc
 50
180.0000000002
 51
240.7907880663
  0
ARC
  5
407
100
AcDbEntity
  8
0
100
AcDbCircle
 62
7
  6
CONTINUOUS
 10
19.0599617944
 20
6.370587365
 40
0.25
100
AcDbArc
 50
359.6406314602
 51
60.7907880662
  0
ARC
  5
408
100
AcDbEntity
  8
0
100
AcDbCircle
 62
7
  6
CONTINUOUS
 10
19.3079617944
 20
5.935587365
 40
0.25
100
AcDbArc
 50
0.0
 51
59.7355898686
  0
ARC
  5
409
100
AcDbEntity
  8
0
100
AcDbCircle
 62
7
  6
CONTINUOUS
 10
19.8079617944
 20
5.935587365
 40
0.25
100
AcDbArc
 50
180.0000000002
 51
270.0
  0
ARC
  5
40A
100
AcDbEntity
  8
0
100
AcDbCircle
 62
7
  6
CONTINUOUS
 10
19.0539617944
 20
7.665587365
 40
0.095
100
AcDbArc
 50
90.0
 51
180.0
  0
ARC
  5
40B
100
AcDbEntity
  8
0
100
AcDbCircle
 62
7
  6
CONTINUOUS
 10
19.0539617944
 20
7.105587365
 40
0.095
100
AcDbArc
 50
180.0
 51
270.0
  0
ARC
  5
40C
100
AcDbEntity
  8
0
100
AcDbCircle
 62
6
  6
CONTINUOUS
 10
17.9179617944
 20
6.998087365
 40
0.031
100
AcDbArc
 50
180.0
 51
256.9592389667
  0
ARC
  5
40D
100
AcDbEntity
  8
0
100
AcDbCircle
 62
6
  6
CONTINUOUS
 10
17.9179617944
 20
7.773087365
 40
0.031
100
AcDbArc
 50
103.0407610333
 51
180.0
  0
ARC
  5
40E
100
AcDbEntity
  8
0
100
AcDbCircle
 62
6
  6
CONTINUOUS
 10
18.1439617944
 20
6.966587365
 40
0.031
100
AcDbArc
 50
270.0
 51
315.245307349
  0
ARC
  5
40F
100
AcDbEntity
  8
0
100
AcDbCircle
 62
6
  6
CONTINUOUS
 10
18.1439617944
 20
7.804587365
 40
0.031
100
AcDbArc
 50
44.754692651
 51
90.0
  0
ARC
  5
410
100
AcDbEntity
  8
0
100
AcDbCircle
 62
7
  6
CONTINUOUS
 10
18.4057249742
 20
8.1677443748
 40
2.3100175208
100
AcDbArc
 50
137.4193730347
 51
137.6827493494
  0
ARC
  5
411
100
AcDbEntity
  8
0
100
AcDbCircle
 62
7
  6
CONTINUOUS
 10
18.2980842274
 20
8.1946616069
 40
2.1906364891
100
AcDbArc
 50
136.6618559174
 51
137.2095340009
  0
ARC
  5
412
100
AcDbEntity
  8
0
100
AcDbCircle
 62
7
  6
CONTINUOUS
 10
18.2859904286
 20
8.2760087884
 40
2.1485950545
100
AcDbArc
 50
137.667930119
 51
137.9510828332
  0
ARC
  5
413
100
AcDbEntity
  8
0
100
AcDbCircle
 62
7
  6
CONTINUOUS
 10
18.0434980038
 20
8.1067896655
 40
2.0387929832
100
AcDbArc
 50
130.8912162956
 51
131.5770323289
  0
ARC
  5
414
100
AcDbEntity
  8
0
100
AcDbCircle
 62
7
  6
CONTINUOUS
 10
18.2853360314
 20
8.8593263404
 40
1.52
100
AcDbArc
 50
86.2419535375
 51
101.5898335018
  0
ARC
  5
415
100
AcDbEntity
  8
0
100
AcDbCircle
 62
7
  6
CONTINUOUS
 10
18.2853360314
 20
10.2618483897
 40
1.52
100
AcDbArc
 50
258.4101664982
 51
273.7580464625
  0
ARC
  5
416
100
AcDbEntity
  8
0
100
AcDbCircle
 62
7
  6
CONTINUOUS
 10
18.2210467183
 20
9.9483728974
 40
1.2
100
AcDbArc
 50
229.4848188736
 51
258.4101664981
  0
ARC
  5
417
100
AcDbEntity
  8
0
100
AcDbCircle
 62
7
  6
CONTINUOUS
 10
18.2210467183
 20
9.1728018327
 40
1.2
100
AcDbArc
 50
101.5898335019
 51
130.5151811264
  0
ARC
  5
418
100
AcDbEntity
  8
0
100
AcDbCircle
 62
7
  6
CONTINUOUS
 10
18.4074431343
 20
8.4028543457
 40
0.343
100
AcDbArc
 50
39.0112542963
 51
93.7580464624
  0
ARC
  5
419
100
AcDbEntity
  8
0
100
AcDbCircle
 62
7
  6
CONTINUOUS
 10
18.7908598589
 20
10.4998229558
 40
0.078
100
AcDbArc
 50
98.0315733499
 51
149.0556893897
  0
ARC
  5
41A
100
AcDbEntity
  8
0
100
AcDbCircle
 62
7
  6
CONTINUOUS
 10
18.7908598589
 20
8.6213517743
 40
0.078
100
AcDbArc
 50
210.9443106103
 51
261.9684266501
  0
ARC
  5
41B
100
AcDbEntity
  8
0
100
AcDbCircle
 62
7
  6
CONTINUOUS
 10
18.7712992303
 20
8.4827250027
 40
0.062
100
AcDbArc
 50
36.7734275125
 51
81.9684266495
  0
ARC
  5
41C
100
AcDbEntity
  8
0
100
AcDbCircle
 62
7
  6
CONTINUOUS
 10
18.7712992303
 20
10.6384497274
 40
0.062
100
AcDbArc
 50
278.0315733505
 51
323.2265724875
  0
ARC
  5
41D
100
AcDbEntity
  8
0
100
AcDbCircle
 62
7
  6
CONTINUOUS
 10
18.6707864098
 20
8.5493631168
 40
0.062
100
AcDbArc
 50
30.9443106098
 51
72.9532818351
  0
ARC
  5
41E
100
AcDbEntity
  8
0
100
AcDbCircle
 62
7
  6
CONTINUOUS
 10
18.6707864098
 20
10.5718116133
 40
0.062
100
AcDbArc
 50
287.0467181649
 51
329.0556893902
  0
ARC
  5
41F
100
AcDbEntity
  8
0
100
AcDbCircle
 62
7
  6
CONTINUOUS
 10
18.6980494867
 20
10.4828974714
 40
0.031
100
AcDbArc
 50
107.0467181656
 51
140.988745704
  0
ARC
  5
420
100
AcDbEntity
  8
0
100
AcDbCircle
 62
7
  6
CONTINUOUS
 10
18.6980494867
 20
8.6382772587
 40
0.031
100
AcDbArc
 50
219.011254296
 51
252.9532818344
  0
ARC
  5
421
100
AcDbEntity
  8
0
100
AcDbCircle
 62
7
  6
CONTINUOUS
 10
18.6165210242
 20
11.2264404485
 40
2.6280805876
100
AcDbArc
 50
223.3293788511
 51
223.5576893362
  0
ARC
  5
422
100
AcDbEntity
  8
0
100
AcDbCircle
 62
7
  6
CONTINUOUS
 10
18.6333874321
 20
11.1617032212
 40
2.6185733165
100
AcDbArc
 50
222.2472334712
 51
222.367635819
  0
ARC
  5
423
100
AcDbEntity
  8
0
100
AcDbCircle
 62
7
  6
CONTINUOUS
 10
18.5947019452
 20
11.1266821575
 40
2.5663909143
100
AcDbArc
 50
222.371983671
 51
222.8110681241
  0
ARC
  5
424
100
AcDbEntity
  8
0
100
AcDbCircle
 62
7
  6
CONTINUOUS
 10
17.9065362995
 20
11.7330596504
 40
2.4980647171
100
AcDbArc
 50
241.2423912859
 51
241.4331222537
  0
ARC
  5
425
100
AcDbEntity
  8
0
100
AcDbCircle
 62
7
  6
CONTINUOUS
 10
18.5190355089
 20
11.1336061113
 40
2.4934655303
100
AcDbArc
 50
223.0445132541
 51
223.3147664177
  0
ARC
  5
426
100
AcDbEntity
  8
0
100
AcDbCircle
 62
7
  6
CONTINUOUS
 10
18.0716946764
 20
11.4508860338
 40
2.4614666983
100
AcDbArc
 50
236.2674158405
 51
236.4687761472
  0
ARC
  5
427
100
AcDbEntity
  8
0
100
AcDbCircle
 62
7
  6
CONTINUOUS
 10
18.2891208894
 20
11.2962908651
 40
2.4126921809
100
AcDbArc
 50
228.9542831913
 51
229.180643092
  0
ARC
  5
428
100
AcDbEntity
  8
0
100
AcDbCircle
 62
7
  6
CONTINUOUS
 10
18.3075658331
 20
11.0704724397
 40
2.3268465861
100
AcDbArc
 50
226.4636283479
 51
226.6284195819
  0
ARC
  5
429
100
AcDbEntity
  8
0
100
AcDbCircle
 62
7
  6
CONTINUOUS
 10
18.1860060748
 20
10.9418909541
 40
2.1499009495
100
AcDbArc
 50
226.187390888
 51
226.4517516696
  0
ARC
  5
42A
100
AcDbEntity
  8
0
100
AcDbCircle
 62
7
  6
CONTINUOUS
 10
18.0453665821
 20
11.0168194067
 40
2.0418548325
100
AcDbArc
 50
228.4290709243
 51
228.9632076866
  0
ARC
  5
42B
100
AcDbEntity
  8
0
100
AcDbCircle
 62
7
  6
CONTINUOUS
 10
18.0785556371
 20
10.8306401706
 40
1.9952334211
100
AcDbArc
 50
225.9181515933
 51
226.2022643465
  0
ARC
  5
42C
100
AcDbEntity
  8
0
100
AcDbCircle
 62
7
  6
CONTINUOUS
 10
18.135406585
 20
10.7761234721
 40
1.9690949175
100
AcDbArc
 50
222.794761906
 51
223.0618388138
  0
ARC
  5
42D
100
AcDbEntity
  8
0
100
AcDbCircle
 62
7
  6
CONTINUOUS
 10
17.7830257022
 20
11.0182258006
 40
1.941346899
100
AcDbArc
 50
235.7526801004
 51
236.2616439339
  0
ARC
  5
42E
100
AcDbEntity
  8
0
100
AcDbCircle
 62
7
  6
CONTINUOUS
 10
18.08074556
 20
10.6598941882
 40
1.8720980443
100
AcDbArc
 50
222.0454874331
 51
222.2501062165
  0
ARC
  5
42F
100
AcDbEntity
  8
0
100
AcDbCircle
 62
7
  6
CONTINUOUS
 10
18.4074431343
 20
10.7183203844
 40
0.343
100
AcDbArc
 50
266.2419535376
 51
320.9887457037
  0
ARC
  5
430
100
AcDbEntity
  8
0
100
AcDbCircle
 62
7
  6
CONTINUOUS
 10
19.0399617944
 20
10.605587365
 40
0.125
100
AcDbArc
 50
90.0
 51
151.6423634238
  0
ARC
  5
431
100
AcDbEntity
  8
0
100
AcDbCircle
 62
7
  6
CONTINUOUS
 10
19.0399617944
 20
8.515587365
 40
0.125
100
AcDbArc
 50
208.3576365762
 51
270.0
  0
ARC
  5
432
100
AcDbEntity
  8
0
100
AcDbCircle
 62
7
  6
CONTINUOUS
 10
18.8834405041
 20
10.5546384232
 40
0.078
100
AcDbArc
 50
93.291697165
 51
143.2265724875
  0
ARC
  5
433
100
AcDbEntity
  8
0
100
AcDbCircle
 62
7
  6
CONTINUOUS
 10
18.8834405041
 20
8.5665363069
 40
0.078
100
AcDbArc
 50
216.7734275125
 51
266.708302835
  0
ARC
  5
434
100
AcDbEntity
  8
0
100
AcDbCircle
 62
7
  6
CONTINUOUS
 10
18.8754017944
 20
8.4267672862
 40
0.062
100
AcDbArc
 50
28.3576365764
 51
86.708302835
  0
ARC
  5
435
100
AcDbEntity
  8
0
100
AcDbCircle
 62
7
  6
CONTINUOUS
 10
19.5599629366
 20
12.7537234955
 40
0.2500109774
100
AcDbArc
 50
120.2644101314
 51
180.3593685398
  0
ARC
  5
436
100
AcDbEntity
  8
0
100
AcDbCircle
 62
7
  6
CONTINUOUS
 10
19.3039617944
 20
12.3141655507
 40
0.25
100
AcDbArc
 50
119.2092119337
 51
179.9999999998
  0
ARC
  5
437
100
AcDbEntity
  8
0
100
AcDbCircle
 62
7
  6
CONTINUOUS
 10
19.0599617944
 20
12.750587365
 40
0.25
100
AcDbArc
 50
299.2092119338
 51
0.3593685398
  0
ARC
  5
438
100
AcDbEntity
  8
0
100
AcDbCircle
 62
7
  6
CONTINUOUS
 10
19.3079617944
 20
13.185587365
 40
0.25
100
AcDbArc
 50
300.2644101314
 51
360.0
  0
ARC
  5
439
100
AcDbEntity
  8
0
100
AcDbCircle
 62
7
  6
CONTINUOUS
 10
19.8079617944
 20
13.185587365
 40
0.25
100
AcDbArc
 50
90.0
 51
179.9999999998
  0
ARC
  5
43A
100
AcDbEntity
  8
0
100
AcDbCircle
 62
7
  6
CONTINUOUS
 10
18.8754017944
 20
10.6944074439
 40
0.062
100
AcDbArc
 50
273.291697165
 51
331.6423634236
  0
ARC
  5
43B
100
AcDbEntity
  8
0
100
AcDbCircle
 62
7
  6
CONTINUOUS
 10
15.8179682959
 20
20.1604217608
 40
0.4718704255
100
AcDbArc
 50
229.7920715384
 51
230.6827040119
  0
ARC
  5
43C
100
AcDbEntity
  8
0
100
AcDbCircle
 62
7
  6
CONTINUOUS
 10
15.790790357
 20
20.128675184
 40
0.4496052089
100
AcDbArc
 50
229.6171324976
 51
230.5095691431
  0
ARC
  5
43D
100
AcDbEntity
  8
0
100
AcDbCircle
 62
7
  6
CONTINUOUS
 10
15.8182430474
 20
20.1514927072
 40
0.4146519229
100
AcDbArc
 50
229.8005626777
 51
230.6030174835
  0
ARC
  5
43E
100
AcDbEntity
  8
0
100
AcDbCircle
 62
7
  6
CONTINUOUS
 10
15.7798431405
 20
20.1156207066
 40
0.4130850876
100
AcDbArc
 50
229.7375842399
 51
230.8106612095
  0
ARC
  5
43F
100
AcDbEntity
  8
0
100
AcDbCircle
 62
7
  6
CONTINUOUS
 10
14.8537866756
 20
20.1771750692
 40
0.3902149758
100
AcDbArc
 50
50.0627440704
 51
50.7911840828
  0
ARC
  5
440
100
AcDbEntity
  8
0
100
AcDbCircle
 62
7
  6
CONTINUOUS
 10
15.8099521863
 20
20.1399643579
 40
0.3788661273
100
AcDbArc
 50
229.9301682554
 51
230.7693185299
  0
ARC
  5
441
100
AcDbEntity
  8
0
100
AcDbCircle
 62
7
  6
CONTINUOUS
 10
14.9161476837
 20
20.2474053269
 40
0.3413104652
100
AcDbArc
 50
50.1944419661
 51
51.111638186
  0
ARC
  5
442
100
AcDbEntity
  8
0
100
AcDbCircle
 62
7
  6
CONTINUOUS
 10
15.7565392525
 20
20.0754479385
 40
0.3166965389
100
AcDbArc
 50
230.366459754
 51
231.224439203
  0
ARC
  5
443
100
AcDbEntity
  8
0
100
AcDbCircle
 62
7
  6
CONTINUOUS
 10
14.9036048176
 20
20.2386201761
 40
0.3110536831
100
AcDbArc
 50
50.6451789941
 51
51.6013483066
  0
ARC
  5
444
100
AcDbEntity
  8
0
100
AcDbCircle
 62
7
  6
CONTINUOUS
 10
15.0265794164
 20
19.2451158958
 40
0.0625
100
AcDbArc
 50
93.7193044778
 51
176.2806955229
  0
ARC
  5
445
100
AcDbEntity
  8
0
100
AcDbCircle
 62
7
  6
CONTINUOUS
 10
14.9676595334
 20
20.3111509369
 40
0.259353367
100
AcDbArc
 50
51.1283182374
 51
51.3877289523
  0
ARC
  5
446
100
AcDbEntity
  8
0
100
AcDbCircle
 62
7
  6
CONTINUOUS
 10
15.8994608994
 20
20.2469986891
 40
0.5183940429
100
AcDbArc
 50
229.8272172731
 51
229.9746819134
  0
ARC
  5
447
100
AcDbEntity
  8
0
100
AcDbCircle
 62
7
  6
CONTINUOUS
 10
15.9185070038
 20
20.2517977055
 40
0.4157640202
100
AcDbArc
 50
230.1934318562
 51
230.3445680703
  0
ARC
  5
448
100
AcDbEntity
  8
0
100
AcDbCircle
 62
7
  6
CONTINUOUS
 10
15.8666688551
 20
20.1992824178
 40
0.4122942475
100
AcDbArc
 50
229.9342516378
 51
230.4910540673
  0
ARC
  5
449
100
AcDbEntity
  8
0
100
AcDbCircle
 62
7
  6
CONTINUOUS
 10
15.9266708136
 20
20.2599068518
 40
0.4013148977
100
AcDbArc
 50
230.1622189848
 51
230.3371646898
  0
ARC
  5
44A
100
AcDbEntity
  8
0
100
AcDbCircle
 62
7
  6
CONTINUOUS
 10
15.8585402314
 20
20.1874099778
 40
0.3742007873
100
AcDbArc
 50
230.0795586046
 51
230.7522034629
  0
ARC
  5
44B
100
AcDbEntity
  8
0
100
AcDbCircle
 62
7
  6
CONTINUOUS
 10
15.9068884284
 20
20.235642584
 40
0.3699430543
100
AcDbArc
 50
230.4087593118
 51
230.8273046931
  0
ARC
  5
44C
100
AcDbEntity
  8
0
100
AcDbCircle
 62
7
  6
CONTINUOUS
 10
15.8876116826
 20
20.2144994618
 40
0.3673318042
100
AcDbArc
 50
230.3420103665
 51
230.6210506195
  0
ARC
  5
44D
100
AcDbEntity
  8
0
100
AcDbCircle
 62
7
  6
CONTINUOUS
 10
15.9021164834
 20
20.2302905536
 40
0.3628436066
100
AcDbArc
 50
230.3370236477
 51
230.5243327484
  0
ARC
  5
44E
100
AcDbEntity
  8
0
100
AcDbCircle
 62
7
  6
CONTINUOUS
 10
15.8825046125
 20
20.2080136546
 40
0.359063289
100
AcDbArc
 50
230.4947308659
 51
230.6750640331
  0
ARC
  5
44F
100
AcDbEntity
  8
0
100
AcDbCircle
 62
7
  6
CONTINUOUS
 10
15.8787561227
 20
20.2019240474
 40
0.326096292
100
AcDbArc
 50
230.5239317807
 51
230.7383472132
  0
ARC
  5
450
100
AcDbEntity
  8
0
100
AcDbCircle
 62
7
  6
CONTINUOUS
 10
15.8429846767
 20
20.1597189432
 40
0.2966597388
100
AcDbArc
 50
230.6684993277
 51
231.2701204684
  0
ARC
  5
451
100
AcDbEntity
  8
0
100
AcDbCircle
 62
7
  6
CONTINUOUS
 10
15.8567664572
 20
20.1750159523
 40
0.2913458826
100
AcDbArc
 50
230.7376928323
 51
231.0156813702
  0
ARC
  5
452
100
AcDbEntity
  8
0
100
AcDbCircle
 62
7
  6
CONTINUOUS
 10
16.8053324125
 20
21.293895681
 40
1.9751363574
100
AcDbArc
 50
228.1956192021
 51
228.4470108653
  0
ARC
  5
453
100
AcDbEntity
  8
0
100
AcDbCircle
 62
7
  6
CONTINUOUS
 10
16.7113147418
 20
21.1882938992
 40
1.8532467483
100
AcDbArc
 50
227.899415645
 51
228.458230853
  0
ARC
  5
454
100
AcDbEntity
  8
0
100
AcDbCircle
 62
7
  6
CONTINUOUS
 10
16.7065590674
 20
21.1819633534
 40
1.8259010665
100
AcDbArc
 50
228.1675428373
 51
228.4383674815
  0
ARC
  5
455
100
AcDbEntity
  8
0
100
AcDbCircle
 62
7
  6
CONTINUOUS
 10
16.351093208
 20
20.7809875409
 40
1.2900028779
100
AcDbArc
 50
228.4340504508
 51
229.2192620954
  0
ARC
  5
456
100
AcDbEntity
  8
0
100
AcDbCircle
 62
7
  6
CONTINUOUS
 10
16.2206157283
 20
20.6318365506
 40
1.0918865474
100
AcDbArc
 50
228.3667624034
 51
229.2908780444
  0
ARC
  5
457
100
AcDbEntity
  8
0
100
AcDbCircle
 62
7
  6
CONTINUOUS
 10
15.9844278417
 20
20.3572631187
 40
0.7296596782
100
AcDbArc
 50
229.2885188279
 51
229.7879333231
  0
ARC
  5
458
100
AcDbEntity
  8
0
100
AcDbCircle
 62
7
  6
CONTINUOUS
 10
15.9448273239
 20
20.3106888046
 40
0.6880504176
100
AcDbArc
 50
229.2388434869
 51
229.6662882845
  0
ARC
  5
459
100
AcDbEntity
  8
0
100
AcDbCircle
 62
7
  6
CONTINUOUS
 10
16.0308663785
 20
20.3938151136
 40
0.666861374
100
AcDbArc
 50
229.4536146326
 51
229.5702244379
  0
ARC
  5
45A
100
AcDbEntity
  8
0
100
AcDbCircle
 62
7
  6
CONTINUOUS
 10
15.9396389025
 20
20.305456468
 40
0.6612220468
100
AcDbArc
 50
229.3010754431
 51
229.8025635565
  0
ARC
  5
45B
100
AcDbEntity
  8
0
100
AcDbCircle
 62
7
  6
CONTINUOUS
 10
15.9708039606
 20
20.3313985043
 40
0.6289071979
100
AcDbArc
 50
229.3256629686
 51
229.8210646433
  0
ARC
  5
45C
100
AcDbEntity
  8
0
100
AcDbCircle
 62
7
  6
CONTINUOUS
 10
15.9497897647
 20
20.3077774103
 40
0.6189295306
100
AcDbArc
 50
229.3574875749
 51
229.8374339554
  0
ARC
  5
45D
100
AcDbEntity
  8
0
100
AcDbCircle
 62
7
  6
CONTINUOUS
 10
16.0372332303
 20
20.3930626435
 40
0.6002957874
100
AcDbArc
 50
229.6225299891
 51
229.7509760464
  0
ARC
  5
45E
100
AcDbEntity
  8
0
100
AcDbCircle
 62
7
  6
CONTINUOUS
 10
15.9912826809
 20
20.3460493659
 40
0.5810513874
100
AcDbArc
 50
229.5046545976
 51
229.951313722
  0
ARC
  5
45F
100
AcDbEntity
  8
0
100
AcDbCircle
 62
7
  6
CONTINUOUS
 10
15.9572101719
 20
20.307193449
 40
0.5531576564
100
AcDbArc
 50
229.5590076668
 51
229.951533421
  0
ARC
  5
460
100
AcDbEntity
  8
0
100
AcDbCircle
 62
7
  6
CONTINUOUS
 10
16.0017929514
 20
20.3516066347
 40
0.5457403803
100
AcDbArc
 50
229.5208623353
 51
230.4220502717
  0
ARC
  5
461
100
AcDbEntity
  8
0
100
AcDbCircle
 62
7
  6
CONTINUOUS
 10
16.0155923653
 20
20.3664710162
 40
0.5400386745
100
AcDbArc
 50
229.6462466582
 51
230.3673134749
  0
ARC
  5
462
100
AcDbEntity
  8
0
100
AcDbCircle
 62
7
  6
CONTINUOUS
 10
15.965860339
 20
20.3085622757
 40
0.4896866395
100
AcDbArc
 50
229.7367340164
 51
230.189130628
  0
ARC
  5
463
100
AcDbEntity
  8
0
100
AcDbCircle
 62
7
  6
CONTINUOUS
 10
15.9310873605
 20
20.2744947959
 40
0.4875445355
100
AcDbArc
 50
229.9558315741
 51
230.1083898833
  0
ARC
  5
464
100
AcDbEntity
  8
0
100
AcDbCircle
 62
7
  6
CONTINUOUS
 10
15.9792265189
 20
20.3228248764
 40
0.4832952489
100
AcDbArc
 50
229.629158077
 51
230.1563878068
  0
ARC
  5
465
100
AcDbEntity
  8
0
100
AcDbCircle
 62
7
  6
CONTINUOUS
 10
17.1492295699
 20
21.6782680133
 40
2.4908953429
100
AcDbArc
 50
227.9934505622
 51
228.1926058737
  0
ARC
  5
466
100
AcDbEntity
  8
0
100
AcDbCircle
 62
7
  6
CONTINUOUS
 10
17.0571683942
 20
21.5740367566
 40
2.3518748323
100
AcDbArc
 50
227.9503047089
 51
228.173798238
  0
ARC
  5
467
100
AcDbEntity
  8
0
100
AcDbCircle
 62
7
  6
CONTINUOUS
 10
16.9957518679
 20
21.4922833236
 40
2.1289420172
100
AcDbArc
 50
227.8910444632
 51
228.2644369593
  0
ARC
  5
468
100
AcDbEntity
  8
0
100
AcDbCircle
 62
7
  6
CONTINUOUS
 10
17.4579617944
 20
19.810587365
 40
2.15625
100
AcDbArc
 50
90.0
 51
135.0
  0
ARC
  5
469
100
AcDbEntity
  8
0
100
AcDbCircle
 62
7
  6
CONTINUOUS
 10
17.4579617944
 20
19.810587365
 40
1.34375
100
AcDbArc
 50
90.0
 51
134.9999999999
  0
ARC
  5
46A
100
AcDbEntity
  8
0
100
AcDbCircle
 62
7
  6
CONTINUOUS
 10
19.5757885472
 20
20.420587365
 40
0.05
100
AcDbArc
 50
195.5395958348
 51
270.0
  0
ARC
  5
46B
100
AcDbEntity
  8
0
100
AcDbCircle
 62
9
  6
CONTINUOUS
 10
19.8963847894
 20
23.4722301794
 40
22.6506747255
100
AcDbArc
 50
260.9144909144
 51
261.3732806032
  0
ARC
  5
46C
100
AcDbEntity
  8
0
100
AcDbCircle
 62
7
  6
CONTINUOUS
 10
17.7296664779
 20
22.2993245787
 40
3.1495419572
100
AcDbArc
 50
227.6399872047
 51
227.8822721642
  0
ARC
  5
46D
100
AcDbEntity
  8
0
100
AcDbCircle
 62
7
  6
CONTINUOUS
 10
17.3979101192
 20
21.9345151631
 40
2.6305034278
100
AcDbArc
 50
227.969715565
 51
228.2033977266
  0
ARC
  5
46E
100
AcDbEntity
  8
0
100
AcDbCircle
 62
7
  6
CONTINUOUS
 10
19.5757885472
 20
22.700587365
 40
0.05
100
AcDbArc
 50
90.0
 51
164.4604041652
  0
ARC
  5
46F
100
AcDbEntity
  8
0
100
AcDbCircle
 62
9
  6
CONTINUOUS
 10
27.1966534946
 20
7.4366260149
 40
12.3856170516
100
AcDbArc
 50
204.8847215762
 51
205.801540766
  0
ARC
  5
470
100
AcDbEntity
  8
0
100
AcDbCircle
 62
9
  6
CONTINUOUS
 10
25.7943390465
 20
6.7962098889
 40
10.8440193536
100
AcDbArc
 50
204.6639961727
 51
204.9329500717
  0
ARC
  5
471
100
AcDbEntity
  8
0
100
AcDbCircle
 62
9
  6
CONTINUOUS
 10
22.1048061683
 20
30.9696320006
 40
30.2168960816
100
AcDbArc
 50
261.8421361243
 51
263.7362370183
  0
ARC
  5
472
100
AcDbEntity
  8
0
100
AcDbCircle
 62
9
  6
CONTINUOUS
 10
21.2899525361
 20
28.3351931997
 40
27.4866395366
100
AcDbArc
 50
259.6324973936
 51
260.0108917259
  0
ARC
  5
473
100
AcDbEntity
  8
0
100
AcDbCircle
 62
7
  6
CONTINUOUS
 10
22.1303935782
 20
21.3023810567
 40
1.7160558204
100
AcDbArc
 50
183.0965892073
 51
183.7243001389
  0
ARC
  5
474
100
AcDbEntity
  8
0
100
AcDbCircle
 62
9
  6
CONTINUOUS
 10
-43.9880052175
 20
603.9122525121
 40
604.8532181781
100
AcDbArc
 50
275.6961857211
 51
275.959195709
  0
ARC
  5
475
100
AcDbEntity
  8
0
100
AcDbCircle
 62
9
  6
CONTINUOUS
 10
166.093004676
 20
268.5186342362
 40
306.467720294
100
AcDbArc
 50
240.5368146914
 51
240.6867268127
  0
ARC
  5
476
100
AcDbEntity
  8
0
100
AcDbCircle
 62
9
  6
CONTINUOUS
 10
193.8465732609
 20
194.7136066386
 40
262.4237895164
100
AcDbArc
 50
227.2878742997
 51
227.4900682194
  0
SPLINE
  5
477
100
AcDbEntity
  8
0
100
AcDbSpline
 62
7
  6
CONTINUOUS
 70
0
 71
3
 72
14
 73
10
 74
8
 42
0.0000001
 43
0.0000001
 44
0.0000000001
 12
-0.1548997736
 22
-0.171534381
 32
0.0
 13
-0.189361838
 23
0.1325144447
 33
0.0
 40
0.0
 40
0.0
 40
0.0
 40
0.0
 40
0.1160663499
 40
0.231862371
 40
0.3473680352
 40
0.4656486362
 40
0.7180010797
 40
0.8555623579
 40
1.0
 40
1.0
 40
1.0
 40
1.0
 10
12.6425049368
 20
17.1339218169
 30
0.0
 10
12.636512053
 20
17.1272853604
 30
0.0
 10
12.6223872371
 20
17.1158635084
 30
0.0
 10
12.597518435
 20
17.1051806904
 30
0.0
 10
12.5706141423
 20
17.10124407
 30
0.0
 10
12.533038364
 20
17.1035723183
 30
0.0
 10
12.4952304114
 20
17.1158226853
 30
0.0
 10
12.4585620384
 20
17.1345505807
 30
0.0
 10
12.4402087806
 20
17.1462622592
 30
0.0
 10
12.4310917881
 20
17.1526422838
 30
0.0
 11
12.6425049368
 21
17.1339218169
 31
0.0
 11
12.6217506518
 21
17.116925507
 31
0.0
 11
12.597186393
 21
17.1063017647
 31
0.0
 11
12.5708086959
 21
17.1021912601
 31
0.0
 11
12.5435107407
 21
17.1036593496
 31
0.0
 11
12.4876334296
 21
17.1203769181
 31
0.0
 11
12.4592714217
 21
17.1347446123
 31
0.0
 11
12.4310917881
 21
17.1526422838
 31
0.0
  0
SPLINE
  5
478
100
AcDbEntity
  8
0
100
AcDbSpline
 62
7
  6
CONTINUOUS
 70
0
 71
3
 72
9
 73
5
 74
3
 42
0.0000001
 43
0.0000001
 44
0.0000000001
 12
-0.0616632634
 22
0.043151636
 32
0.0
 13
-0.053213407
 23
0.0532236325
 33
0.0
 40
0.0
 40
0.0
 40
0.0
 40
0.0
 40
0.4957912618
 40
1.0
 40
1.0
 40
1.0
 40
1.0
 10
12.4310917881
 20
17.1526422838
 30
0.0
 10
12.4209010857
 20
17.1597736852
 30
0.0
 10
12.4010202546
 20
17.1751367905
 30
0.0
 10
12.3825212412
 20
17.1921317184
 30
0.0
 10
12.3735776863
 20
17.2010769919
 30
0.0
 11
12.4310917881
 21
17.1526422838
 31
0.0
 11
12.4015272642
 21
17.1754085885
 31
0.0
 11
12.3735776863
 21
17.2010769919
 31
0.0
  0
SPLINE
  5
479
100
AcDbEntity
  8
0
100
AcDbSpline
 62
7
  6
CONTINUOUS
 70
0
 71
3
 72
9
 73
5
 74
3
 42
0.0000001
 43
0.0000001
 44
0.0000000001
 12
-0.0530203303
 22
0.0530101314
 32
0.0
 13
-0.0430328139
 23
0.0613954915
 33
0.0
 40
0.0
 40
0.0
 40
0.0
 40
0.0
 40
0.5041801528
 40
1.0
 40
1.0
 40
1.0
 40
1.0
 10
12.3735771859
 20
17.2010764904
 30
0.0
 10
12.3646665865
 20
17.2099853758
 30
0.0
 10
12.3477338775
 20
17.2284109138
 30
0.0
 10
12.3324196766
 20
17.2482077946
 30
0.0
 10
12.3253075022
 20
17.258354829
 30
0.0
 11
12.3735771859
 21
17.2010764904
 31
0.0
 11
12.3480037358
 21
17.228913549
 31
0.0
 11
12.3253075022
 21
17.258354829
 31
0.0
  0
SPLINE
  5
47A
100
AcDbEntity
  8
0
100
AcDbSpline
 62
7
  6
CONTINUOUS
 70
0
 71
3
 72
15
 73
11
 74
9
 42
0.0000001
 43
0.0000001
 44
0.0000000001
 12
-0.1329153995
 22
0.1896321793
 32
0.0
 13
0.1723345993
 23
0.1546856578
 33
0.0
 40
0.0
 40
0.0
 40
0.0
 40
0.0
 40
0.1444334862
 40
0.2819837766
 40
0.5343105775
 40
0.6524926848
 40
0.7679303695
 40
0.8837456348
 40
0.9418922138
 40
1.0
 40
1.0
 40
1.0
 40
1.0
 10
12.3253075022
 20
17.258354829
 30
0.0
 10
12.3189083574
 20
17.2674845746
 30
0.0
 10
12.3071612916
 20
17.2858640504
 30
0.0
 10
12.2883724425
 20
17.3225896428
 30
0.0
 10
12.2760961223
 20
17.3604549865
 30
0.0
 10
12.2737307594
 20
17.3980941964
 30
0.0
 10
12.277694629
 20
17.4250224342
 30
0.0
 10
12.2866234396
 20
17.4458262686
 30
0.0
 10
12.2969323967
 20
17.4605365347
 30
0.0
 10
12.3031587418
 20
17.4670594483
 30
0.0
 10
12.3064967358
 20
17.4700555954
 30
0.0
 11
12.3253075022
 21
17.258354829
 31
0.0
 11
12.30735497
 21
17.2865757144
 31
0.0
 11
12.2929424032
 21
17.3149817464
 31
0.0
 11
12.2761705522
 21
17.3709555264
 31
0.0
 11
12.2746865903
 21
17.3982832572
 31
0.0
 11
12.2788145577
 21
17.4246950719
 31
0.0
 11
12.2894489064
 21
17.4493165506
 31
0.0
 11
12.2971998256
 21
17.4603273184
 31
0.0
 11
12.3064967358
 21
17.4700555954
 31
0.0
  0
LINE
  5
47B
100
AcDbEntity
  8
0
100
AcDbLine
 62
7
  6
CONTINUOUS
 10
16.7055619137
 20
9.4476642286
 11
16.7120017961
 21
9.4458437416
  0
LINE
  5
47C
100
AcDbEntity
  8
0
100
AcDbLine
 62
7
  6
CONTINUOUS
 10
16.7096573781
 20
9.3790518519
 11
16.7120017961
 21
9.376838741
  0
LINE
  5
47D
100
AcDbEntity
  8
0
100
AcDbLine
 62
7
  6
CONTINUOUS
 10
16.6976331333
 20
9.6712483898
 11
16.6941138645
 21
9.6702378551
  0
LINE
  5
47E
100
AcDbEntity
  8
0
100
AcDbLine
 62
7
  6
CONTINUOUS
 10
16.6941138645
 20
9.6702378551
 11
16.690500532
 21
9.669194965
  0
LINE
  5
47F
100
AcDbEntity
  8
0
100
AcDbLine
 62
7
  6
CONTINUOUS
 10
16.6976331333
 20
9.712527633
 11
16.6939149131
 21
9.7100160864
  0
LINE
  5
480
100
AcDbEntity
  8
0
100
AcDbLine
 62
7
  6
CONTINUOUS
 10
16.6976331333
 20
9.7306753477
 11
16.6936607022
 21
9.7268574951
  0
LINE
  5
481
100
AcDbEntity
  8
0
100
AcDbLine
 62
7
  6
CONTINUOUS
 10
16.6936607022
 20
9.7268574951
 11
16.690500532
 21
9.7238044543
  0
SPLINE
  5
482
100
AcDbEntity
  8
0
100
AcDbSpline
 62
7
  6
CONTINUOUS
 70
0
 71
3
 72
12
 73
8
 74
6
 42
0.0000001
 43
0.0000001
 44
0.0000000001
 12
0.012026861
 22
0.012026861
 32
0.0
 13
0.0131338237
 23
-0.0108071015
 33
0.0
 40
0.0
 40
0.0
 40
0.0
 40
0.0
 40
0.0285230676
 40
0.0803138626
 40
0.269151529
 40
0.5756730679
 40
1.0
 40
1.0
 40
1.0
 40
1.0
 10
14.9694398577
 20
20.3714634222
 30
0.0
 10
14.9695542053
 20
20.3715777698
 30
0.0
 10
14.9700802103
 20
20.3715992308
 30
0.0
 10
14.9714602761
 20
20.3710269482
 30
0.0
 10
14.9741311514
 20
20.369357161
 30
0.0
 10
14.9782956999
 20
20.3662561001
 30
0.0
 10
14.9815311956
 20
20.3636540988
 30
0.0
 10
14.983388874
 20
20.3621255174
 30
0.0
 11
14.9694398577
 21
20.3714634222
 31
0.0
 11
14.9699134178
 21
20.371568768
 31
0.0
 11
14.9707548301
 21
20.3713080267
 31
0.0
 11
14.9735312594
 21
20.3696932659
 31
0.0
 11
14.9777492418
 21
20.3666291071
 31
0.0
 11
14.983388874
 21
20.3621255174
 31
0.0
  0
LINE
  5
483
100
AcDbEntity
  8
0
100
AcDbLine
 62
7
  6
CONTINUOUS
 10
14.983388874
 20
20.3621255174
 11
14.9900882278
 21
20.3564900199
  0
SPLINE
  5
484
100
AcDbEntity
  8
0
100
AcDbSpline
 62
7
  6
CONTINUOUS
 70
0
 71
3
 72
9
 73
5
 74
3
 42
0.0000001
 43
0.0000001
 44
0.0000000001
 12
0.0285766792
 22
-0.024609426
 32
0.0
 13
0.0279921025
 23
-0.0252723691
 33
0.0
 40
0.0
 40
0.0
 40
0.0
 40
0.0
 40
0.2121295262
 40
1.0
 40
1.0
 40
1.0
 40
1.0
 10
14.9916370553
 20
20.3551601587
 30
0.0
 10
14.9936577078
 20
20.3534200301
 30
0.0
 10
15.0031382433
 20
20.3451646134
 30
0.0
 10
15.0124939083
 20
20.3367671603
 30
0.0
 10
15.019845292
 20
20.3301300425
 30
0.0
 11
14.9916370553
 21
20.3551601587
 31
0.0
 11
14.9976742918
 21
20.3499112033
 31
0.0
 11
15.019845292
 21
20.3301300425
 31
0.0
  0
LINE
  5
485
100
AcDbEntity
  8
0
100
AcDbLine
 62
7
  6
CONTINUOUS
 10
15.019845292
 20
20.3301300425
 11
15.0247080742
 21
20.3257321449
  0
LINE
  5
486
100
AcDbEntity
  8
0
100
AcDbLine
 62
7
  6
CONTINUOUS
 10
15.1039927665
 20
20.2524450646
 11
15.1213853439
 21
20.2361148018
  0
LINE
  5
487
100
AcDbEntity
  8
0
100
AcDbLine
 62
7
  6
CONTINUOUS
 10
15.1213853439
 20
20.2361148018
 11
15.1441876816
 21
20.2146653825
  0
LINE
  5
488
100
AcDbEntity
  8
0
100
AcDbLine
 62
7
  6
CONTINUOUS
 10
15.1441876816
 20
20.2146653825
 11
15.1464756509
 21
20.2125122144
  0
LINE
  5
489
100
AcDbEntity
  8
0
100
AcDbLine
 62
7
  6
CONTINUOUS
 10
15.1464756509
 20
20.2125122144
 11
15.1530766608
 21
20.2062996885
  0
SPLINE
  5
48A
100
AcDbEntity
  8
0
100
AcDbSpline
 62
7
  6
CONTINUOUS
 70
0
 71
3
 72
15
 73
11
 74
9
 42
0.0000001
 43
0.0000001
 44
0.0000000001
 12
0.2841056318
 22
-0.2692792097
 32
0.0
 13
0.3015418244
 23
-0.2495993408
 33
0.0
 40
0.0
 40
0.0
 40
0.0
 40
0.0
 40
0.16612322
 40
0.3280908534
 40
0.4817496852
 40
0.6231481815
 40
0.748628832
 40
0.8549884913
 40
0.9394787942
 40
1.0
 40
1.0
 40
1.0
 40
1.0
 10
15.2677777256
 20
20.0979649708
 30
0.0
 10
15.2835099063
 20
20.0830537944
 30
0.0
 10
15.314580667
 20
20.0536043549
 30
0.0
 10
15.3603010686
 20
20.0104659802
 30
0.0
 10
15.4037219271
 20
19.9695915114
 30
0.0
 10
15.4437217868
 20
19.9320285202
 30
0.0
 10
15.4793692502
 20
19.8988471061
 30
0.0
 10
15.5097758855
 20
19.8709338151
 30
0.0
 10
15.5341674266
 20
19.8490065927
 30
0.0
 10
15.5484432452
 20
19.8365826264
 30
0.0
 10
15.5545264701
 20
19.8315472754
 30
0.0
 11
15.2677777256
 21
20.0979649708
 31
0.0
 11
15.3149912996
 21
20.0532494176
 31
0.0
 11
15.3610981537
 21
20.0097310464
 31
0.0
 11
15.4048954187
 21
19.9685041737
 31
0.0
 11
15.4452652345
 21
19.9306381813
 31
0.0
 11
15.4812372004
 21
19.8971920774
 31
0.0
 11
15.5119320313
 21
19.8690639351
 31
0.0
 11
15.5365627599
 21
19.8469922936
 31
0.0
 11
15.5545264701
 21
19.8315472754
 31
0.0
  0
SPLINE
  5
48B
100
AcDbEntity
  8
0
100
AcDbSpline
 62
7
  6
CONTINUOUS
 70
0
 71
3
 72
11
 73
7
 74
5
 42
0.0000001
 43
0.0000001
 44
0.0000000001
 12
0.0093738055
 22
-0.0075141689
 32
0.0
 13
0.0115604909
 23
-0.003268947
 33
0.0
 40
0.0
 40
0.0
 40
0.0
 40
0.0
 40
0.3686170478
 40
0.6579013844
 40
0.8679302942
 40
1.0
 40
1.0
 40
1.0
 40
1.0
 10
15.5582012893
 20
19.82854968
 30
0.0
 10
15.5593530708
 20
19.8276263964
 30
0.0
 10
15.5614233835
 20
19.8259984505
 30
0.0
 10
15.5642220755
 20
19.8239291944
 30
0.0
 10
15.566333448
 20
19.8225502836
 30
0.0
 10
15.5675576771
 20
19.8218984068
 30
0.0
 10
15.5680666073
 20
19.8217544972
 30
0.0
 11
15.5582012893
 21
19.82854968
 31
0.0
 11
15.5616890819
 21
19.8258208007
 31
0.0
 11
15.5644976652
 21
19.8237737888
 31
0.0
 11
15.5666243901
 21
19.8224159267
 31
0.0
 11
15.5680666073
 21
19.8217544972
 31
0.0
  0
SPLINE
  5
48C
100
AcDbEntity
  8
0
100
AcDbSpline
 62
7
  6
CONTINUOUS
 70
0
 71
3
 72
14
 73
10
 74
8
 42
0.0000001
 43
0.0000001
 44
0.0000000001
 12
0.0119073943
 22
0.0119073943
 32
0.0
 13
0.0130152242
 23
-0.0106853178
 33
0.0
 40
0.0
 40
0.0
 40
0.0
 40
0.0
 40
0.0286751874
 40
0.0512630905
 40
0.0805486245
 40
0.1603730248
 40
0.26935448
 40
0.5757176049
 40
1.0
 40
1.0
 40
1.0
 40
1.0
 10
15.0192485176
 20
20.4212720821
 30
0.0
 10
15.0193623332
 20
20.4213858977
 30
0.0
 10
15.0197003674
 20
20.4214048403
 30
0.0
 10
15.0201259241
 20
20.4212919912
 30
0.0
 10
15.020821494
 20
20.4210216227
 30
0.0
 10
15.0218933181
 20
20.4204310227
 30
0.0
 10
15.0242328568
 20
20.4189256816
 30
0.0
 10
15.0280084536
 20
20.4160997603
 30
0.0
 10
15.0312055087
 20
20.4135308342
 30
0.0
 10
15.0330462189
 20
20.4120196368
 30
0.0
 11
15.0192485176
 21
20.4212720821
 31
0.0
 11
15.019719481
 21
20.4213786902
 31
0.0
 11
15.0200905226
 21
20.4212949623
 31
0.0
 11
15.0205516853
 21
20.421120227
 31
0.0
 11
15.0217436172
 21
20.4204987761
 31
0.0
 11
15.0232937631
 21
20.4195164212
 31
0.0
 11
15.0274626435
 21
20.4164773346
 31
0.0
 11
15.0330462189
 21
20.4120196368
 31
0.0
  0
SPLINE
  5
48D
100
AcDbEntity
  8
0
100
AcDbSpline
 62
7
  6
CONTINUOUS
 70
0
 71
3
 72
9
 73
5
 74
3
 42
0.0000001
 43
0.0000001
 44
0.0000000001
 12
0.0298181081
 22
-0.0254474639
 32
0.0
 13
0.0290935306
 23
-0.0262727895
 33
0.0
 40
0.0
 40
0.0
 40
0.0
 40
0.0
 40
0.4463737154
 40
1.0
 40
1.0
 40
1.0
 40
1.0
 10
15.0401041518
 20
20.4060987039
 30
0.0
 10
15.044540825
 20
20.4023123442
 30
0.0
 10
15.0543785154
 20
20.3937109409
 30
0.0
 10
15.0641096425
 20
20.384990156
 30
0.0
 10
15.0694786236
 20
20.3801417203
 30
0.0
 11
15.0401041518
 21
20.4060987039
 31
0.0
 11
15.0533021651
 21
20.3946096768
 31
0.0
 11
15.0694786236
 21
20.3801417203
 31
0.0
  0
SPLINE
  5
48E
100
AcDbEntity
  8
0
100
AcDbSpline
 62
7
  6
CONTINUOUS
 70
0
 71
3
 72
9
 73
5
 74
3
 42
0.0000001
 43
0.0000001
 44
0.0000000001
 12
0.0558213081
 22
-0.0504091958
 32
0.0
 13
0.0550901999
 23
-0.0512071804
 33
0.0
 40
0.0
 40
0.0
 40
0.0
 40
0.0
 40
0.2187143861
 40
1.0
 40
1.0
 40
1.0
 40
1.0
 10
15.0694786236
 20
20.3801417203
 30
0.0
 10
15.0735482647
 20
20.3764666482
 30
0.0
 10
15.0921051444
 20
20.3596079683
 30
0.0
 10
15.1105127205
 20
20.3425857348
 30
0.0
 10
15.1248597807
 20
20.3292499236
 30
0.0
 11
15.0694786236
 21
20.3801417203
 31
0.0
 11
15.0816584357
 21
20.3690843528
 31
0.0
 11
15.1248597807
 21
20.3292499236
 31
0.0
  0
LINE
  5
48F
100
AcDbEntity
  8
0
100
AcDbLine
 62
7
  6
CONTINUOUS
 10
15.1681873959
 20
20.2887745876
 11
15.195887151
 21
20.2627402976
  0
LINE
  5
490
100
AcDbEntity
  8
0
100
AcDbLine
 62
7
  6
CONTINUOUS
 10
15.195887151
 20
20.2627402976
 11
15.4427792715
 21
20.0294135658
  0
SPLINE
  5
491
100
AcDbEntity
  8
0
100
AcDbSpline
 62
7
  6
CONTINUOUS
 70
0
 71
3
 72
10
 73
6
 74
4
 42
0.0000001
 43
0.0000001
 44
0.0000000001
 12
0.1246653933
 22
-0.1173471488
 32
0.0
 13
0.1270224799
 23
-0.1147915643
 33
0.0
 40
0.0
 40
0.0
 40
0.0
 40
0.0
 40
0.5617370967
 40
0.7987037307
 40
1.0
 40
1.0
 40
1.0
 40
1.0
 10
15.4427792715
 20
20.0294135658
 30
0.0
 10
15.4661223302
 20
20.0074408169
 30
0.0
 10
15.4993922214
 20
19.9762832026
 30
0.0
 10
15.5412379343
 20
19.9374784756
 30
0.0
 10
15.5596825355
 20
19.9205852625
 30
0.0
 10
15.5682055859
 20
19.9128828913
 30
0.0
 11
15.4427792715
 21
20.0294135658
 31
0.0
 11
15.512995891
 21
19.9636950213
 31
0.0
 11
15.5427613349
 21
19.9361274668
 31
0.0
 11
15.5682055859
 21
19.9128828913
 31
0.0
  0
SPLINE
  5
492
100
AcDbEntity
  8
0
100
AcDbSpline
 62
7
  6
CONTINUOUS
 70
0
 71
3
 72
9
 73
5
 74
3
 42
0.0000001
 43
0.0000001
 44
0.0000000001
 12
0.0259252079
 22
-0.0231153713
 32
0.0
 13
0.026837862
 23
-0.0220491713
 33
0.0
 40
0.0
 40
0.0
 40
0.0
 40
0.0
 40
0.5659777953
 40
1.0
 40
1.0
 40
1.0
 40
1.0
 10
15.5785286668
 20
19.9036132789
 30
0.0
 10
15.5834196974
 20
19.8992523499
 30
0.0
 10
15.5921026696
 20
19.8915934973
 30
0.0
 10
15.6009144106
 20
19.8840810856
 30
0.0
 10
15.6047971533
 20
19.8808911423
 30
0.0
 11
15.5785286668
 21
19.9036132789
 31
0.0
 11
15.593289685
 21
19.8906297784
 31
0.0
 11
15.6047971533
 21
19.8808911423
 31
0.0
  0
SPLINE
  5
493
100
AcDbEntity
  8
0
100
AcDbSpline
 62
7
  6
CONTINUOUS
 70
0
 71
3
 72
12
 73
8
 74
6
 42
0.0000001
 43
0.0000001
 44
0.0000000001
 12
0.012493047
 22
-0.0102639075
 32
0.0
 13
0.0156198871
 23
-0.0041764996
 33
0.0
 40
0.0
 40
0.0
 40
0.0
 40
0.0
 40
0.379267526
 40
0.6722478501
 40
0.8787431104
 40
0.9498137581
 40
1.0
 40
1.0
 40
1.0
 40
1.0
 10
15.6047971533
 20
19.8808911423
 30
0.0
 10
15.6063765557
 20
19.8795935534
 30
0.0
 10
15.6091937911
 20
19.8773137305
 30
0.0
 10
15.6129596886
 20
19.8744439912
 30
0.0
 10
15.6154909092
 20
19.8726873063
 30
0.0
 10
15.6170316728
 20
19.8718242086
 30
0.0
 10
15.6176361051
 20
19.8715638785
 30
0.0
 10
15.6178974062
 20
19.8714940109
 30
0.0
 11
15.6047971533
 21
19.8808911423
 31
0.0
 11
15.6095756815
 21
19.8770479786
 31
0.0
 11
15.6133562639
 21
19.8741936531
 31
0.0
 11
15.6161323542
 21
19.8723387894
 31
0.0
 11
15.6171416691
 21
19.8717894755
 31
0.0
 11
15.6178974062
 21
19.8714940109
 31
0.0
  0
SPLINE
  5
494
100
AcDbEntity
  8
0
100
AcDbSpline
 62
7
  6
CONTINUOUS
 70
0
 71
3
 72
12
 73
8
 74
6
 42
0.0000001
 43
0.0000001
 44
0.0000000001
 12
0.0092598184
 22
0.0091619643
 32
0.0
 13
0.0101790176
 23
-0.0081285563
 33
0.0
 40
0.0
 40
0.0
 40
0.0
 40
0.0
 40
0.0306072155
 40
0.083226314
 40
0.2719426097
 40
0.5772703865
 40
1.0
 40
1.0
 40
1.0
 40
1.0
 10
15.1186950748
 20
20.5207158009
 30
0.0
 10
15.1187895473
 20
20.5208092749
 30
0.0
 10
15.1191980062
 20
20.5208536928
 30
0.0
 10
15.1202943535
 20
20.5204512359
 30
0.0
 10
15.1223559114
 20
20.5192170029
 30
0.0
 10
15.125578703
 20
20.5169008968
 30
0.0
 10
15.1280738898
 20
20.5149516382
 30
0.0
 10
15.1295082139
 20
20.5138062443
 30
0.0
 11
15.1186950748
 21
20.5207158009
 31
0.0
 11
15.1190801127
 21
20.5208192794
 31
0.0
 11
15.1197426851
 21
20.5206437269
 31
0.0
 11
15.1218977101
 21
20.5194609204
 31
0.0
 11
15.1251547022
 21
20.5171781649
 31
0.0
 11
15.1295082139
 21
20.5138062443
 31
0.0
  0
SPLINE
  5
495
100
AcDbEntity
  8
0
100
AcDbSpline
 62
7
  6
CONTINUOUS
 70
0
 71
3
 72
9
 73
5
 74
3
 42
0.0000001
 43
0.0000001
 44
0.0000000001
 12
0.0533099092
 22
-0.047852818
 32
0.0
 13
0.0525706356
 23
-0.048663815
 33
0.0
 40
0.0
 40
0.0
 40
0.0
 40
0.0
 40
0.4563800541
 40
1.0
 40
1.0
 40
1.0
 40
1.0
 10
15.1626693955
 20
20.4851705733
 30
0.0
 10
15.1707792553
 20
20.4778908827
 30
0.0
 10
15.1884259657
 20
20.4618028647
 30
0.0
 10
15.2059691412
 20
20.4456028643
 30
0.0
 10
15.2154952899
 20
20.4367846575
 30
0.0
 11
15.1626693955
 21
20.4851705733
 31
0.0
 11
15.1868649041
 21
20.4631830577
 31
0.0
 11
15.2154952899
 21
20.4367846575
 31
0.0
  0
SPLINE
  5
496
100
AcDbEntity
  8
0
100
AcDbSpline
 62
7
  6
CONTINUOUS
 70
0
 71
3
 72
9
 73
5
 74
3
 42
0.0000001
 43
0.0000001
 44
0.0000000001
 12
0.0029636952
 22
-0.0007540368
 32
0.0
 13
0.0025815632
 23
-0.0016393878
 33
0.0
 40
0.0
 40
0.0
 40
0.0
 40
0.0
 40
0.3990302691
 40
1.0
 40
1.0
 40
1.0
 40
1.0
 10
15.113901952
 20
20.4816350133
 30
0.0
 10
15.1142961534
 20
20.4815347188
 30
0.0
 10
15.1152304826
 20
20.4811013363
 30
0.0
 10
15.1161042453
 20
20.4805802741
 30
0.0
 10
15.1166213925
 20
20.4802518666
 30
0.0
 11
15.113901952
 21
20.4816350133
 31
0.0
 11
15.115032161
 21
20.4811748925
 31
0.0
 11
15.1166213925
 21
20.4802518666
 31
0.0
  0
SPLINE
  5
497
100
AcDbEntity
  8
0
100
AcDbSpline
 62
7
  6
CONTINUOUS
 70
0
 71
3
 72
11
 73
7
 74
5
 42
0.0000001
 43
0.0000001
 44
0.0000000001
 12
0.0277668947
 22
-0.017633001
 32
0.0
 13
0.0248273789
 23
-0.021576015
 33
0.0
 40
0.0
 40
0.0
 40
0.0
 40
0.0
 40
0.1535091089
 40
0.3721865902
 40
0.6548200352
 40
1.0
 40
1.0
 40
1.0
 40
1.0
 10
15.1166213925
 20
20.4802518666
 30
0.0
 10
15.1180422162
 20
20.4793495912
 30
0.0
 10
15.1213434403
 20
20.4769416797
 30
0.0
 10
15.12696669
 20
20.4724792897
 30
0.0
 10
15.1340899267
 20
20.4665275264
 30
0.0
 10
15.1393063485
 20
20.4620363848
 30
0.0
 10
15.1421629865
 20
20.4595538487
 30
0.0
 11
15.1166213925
 21
20.4802518666
 31
0.0
 11
15.1207475331
 21
20.4773414486
 31
0.0
 11
15.1264010195
 21
20.472894485
 31
0.0
 11
15.1335500908
 21
20.4669517077
 31
0.0
 11
15.1421629865
 21
20.4595538487
 31
0.0
  0
SPLINE
  5
498
100
AcDbEntity
  8
0
100
AcDbSpline
 62
7
  6
CONTINUOUS
 70
0
 71
3
 72
9
 73
5
 74
3
 42
0.0000001
 43
0.0000001
 44
0.0000000001
 12
0.0488463992
 22
-0.042449533
 32
0.0
 13
0.0477248464
 23
-0.0437066654
 33
0.0
 40
0.0
 40
0.0
 40
0.0
 40
0.0
 40
0.4433079273
 40
1.0
 40
1.0
 40
1.0
 40
1.0
 10
15.1421629865
 20
20.4595538487
 30
0.0
 10
15.1493809851
 20
20.4532811106
 30
0.0
 10
15.1655080266
 20
20.4389531296
 30
0.0
 10
15.1814721505
 20
20.4244451465
 30
0.0
 10
15.190328165
 20
20.4163347618
 30
0.0
 11
15.1421629865
 21
20.4595538487
 31
0.0
 11
15.1636474589
 21
20.4405423211
 31
0.0
 11
15.190328165
 21
20.4163347618
 31
0.0
  0
LINE
  5
499
100
AcDbEntity
  8
0
100
AcDbLine
 62
7
  6
CONTINUOUS
 10
15.190328165
 20
20.4163347618
 11
15.1932331597
 21
20.4136721082
  0
SPLINE
  5
49A
100
AcDbEntity
  8
0
100
AcDbSpline
 62
7
  6
CONTINUOUS
 70
0
 71
3
 72
11
 73
7
 74
5
 42
0.0000001
 43
0.0000001
 44
0.0000000001
 12
0.2066557426
 22
-0.1895717547
 32
0.0
 13
0.2040298025
 23
-0.1923951294
 33
0.0
 40
0.0
 40
0.0
 40
0.0
 40
0.0
 40
0.2116119955
 40
0.4557489611
 40
0.7222215879
 40
1.0
 40
1.0
 40
1.0
 40
1.0
 10
15.1932331597
 20
20.4136721082
 30
0.0
 10
15.2078101044
 20
20.4003002224
 30
0.0
 10
15.2390434095
 20
20.3713258854
 30
0.0
 10
15.2883668007
 20
20.3252271879
 30
0.0
 10
15.3420894057
 20
20.2747772737
 30
0.0
 10
15.379092366
 20
20.2398613001
 30
0.0
 10
15.3979840576
 20
20.2220468956
 30
0.0
 11
15.1932331597
 21
20.4136721082
 31
0.0
 11
15.2367910459
 21
20.3733687292
 31
0.0
 11
15.2868237081
 21
20.3266339175
 31
0.0
 11
15.3412989671
 21
20.2754794856
 31
0.0
 11
15.3979840576
 21
20.2220468956
 31
0.0
  0
LINE
  5
49B
100
AcDbEntity
  8
0
100
AcDbLine
 62
7
  6
CONTINUOUS
 10
15.3979840576
 20
20.2220468956
 11
15.4201249014
 21
20.201175811
  0
SPLINE
  5
49C
100
AcDbEntity
  8
0
100
AcDbSpline
 62
7
  6
CONTINUOUS
 70
0
 71
3
 72
15
 73
11
 74
9
 42
0.0000001
 43
0.0000001
 44
0.0000000001
 12
0.2459507202
 22
-0.2317335886
 32
0.0
 13
0.2646370503
 23
-0.2101414867
 33
0.0
 40
0.0
 40
0.0
 40
0.0
 40
0.0
 40
0.3361945278
 40
0.491011555
 40
0.6321379596
 40
0.7562485772
 40
0.8604866988
 40
0.9423133332
 40
0.9742678632
 40
1.0
 40
1.0
 40
1.0
 40
1.0
 10
15.4201249014
 20
20.201175811
 30
0.0
 10
15.4476873301
 20
20.1752066229
 30
0.0
 10
15.4879851571
 20
20.1373242147
 30
0.0
 10
15.5399533368
 20
20.0886474425
 30
0.0
 10
15.5745816913
 20
20.0564041546
 30
0.0
 10
15.6051994822
 20
20.0282145418
 30
0.0
 10
15.6310848833
 20
20.0047486429
 30
0.0
 10
15.649455122
 20
19.9884481634
 30
0.0
 10
15.6614012376
 20
19.9782373997
 30
0.0
 10
15.6664179389
 20
19.9741062218
 30
0.0
 10
15.6686878311
 20
19.9723037586
 30
0.0
 11
15.4201249014
 21
20.201175811
 31
0.0
 11
15.5029030278
 21
20.1233647728
 31
0.0
 11
15.5410972842
 21
20.0876129426
 31
0.0
 11
15.5760167613
 21
20.0551328283
 31
0.0
 11
15.6068857948
 21
20.0267416978
 31
0.0
 11
15.6330022587
 21
20.0031049547
 31
0.0
 11
15.6537377954
 21
19.98481226
 31
0.0
 11
15.661957719
 21
19.9778098598
 31
0.0
 11
15.6686878311
 21
19.9723037586
 31
0.0
  0
SPLINE
  5
49D
100
AcDbEntity
  8
0
100
AcDbSpline
 62
7
  6
CONTINUOUS
 70
0
 71
3
 72
12
 73
8
 74
6
 42
0.0000001
 43
0.0000001
 44
0.0000000001
 12
0.0106207512
 22
-0.0084336658
 32
0.0
 13
0.0101678362
 23
0.0089745298
 33
0.0
 40
0.0
 40
0.0
 40
0.0
 40
0.0
 40
0.4197039439
 40
0.7241189156
 40
0.913991787
 40
0.9679360658
 40
1.0
 40
1.0
 40
1.0
 40
1.0
 10
15.6686878311
 20
19.9723037586
 30
0.0
 10
15.6701736882
 20
19.9711238777
 30
0.0
 10
15.6727649778
 20
19.9691148424
 30
0.0
 10
15.6761292066
 20
19.9667374037
 30
0.0
 10
15.6782925192
 20
19.9654665832
 30
0.0
 10
15.6794593089
 20
19.9650618044
 30
0.0
 10
15.6798931613
 20
19.9651028126
 30
0.0
 10
15.680001835
 20
19.9651987322
 30
0.0
 11
15.6686878311
 21
19.9723037586
 31
0.0
 11
15.673202422
 21
19.9688371347
 31
0.0
 11
15.676600528
 21
19.9664925415
 31
0.0
 11
15.6788707866
 21
19.9652773003
 31
0.0
 11
15.6795794222
 21
19.9650954746
 31
0.0
 11
15.680001835
 21
19.9651987322
 31
0.0
  0
SPLINE
  5
49E
100
AcDbEntity
  8
0
100
AcDbSpline
 62
7
  6
CONTINUOUS
 70
0
 71
3
 72
12
 73
8
 74
6
 42
0.0000001
 43
0.0000001
 44
0.0000000001
 12
0.0188998183
 22
-0.0050192528
 32
0.0
 13
0.0150588127
 23
-0.0124751028
 33
0.0
 40
0.0
 40
0.0
 40
0.0
 40
0.0
 40
0.0497386933
 40
0.1205401408
 40
0.3269105157
 40
0.6201755508
 40
1.0
 40
1.0
 40
1.0
 40
1.0
 10
15.0646678653
 20
20.4298320122
 30
0.0
 10
15.064981216
 20
20.4297487952
 30
0.0
 10
15.0657080571
 20
20.4294359624
 30
0.0
 10
15.0675674031
 20
20.4283961351
 30
0.0
 10
15.070628838
 20
20.4262725942
 30
0.0
 10
15.0751833186
 20
20.4227938177
 30
0.0
 10
15.0785864285
 20
20.4200225094
 30
0.0
 10
15.080492997
 20
20.4184430597
 30
0.0
 11
15.0646678653
 21
20.4298320122
 31
0.0
 11
15.0655740275
 21
20.4294786088
 31
0.0
 11
15.0667905353
 21
20.4288175483
 31
0.0
 11
15.0701464559
 21
20.4265762187
 31
0.0
 11
15.0747193642
 21
20.4231155477
 31
0.0
 11
15.080492997
 21
20.4184430597
 31
0.0
  0
SPLINE
  5
49F
100
AcDbEntity
  8
0
100
AcDbSpline
 62
7
  6
CONTINUOUS
 70
0
 71
3
 72
11
 73
7
 74
5
 42
0.0000001
 43
0.0000001
 44
0.0000000001
 12
0.1037587483
 22
-0.0859563815
 32
0.0
 13
0.0987533175
 23
-0.0916632951
 33
0.0
 40
0.0
 40
0.0
 40
0.0
 40
0.0
 40
0.1683545718
 40
0.3948091328
 40
0.6742037484
 40
1.0
 40
1.0
 40
1.0
 40
1.0
 10
15.080492997
 20
20.4184430597
 30
0.0
 10
15.0863157502
 20
20.4136193431
 30
0.0
 10
15.0996991645
 20
20.4019821787
 30
0.0
 10
15.1222415726
 20
20.3817657467
 30
0.0
 10
15.149842485
 20
20.356598849
 30
0.0
 10
15.1698117693
 20
20.3381590521
 30
0.0
 10
15.1805362562
 20
20.3282045328
 30
0.0
 11
15.080492997
 21
20.4184430597
 31
0.0
 11
15.0976964383
 21
20.4036580714
 31
0.0
 11
15.1204464209
 21
20.3833252151
 31
0.0
 11
15.1482777731
 21
20.3579762296
 31
0.0
 11
15.1805362562
 21
20.3282045328
 31
0.0
  0
SPLINE
  5
4A0
100
AcDbEntity
  8
0
100
AcDbSpline
 62
7
  6
CONTINUOUS
 70
0
 71
3
 72
29
 73
25
 74
23
 42
0.0000001
 43
0.0000001
 44
0.0000000001
 12
0.4309213038
 22
-0.4016248588
 32
0.0
 13
0.3893706212
 23
0.4420251313
 33
0.0
 40
0.0
 40
0.0
 40
0.0
 40
0.0
 40
0.1567981711
 40
0.3274828173
 40
0.4142316551
 40
0.4998570974
 40
0.582814368
 40
0.6616197896
 40
0.7348334536
 40
0.8011433026
 40
0.859405786
 40
0.8851792373
 40
0.9085652199
 40
0.9294599215
 40
0.9477598095
 40
0.9633668535
 40
0.9762247163
 40
0.986299858
 40
0.9902858109
 40
0.9935682792
 40
0.9961490319
 40
0.9980376833
 40
0.9992708887
 40
1.0
 40
1.0
 40
1.0
 40
1.0
 10
15.1951188269
 20
20.3146397235
 30
0.0
 10
15.2176413843
 20
20.2936483758
 30
0.0
 10
15.2645244458
 20
20.2496387681
 30
0.0
 10
15.3237807905
 20
20.19392287
 30
0.0
 10
15.3727877729
 20
20.1477076927
 30
0.0
 10
15.4092707487
 20
20.113319317
 30
0.0
 10
15.4446772847
 20
20.0800629482
 30
0.0
 10
15.4783764713
 20
20.0485487744
 30
0.0
 10
15.5097412887
 20
20.0193241928
 30
0.0
 10
15.5382221051
 20
19.9929216511
 30
0.0
 10
15.5599784354
 20
19.9729673265
 30
0.0
 10
15.575628032
 20
19.9588252169
 30
0.0
 10
15.5858844121
 20
19.9496589204
 30
0.0
 10
15.5951002103
 20
19.9415308016
 30
0.0
 10
15.6032286584
 20
19.9344795428
 30
0.0
 10
15.6102284831
 20
19.9285359608
 30
0.0
 10
15.6160732891
 20
19.9237287821
 30
0.0
 10
15.6202367354
 20
19.92047033
 30
0.0
 10
15.6229921938
 20
19.9184684323
 30
0.0
 10
15.6245965912
 20
19.9173874896
 30
0.0
 10
15.6258964777
 20
19.916594851
 30
0.0
 10
15.6269124921
 20
19.9161119775
 30
0.0
 10
15.6276230194
 20
19.9158659586
 30
0.0
 10
15.6280557217
 20
19.9159465111
 30
0.0
 10
15.6281503532
 20
19.9160539396
 30
0.0
 11
15.1951188269
 21
20.3146397235
 31
0.0
 11
15.2625281228
 21
20.2514961783
 31
0.0
 11
15.3357654733
 21
20.1826092975
 31
0.0
 11
15.3729496397
 21
20.1475578266
 31
0.0
 11
15.4096622831
 21
20.112970895
 31
0.0
 11
15.4452840034
 21
20.0795181555
 31
0.0
 11
15.4791883547
 21
20.047809475
 31
0.0
 11
15.5107461275
 21
20.0184141114
 31
0.0
 11
15.5394059882
 21
19.9918744976
 31
0.0
 11
15.5647192558
 21
19.9686986208
 31
0.0
 11
15.5759856167
 21
19.9585217736
 31
0.0
 11
15.5862597296
 21
19.9493448458
 31
0.0
 11
15.5954941597
 21
19.9412073001
 31
0.0
 11
15.6036414727
 21
19.9341485992
 31
0.0
 11
15.6106568756
 21
19.9282067753
 31
0.0
 11
15.616517007
 21
19.923408255
 31
0.0
 11
15.6212089111
 21
19.9197738304
 31
0.0
 11
15.6231127507
 21
19.9183996397
 31
0.0
 11
15.624719701
 21
19.917324256
 31
0.0
 11
15.6260281509
 21
19.9165502735
 31
0.0
 11
15.6270365142
 21
19.9160802325
 31
0.0
 11
15.6277439277
 21
19.915915079
 31
0.0
 11
15.6281503532
 21
19.9160539396
 31
0.0
  0
SPLINE
  5
4A1
100
AcDbEntity
  8
0
100
AcDbSpline
 62
7
  6
CONTINUOUS
 70
0
 71
3
 72
10
 73
6
 74
4
 42
0.0000001
 43
0.0000001
 44
0.0000000001
 12
0.0051468645
 22
-0.0013722099
 32
0.0
 13
0.0043578616
 23
-0.0030630404
 33
0.0
 40
0.0
 40
0.0
 40
0.0
 40
0.0
 40
0.1566188597
 40
0.3745228802
 40
1.0
 40
1.0
 40
1.0
 40
1.0
 10
15.0156336857
 20
20.3778604211
 30
0.0
 10
15.0159023844
 20
20.3777887831
 30
0.0
 10
15.0165198744
 20
20.3775309207
 30
0.0
 10
15.0180791034
 20
20.376681869
 30
0.0
 10
15.0193207778
 20
20.3758379912
 30
0.0
 10
15.0202293587
 20
20.3751993706
 30
0.0
 11
15.0156336857
 21
20.3778604211
 31
0.0
 11
15.0164129689
 21
20.3775626013
 31
0.0
 11
15.0174387072
 21
20.3770193881
 31
0.0
 11
15.0202293587
 21
20.3751993706
 31
0.0
  0
SPLINE
  5
4A2
100
AcDbEntity
  8
0
100
AcDbSpline
 62
7
  6
CONTINUOUS
 70
0
 71
3
 72
12
 73
8
 74
6
 42
0.0000001
 43
0.0000001
 44
0.0000000001
 12
0.0876255849
 22
-0.0615900016
 32
0.0
 13
0.078845535
 23
-0.0724910548
 33
0.0
 40
0.0
 40
0.0
 40
0.0
 40
0.0
 40
0.0579151434
 40
0.1361102982
 40
0.351556986
 40
0.6419302682
 40
1.0
 40
1.0
 40
1.0
 40
1.0
 10
15.0202293587
 20
20.3751993706
 30
0.0
 10
15.0219209748
 20
20.3740103727
 30
0.0
 10
15.0257888606
 20
20.3710645481
 30
0.0
 10
15.0355317493
 20
20.3631515873
 30
0.0
 10
15.0513004264
 20
20.349503664
 30
0.0
 10
15.074262988
 20
20.3289135198
 30
0.0
 10
15.0913435503
 20
20.3132856493
 30
0.0
 10
15.1007542835
 20
20.3046333651
 30
0.0
 11
15.0202293587
 21
20.3751993706
 31
0.0
 11
15.0251952151
 21
20.3714821406
 31
0.0
 11
15.031713175
 21
20.3662229658
 31
0.0
 11
15.0492388294
 21
20.3512119523
 31
0.0
 11
15.0724324389
 21
20.3304923752
 31
0.0
 11
15.1007542835
 21
20.3046333651
 31
0.0
  0
SPLINE
  5
4A3
100
AcDbEntity
  8
0
100
AcDbSpline
 62
7
  6
CONTINUOUS
 70
0
 71
3
 72
29
 73
25
 74
23
 42
0.0000001
 43
0.0000001
 44
0.0000000001
 12
0.4041512984
 22
-0.3776500859
 32
0.0
 13
0.3888683074
 23
0.3933691635
 33
0.0
 40
0.0
 40
0.0
 40
0.0
 40
0.0
 40
0.1645581144
 40
0.2511387079
 40
0.3387235372
 40
0.4258818292
 40
0.5111961614
 40
0.593277973
 40
0.670763053
 40
0.7424246679
 40
0.8070958397
 40
0.863721869
 40
0.8887309754
 40
0.9113862295
 40
0.9315836787
 40
0.9492569798
 40
0.9643500162
 40
0.9768083632
 40
0.9865813021
 40
0.9936395041
 40
0.9961580411
 40
0.9980169254
 40
0.9992520258
 40
1.0
 40
1.0
 40
1.0
 40
1.0
 10
15.169503594
 20
20.240831062
 30
0.0
 10
15.1916723859
 20
20.2201159333
 30
0.0
 10
15.2254304171
 20
20.1884218865
 30
0.0
 10
15.2708997372
 20
20.1456089736
 30
0.0
 10
15.3059661338
 20
20.112565196
 30
0.0
 10
15.3408763195
 20
20.0796960841
 30
0.0
 10
15.3750808046
 20
20.0475576118
 30
0.0
 10
15.4080190228
 20
20.0166761378
 30
0.0
 10
15.4391553103
 20
19.9875531643
 30
0.0
 10
15.4680104797
 20
19.9606908178
 30
0.0
 10
15.4941574269
 20
19.9365640774
 30
0.0
 10
15.5141001889
 20
19.9183984607
 30
0.0
 10
15.5283988796
 20
19.9055415813
 30
0.0
 10
15.5377450256
 20
19.8972224854
 30
0.0
 10
15.5461262139
 20
19.8898539266
 30
0.0
 10
15.553514065
 20
19.8834675207
 30
0.0
 10
15.5598863104
 20
19.8780892395
 30
0.0
 10
15.565221823
 20
19.8737413099
 30
0.0
 10
15.5694999004
 20
19.8704458054
 30
0.0
 10
15.5724269942
 20
19.8683982836
 30
0.0
 10
15.5742442733
 20
19.8673282663
 30
0.0
 10
15.5751895343
 20
19.8668948251
 30
0.0
 10
15.5758604926
 20
19.8666802881
 30
0.0
 10
15.5762661137
 20
19.8667494609
 30
0.0
 10
15.5763630682
 20
19.8668475376
 30
0.0
 11
15.169503594
 21
20.240831062
 31
0.0
 11
15.2358924555
 21
20.1785601533
 31
0.0
 11
15.2707627929
 21
20.1457336302
 31
0.0
 11
15.3060256834
 21
20.1125137175
 31
0.0
 11
15.3411295676
 21
20.0794690968
 31
0.0
 11
15.3755211107
 21
20.0471558358
 31
0.0
 11
15.4086436065
 21
20.0161031702
 31
0.0
 11
15.439951397
 21
19.9868324655
 31
0.0
 11
15.4689746937
 21
19.9598350531
 31
0.0
 11
15.4952752728
 21
19.9355882886
 31
0.0
 11
15.518441115
 21
19.9145074955
 31
0.0
 11
15.5287297211
 21
19.9052604647
 31
0.0
 11
15.5380924971
 21
19.8969313278
 31
0.0
 11
15.5464866855
 21
19.8895591423
 31
0.0
 11
15.5538874543
 21
19.8831721865
 31
0.0
 11
15.5602744772
 21
19.8777960298
 31
0.0
 11
15.5656274279
 21
19.8734562414
 31
0.0
 11
15.5699259941
 21
19.8701783661
 31
0.0
 11
15.5731534704
 21
19.8679816251
 31
0.0
 11
15.574362876
 21
19.8672902224
 31
0.0
 11
15.5753015382
 21
19.8668705374
 31
0.0
 11
15.575968566
 21
19.8667228744
 31
0.0
 11
15.5763630682
 21
19.8668475376
 31
0.0
  0
SPLINE
  5
4A4
100
AcDbEntity
  8
0
100
AcDbSpline
 62
7
  6
CONTINUOUS
 70
0
 71
3
 72
13
 73
9
 74
7
 42
0.0000001
 43
0.0000001
 44
0.0000000001
 12
0.0229023594
 22
-0.0057251187
 32
0.0
 13
0.0180660589
 23
-0.0151958074
 33
0.0
 40
0.0
 40
0.0
 40
0.0
 40
0.0
 40
0.0463843486
 40
0.1149163527
 40
0.2060665568
 40
0.3199020547
 40
0.6152839505
 40
1.0
 40
1.0
 40
1.0
 40
1.0
 10
14.9663270933
 20
20.3261575303
 30
0.0
 10
14.9666811969
 20
20.3260690117
 30
0.0
 10
14.9675140272
 20
20.3256949874
 30
0.0
 10
14.968913927
 20
20.3248802356
 30
0.0
 10
14.9707035395
 20
20.3236804997
 30
0.0
 10
14.9738890163
 20
20.3213664601
 30
0.0
 10
14.9787959497
 20
20.3174958475
 30
0.0
 10
14.9829159688
 20
20.3140803802
 30
0.0
 10
14.9852327364
 20
20.3121316899
 30
0.0
 11
14.9663270933
 21
20.3261575303
 31
0.0
 11
14.9673450201
 21
20.3257539841
 31
0.0
 11
14.9687529043
 21
20.3249569435
 31
0.0
 11
14.9705479498
 21
20.3237703435
 31
0.0
 11
14.9727273606
 21
20.3221981197
 31
0.0
 11
14.978228094
 21
20.3179125411
 31
0.0
 11
14.9852327364
 21
20.3121316899
 31
0.0
  0
SPLINE
  5
4A5
100
AcDbEntity
  8
0
100
AcDbSpline
 62
7
  6
CONTINUOUS
 70
0
 71
3
 72
10
 73
6
 74
4
 42
0.0000001
 43
0.0000001
 44
0.0000000001
 12
0.0983520187
 22
-0.0827263069
 32
0.0
 13
0.0942043227
 23
-0.0874202895
 33
0.0
 40
0.0
 40
0.0
 40
0.0
 40
0.0
 40
0.1755232184
 40
0.4038516004
 40
1.0
 40
1.0
 40
1.0
 40
1.0
 10
14.9852327364
 20
20.3121316899
 30
0.0
 10
14.9909870907
 20
20.3072915607
 30
0.0
 10
15.0040462789
 20
20.295941153
 30
0.0
 10
15.0359565142
 20
20.2673584206
 30
0.0
 10
15.0618852999
 20
20.2433723732
 30
0.0
 10
15.0806052187
 20
20.2260005513
 30
0.0
 11
14.9852327364
 21
20.3121316899
 31
0.0
 11
15.0023062134
 21
20.2973888483
 31
0.0
 11
15.0241901116
 21
20.2778394911
 31
0.0
 11
15.0806052187
 21
20.2260005513
 31
0.0
  0
LINE
  5
4A6
100
AcDbEntity
  8
0
100
AcDbLine
 62
7
  6
CONTINUOUS
 10
15.0806052187
 20
20.2260005513
 11
15.0880676932
 21
20.2190705433
  0
LINE
  5
4A7
100
AcDbEntity
  8
0
100
AcDbLine
 62
7
  6
CONTINUOUS
 10
15.0880676932
 20
20.2190705433
 11
15.0978860203
 21
20.209939394
  0
SPLINE
  5
4A8
100
AcDbEntity
  8
0
100
AcDbSpline
 62
7
  6
CONTINUOUS
 70
0
 71
3
 72
9
 73
5
 74
3
 42
0.0000001
 43
0.0000001
 44
0.0000000001
 12
0.146588504
 22
-0.1364351601
 32
0.0
 13
0.1457968771
 23
-0.1372807818
 33
0.0
 40
0.0
 40
0.0
 40
0.0
 40
0.0
 40
0.4794594877
 40
1.0
 40
1.0
 40
1.0
 40
1.0
 10
15.0978860203
 20
20.209939394
 30
0.0
 10
15.12131377
 20
20.18813435
 30
0.0
 10
15.1700555913
 20
20.1425258489
 30
0.0
 10
15.2186196863
 20
20.0967285519
 30
0.0
 10
15.2439174134
 20
20.0729084824
 30
0.0
 11
15.0978860203
 21
20.209939394
 31
0.0
 11
15.1680123714
 21
20.1443560922
 31
0.0
 11
15.2439174134
 21
20.0729084824
 31
0.0
  0
SPLINE
  5
4A9
100
AcDbEntity
  8
0
100
AcDbSpline
 62
7
  6
CONTINUOUS
 70
0
 71
3
 72
26
 73
22
 74
20
 42
0.0000001
 43
0.0000001
 44
0.0000000001
 12
0.2765000288
 22
-0.260349473
 32
0.0
 13
0.2827138464
 23
0.2535882393
 33
0.0
 40
0.0
 40
0.0
 40
0.0
 40
0.0
 40
0.1943337806
 40
0.3812995236
 40
0.4697565253
 40
0.5537337313
 40
0.6324007242
 40
0.7050153791
 40
0.77088309
 40
0.8293198573
 40
0.8797839437
 40
0.9218424032
 40
0.9395867038
 40
0.955076145
 40
0.968284312
 40
0.9791918282
 40
0.9877836764
 40
0.9940558032
 40
0.9963307327
 40
0.998047378
 40
1.0
 40
1.0
 40
1.0
 40
1.0
 10
15.2439174134
 20
20.0729084824
 30
0.0
 10
15.261828512
 20
20.0560435833
 30
0.0
 10
15.2969902881
 20
20.0229730342
 30
0.0
 10
15.3403393
 20
19.9822625411
 30
0.0
 10
15.3735454315
 20
19.9511593734
 30
0.0
 10
15.3967851274
 20
19.9294709531
 30
0.0
 10
15.4186163355
 20
19.9092129006
 30
0.0
 10
15.4388317999
 20
19.8905842461
 30
0.0
 10
15.4572325316
 20
19.8737658113
 30
0.0
 10
15.4736371216
 20
19.8589201084
 30
0.0
 10
15.4878968127
 20
19.8461968996
 30
0.0
 10
15.498411572
 20
19.8370147847
 30
0.0
 10
15.5056799564
 20
19.830848281
 30
0.0
 10
15.5102099813
 20
19.8271006908
 30
0.0
 10
15.5141263311
 20
19.8239686969
 30
0.0
 10
15.5174161381
 20
19.8214565647
 30
0.0
 10
15.5200832963
 20
19.8195675974
 30
0.0
 10
15.5219086579
 20
19.8184113085
 30
0.0
 10
15.5230882803
 20
19.8178226226
 30
0.0
 10
15.5237578947
 20
19.8175659622
 30
0.0
 10
15.5243197962
 20
19.8174742468
 30
0.0
 10
15.5245038073
 20
19.8176393007
 30
0.0
 11
15.2439174134
 21
20.0729084824
 31
0.0
 11
15.2976760864
 21
20.02234075
 31
0.0
 11
15.3494440681
 21
19.9737408422
 31
0.0
 11
15.3739664977
 21
19.950779339
 31
0.0
 11
15.3972872352
 21
19.9290237223
 31
0.0
 11
15.4191901702
 21
19.9087049221
 31
0.0
 11
15.4394731684
 21
19.8900198926
 31
0.0
 11
15.4579416156
 21
19.873147307
 31
0.0
 11
15.4744041586
 21
19.8582636457
 31
0.0
 11
15.4887154991
 21
19.8455162697
 31
0.0
 11
15.5007649598
 21
19.835030649
 31
0.0
 11
15.5059071623
 21
19.8306750394
 31
0.0
 11
15.5104437303
 21
19.8269300958
 31
0.0
 11
15.5143661116
 21
19.8238032149
 31
0.0
 11
15.5176668092
 21
19.8213001185
 31
0.0
 11
15.520338326
 21
19.8194265283
 31
0.0
 11
15.5223731646
 21
19.8181881663
 31
0.0
 11
15.5231494868
 21
19.8178089839
 31
0.0
 11
15.523763828
 21
19.8175907543
 31
0.0
 11
15.5245038073
 21
19.8176393007
 31
0.0
  0
SPLINE
  5
4AA
100
AcDbEntity
  8
0
100
AcDbSpline
 62
7
  6
CONTINUOUS
 70
0
 71
3
 72
13
 73
9
 74
7
 42
0.0000001
 43
0.0000001
 44
0.0000000001
 12
-0.0216030577
 22
0.006163204
 32
0.0
 13
-0.0172195441
 23
0.0144279065
 33
0.0
 40
0.0
 40
0.0
 40
0.0
 40
0.0
 40
0.0485543576
 40
0.1186692285
 40
0.21075392
 40
0.3248759375
 40
0.6189527864
 40
1.0
 40
1.0
 40
1.0
 40
1.0
 10
15.5363606711
 20
19.8302692011
 30
0.0
 10
15.5360110302
 20
19.8303689513
 30
0.0
 10
15.5351975456
 20
19.8307426958
 30
0.0
 10
15.5338363134
 20
19.8315393436
 30
0.0
 10
15.5321150913
 20
19.8326908398
 30
0.0
 10
15.5290799111
 20
19.83488691
 30
0.0
 10
15.5244289795
 20
19.8385368712
 30
0.0
 10
15.5205300904
 20
19.8417551593
 30
0.0
 10
15.5183429373
 20
19.8435877305
 30
0.0
 11
15.5363606711
 21
19.8302692011
 31
0.0
 11
15.535353215
 21
19.830687318
 31
0.0
 11
15.5339851791
 21
19.8314680347
 31
0.0
 11
15.5322590302
 21
19.8326081514
 31
0.0
 11
15.5301772355
 21
19.8341044678
 31
0.0
 11
15.5249565762
 21
19.8381528999
 31
0.0
 11
15.5183429373
 21
19.8435877305
 31
0.0
  0
SPLINE
  5
4AB
100
AcDbEntity
  8
0
100
AcDbSpline
 62
7
  6
CONTINUOUS
 70
0
 71
3
 72
13
 73
9
 74
7
 42
0.0000001
 43
0.0000001
 44
0.0000000001
 12
-0.2736986793
 22
0.2293265682
 32
0.0
 13
-0.2599888198
 23
0.2447599957
 33
0.0
 40
0.0
 40
0.0
 40
0.0
 40
0.0
 40
0.0670182385
 40
0.1557197143
 40
0.2641639279
 40
0.3897240271
 40
0.6801615878
 40
1.0
 40
1.0
 40
1.0
 40
1.0
 10
15.5183429373
 20
19.8435877305
 30
0.0
 10
15.5122286695
 20
19.8487107514
 30
0.0
 10
15.4982418182
 20
19.8608754623
 30
0.0
 10
15.474838992
 20
19.8818735301
 30
0.0
 10
15.4465202983
 20
19.9078238912
 30
0.0
 10
15.400731291
 20
19.9502480334
 30
0.0
 10
15.3367590165
 20
20.0100673474
 30
0.0
 10
15.2839158096
 20
20.0599056176
 30
0.0
 10
15.2561976725
 20
20.086000167
 30
0.0
 11
15.5183429373
 21
19.8435877305
 31
0.0
 11
15.5002248588
 21
19.8592210844
 31
0.0
 11
15.4766214918
 21
19.8803411658
 31
0.0
 11
15.4480445944
 21
19.9064715895
 31
0.0
 11
15.415140827
 21
19.936925631
 31
0.0
 11
15.3393633388
 21
20.0077284755
 31
0.0
 11
15.2561976725
 21
20.086000167
 31
0.0
  0
SPLINE
  5
4AC
100
AcDbEntity
  8
0
100
AcDbSpline
 62
7
  6
CONTINUOUS
 70
0
 71
3
 72
9
 73
5
 74
3
 42
0.0000001
 43
0.0000001
 44
0.0000000001
 12
-0.1459301777
 22
0.1373823293
 32
0.0
 13
-0.1466528482
 23
0.1366106264
 33
0.0
 40
0.0
 40
0.0
 40
0.0
 40
0.0
 40
0.520723068
 40
1.0
 40
1.0
 40
1.0
 40
1.0
 10
15.2561976725
 20
20.086000167
 30
0.0
 10
15.2308679359
 20
20.1098462164
 30
0.0
 10
15.1821879799
 20
20.1556013632
 30
0.0
 10
15.1334700911
 20
20.2013165669
 30
0.0
 10
15.1100409821
 20
20.2231413408
 30
0.0
 11
15.2561976725
 21
20.086000167
 31
0.0
 11
15.1801600983
 21
20.1574869065
 31
0.0
 11
15.1100409821
 21
20.2231413408
 31
0.0
  0
LINE
  5
4AD
100
AcDbEntity
  8
0
100
AcDbLine
 62
7
  6
CONTINUOUS
 10
15.1100409821
 20
20.2231413408
 11
15.0992980875
 21
20.233135086
  0
LINE
  5
4AE
100
AcDbEntity
  8
0
100
AcDbLine
 62
7
  6
CONTINUOUS
 10
15.0992980875
 20
20.233135086
 11
15.0928056447
 21
20.2391602021
  0
SPLINE
  5
4AF
100
AcDbEntity
  8
0
100
AcDbSpline
 62
7
  6
CONTINUOUS
 70
0
 71
3
 72
21
 73
17
 74
15
 42
0.0000001
 43
0.0000001
 44
0.0000000001
 12
-0.1116149087
 22
0.1034795636
 32
0.0
 13
-0.101968664
 23
-0.1129969004
 33
0.0
 40
0.0
 40
0.0
 40
0.0
 40
0.0
 40
0.2204694976
 40
0.4180158766
 40
0.5898068763
 40
0.7336133668
 40
0.7944649094
 40
0.8476563407
 40
0.8929930307
 40
0.9303634594
 40
0.9596861486
 40
0.9713125977
 40
0.9809132976
 40
0.9884988454
 40
0.9941061516
 40
1.0
 40
1.0
 40
1.0
 40
1.0
 10
15.0928056447
 20
20.2391602021
 30
0.0
 10
15.0846030838
 20
20.2467648979
 30
0.0
 10
15.0690241271
 20
20.2611548555
 30
0.0
 10
15.0469500089
 20
20.2813578599
 30
0.0
 10
15.0276474404
 20
20.2988275516
 30
0.0
 10
15.0133808078
 20
20.3115261473
 30
0.0
 10
15.0035068915
 20
20.3201077608
 30
0.0
 10
14.9973481835
 20
20.3253479547
 30
0.0
 10
14.992032501
 20
20.3297389486
 30
0.0
 10
14.9875753682
 20
20.3332683671
 30
0.0
 10
14.9843903566
 20
20.3356416994
 30
0.0
 10
14.9822657043
 20
20.3370867921
 30
0.0
 10
14.9810353833
 20
20.3378591758
 30
0.0
 10
14.9799961536
 20
20.3384246746
 30
0.0
 10
14.9791713651
 20
20.3387859998
 30
0.0
 10
14.9784295228
 20
20.3389554015
 30
0.0
 10
14.9782291935
 20
20.338733406
 30
0.0
 11
15.0928056447
 21
20.2391602021
 31
0.0
 11
15.0681515311
 21
20.261924106
 31
0.0
 11
15.0459659827
 21
20.2822179741
 31
0.0
 11
15.0265684319
 21
20.2997511061
 31
0.0
 11
15.0101970316
 21
20.3142788497
 31
0.0
 11
15.0032022477
 21
20.320349622
 31
0.0
 11
14.9970310703
 21
20.3255899015
 31
0.0
 11
14.9917042454
 21
20.3299763011
 31
0.0
 11
14.9872367257
 21
20.3334967545
 31
0.0
 11
14.9836420662
 21
20.3361419268
 31
0.0
 11
14.982176295
 21
20.3371333654
 31
0.0
 11
14.980933822
 21
20.3379024833
 31
0.0
 11
14.9799163415
 21
20.3384481134
 31
0.0
 11
14.979125548
 21
20.338769089
 31
0.0
 11
14.9782291935
 21
20.338733406
 31
0.0
  0
SPLINE
  5
4B0
100
AcDbEntity
  8
0
100
AcDbSpline
 62
7
  6
CONTINUOUS
 70
0
 71
3
 72
9
 73
5
 74
3
 42
0.0000001
 43
0.0000001
 44
0.0000000001
 12
0.0008244387
 22
0.0008507718
 32
0.0
 13
0.0011037727
 23
-0.000430346
 33
0.0
 40
0.0
 40
0.0
 40
0.0
 40
0.0
 40
0.3668506439
 40
1.0
 40
1.0
 40
1.0
 40
1.0
 10
15.1257983013
 20
20.4942251769
 30
0.0
 10
15.1258991166
 20
20.4943292123
 30
0.0
 10
15.1263468489
 20
20.4943865547
 30
0.0
 10
15.1267091738
 20
20.4942470417
 30
0.0
 10
15.1269421248
 20
20.4941562173
 30
0.0
 11
15.1257983013
 21
20.4942251769
 31
0.0
 11
15.1262161243
 21
20.4943447918
 31
0.0
 11
15.1269421248
 21
20.4941562173
 31
0.0
  0
SPLINE
  5
4B1
100
AcDbEntity
  8
0
100
AcDbSpline
 62
7
  6
CONTINUOUS
 70
0
 71
3
 72
12
 73
8
 74
6
 42
0.0000001
 43
0.0000001
 44
0.0000000001
 12
0.0239325111
 22
-0.0093309609
 32
0.0
 13
0.0195828794
 23
-0.0166235602
 33
0.0
 40
0.0
 40
0.0
 40
0.0
 40
0.0
 40
0.052123452
 40
0.1252340606
 40
0.3345252976
 40
0.626777641
 40
1.0
 40
1.0
 40
1.0
 40
1.0
 10
15.1269421248
 20
20.4941562173
 30
0.0
 10
15.1273579399
 20
20.4939940967
 30
0.0
 10
15.1283117084
 20
20.49349448
 30
0.0
 10
15.1307348082
 20
20.4919676485
 30
0.0
 10
15.1346936412
 20
20.4890355918
 30
0.0
 10
15.1405472919
 20
20.4843644774
 30
0.0
 10
15.1449153588
 20
20.4807039435
 30
0.0
 10
15.1473516149
 20
20.4786358487
 30
0.0
 11
15.1269421248
 21
20.4941562173
 31
0.0
 11
15.1281437917
 21
20.4935657396
 31
0.0
 11
15.1297416912
 21
20.4925790152
 31
0.0
 11
15.1341048768
 21
20.4894381376
 31
0.0
 11
15.1399890589
 21
20.4847762078
 31
0.0
 11
15.1473516149
 21
20.4786358487
 31
0.0
  0
SPLINE
  5
4B2
100
AcDbEntity
  8
0
100
AcDbSpline
 62
7
  6
CONTINUOUS
 70
0
 71
3
 72
9
 73
5
 74
3
 42
0.0000001
 43
0.0000001
 44
0.0000000001
 12
0.0444383015
 22
-0.0377228886
 32
0.0
 13
0.0431241304
 23
-0.0392184693
 33
0.0
 40
0.0
 40
0.0
 40
0.0
 40
0.0
 40
0.4342742401
 40
1.0
 40
1.0
 40
1.0
 40
1.0
 10
15.1473516149
 20
20.4786358487
 30
0.0
 10
15.1537844181
 20
20.4731751558
 30
0.0
 10
15.168390691
 20
20.460358634
 30
0.0
 10
15.1828177509
 20
20.447343551
 30
0.0
 10
15.1909498948
 20
20.4399479183
 30
0.0
 11
15.1473516149
 21
20.4786358487
 31
0.0
 11
15.1664368757
 21
20.4620059378
 31
0.0
 11
15.1909498948
 21
20.4399479183
 31
0.0
  0
SPLINE
  5
4B3
100
AcDbEntity
  8
0
100
AcDbSpline
 62
7
  6
CONTINUOUS
 70
0
 71
3
 72
10
 73
6
 74
4
 42
0.0000001
 43
0.0000001
 44
0.0000000001
 12
0.222040634
 22
-0.201930884
 32
0.0
 13
0.2184282115
 23
-0.2058330427
 33
0.0
 40
0.0
 40
0.0
 40
0.0
 40
0.0
 40
0.2032192036
 40
0.4458718489
 40
1.0
 40
1.0
 40
1.0
 40
1.0
 10
15.1909498948
 20
20.4399479183
 30
0.0
 10
15.2059908684
 20
20.4262691738
 30
0.0
 10
15.2387824633
 20
20.3960279957
 30
0.0
 10
15.3119199112
 20
20.3277666768
 30
0.0
 10
15.3699195447
 20
20.2730838746
 30
0.0
 10
15.410265285
 20
20.2350645801
 30
0.0
 11
15.1909498948
 21
20.4399479183
 31
0.0
 11
15.235844597
 21
20.398662132
 31
0.0
 11
15.2891138937
 21
20.3490011854
 31
0.0
 11
15.410265285
 21
20.2350645801
 31
0.0
  0
LINE
  5
4B4
100
AcDbEntity
  8
0
100
AcDbLine
 62
7
  6
CONTINUOUS
 10
15.410265285
 20
20.2350645801
 11
15.4139162997
 21
20.2316241102
  0
SPLINE
  5
4B5
100
AcDbEntity
  8
0
100
AcDbSpline
 62
7
  6
CONTINUOUS
 70
0
 71
3
 72
14
 73
10
 74
8
 42
0.0000001
 43
0.0000001
 44
0.0000000001
 12
0.2594123293
 22
-0.2444510175
 32
0.0
 13
0.2756117106
 23
-0.2260292934
 33
0.0
 40
0.0
 40
0.0
 40
0.0
 40
0.0
 40
0.323769975
 40
0.4753212281
 40
0.6153982484
 40
0.7408003552
 40
0.8483683067
 40
0.935279753
 40
1.0
 40
1.0
 40
1.0
 40
1.0
 10
15.4139162997
 20
20.2316241102
 30
0.0
 10
15.4419129409
 20
20.2052421436
 30
0.0
 10
15.483015897
 20
20.1665128065
 30
0.0
 10
15.5363451518
 20
20.1164904974
 30
0.0
 10
15.572575562
 20
20.0826898301
 30
0.0
 10
15.6051172795
 20
20.0525968893
 30
0.0
 10
15.6331616822
 20
20.0269441787
 30
0.0
 10
15.6560441776
 20
20.006334648
 30
0.0
 10
15.6696421235
 20
19.9945090396
 30
0.0
 10
15.6755880095
 20
19.9896328157
 30
0.0
 11
15.4139162997
 21
20.2316241102
 31
0.0
 11
15.4979489414
 21
20.1525235678
 31
0.0
 11
15.5373567373
 21
20.1155762183
 31
0.0
 11
15.5738767185
 21
20.0815287165
 31
0.0
 11
15.6067026265
 21
20.0511902082
 31
0.0
 11
15.635008964
 21
20.0253282326
 31
0.0
 11
15.6580727946
 21
20.0046460541
 31
0.0
 11
15.6755880095
 21
19.9896328157
 31
0.0
  0
SPLINE
  5
4B6
100
AcDbEntity
  8
0
100
AcDbSpline
 62
7
  6
CONTINUOUS
 70
0
 71
3
 72
12
 73
8
 74
6
 42
0.0000001
 43
0.0000001
 44
0.0000000001
 12
0.0104230425
 22
0.0110631456
 32
0.0
 13
0.0118437952
 23
-0.0095266742
 33
0.0
 40
0.0
 40
0.0
 40
0.0
 40
0.0
 40
0.0298371426
 40
0.0816382914
 40
0.2693527769
 40
0.5750219156
 40
1.0
 40
1.0
 40
1.0
 40
1.0
 10
15.0765963479
 20
20.4423845369
 30
0.0
 10
15.0767000125
 20
20.4424945678
 30
0.0
 10
15.0771699316
 20
20.4425533253
 30
0.0
 10
15.0784355213
 20
20.4420840373
 30
0.0
 10
15.0808336311
 20
20.4406469814
 30
0.0
 10
15.0845934228
 20
20.4379289472
 30
0.0
 10
15.0875084271
 20
20.4356377869
 30
0.0
 10
15.0891862116
 20
20.4342882443
 30
0.0
 11
15.0765963479
 21
20.4423845369
 31
0.0
 11
15.0770319727
 21
20.4425106692
 31
0.0
 11
15.0777935544
 21
20.4423108248
 31
0.0
 11
15.0802930223
 21
20.4409347771
 31
0.0
 11
15.084091619
 21
20.4382595361
 31
0.0
 11
15.0891862116
 21
20.4342882443
 31
0.0
  0
SPLINE
  5
4B7
100
AcDbEntity
  8
0
100
AcDbSpline
 62
7
  6
CONTINUOUS
 70
0
 71
3
 72
12
 73
8
 74
6
 42
0.0000001
 43
0.0000001
 44
0.0000000001
 12
0.123483818
 22
-0.0993254344
 32
0.0
 13
0.1159725774
 23
-0.1080007245
 33
0.0
 40
0.0
 40
0.0
 40
0.0
 40
0.0
 40
0.0686777638
 40
0.1552669777
 40
0.3787193452
 40
0.6630185237
 40
1.0
 40
1.0
 40
1.0
 40
1.0
 10
15.0891862116
 20
20.4342882443
 30
0.0
 10
15.0920130757
 20
20.4320144281
 30
0.0
 10
15.0983115044
 20
20.4267590932
 30
0.0
 10
15.1134447796
 20
20.4136738813
 30
0.0
 10
15.1368253723
 20
20.3927176727
 30
0.0
 10
15.1697400573
 20
20.3625880089
 30
0.0
 10
15.1937984793
 20
20.3402656914
 30
0.0
 10
15.2068253494
 20
20.3281342769
 30
0.0
 11
15.0891862116
 21
20.4342882443
 31
0.0
 11
15.0975665126
 21
20.427343954
 31
0.0
 11
15.1079608519
 21
20.4183855385
 31
0.0
 11
15.13439495
 21
20.3948229754
 31
0.0
 11
15.1676560009
 21
20.3644329988
 31
0.0
 11
15.2068253494
 21
20.3281342769
 31
0.0
  0
SPLINE
  5
4B8
100
AcDbEntity
  8
0
100
AcDbSpline
 62
7
  6
CONTINUOUS
 70
0
 71
3
 72
12
 73
8
 74
6
 42
0.0000001
 43
0.0000001
 44
0.0000000001
 12
0.2492722552
 22
-0.234825233
 32
0.0
 13
0.2584250724
 23
-0.2247132156
 33
0.0
 40
0.0
 40
0.0
 40
0.0
 40
0.0
 40
0.3082103472
 40
0.5917822014
 40
0.8282616485
 40
0.9232715105
 40
1.0
 40
1.0
 40
1.0
 40
1.0
 10
15.360382291
 20
20.1839676376
 30
0.0
 10
15.3859917205
 20
20.1598424488
 30
0.0
 10
15.4351623375
 20
20.1135194487
 30
0.0
 10
15.5041387799
 20
20.0488529123
 30
0.0
 10
15.5556278594
 20
20.0011168553
 30
0.0
 10
15.5901243176
 20
19.9697873821
 30
0.0
 10
15.6047758277
 20
19.9567600956
 30
0.0
 10
15.6113853495
 20
19.9510127937
 30
0.0
 11
15.360382291
 21
20.1839676376
 31
0.0
 11
15.4372399487
 21
20.1116232599
 31
0.0
 11
15.5081278591
 21
20.0452477827
 31
0.0
 11
15.5676042987
 21
19.9902830485
 31
0.0
 11
15.5917116526
 21
19.9684312026
 31
0.0
 11
15.6113853495
 21
19.9510127937
 31
0.0
  0
SPLINE
  5
4B9
100
AcDbEntity
  8
0
100
AcDbSpline
 62
7
  6
CONTINUOUS
 70
0
 71
3
 72
11
 73
7
 74
5
 42
0.0000001
 43
0.0000001
 44
0.0000000001
 12
0.0250320574
 22
-0.0217665958
 32
0.0
 13
0.0279596963
 23
-0.0178506014
 33
0.0
 40
0.0
 40
0.0
 40
0.0
 40
0.0
 40
0.3455389042
 40
0.6277744209
 40
0.8460791335
 40
1.0
 40
1.0
 40
1.0
 40
1.0
 10
15.6113853495
 20
19.9510127937
 30
0.0
 10
15.6142685327
 20
19.9485057252
 30
0.0
 10
15.619530157
 20
19.9439779869
 30
0.0
 10
15.6267181252
 20
19.9379878938
 30
0.0
 10
15.6323939286
 20
19.9334995275
 30
0.0
 10
15.6357267381
 20
19.931076168
 30
0.0
 10
15.637161265
 20
19.930160308
 30
0.0
 11
15.6113853495
 21
19.9510127937
 31
0.0
 11
15.6200824528
 21
19.9435466275
 31
0.0
 11
15.6272894034
 21
19.9375705591
 31
0.0
 11
15.6329883058
 21
19.9331024866
 31
0.0
 11
15.637161265
 21
19.930160308
 31
0.0
  0
LINE
  5
4BA
100
AcDbEntity
  8
0
100
AcDbLine
 62
7
  6
CONTINUOUS
 10
15.637161265
 20
19.930160308
 11
15.6399343549
 21
19.9287165848
  0
SPLINE
  5
4BB
100
AcDbEntity
  8
0
100
AcDbSpline
 62
7
  6
CONTINUOUS
 70
0
 71
3
 72
12
 73
8
 74
6
 42
0.0000001
 43
0.0000001
 44
0.0000000001
 12
0.0039696391
 22
0.0040155174
 32
0.0
 13
0.0046460177
 23
-0.0032088836
 33
0.0
 40
0.0
 40
0.0
 40
0.0
 40
0.0
 40
0.1012502105
 40
0.1842132412
 40
0.2928887309
 40
0.5911769521
 40
1.0
 40
1.0
 40
1.0
 40
1.0
 10
15.027532372
 20
20.3904153461
 30
0.0
 10
15.0276663476
 20
20.3905508701
 30
0.0
 10
15.0280815059
 20
20.3905503111
 30
0.0
 10
15.0285915561
 20
20.3903958917
 30
0.0
 10
15.0294509162
 20
20.3900339809
 30
0.0
 10
15.0307785089
 20
20.389267642
 30
0.0
 10
15.0318901128
 20
20.388532074
 30
0.0
 10
15.0325232459
 20
20.3880947855
 30
0.0
 11
15.027532372
 21
20.3904153461
 31
0.0
 11
15.0280942131
 21
20.3905210838
 31
0.0
 11
15.0285472322
 21
20.3904018527
 31
0.0
 11
15.029114648
 21
20.3901682246
 31
0.0
 11
15.0305916634
 21
20.389358786
 31
0.0
 11
15.0325232459
 21
20.3880947855
 31
0.0
  0
SPLINE
  5
4BC
100
AcDbEntity
  8
0
100
AcDbSpline
 62
7
  6
CONTINUOUS
 70
0
 71
3
 72
13
 73
9
 74
7
 42
0.0000001
 43
0.0000001
 44
0.0000000001
 12
0.0865752314
 22
-0.0597952604
 32
0.0
 13
0.0774968218
 23
-0.0711687184
 33
0.0
 40
0.0
 40
0.0
 40
0.0
 40
0.0
 40
0.0566830353
 40
0.1338490985
 40
0.2311740551
 40
0.3482961941
 40
0.6395357413
 40
1.0
 40
1.0
 40
1.0
 40
1.0
 10
15.0325232459
 20
20.3880947855
 30
0.0
 10
15.0341590282
 20
20.3869649932
 30
0.0
 10
15.0379064091
 20
20.3841324963
 30
0.0
 10
15.0442093657
 20
20.3790325295
 30
0.0
 10
15.0520232875
 20
20.3724322723
 30
0.0
 10
15.0654136048
 20
20.3608020393
 30
0.0
 10
15.0855041479
 20
20.3428150676
 30
0.0
 10
15.10238471
 20
20.3274044417
 30
0.0
 10
15.1116963214
 20
20.3188531819
 30
0.0
 11
15.0325232459
 21
20.3880947855
 31
0.0
 11
15.0373153716
 21
20.3845443685
 31
0.0
 11
15.0436437127
 21
20.3794577228
 31
0.0
 11
15.051478853
 21
20.3728642191
 31
0.0
 11
15.0607913766
 21
20.3647932284
 31
0.0
 11
15.0836653668
 21
20.3444018991
 31
0.0
 11
15.1116963214
 21
20.3188531819
 31
0.0
  0
SPLINE
  5
4BD
100
AcDbEntity
  8
0
100
AcDbSpline
 62
7
  6
CONTINUOUS
 70
0
 71
3
 72
21
 73
17
 74
15
 42
0.0000001
 43
0.0000001
 44
0.0000000001
 12
0.404856281
 22
-0.3782930497
 32
0.0
 13
0.4797621543
 23
-0.2772048251
 33
0.0
 40
0.0
 40
0.0
 40
0.0
 40
0.0
 40
0.1552162525
 40
0.3200393547
 40
0.4848104503
 40
0.639803245
 40
0.7107254079
 40
0.7759190949
 40
0.8344270356
 40
0.8853653794
 40
0.927881699
 40
0.9613827655
 40
0.9746411376
 40
0.9855157677
 40
0.9939728401
 40
1.0
 40
1.0
 40
1.0
 40
1.0
 10
15.1793917933
 20
20.2560479681
 30
0.0
 10
15.2003385516
 20
20.2364755582
 30
0.0
 10
15.2434396066
 20
20.1960242111
 30
0.0
 10
15.3086254178
 20
20.1346345122
 30
0.0
 10
15.3737811179
 20
20.0732730373
 30
0.0
 10
15.4263970501
 20
20.023892935
 30
0.0
 10
15.4657222772
 20
19.9872270582
 30
0.0
 10
15.4920870499
 20
19.9627926567
 30
0.0
 10
15.5158372816
 20
19.9409674576
 30
0.0
 10
15.5366169081
 20
19.9221000392
 30
0.0
 10
15.5541215923
 20
19.9064983292
 30
0.0
 10
15.566585084
 20
19.8957003196
 30
0.0
 10
15.5747754825
 20
19.8889008911
 30
0.0
 10
15.5794813609
 20
19.8851458871
 30
0.0
 10
15.583230522
 20
19.8823392489
 30
0.0
 10
15.5854514489
 20
19.8808401753
 30
0.0
 10
15.5864153167
 20
19.8802832561
 30
0.0
 11
15.1793917933
 21
20.2560479681
 31
0.0
 11
15.2421294045
 21
20.1972210582
 31
0.0
 11
15.3086323992
 21
20.1346279146
 31
0.0
 11
15.3751145148
 21
20.0720546321
 31
0.0
 11
15.4377631416
 21
20.0133138377
 31
0.0
 11
15.4665100748
 21
19.9865205346
 31
0.0
 11
15.4930109495
 21
19.9619730148
 31
0.0
 11
15.5168900546
 21
19.9400469328
 31
0.0
 11
15.5378001602
 21
19.9210895622
 31
0.0
 11
15.5554056712
 21
19.9054365621
 31
0.0
 11
15.5694711929
 21
19.8933233558
 31
0.0
 11
15.5751308859
 21
19.8886397462
 31
0.0
 11
15.57985154
 21
19.8848951253
 31
0.0
 11
15.5836168792
 21
19.8821057677
 31
0.0
 11
15.5864153167
 21
19.8802832561
 31
0.0
  0
LINE
  5
4BE
100
AcDbEntity
  8
0
100
AcDbLine
 62
7
  6
CONTINUOUS
 10
15.5864153167
 20
19.8802832561
 11
15.588232316
 21
19.8794392731
  0
SPLINE
  5
4BF
100
AcDbEntity
  8
0
100
AcDbSpline
 62
9
  6
CONTINUOUS
 70
0
 71
3
 72
10
 73
6
 74
4
 42
0.0000001
 43
0.0000001
 44
0.0000000001
 12
0.2676673492
 22
0.0136849185
 32
0.0
 13
0.2413964317
 23
-0.1164510609
 33
0.0
 40
0.0
 40
0.0
 40
0.0
 40
0.0
 40
0.512207045
 40
0.7597998922
 40
1.0
 40
1.0
 40
1.0
 40
1.0
 10
18.8079638681
 20
2.3275566804
 30
0.0
 10
18.8536642355
 20
2.3298931843
 30
0.0
 10
18.9222530267
 20
2.326070038
 30
0.0
 10
19.0091750266
 20
2.3047181865
 30
0.0
 10
19.0499248543
 20
2.2887673873
 30
0.0
 10
19.0692526706
 20
2.2794435348
 30
0.0
 11
18.8079638681
 21
2.3275566804
 31
0.0
 11
18.9449835227
 21
2.3191032981
 31
0.0
 11
19.0093924916
 21
2.3031341942
 31
0.0
 11
19.0692526706
 21
2.2794435348
 31
0.0
  0
SPLINE
  5
4C0
100
AcDbEntity
  8
0
100
AcDbSpline
 62
9
  6
CONTINUOUS
 70
0
 71
3
 72
14
 73
10
 74
8
 42
0.0000001
 43
0.0000001
 44
0.0000000001
 12
0.007679274
 22
0.1391823037
 32
0.0
 13
0.0005675448
 23
0.1393928363
 33
0.0
 40
0.0
 40
0.0
 40
0.0
 40
0.0
 40
0.1380221956
 40
0.2750498016
 40
0.4094454542
 40
0.5398725328
 40
0.665266039
 40
0.7845212383
 40
1.0
 40
1.0
 40
1.0
 40
1.0
 10
18.807968894
 20
2.1882259523
 30
0.0
 10
18.8083221974
 20
2.194629368
 30
0.0
 10
18.808951189
 20
2.2073944443
 30
0.0
 10
18.8095369831
 20
2.2264119145
 30
0.0
 10
18.809573984
 20
2.245086979
 30
0.0
 10
18.8090685545
 20
2.2632125378
 30
0.0
 10
18.8084135985
 20
2.2806278031
 30
0.0
 10
18.8078900248
 20
2.3020023593
 30
0.0
 10
18.8079215034
 20
2.3175573674
 30
0.0
 10
18.807962268
 20
2.3275694326
 30
0.0
 11
18.807968894
 21
2.1882259523
 31
0.0
 11
18.8088941676
 21
2.2074431549
 31
0.0
 11
18.809448145
 21
2.2265359447
 31
0.0
 11
18.8094797267
 21
2.2452698646
 31
0.0
 11
18.8090320486
 21
2.2634451031
 31
0.0
 11
18.8084419757
 21
2.2809142415
 31
0.0
 11
18.8080518573
 21
2.2975331215
 31
0.0
 11
18.807962268
 21
2.3275694326
 31
0.0
  0
SPLINE
  5
4C1
100
AcDbEntity
  8
0
100
AcDbSpline
 62
9
  6
CONTINUOUS
 70
0
 71
3
 72
11
 73
7
 74
5
 42
0.0000001
 43
0.0000001
 44
0.0000000001
 12
0.0436371507
 22
0.1354513517
 32
0.0
 13
0.0822436967
 23
0.1161345941
 33
0.0
 40
0.0
 40
0.0
 40
0.0
 40
0.0
 40
0.2600736422
 40
0.5184864707
 40
0.7675248446
 40
1.0
 40
1.0
 40
1.0
 40
1.0
 10
19.0072627335
 20
2.1519205535
 30
0.0
 10
19.0110456911
 20
2.1636629956
 30
0.0
 10
19.0194202596
 20
2.1868125891
 30
0.0
 10
19.0341317307
 20
2.2201477116
 30
0.0
 10
19.0505934041
 20
2.2511810489
 30
0.0
 10
19.0628751511
 20
2.2704798663
 30
0.0
 10
19.0692483565
 20
2.2794793356
 30
0.0
 11
19.0072627335
 21
2.1519205535
 31
0.0
 11
19.0198404629
 21
2.186728055
 31
0.0
 11
19.0347167616
 21
2.2203586752
 31
0.0
 11
19.0513816428
 21
2.251635947
 31
0.0
 11
19.0692483565
 21
2.2794793356
 31
0.0
  0
SPLINE
  5
4C2
100
AcDbEntity
  8
0
100
AcDbSpline
 62
9
  6
CONTINUOUS
 70
0
 71
3
 72
36
 73
32
 74
30
 42
0.0000001
 43
0.0000001
 44
0.0000000001
 12
1.9199603732
 22
-0.0599624908
 32
0.0
 13
-1.7307203494
 23
0.8333369109
 33
0.0
 40
0.0
 40
0.0
 40
0.0
 40
0.0
 40
0.0331059044
 40
0.0657553703
 40
0.0817939546
 40
0.0976185933
 40
0.1286264346
 40
0.1588393042
 40
0.1884577196
 40
0.2177529201
 40
0.2470237238
 40
0.276521291
 40
0.3064169688
 40
0.3368496084
 40
0.3678767585
 40
0.4316131505
 40
0.4971385523
 40
0.530338635
 40
0.5636778057
 40
0.5970400236
 40
0.6303128919
 40
0.6633872086
 40
0.6961489795
 40
0.7603048727
 40
0.8222205445
 40
0.8523254668
 40
0.8819564558
 40
0.9112792842
 40
0.9405610493
 40
0.9700752285
 40
1.0
 40
1.0
 40
1.0
 40
1.0
 10
18.8079595956
 20
0.7935412746
 30
0.0
 10
18.8291469371
 20
0.7928795704
 30
0.0
 10
18.8712961353
 20
0.7930492046
 30
0.0
 10
18.923540229
 20
0.7979966544
 30
0.0
 10
18.9641800172
 20
0.8055354412
 30
0.0
 10
19.0032510295
 20
0.8153180192
 30
0.0
 10
19.0499379351
 20
0.8316784104
 30
0.0
 10
19.1021065394
 20
0.8577466095
 30
0.0
 10
19.1495761596
 20
0.8897180478
 30
0.0
 10
19.19196918
 20
0.9272584589
 30
0.0
 10
19.2291963238
 20
0.9697948066
 30
0.0
 10
19.2614681372
 20
1.0166413275
 30
0.0
 10
19.2890097892
 20
1.0672384228
 30
0.0
 10
19.3122260751
 20
1.1210035636
 30
0.0
 10
19.3382421536
 20
1.1968960299
 30
0.0
 10
19.3616094084
 20
1.2971029444
 30
0.0
 10
19.3749321154
 20
1.4004101975
 30
0.0
 10
19.3804621141
 20
1.484808162
 30
0.0
 10
19.3821642927
 20
1.5487687782
 30
0.0
 10
19.3814041904
 20
1.6127937791
 30
0.0
 10
19.3781216021
 20
1.6765697478
 30
0.0
 10
19.3722971605
 20
1.7397811061
 30
0.0
 10
19.3610310047
 20
1.8222718925
 30
0.0
 10
19.3398700116
 20
1.9219440317
 30
0.0
 10
19.3069130497
 20
2.0167931501
 30
0.0
 10
19.2719885748
 20
2.0865366936
 30
0.0
 10
19.2414798813
 20
2.1348386532
 30
0.0
 10
19.2060899281
 20
2.1790474106
 30
0.0
 10
19.1654931903
 20
2.21846111
 30
0.0
 10
19.1198014249
 20
2.252472167
 30
0.0
 10
19.0865116407
 20
2.2711671351
 30
0.0
 10
19.069247837
 20
2.2794796073
 30
0.0
 11
18.8079595956
 21
0.7935412746
 31
0.0
 11
18.8715508425
 21
0.794015567
 31
0.0
 11
18.933957883
 21
0.8002355855
 31
0.0
 11
18.9642461411
 21
0.805873196
 31
0.0
 11
18.9937327051
 21
0.8132590013
 31
0.0
 11
19.0499222773
 21
0.8330192009
 31
0.0
 11
19.101811933
 21
0.8590118379
 31
0.0
 11
19.1489758174
 21
0.8908314078
 31
0.0
 11
19.191130978
 21
0.9281087247
 31
0.0
 11
19.228243926
 21
0.9703463012
 31
0.0
 11
19.2604828108
 21
1.0169425551
 31
0.0
 11
19.2880676671
 21
1.067309994
 31
0.0
 11
19.3113768561
 21
1.1209198224
 31
0.0
 11
19.3308150385
 21
1.177260841
 31
0.0
 11
19.3593442762
 21
1.2963214779
 31
0.0
 11
19.3758376265
 21
1.4211036906
 31
0.0
 11
19.3800448923
 21
1.4847386815
 31
0.0
 11
19.3817532775
 21
1.548756987
 31
0.0
 11
19.3809806029
 21
1.6128376961
 31
0.0
 11
19.3776837849
 21
1.6766663467
 31
0.0
 11
19.3718152155
 21
1.739927061
 31
0.0
 11
19.36323624
 21
1.8022715406
 31
0.0
 11
19.337031666
 21
1.9226901297
 31
0.0
 11
19.2970314934
 21
2.0346954272
 31
0.0
 11
19.2710107465
 21
2.0863389084
 31
0.0
 11
19.240502831
 21
2.1343902662
 31
0.0
 11
19.2051987333
 21
2.1782793567
 31
0.0
 11
19.1648083785
 21
2.2174248702
 31
0.0
 11
19.1193525202
 21
2.2513061139
 31
0.0
 11
19.069247837
 21
2.2794796073
 31
0.0
  0
SPLINE
  5
4C3
100
AcDbEntity
  8
0
100
AcDbSpline
 62
9
  6
CONTINUOUS
 70
0
 71
3
 72
11
 73
7
 74
5
 42
0.0000001
 43
0.0000001
 44
0.0000000001
 12
0.1335854205
 22
0.3424368106
 32
0.0
 13
0.3548346998
 23
0.0959185574
 33
0.0
 40
0.0
 40
0.0
 40
0.0
 40
0.0
 40
0.2514201681
 40
0.5019729817
 40
0.7515583389
 40
1.0
 40
1.0
 40
1.0
 40
1.0
 10
15.8459426714
 20
0.8622765289
 30
0.0
 10
15.8571380277
 20
0.8909750357
 30
0.0
 10
15.8864361179
 20
0.9458338808
 30
0.0
 10
15.9483317737
 20
1.0151353036
 30
0.0
 10
16.0243236252
 20
1.0679243623
 30
0.0
 10
16.0816569598
 20
1.0905590952
 30
0.0
 10
16.1110422005
 20
1.0985024838
 30
0.0
 11
15.8459426714
 21
0.8622765289
 31
0.0
 11
15.8895078071
 21
0.943778318
 31
0.0
 11
15.9508161719
 21
1.0125018408
 31
0.0
 11
16.0261415855
 21
1.0648692602
 31
0.0
 11
16.1110422005
 21
1.0985024838
 31
0.0
  0
SPLINE
  5
4C4
100
AcDbEntity
  8
0
100
AcDbSpline
 62
9
  6
CONTINUOUS
 70
0
 71
3
 72
13
 73
9
 74
7
 42
0.0000001
 43
0.0000001
 44
0.0000000001
 12
-0.0093633808
 22
0.8012239996
 32
0.0
 13
0.6082282012
 23
0.5216378301
 33
0.0
 40
0.0
 40
0.0
 40
0.0
 40
0.0
 40
0.249909012
 40
0.4997834755
 40
0.6248685359
 40
0.7499630536
 40
0.8750768498
 40
1.0
 40
1.0
 40
1.0
 40
1.0
 10
15.0359931208
 20
0.9761075282
 30
0.0
 10
15.035213123
 20
1.0428518942
 30
0.0
 10
15.0480348984
 20
1.1768912833
 30
0.0
 10
15.0990034016
 20
1.3372147314
 30
0.0
 10
15.1596310785
 20
1.4564786157
 30
0.0
 10
15.2147166301
 20
1.5404863416
 30
0.0
 10
15.278892677
 20
1.6176919476
 30
0.0
 10
15.327170565
 20
1.6640751734
 30
0.0
 10
15.352497826
 20
1.6857967204
 30
0.0
 11
15.0359931208
 21
0.9761075282
 31
0.0
 11
15.0550227367
 21
1.1754480481
 31
0.0
 11
15.1157887242
 21
1.3662232505
 31
0.0
 11
15.1612270654
 21
1.4555597396
 31
0.0
 11
15.2162333426
 21
1.5393540097
 31
0.0
 11
15.280303023
 21
1.6164600621
 31
0.0
 11
15.352497826
 21
1.6857967204
 31
0.0
  0
SPLINE
  5
4C5
100
AcDbEntity
  8
0
100
AcDbSpline
 62
9
  6
CONTINUOUS
 70
0
 71
3
 72
15
 73
11
 74
9
 42
0.0000001
 43
0.0000001
 44
0.0000000001
 12
-0.5851110821
 22
-0.151550444
 32
0.0
 13
-0.1744336836
 23
-0.5787014822
 33
0.0
 40
0.0
 40
0.0
 40
0.0
 40
0.0
 40
0.1248300455
 40
0.2498153464
 40
0.3748050757
 40
0.4997586802
 40
0.6247101218
 40
0.7497561534
 40
0.8749339227
 40
1.0
 40
1.0
 40
1.0
 40
1.0
 10
16.0511704855
 20
1.2923039936
 30
0.0
 10
16.0268240045
 20
1.2859979773
 30
0.0
 10
15.9788484353
 20
1.2702637369
 30
0.0
 10
15.9104546491
 20
1.2378079387
 30
0.0
 10
15.846665203
 20
1.1969677073
 30
0.0
 10
15.7885859131
 20
1.1483563352
 30
0.0
 10
15.7372476265
 20
1.0926490077
 30
0.0
 10
15.6935505524
 20
1.0307099859
 30
0.0
 10
15.6581337384
 20
0.9636857778
 30
0.0
 10
15.6404076129
 20
0.9163099198
 30
0.0
 10
15.6331357007
 20
0.8921846117
 30
0.0
 11
16.0511704855
 21
1.2923039936
 31
0.0
 11
15.9794749324
 21
1.2688007923
 31
0.0
 11
15.9112266474
 21
1.2364126231
 31
0.0
 11
15.8476101155
 21
1.195667523
 31
0.0
 11
15.7897102712
 21
1.1471748865
 31
0.0
 11
15.7385376515
 21
1.0916312704
 31
0.0
 11
15.6949468782
 21
1.029888144
 31
0.0
 11
15.6595969771
 21
0.9629942271
 31
0.0
 11
15.6331357007
 21
0.8921846117
 31
0.0
  0
SPLINE
  5
4C6
100
AcDbEntity
  8
0
100
AcDbSpline
 62
9
  6
CONTINUOUS
 70
0
 71
3
 72
11
 73
7
 74
5
 42
0.0000001
 43
0.0000001
 44
0.0000000001
 12
0.004836
 22
0.9263419026
 32
0.0
 13
0.7233214843
 23
0.5787389202
 33
0.0
 40
0.0
 40
0.0
 40
0.0
 40
0.0
 40
0.2508338873
 40
0.501318983
 40
0.7511047451
 40
1.0
 40
1.0
 40
1.0
 40
1.0
 10
14.8695301249
 20
0.9995023972
 30
0.0
 10
14.8699344692
 20
1.076955044
 30
0.0
 10
14.8872528929
 20
1.2321583397
 30
0.0
 10
14.9617311959
 20
1.4536539084
 30
0.0
 10
15.0824389023
 20
1.6531744265
 30
0.0
 10
15.19127326
 20
1.7645090203
 30
0.0
 10
15.2512836884
 20
1.812524144
 30
0.0
 11
14.8695301249
 21
0.9995023972
 31
0.0
 11
14.8953740984
 21
1.2304218051
 31
0.0
 11
14.9695719696
 21
1.4502770081
 31
0.0
 11
15.0897292145
 21
1.6480234312
 31
0.0
 11
15.2512836884
 21
1.812524144
 31
0.0
  0
SPLINE
  5
4C7
100
AcDbEntity
  8
0
100
AcDbSpline
 62
9
  6
CONTINUOUS
 70
0
 71
3
 72
12
 73
8
 74
6
 42
0.0000001
 43
0.0000001
 44
0.0000000001
 12
-0.105237046
 22
0.1234779628
 32
0.0
 13
-0.0903280973
 23
0.1347682381
 33
0.0
 40
0.0
 40
0.0
 40
0.0
 40
0.0
 40
0.3178957484
 40
0.6035796709
 40
0.836333302
 40
0.9277205357
 40
1.0
 40
1.0
 40
1.0
 40
1.0
 10
15.3525003132
 20
1.6857988655
 30
0.0
 10
15.3413488433
 20
1.6988832387
 30
0.0
 10
15.3203341359
 20
1.7238621125
 30
0.0
 10
15.2917312889
 20
1.7588993241
 30
0.0
 10
15.2713583117
 20
1.7848396664
 30
0.0
 10
15.2585683148
 20
1.8020458028
 30
0.0
 10
15.2534602705
 20
1.8092768288
 30
0.0
 10
15.2512839817
 20
1.8125238208
 30
0.0
 11
15.3525003132
 21
1.6857988655
 31
0.0
 11
15.3193158436
 21
1.7252804546
 31
0.0
 11
15.2900457977
 21
1.7612180855
 31
0.0
 11
15.2668267856
 21
1.790997824
 31
0.0
 11
15.2580055947
 21
1.8029148338
 31
0.0
 11
15.2512839817
 21
1.8125238208
 31
0.0
  0
SPLINE
  5
4C8
100
AcDbEntity
  8
0
100
AcDbSpline
 62
9
  6
CONTINUOUS
 70
0
 71
3
 72
10
 73
6
 74
4
 42
0.0000001
 43
0.0000001
 44
0.0000000001
 12
-0.0231831311
 22
0.1368961036
 32
0.0
 13
-0.0118685053
 23
0.1383370498
 33
0.0
 40
0.0
 40
0.0
 40
0.0
 40
0.0
 40
0.5531168211
 40
0.7948400188
 40
1.0
 40
1.0
 40
1.0
 40
1.0
 10
15.7578232055
 20
1.8782017563
 30
0.0
 10
15.7535488789
 20
1.9034416022
 30
0.0
 10
15.7478783734
 20
1.9397974468
 30
0.0
 10
15.7420021554
 20
1.9857064884
 30
0.0
 10
15.7398447179
 20
2.0062798097
 30
0.0
 10
15.7390330704
 20
2.0157402185
 30
0.0
 11
15.7578232055
 21
1.8782017563
 31
0.0
 11
15.7461410292
 21
1.9541056689
 31
0.0
 11
15.7419243902
 21
1.9874018482
 31
0.0
 11
15.7390330704
 21
2.0157402185
 31
0.0
  0
LINE
  5
4C9
100
AcDbEntity
  8
0
100
AcDbLine
 62
9
  6
CONTINUOUS
 10
15.9329617944
 20
2.285587365
 11
15.9396132924
 21
2.2710429246
  0
LINE
  5
4CA
100
AcDbEntity
  8
0
100
AcDbLine
 62
9
  6
CONTINUOUS
 10
15.8244917235
 20
2.0237736741
 11
15.73903342
 21
2.0157402464
  0
SPLINE
  5
4CB
100
AcDbEntity
  8
0
100
AcDbSpline
 62
9
  6
CONTINUOUS
 70
0
 71
3
 72
9
 73
5
 74
3
 42
0.0000001
 43
0.0000001
 44
0.0000000001
 12
-0.0532652576
 22
0.1052199041
 32
0.0
 13
-0.0587821397
 23
0.1022402853
 33
0.0
 40
0.0
 40
0.0
 40
0.0
 40
0.0
 40
0.5486759961
 40
1.0
 40
1.0
 40
1.0
 40
1.0
 10
15.73903342
 20
2.0157402464
 30
0.0
 10
15.7292916305
 20
2.034984125
 30
0.0
 10
15.7113092507
 20
2.0699425755
 30
0.0
 10
15.6925121026
 20
2.1044789122
 30
0.0
 10
15.6836688391
 20
2.1198600771
 30
0.0
 11
15.73903342
 21
2.0157402464
 31
0.0
 11
15.709313348
 21
2.0732187749
 31
0.0
 11
15.6836688391
 21
2.1198600771
 31
0.0
  0
SPLINE
  5
4CC
100
AcDbEntity
  8
0
100
AcDbSpline
 62
9
  6
CONTINUOUS
 70
0
 71
3
 72
9
 73
5
 74
3
 42
0.0000001
 43
0.0000001
 44
0.0000000001
 12
-0.0141746311
 22
0.0246540587
 32
0.0
 13
-0.0150587217
 23
0.0241242135
 33
0.0
 40
0.0
 40
0.0
 40
0.0
 40
0.0
 40
0.2668780849
 40
1.0
 40
1.0
 40
1.0
 40
1.0
 10
15.6836688391
 20
2.1198600771
 30
0.0
 10
15.6824078729
 20
2.1220532865
 30
0.0
 10
15.6776534502
 20
2.1302541687
 30
0.0
 10
15.6727744512
 20
2.1383836897
 30
0.0
 10
15.6690944916
 20
2.1442790196
 30
0.0
 11
15.6836688391
 21
2.1198600771
 31
0.0
 11
15.6798612977
 21
2.1264254753
 31
0.0
 11
15.6690944916
 21
2.1442790196
 31
0.0
  0
SPLINE
  5
4CD
100
AcDbEntity
  8
0
100
AcDbSpline
 62
9
  6
CONTINUOUS
 70
0
 71
3
 72
9
 73
5
 74
3
 42
0.0000001
 43
0.0000001
 44
0.0000000001
 12
-0.0212953854
 22
0.0341154074
 32
0.0
 13
-0.0258674105
 23
0.0307933684
 33
0.0
 40
0.0
 40
0.0
 40
0.0
 40
0.0
 40
0.5585604138
 40
1.0
 40
1.0
 40
1.0
 40
1.0
 10
15.6690944916
 20
2.1442790196
 30
0.0
 10
15.6651295718
 20
2.1506308583
 30
0.0
 10
15.6578211706
 20
2.161872501
 30
0.0
 10
15.6498259379
 20
2.1726583355
 30
0.0
 10
15.6460196382
 20
2.1771894728
 30
0.0
 11
15.6690944916
 21
2.1442790196
 31
0.0
 11
15.6567509202
 21
2.163046924
 31
0.0
 11
15.6460196382
 21
2.1771894728
 31
0.0
  0
SPLINE
  5
4CE
100
AcDbEntity
  8
0
100
AcDbSpline
 62
9
  6
CONTINUOUS
 70
0
 71
3
 72
13
 73
9
 74
7
 42
0.0000001
 43
0.0000001
 44
0.0000000001
 12
-0.0179897423
 22
0.0214155477
 32
0.0
 13
-0.0255544701
 23
-0.0113677424
 33
0.0
 40
0.0
 40
0.0
 40
0.0
 40
0.0
 40
0.3651300797
 40
0.6431424095
 40
0.7525573271
 40
0.8452553412
 40
0.9255445833
 40
1.0
 40
1.0
 40
1.0
 40
1.0
 10
15.6460196382
 20
2.1771894728
 30
0.0
 10
15.6438301062
 20
2.1797959596
 30
0.0
 10
15.6398084844
 20
2.1842489043
 30
0.0
 10
15.6344442648
 20
2.1888484109
 30
0.0
 10
15.6305294641
 20
2.1910519339
 30
0.0
 10
15.6280233812
 20
2.1919204537
 30
0.0
 10
15.6256935349
 20
2.1921164249
 30
0.0
 10
15.6242622497
 20
2.1917576784
 30
0.0
 10
15.6236280268
 20
2.1914755484
 30
0.0
 11
15.6460196382
 21
2.1771894728
 31
0.0
 11
15.6390823665
 21
2.1846837826
 31
0.0
 11
15.6330378759
 21
2.1895751431
 31
0.0
 11
15.6303504851
 21
2.1910389777
 31
0.0
 11
15.6278863635
 21
2.1918451873
 31
0.0
 11
15.6256455358
 21
2.1919914762
 31
0.0
 11
15.6236280268
 21
2.1914755484
 31
0.0
  0
SPLINE
  5
4CF
100
AcDbEntity
  8
0
100
AcDbSpline
 62
9
  6
CONTINUOUS
 70
0
 71
3
 72
10
 73
6
 74
4
 42
0.0000001
 43
0.0000001
 44
0.0000000001
 12
-0.0316606868
 22
0.0526341173
 32
0.0
 13
-0.0330251714
 23
0.0517885779
 33
0.0
 40
0.0
 40
0.0
 40
0.0
 40
0.0
 40
0.0638222753
 40
0.3950998689
 40
1.0
 40
1.0
 40
1.0
 40
1.0
 10
16.2579617941
 20
1.0605873651
 30
0.0
 10
16.2572882418
 20
1.0617071082
 30
0.0
 10
16.2531083643
 20
1.0686328564
 30
0.0
 10
16.2423860285
 20
1.0860751554
 30
0.0
 10
16.2322178177
 20
1.102323958
 30
0.0
 10
16.2255588409
 20
1.1127662639
 30
0.0
 11
16.2579617941
 21
1.0605873651
 31
0.0
 11
16.2559363779
 21
1.0639437083
 31
0.0
 11
16.245303598
 21
1.0812924957
 31
0.0
 11
16.2255588409
 21
1.1127662639
 31
0.0
  0
SPLINE
  5
4D0
100
AcDbEntity
  8
0
100
AcDbSpline
 62
9
  6
CONTINUOUS
 70
0
 71
3
 72
14
 73
10
 74
8
 42
0.0000001
 43
0.0000001
 44
0.0000000001
 12
0.0274780212
 22
-0.0789770654
 32
0.0
 13
0.0806875814
 23
-0.0219529661
 33
0.0
 40
0.0
 40
0.0
 40
0.0
 40
0.0
 40
0.3788772783
 40
0.5360029027
 40
0.6709074942
 40
0.7836984397
 40
0.8749061631
 40
0.9458863854
 40
1.0
 40
1.0
 40
1.0
 40
1.0
 10
16.3196861093
 20
1.105730847
 30
0.0
 10
16.3231563752
 20
1.0957566418
 30
0.0
 10
16.328287
 20
1.0817144882
 30
0.0
 10
16.3356173077
 20
1.0645057186
 30
0.0
 10
16.3405287349
 20
1.0543401007
 30
0.0
 10
16.3451906423
 20
1.0461147184
 30
0.0
 10
16.3496227317
 20
1.0398341291
 30
0.0
 10
16.3538211588
 20
1.0354738932
 30
0.0
 10
16.3569202539
 20
1.0336648333
 30
0.0
 10
16.3583756861
 20
1.0332688486
 30
0.0
 11
16.3196861093
 21
1.105730847
 31
0.0
 11
16.3307722128
 21
1.0760517981
 31
0.0
 11
16.335962082
 21
1.0639812838
 31
0.0
 11
16.3409163125
 21
1.0538465729
 31
0.0
 11
16.3456348414
 21
1.0456800794
 31
0.0
 11
16.3501176155
 21
1.0395096977
 31
0.0
 11
16.3543645814
 21
1.0353633226
 31
0.0
 11
16.3583756861
 21
1.0332688486
 31
0.0
  0
SPLINE
  5
4D1
100
AcDbEntity
  8
0
100
AcDbSpline
 62
9
  6
CONTINUOUS
 70
0
 71
3
 72
11
 73
7
 74
5
 42
0.0000001
 43
0.0000001
 44
0.0000000001
 12
-0.0931756976
 22
0.0155342396
 32
0.0
 13
-0.0944589131
 23
0.0007327765
 33
0.0
 40
0.0
 40
0.0
 40
0.0
 40
0.0
 40
0.2517947084
 40
0.5027256909
 40
0.7523347914
 40
1.0
 40
1.0
 40
1.0
 40
1.0
 10
16.3196546269
 20
1.1057358728
 30
0.0
 10
16.3118342443
 20
1.107039686
 30
0.0
 10
16.2961552195
 20
1.1092717057
 30
0.0
 10
16.2725553148
 20
1.1114266937
 30
0.0
 10
16.2490145814
 20
1.1125027248
 30
0.0
 10
16.233356797
 20
1.112705752
 30
0.0
 10
16.2255587349
 20
1.1127662464
 30
0.0
 11
16.3196546269
 21
1.1057358728
 31
0.0
 11
16.2961054733
 21
1.1090768565
 31
0.0
 11
16.272502018
 21
1.1112510623
 31
0.0
 11
16.2489503783
 21
1.1123764856
 31
0.0
 11
16.2255587349
 21
1.1127662464
 31
0.0
  0
SPLINE
  5
4D2
100
AcDbEntity
  8
0
100
AcDbSpline
 62
9
  6
CONTINUOUS
 70
0
 71
3
 72
11
 73
7
 74
5
 42
0.0000001
 43
0.0000001
 44
0.0000000001
 12
0.3446204014
 22
0.2950161635
 32
0.0
 13
0.4463914115
 23
0.0808236691
 33
0.0
 40
0.0
 40
0.0
 40
0.0
 40
0.0
 40
0.2501041674
 40
0.5001823197
 40
0.7501492188
 40
1.0
 40
1.0
 40
1.0
 40
1.0
 10
15.3524977882
 20
1.6857967415
 30
0.0
 10
15.3812281211
 20
1.7103916655
 30
0.0
 10
15.44201124
 20
1.7558367954
 30
0.0
 10
15.5412860054
 20
1.81138075
 30
0.0
 10
15.647047721
 20
1.85318922
 30
0.0
 10
15.7206461223
 20
1.8714704542
 30
0.0
 10
15.7578232032
 20
1.8782017399
 30
0.0
 11
15.3524977882
 21
1.6857967415
 31
0.0
 11
15.4433672974
 21
1.7537365171
 31
0.0
 11
15.5423882085
 21
1.809101326
 31
0.0
 11
15.6478410862
 21
1.8507983838
 31
0.0
 11
15.7578232032
 21
1.8782017399
 31
0.0
  0
SPLINE
  5
4D3
100
AcDbEntity
  8
0
100
AcDbSpline
 62
9
  6
CONTINUOUS
 70
0
 71
3
 72
11
 73
7
 74
5
 42
0.0000001
 43
0.0000001
 44
0.0000000001
 12
-0.1187560262
 22
0.0218348042
 32
0.0
 13
-0.1206733782
 23
0.0042057381
 33
0.0
 40
0.0
 40
0.0
 40
0.0
 40
0.0
 40
0.250012482
 40
0.5000030641
 40
0.7500156946
 40
1.0
 40
1.0
 40
1.0
 40
1.0
 10
16.3434225881
 20
1.297308769
 30
0.0
 10
16.3335257585
 20
1.2991284268
 30
0.0
 10
16.3136583796
 20
1.3023818713
 30
0.0
 10
16.2836690498
 20
1.3059094375
 30
0.0
 10
16.2535800486
 20
1.3083703346
 30
0.0
 10
16.2334831654
 20
1.3095005552
 30
0.0
 10
16.2234276818
 20
1.3098510114
 30
0.0
 11
16.3434225881
 21
1.297308769
 31
0.0
 11
16.3136262037
 21
1.302156552
 31
0.0
 11
16.2836531328
 21
1.3057315893
 31
0.0
 11
16.2535695766
 21
1.3082428144
 31
0.0
 11
16.2234276818
 21
1.3098510114
 31
0.0
  0
SPLINE
  5
4D4
100
AcDbEntity
  8
0
100
AcDbSpline
 62
9
  6
CONTINUOUS
 70
0
 71
3
 72
15
 73
11
 74
9
 42
0.0000001
 43
0.0000001
 44
0.0000000001
 12
-1.2979430621
 22
0.1869860111
 32
0.0
 13
-1.2922115185
 23
0.2231800892
 33
0.0
 40
0.0
 40
0.0
 40
0.0
 40
0.0
 40
0.1249959777
 40
0.2499940619
 40
0.3749942111
 40
0.4999950976
 40
0.6249957222
 40
0.7499966367
 40
0.8749986492
 40
1.0
 40
1.0
 40
1.0
 40
1.0
 10
17.8170095078
 20
1.0585825471
 30
0.0
 10
17.7629302871
 20
1.0663733802
 30
0.0
 10
17.6548134405
 20
1.0822511291
 30
0.0
 10
17.4927416426
 20
1.1067678416
 30
0.0
 10
17.3307422839
 20
1.1317717804
 30
0.0
 10
17.1687989658
 20
1.1571434541
 30
0.0
 10
17.0069470859
 20
1.1830965042
 30
0.0
 10
16.8452277993
 20
1.2098673187
 30
0.0
 10
16.6836294664
 20
1.2373583374
 30
0.0
 10
16.5759392264
 20
1.2559309675
 30
0.0
 10
16.5220964979
 20
1.2652302384
 30
0.0
 11
17.8170095078
 21
1.0585825471
 31
0.0
 11
17.6548318211
 21
1.0823676409
 31
0.0
 11
17.4927549616
 21
1.1068488558
 31
0.0
 11
17.3307521254
 21
1.1318329918
 31
0.0
 11
17.1688141475
 21
1.1572403594
 31
0.0
 11
17.0069693907
 21
1.1832327645
 31
0.0
 11
16.8452484838
 21
1.2099872647
 31
0.0
 11
16.6836397319
 21
1.2374196979
 31
0.0
 11
16.5220964979
 21
1.2652302384
 31
0.0
  0
SPLINE
  5
4D5
100
AcDbEntity
  8
0
100
AcDbSpline
 62
9
  6
CONTINUOUS
 70
0
 71
3
 72
11
 73
7
 74
5
 42
0.0000001
 43
0.0000001
 44
0.0000000001
 12
0.2042830706
 22
0.0170249453
 32
0.0
 13
0.1826453682
 23
-0.0930703559
 33
0.0
 40
0.0
 40
0.0
 40
0.0
 40
0.0
 40
0.2561719061
 40
0.5090737419
 40
0.7571530532
 40
1.0
 40
1.0
 40
1.0
 40
1.0
 10
18.8079688992
 20
2.1882259523
 30
0.0
 10
18.8254127604
 20
2.1896797232
 30
0.0
 10
18.8603024531
 20
2.1903394903
 30
0.0
 10
18.9118768609
 20
2.1847177439
 30
0.0
 10
18.9613442363
 20
2.1723501887
 30
0.0
 10
18.9924779344
 20
2.1594545884
 30
0.0
 10
19.007262891
 20
2.1519206378
 30
0.0
 11
18.8079688992
 21
2.1882259523
 31
0.0
 11
18.8604725037
 21
2.1892195331
 31
0.0
 11
18.9119994944
 21
2.1835071284
 31
0.0
 11
18.9613054054
 21
2.1710545791
 31
0.0
 11
19.007262891
 21
2.1519206378
 31
0.0
  0
SPLINE
  5
4D6
100
AcDbEntity
  8
0
100
AcDbSpline
 62
9
  6
CONTINUOUS
 70
0
 71
3
 72
35
 73
31
 74
29
 42
0.0000001
 43
0.0000001
 44
0.0000000001
 12
1.3676692039
 22
-0.7074030099
 32
0.0
 13
-1.5342085955
 23
0.1309276715
 33
0.0
 40
0.0
 40
0.0
 40
0.0
 40
0.0
 40
0.0301820925
 40
0.0601062669
 40
0.0899256286
 40
0.1198905342
 40
0.1806981903
 40
0.2117216059
 40
0.2431151435
 40
0.3068702427
 40
0.3715222457
 40
0.4040528712
 40
0.4366379791
 40
0.4692150823
 40
0.5017251868
 40
0.5341127778
 40
0.5663169739
 40
0.5982785056
 40
0.6299585251
 40
0.6922280099
 40
0.7228006003
 40
0.7530323884
 40
0.7829760005
 40
0.8128247684
 40
0.8428050869
 40
0.8731158588
 40
0.9039808012
 40
0.9354862461
 40
0.967584496
 40
1.0
 40
1.0
 40
1.0
 40
1.0
 10
19.007262891
 20
2.1519206378
 30
0.0
 10
19.0210225972
 20
2.1448036701
 30
0.0
 10
19.0474647091
 20
2.1286802795
 30
0.0
 10
19.0832219888
 20
2.0992579862
 30
0.0
 10
19.1143439257
 20
2.0651233416
 30
0.0
 10
19.1499840093
 20
2.0143605411
 30
0.0
 10
19.1773052096
 20
1.957650022
 30
0.0
 10
19.1979658419
 20
1.8978534586
 30
0.0
 10
19.21507805
 20
1.8353475369
 30
0.0
 10
19.2299393898
 20
1.7545431729
 30
0.0
 10
19.2381762792
 20
1.6722757681
 30
0.0
 10
19.241264661
 20
1.605731897
 30
0.0
 10
19.2419461741
 20
1.5555852891
 30
0.0
 10
19.2409655248
 20
1.505453933
 30
0.0
 10
19.238264444
 20
1.4554867202
 30
0.0
 10
19.2338114187
 20
1.4058360528
 30
0.0
 10
19.2274935845
 20
1.3566704522
 30
0.0
 10
19.2190764939
 20
1.3081794775
 30
0.0
 10
19.2048968181
 20
1.2451203075
 30
0.0
 10
19.185592405
 20
1.1839341765
 30
0.0
 10
19.1592937406
 20
1.1264154607
 30
0.0
 10
19.1359236042
 20
1.0860286971
 30
0.0
 10
19.1083807123
 20
1.048787026
 30
0.0
 10
19.0762835947
 20
1.0155271606
 30
0.0
 10
19.039671054
 20
0.9869833586
 30
0.0
 10
18.9988286047
 20
0.9638065696
 30
0.0
 10
18.9542767574
 20
0.9466667078
 30
0.0
 10
18.9069114643
 20
0.9356274431
 30
0.0
 10
18.8577367476
 20
0.9308143622
 30
0.0
 10
18.8245396968
 20
0.9316427846
 30
0.0
 10
18.8079623152
 20
0.9330574801
 30
0.0
 11
19.007262891
 21
2.1519206378
 31
0.0
 11
19.0469372188
 21
2.1277178611
 31
0.0
 11
19.0825036292
 21
2.0984244887
 31
0.0
 11
19.1135292343
 21
2.0645772358
 31
0.0
 11
19.1401641325
 21
2.0269018195
 31
0.0
 11
19.1817052657
 21
1.9429908776
 31
0.0
 11
19.1974097296
 21
1.8978767485
 31
0.0
 11
19.2102474518
 21
1.8512733058
 31
0.0
 11
19.2285322136
 21
1.7548220253
 31
0.0
 11
19.2386425851
 21
1.6557865744
 31
0.0
 11
19.2409899583
 21
1.6057514354
 31
0.0
 11
19.2416689573
 21
1.5555819674
 31
0.0
 11
19.2406767313
 21
1.5054300445
 31
0.0
 11
19.2379654833
 21
1.4554449474
 31
0.0
 11
19.2334851257
 21
1.4057766855
 31
0.0
 11
19.2271158893
 21
1.3565998923
 31
0.0
 11
19.218653736
 21
1.3081189798
 31
0.0
 11
19.2078886371
 21
1.2605412316
 31
0.0
 11
19.1782288546
 21
1.1693623801
 31
0.0
 11
19.1585469192
 21
1.1265991062
 31
0.0
 11
19.1351139422
 21
1.0863767176
 31
0.0
 11
19.1075781092
 21
1.0493955307
 31
0.0
 11
19.075606345
 21
1.0163774894
 31
0.0
 11
19.0391810025
 21
0.9880183674
 31
0.0
 11
18.9985865557
 21
0.9649885306
 31
0.0
 11
18.954268685
 21
0.947824969
 31
0.0
 11
18.9070409599
 21
0.9367381006
 31
0.0
 11
18.8578602726
 21
0.9318358647
 31
0.0
 11
18.8079623152
 21
0.9330574801
 31
0.0
  0
LINE
  5
4D7
100
AcDbEntity
  8
0
100
AcDbLine
 62
7
  6
CONTINUOUS
 10
18.8079662228
 20
0.9013060845
 11
18.8079649459
 21
0.7935624338
  0
LINE
  5
4D8
100
AcDbEntity
  8
0
100
AcDbLine
 62
9
  6
CONTINUOUS
 10
18.807962321
 20
0.9330574802
 11
18.8079662228
 21
0.9013060845
  0
SPLINE
  5
4D9
100
AcDbEntity
  8
0
100
AcDbSpline
 62
9
  6
CONTINUOUS
 70
0
 71
3
 72
10
 73
6
 74
4
 42
0.0000001
 43
0.0000001
 44
0.0000000001
 12
1.0084515921
 22
-0.1151114148
 32
0.0
 13
1.0077288528
 23
-0.1212757631
 33
0.0
 40
0.0
 40
0.0
 40
0.0
 40
0.0
 40
0.2496331124
 40
0.4995605892
 40
1.0
 40
1.0
 40
1.0
 40
1.0
 10
17.799695062
 20
0.9102259757
 30
0.0
 10
17.8836093652
 20
0.9006474354
 30
0.0
 10
18.0515771872
 20
0.8818341367
 30
0.0
 10
18.3877505016
 20
0.8436612112
 30
0.0
 10
18.6398636179
 20
0.8137964503
 30
0.0
 10
18.807966029
 20
0.7935660598
 30
0.0
 11
17.799695062
 21
0.9102259757
 31
0.0
 11
18.0514710005
 21
0.8817812003
 31
0.0
 11
18.3035195201
 21
0.8530885223
 31
0.0
 11
18.807966029
 21
0.7935660598
 31
0.0
  0
SPLINE
  5
4DA
100
AcDbEntity
  8
0
100
AcDbSpline
 62
9
  6
CONTINUOUS
 70
0
 71
3
 72
10
 73
6
 74
4
 42
0.0000001
 43
0.0000001
 44
0.0000000001
 12
-0.0216263179
 22
-0.1478157876
 32
0.0
 13
-0.0106637618
 23
-0.1490083517
 33
0.0
 40
0.0
 40
0.0
 40
0.0
 40
0.0
 40
0.5505658761
 40
0.7935435567
 40
1.0
 40
1.0
 40
1.0
 40
1.0
 10
17.8170104656
 20
1.0585831198
 30
0.0
 10
17.8130415614
 20
1.0314556769
 30
0.0
 10
17.8077989929
 20
0.9922814498
 30
0.0
 10
17.8024027705
 20
0.9427766906
 30
0.0
 10
17.8004287945
 20
0.9204805704
 30
0.0
 10
17.799694927
 20
0.9102259923
 30
0.0
 11
17.8170104656
 21
1.0585831198
 31
0.0
 11
17.8062292231
 21
0.9770440615
 31
0.0
 11
17.8023375916
 21
0.9409549806
 31
0.0
 11
17.799694927
 21
0.9102259923
 31
0.0
  0
SPLINE
  5
4DB
100
AcDbEntity
  8
0
100
AcDbSpline
 62
9
  6
CONTINUOUS
 70
0
 71
3
 72
11
 73
7
 74
5
 42
0.0000001
 43
0.0000001
 44
0.0000000001
 12
-1.3033634244
 22
0.147266891
 32
0.0
 13
-1.2968232889
 23
0.1967056442
 33
0.0
 40
0.0
 40
0.0
 40
0.0
 40
0.0
 40
0.2502956652
 40
0.5003880502
 40
0.7502798619
 40
1.0
 40
1.0
 40
1.0
 40
1.0
 10
17.799694927
 20
0.9102259923
 30
0.0
 10
17.6909528553
 20
0.9225127471
 30
0.0
 10
17.4736127791
 20
0.947575393
 30
0.0
 10
17.1479926178
 20
0.9873478913
 30
0.0
 10
16.8230152177
 20
1.0302044983
 30
0.0
 10
16.606812181
 20
1.0614392315
 30
0.0
 10
16.4988645507
 20
1.0778130184
 30
0.0
 11
17.799694927
 21
0.9102259923
 31
0.0
 11
17.4735676529
 21
0.9479516301
 31
0.0
 11
17.1479711429
 21
0.9878782317
 31
0.0
 11
16.8230323134
 21
1.0308834158
 31
0.0
 11
16.4988645507
 21
1.0778130184
 31
0.0
  0
SPLINE
  5
4DC
100
AcDbEntity
  8
0
100
AcDbSpline
 62
9
  6
CONTINUOUS
 70
0
 71
3
 72
14
 73
10
 74
8
 42
0.0000001
 43
0.0000001
 44
0.0000000001
 12
-0.0319559268
 22
-0.1862887816
 32
0.0
 13
0.0062378727
 23
-0.1889068034
 33
0.0
 40
0.0
 40
0.0
 40
0.0
 40
0.0
 40
0.3273150236
 40
0.4803736224
 40
0.6211529468
 40
0.7463033332
 40
0.8528551402
 40
0.9381069282
 40
1.0
 40
1.0
 40
1.0
 40
1.0
 10
16.5220966209
 20
1.2652304254
 30
0.0
 10
16.5186100692
 20
1.2449053864
 30
0.0
 10
16.5137751646
 20
1.2150260138
 30
0.0
 10
16.5081645282
 20
1.1762950319
 30
0.0
 10
16.5047062029
 20
1.1501238843
 30
0.0
 10
16.5019864445
 20
1.1268138849
 30
0.0
 10
16.500055399
 20
1.1069351498
 30
0.0
 10
16.4989725408
 20
1.0909886099
 30
0.0
 10
16.4987358573
 20
1.0817103197
 30
0.0
 10
16.498864551
 20
1.0778129789
 30
0.0
 11
16.5220966209
 21
1.2652304254
 31
0.0
 11
16.5122515149
 21
1.2041530716
 31
0.0
 11
16.5081156921
 21
1.1755206602
 31
0.0
 11
16.5046481706
 21
1.1491388964
 31
0.0
 11
16.5019323835
 21
1.125640668
 31
0.0
 11
16.5000336065
 21
1.105591046
 31
0.0
 11
16.4990042134
 21
1.0895105402
 31
0.0
 11
16.498864551
 21
1.0778129789
 31
0.0
  0
SPLINE
  5
4DD
100
AcDbEntity
  8
0
100
AcDbSpline
 62
9
  6
CONTINUOUS
 70
0
 71
3
 72
15
 73
11
 74
9
 42
0.0000001
 43
0.0000001
 44
0.0000000001
 12
-0.0166649574
 22
0.1925355842
 32
0.0
 13
0.0334714667
 23
0.1903347917
 33
0.0
 40
0.0
 40
0.0
 40
0.0
 40
0.0
 40
0.023918716
 40
0.054502319
 40
0.1348230294
 40
0.2389361632
 40
0.3639530581
 40
0.5066221175
 40
0.6631666572
 40
1.0
 40
1.0
 40
1.0
 40
1.0
 10
16.3196545416
 20
1.1057359021
 30
0.0
 10
16.3195216735
 20
1.1072709701
 30
0.0
 10
16.3193904466
 20
1.1107828961
 30
0.0
 10
16.3194836224
 20
1.1194686144
 30
0.0
 10
16.3203288063
 20
1.1333011002
 30
0.0
 10
16.3221914854
 20
1.1531489745
 30
0.0
 10
16.3249677275
 20
1.1769402732
 30
0.0
 10
16.3285869903
 20
1.2040286955
 30
0.0
 10
16.3345633505
 20
1.2445645797
 30
0.0
 10
16.3397553103
 20
1.2759237489
 30
0.0
 10
16.3435134123
 20
1.2972941169
 30
0.0
 11
16.3196545416
 21
1.1057359021
 31
0.0
 11
16.3194390219
 21
1.1103532975
 31
0.0
 11
16.3194765724
 21
1.1162636265
 31
0.0
 11
16.32030834
 21
1.131763741
 31
0.0
 11
16.3221341481
 21
1.1518011605
 31
0.0
 11
16.3248980591
 21
1.1758027423
 31
0.0
 11
16.3285274388
 21
1.2031343965
 31
0.0
 11
16.332925327
 21
1.233066116
 31
0.0
 11
16.3435134123
 21
1.2972941169
 31
0.0
  0
SPLINE
  5
4DE
100
AcDbEntity
  8
0
100
AcDbSpline
 62
9
  6
CONTINUOUS
 70
0
 71
3
 72
11
 73
7
 74
5
 42
0.0000001
 43
0.0000001
 44
0.0000000001
 12
0.2212020277
 22
0.0216654983
 32
0.0
 13
0.2209934406
 23
0.0236987361
 33
0.0
 40
0.0
 40
0.0
 40
0.0
 40
0.0
 40
0.2494547677
 40
0.499293847
 40
0.7494947468
 40
1.0
 40
1.0
 40
1.0
 40
1.0
 10
15.8246203879
 20
2.0237872491
 30
0.0
 10
15.843013688
 20
2.0255887697
 30
0.0
 10
15.8798403567
 20
2.0290734031
 30
0.0
 10
15.9351118686
 20
2.0344019669
 30
0.0
 10
15.9904404667
 20
2.0399449397
 30
0.0
 10
16.0273416341
 20
2.0437415481
 30
0.0
 10
16.0457949734
 20
2.0457204341
 30
0.0
 11
15.8246203879
 21
2.0237872491
 31
0.0
 11
15.8798104559
 21
2.0290869751
 31
0.0
 11
15.9350817963
 21
2.0344338125
 31
0.0
 11
15.9904155771
 21
2.0399673526
 31
0.0
 11
16.0457949734
 21
2.0457204341
 31
0.0
  0
SPLINE
  5
4DF
100
AcDbEntity
  8
0
100
AcDbSpline
 62
9
  6
CONTINUOUS
 70
0
 71
3
 72
10
 73
6
 74
4
 42
0.0000001
 43
0.0000001
 44
0.0000000001
 12
0.0051422757
 22
-0.1266638869
 32
0.0
 13
0.0134720144
 23
-0.1260503394
 33
0.0
 40
0.0
 40
0.0
 40
0.0
 40
0.0
 40
0.2156412071
 40
0.4594126013
 40
1.0
 40
1.0
 40
1.0
 40
1.0
 10
16.0457949734
 20
2.0457204341
 30
0.0
 10
16.0461646022
 20
2.0366157829
 30
0.0
 10
16.0472071036
 20
2.0172289621
 30
0.0
 10
16.0502413129
 20
1.9750807263
 30
0.0
 10
16.0533764546
 20
1.942079667
 30
0.0
 10
16.055804055
 20
1.9193659253
 30
0.0
 11
16.0457949734
 21
2.0457204341
 31
0.0
 11
16.0472207032
 21
2.0184211854
 31
0.0
 11
16.0494136596
 21
1.9875966266
 31
0.0
 11
16.055804055
 21
1.9193659253
 31
0.0
  0
SPLINE
  5
4E0
100
AcDbEntity
  8
0
100
AcDbSpline
 62
9
  6
CONTINUOUS
 70
0
 71
3
 72
10
 73
6
 74
4
 42
0.0000001
 43
0.0000001
 44
0.0000000001
 12
-0.0196000616
 22
0.1311079869
 32
0.0
 13
-0.0104180176
 23
0.1321549528
 33
0.0
 40
0.0
 40
0.0
 40
0.0
 40
0.0
 40
0.5471682111
 40
0.7898194357
 40
1.0
 40
1.0
 40
1.0
 40
1.0
 10
15.8405349961
 20
1.8922017304
 30
0.0
 10
15.8369601525
 20
1.9161144379
 30
0.0
 10
15.8322028847
 20
1.9506959041
 30
0.0
 10
15.8272215145
 20
1.9946039266
 30
0.0
 10
15.8253502762
 20
2.0145284482
 30
0.0
 10
15.8246203879
 20
2.0237872491
 30
0.0
 11
15.8405349961
 21
1.8922017304
 31
0.0
 11
15.830763642
 21
1.9640758873
 31
0.0
 11
15.8271701663
 21
1.9960415864
 31
0.0
 11
15.8246203879
 21
2.0237872491
 31
0.0
  0
SPLINE
  5
4E1
100
AcDbEntity
  8
0
100
AcDbSpline
 62
9
  6
CONTINUOUS
 70
0
 71
3
 72
18
 73
14
 74
12
 42
0.0000001
 43
0.0000001
 44
0.0000000001
 12
-0.1260871083
 22
0.1593259957
 32
0.0
 13
-0.0495402993
 23
0.1970494622
 33
0.0
 40
0.0
 40
0.0
 40
0.0
 40
0.0
 40
0.0169548546
 40
0.0415835882
 40
0.0737969518
 40
0.1134090258
 40
0.1601051007
 40
0.2135131085
 40
0.3387934222
 40
0.4850937756
 40
0.6476857572
 40
0.8214108664
 40
1.0
 40
1.0
 40
1.0
 40
1.0
 10
16.1110430235
 20
1.0985026747
 30
0.0
 10
16.1103304273
 20
1.0994031243
 30
0.0
 10
16.1088834774
 20
1.1018374591
 30
0.0
 10
16.1066912936
 20
1.1063260883
 30
0.0
 10
16.1041336604
 20
1.1123417386
 30
0.0
 10
16.1012346241
 20
1.1198271023
 30
0.0
 10
16.0980224939
 20
1.1287288118
 30
0.0
 10
16.0930907971
 20
1.1431753017
 30
0.0
 10
16.0864202395
 20
1.1641531111
 30
0.0
 10
16.0780172318
 20
1.1923332019
 30
0.0
 10
16.0691320833
 20
1.2237898121
 30
0.0
 10
16.0600663524
 20
1.2574647095
 30
0.0
 10
16.0541203866
 20
1.2805738499
 30
0.0
 10
16.0511712669
 20
1.2923041474
 30
0.0
 11
16.1110430235
 21
1.0985026747
 31
0.0
 11
16.10918569
 21
1.1014040087
 31
0.0
 11
16.1069506307
 21
1.1058812359
 31
0.0
 11
16.104359561
 21
1.1118916836
 31
0.0
 11
16.1014346167
 21
1.1193898242
 31
0.0
 11
16.0982009636
 21
1.1283095468
 31
0.0
 11
16.0946850966
 21
1.1385757133
 31
0.0
 11
16.0869193861
 21
1.1628168498
 31
0.0
 11
16.0783979345
 21
1.1912947697
 31
0.0
 11
16.0694002279
 21
1.2230815259
 31
0.0
 11
16.0602144984
 21
1.2571630795
 31
0.0
 11
16.0511712669
 21
1.2923041474
 31
0.0
  0
SPLINE
  5
4E2
100
AcDbEntity
  8
0
100
AcDbSpline
 62
9
  6
CONTINUOUS
 70
0
 71
3
 72
17
 73
13
 74
11
 42
0.0000001
 43
0.0000001
 44
0.0000000001
 12
-0.0083477677
 22
-0.1971965146
 32
0.0
 13
0.0537225005
 23
-0.1899211508
 33
0.0
 40
0.0
 40
0.0
 40
0.0
 40
0.0
 40
0.1736602655
 40
0.3428009241
 40
0.5016707624
 40
0.6457154232
 40
0.77083009
 40
0.873466663
 40
0.9153360515
 40
0.9505201563
 40
0.9788005013
 40
1.0
 40
1.0
 40
1.0
 40
1.0
 10
16.2234276823
 20
1.3098510118
 30
0.0
 10
16.2229444571
 20
1.2984359455
 30
0.0
 10
16.2221163653
 20
1.2758973857
 30
0.0
 10
16.2212720613
 20
1.2429019982
 30
0.0
 10
16.2208649269
 20
1.2118468322
 30
0.0
 10
16.2208963623
 20
1.1836849695
 30
0.0
 10
16.2213675866
 20
1.1592275972
 30
0.0
 10
16.222132923
 20
1.1415016289
 30
0.0
 10
16.2230192815
 20
1.1297121359
 30
0.0
 10
16.2237293428
 20
1.1228167327
 30
0.0
 10
16.2245206224
 20
1.1173026747
 30
0.0
 10
16.22517916
 20
1.1141082637
 30
0.0
 10
16.22555879
 20
1.1127661859
 30
0.0
 11
16.2234276823
 21
1.3098510118
 31
0.0
 11
16.2221699049
 21
1.2755982278
 31
0.0
 11
16.2213263394
 21
1.242225067
 31
0.0
 11
16.2209301234
 21
1.2108709338
 31
0.0
 11
16.2209897941
 21
1.1824404516
 31
0.0
 11
16.2215040628
 21
1.1577515343
 31
0.0
 11
16.2224580743
 21
1.1375163096
 31
0.0
 11
16.2230933998
 21
1.1292768755
 31
0.0
 11
16.2238266952
 21
1.1223713036
 31
0.0
 11
16.224650859
 21
1.1168507037
 31
0.0
 11
16.22555879
 21
1.1127661859
 31
0.0
  0
SPLINE
  5
4E3
100
AcDbEntity
  8
0
100
AcDbSpline
 62
9
  6
CONTINUOUS
 70
0
 71
3
 72
11
 73
7
 74
5
 42
0.0000001
 43
0.0000001
 44
0.0000000001
 12
-0.0762025461
 22
0.0084358764
 32
0.0
 13
-0.0761529138
 23
0.0088727538
 33
0.0
 40
0.0
 40
0.0
 40
0.0
 40
0.0
 40
0.495050368
 40
0.6208983635
 40
0.7469896199
 40
1.0
 40
1.0
 40
1.0
 40
1.0
 10
13.585113486
 20
18.4126127908
 30
0.0
 10
13.5725387865
 20
18.4140048521
 30
0.0
 10
13.5570306136
 20
18.4176004126
 30
0.0
 10
13.5382613569
 20
18.4210682589
 30
0.0
 10
13.5255168298
 20
18.4231052426
 30
0.0
 10
13.5159076559
 20
18.4243566729
 30
0.0
 10
13.5094851634
 20
18.4251049726
 30
0.0
 11
13.585113486
 21
18.4126127908
 31
0.0
 11
13.5477500249
 21
18.4192851135
 31
0.0
 11
13.5382603861
 21
18.4210288838
 31
0.0
 11
13.5287156374
 21
18.4225625059
 31
0.0
 11
13.5094851634
 21
18.4251049726
 31
0.0
  0
SPLINE
  5
4E4
100
AcDbEntity
  8
0
100
AcDbSpline
 62
9
  6
CONTINUOUS
 70
0
 71
3
 72
13
 73
9
 74
7
 42
0.0000001
 43
0.0000001
 44
0.0000000001
 12
-0.1656891888
 22
0.0193048343
 32
0.0
 13
-0.1658555005
 23
-0.0178195648
 33
0.0
 40
0.0
 40
0.0
 40
0.0
 40
0.0
 40
0.1256011732
 40
0.2516318815
 40
0.3777502675
 40
0.5036259145
 40
0.7536373312
 40
1.0
 40
1.0
 40
1.0
 40
1.0
 10
13.5094851634
 20
18.4251049726
 30
0.0
 10
13.5025482445
 20
18.4259132092
 30
0.0
 10
13.4886279172
 20
18.4273360141
 30
0.0
 10
13.4677003011
 20
18.429137683
 30
0.0
 10
13.4467220246
 20
18.4304875695
 30
0.0
 10
13.4188250386
 20
18.4315357156
 30
0.0
 10
13.3842056735
 20
18.4312456712
 30
0.0
 10
13.3566490473
 20
18.429314956
 30
0.0
 10
13.3430288461
 20
18.4278515975
 30
0.0
 11
13.5094851634
 21
18.4251049726
 31
0.0
 11
13.4886466349
 21
18.4272781117
 31
0.0
 11
13.4676992504
 21
18.4290617624
 31
0.0
 11
13.4467037172
 21
18.4303948309
 31
0.0
 11
13.4257206694
 21
18.4311688705
 31
0.0
 11
13.3840177786
 21
18.4308128657
 31
0.0
 11
13.3430288461
 21
18.4278515975
 31
0.0
  0
SPLINE
  5
4E5
100
AcDbEntity
  8
0
100
AcDbSpline
 62
9
  6
CONTINUOUS
 70
0
 71
3
 72
9
 73
5
 74
3
 42
0.0000001
 43
0.0000001
 44
0.0000000001
 12
-0.0631015414
 22
-0.0067796486
 32
0.0
 13
-0.0617031057
 23
-0.0148490709
 33
0.0
 40
0.0
 40
0.0
 40
0.0
 40
0.0
 40
0.2538786822
 40
1.0
 40
1.0
 40
1.0
 40
1.0
 10
13.3430288461
 20
18.4278515975
 30
0.0
 10
13.3376888007
 20
18.4272778614
 30
0.0
 10
13.3166900372
 20
18.4247125799
 30
0.0
 10
13.2958373378
 20
18.4208775534
 30
0.0
 10
13.2804913369
 20
18.4171844839
 30
0.0
 11
13.3430288461
 21
18.4278515975
 31
0.0
 11
13.3270359383
 21
18.4258934802
 31
0.0
 11
13.2804913369
 21
18.4171844839
 31
0.0
  0
SPLINE
  5
4E6
100
AcDbEntity
  8
0
100
AcDbSpline
 62
9
  6
CONTINUOUS
 70
0
 71
3
 72
15
 73
11
 74
9
 42
0.0000001
 43
0.0000001
 44
0.0000000001
 12
-0.2868585745
 22
-0.0690335319
 32
0.0
 13
-0.0339934112
 23
-0.2930834664
 33
0.0
 40
0.0
 40
0.0
 40
0.0
 40
0.0
 40
0.1372638895
 40
0.2696277422
 40
0.3970946662
 40
0.5202796366
 40
0.6403863932
 40
0.7590177531
 40
0.8782119653
 40
1.0
 40
1.0
 40
1.0
 40
1.0
 10
13.2804913369
 20
18.4171844839
 30
0.0
 10
13.267366229
 20
18.4140258802
 30
0.0
 10
13.2418503142
 20
18.4066163894
 30
0.0
 10
13.2056619819
 20
18.3917066158
 30
0.0
 10
13.1728042801
 20
18.3730541218
 30
0.0
 10
13.1438766988
 20
18.3506229817
 30
0.0
 10
13.1195066717
 20
18.3244483417
 30
0.0
 10
13.1002706718
 20
18.2947333341
 30
0.0
 10
13.0867783773
 20
18.261828837
 30
0.0
 10
13.0819358438
 20
18.2384696193
 30
0.0
 10
13.0805558469
 20
18.2265715995
 30
0.0
 11
13.2804913369
 21
18.4171844839
 31
0.0
 11
13.2416312592
 21
18.4057782808
 31
0.0
 11
13.205576184
 21
18.3907707877
 31
0.0
 11
13.1729402341
 21
18.3720805871
 31
0.0
 11
13.1443031486
 21
18.3496994916
 31
0.0
 11
13.1202286657
 21
18.323695248
 31
0.0
 11
13.1012609296
 21
18.2942781907
 31
0.0
 11
13.0879029307
 21
18.2617458196
 31
0.0
 11
13.0805558469
 21
18.2265715995
 31
0.0
  0
SPLINE
  5
4E7
100
AcDbEntity
  8
0
100
AcDbSpline
 62
9
  6
CONTINUOUS
 70
0
 71
3
 72
9
 73
5
 74
3
 42
0.0000001
 43
0.0000001
 44
0.0000000001
 12
-0.0007097363
 22
-0.0309123337
 32
0.0
 13
0.003505177
 23
-0.0307211626
 33
0.0
 40
0.0
 40
0.0
 40
0.0
 40
0.0
 40
0.2468215712
 40
1.0
 40
1.0
 40
1.0
 40
1.0
 10
13.0792271719
 20
18.2072679675
 30
0.0
 10
13.0791687791
 20
18.2047246906
 30
0.0
 10
13.0791141448
 20
18.1944169944
 30
0.0
 10
13.0797806061
 20
18.1841071878
 30
0.0
 10
13.080660614
 20
18.1763943488
 30
0.0
 11
13.0792271719
 21
18.2072679675
 31
0.0
 11
13.0791857391
 21
18.1996362385
 31
0.0
 11
13.080660614
 21
18.1763943488
 31
0.0
  0
SPLINE
  5
4E8
100
AcDbEntity
  8
0
100
AcDbSpline
 62
9
  6
CONTINUOUS
 70
0
 71
3
 72
10
 73
6
 74
4
 42
0.0000001
 43
0.0000001
 44
0.0000000001
 12
0.0308911636
 22
0.0604444396
 32
0.0
 13
0.058333026
 23
0.0347138638
 33
0.0
 40
0.0
 40
0.0
 40
0.0
 40
0.0
 40
0.4685808658
 40
0.7295937854
 40
1.0
 40
1.0
 40
1.0
 40
1.0
 10
13.3415757389
 20
18.3382183549
 30
0.0
 10
13.3464007417
 20
18.3476593909
 30
0.0
 10
13.3559584089
 20
18.3614387241
 30
0.0
 10
13.3724712577
 20
18.3769855556
 30
0.0
 10
13.3823574951
 20
18.3839268152
 30
0.0
 10
13.3876153661
 20
18.3870557634
 30
0.0
 11
13.3415757389
 21
18.3382183549
 31
0.0
 11
13.3597046322
 21
18.3643539155
 31
0.0
 11
13.3725841639
 21
18.376520932
 31
0.0
 11
13.3876153661
 21
18.3870557634
 31
0.0
  0
SPLINE
  5
4E9
100
AcDbEntity
  8
0
100
AcDbSpline
 62
9
  6
CONTINUOUS
 70
0
 71
3
 72
9
 73
5
 74
3
 42
0.0000001
 43
0.0000001
 44
0.0000000001
 12
0.070033215
 22
0.0416766222
 32
0.0
 13
0.0809884784
 23
-0.0090806611
 33
0.0
 40
0.0
 40
0.0
 40
0.0
 40
0.0
 40
0.498284342
 40
1.0
 40
1.0
 40
1.0
 40
1.0
 10
13.3876153661
 20
18.3870557634
 30
0.0
 10
13.3992475175
 20
18.3939780328
 30
0.0
 10
13.4250507214
 20
18.4040710611
 30
0.0
 10
13.4527165238
 20
18.4054413034
 30
0.0
 10
13.4662609197
 20
18.4039226667
 30
0.0
 11
13.3876153661
 21
18.3870557634
 31
0.0
 11
13.425424642
 21
18.4018706719
 31
0.0
 11
13.4662609197
 21
18.4039226667
 31
0.0
  0
SPLINE
  5
4EA
100
AcDbEntity
  8
0
100
AcDbSpline
 62
9
  6
CONTINUOUS
 70
0
 71
3
 72
14
 73
10
 74
8
 42
0.0000001
 43
0.0000001
 44
0.0000000001
 12
-0.0068318792
 22
0.0033512603
 32
0.0
 13
0.0037315418
 23
0.0066318259
 33
0.0
 40
0.0
 40
0.0
 40
0.0
 40
0.0
 40
0.0296519469
 40
0.1030507352
 40
0.2116737544
 40
0.3395083304
 40
0.4861897941
 40
0.6560238835
 40
1.0
 40
1.0
 40
1.0
 40
1.0
 10
13.5041461535
 20
18.3852846452
 30
0.0
 10
13.5040786273
 20
18.385317769
 30
0.0
 10
13.5041391254
 20
18.3856672131
 30
0.0
 10
13.5042578998
 20
18.3861120866
 30
0.0
 10
13.5045402968
 20
18.3868859457
 30
0.0
 10
13.5049047359
 20
18.3877725057
 30
0.0
 10
13.5053645689
 20
18.3888065694
 30
0.0
 10
13.506083144
 20
18.3903180537
 30
0.0
 10
13.5066835965
 20
18.3914766202
 30
0.0
 10
13.5071114503
 20
18.3922370167
 30
0.0
 11
13.5041461535
 21
18.3852846452
 31
0.0
 11
13.5041132215
 21
18.3855078676
 31
0.0
 11
13.5042485016
 21
18.3860497702
 31
0.0
 11
13.5045247743
 21
18.3868288069
 31
0.0
 11
13.5048917885
 21
18.3877296809
 31
0.0
 11
13.5053442188
 21
18.3887500584
 31
0.0
 11
13.5058982175
 21
18.3899176586
 31
0.0
 11
13.5071114503
 21
18.3922370167
 31
0.0
  0
SPLINE
  5
4EB
100
AcDbEntity
  8
0
100
AcDbSpline
 62
9
  6
CONTINUOUS
 70
0
 71
3
 72
17
 73
13
 74
11
 42
0.0000001
 43
0.0000001
 44
0.0000000001
 12
0.1716585744
 22
0.1558803719
 32
0.0
 13
0.1639594263
 23
-0.1639593336
 33
0.0
 40
0.0
 40
0.0
 40
0.0
 40
0.0
 40
0.0388074477
 40
0.0791256621
 40
0.1220038455
 40
0.1682001159
 40
0.2722274737
 40
0.3929673789
 40
0.5292599545
 40
0.6785140373
 40
0.8371315646
 40
1.0
 40
1.0
 40
1.0
 40
1.0
 10
12.9379083312
 20
18.0431467745
 30
0.0
 10
12.940128875
 20
18.0451632143
 30
0.0
 10
12.9450983465
 20
18.0488129638
 30
0.0
 10
12.9537025528
 20
18.0528015006
 30
0.0
 10
12.9634244828
 20
18.0553391994
 30
0.0
 10
12.9783199784
 20
18.056863645
 30
0.0
 10
12.9993588744
 20
18.0547326805
 30
0.0
 10
13.0262151441
 20
18.0467684938
 30
0.0
 10
13.0548262905
 20
18.033610892
 30
0.0
 10
13.0841958131
 20
18.0157082864
 30
0.0
 10
13.1132295436
 20
17.9936919355
 30
0.0
 10
13.1316088077
 20
17.9769106509
 30
0.0
 10
13.1405100794
 20
17.9680093842
 30
0.0
 11
12.9379083312
 21
18.0431467745
 31
0.0
 11
12.9451503856
 21
18.0484875837
 31
0.0
 11
12.9536121075
 21
18.0524622523
 31
0.0
 11
12.9632165198
 21
18.0550322615
 31
0.0
 11
12.9738662
 21
18.0561832234
 31
0.0
 11
12.9979041326
 21
18.0541807559
 31
0.0
 11
13.0248336714
 21
18.0465258218
 31
0.0
 11
13.0536339306
 21
18.0335153497
 31
0.0
 11
13.0832549474
 21
18.0156180188
 31
0.0
 11
13.1126146387
 21
17.9934658388
 31
0.0
 11
13.1405100794
 21
17.9680093842
 31
0.0
  0
SPLINE
  5
4EC
100
AcDbEntity
  8
0
100
AcDbSpline
 62
9
  6
CONTINUOUS
 70
0
 71
3
 72
11
 73
7
 74
5
 42
0.0000001
 43
0.0000001
 44
0.0000000001
 12
0.190175901
 22
0.1726031668
 32
0.0
 13
0.2384652268
 23
0.095357549
 33
0.0
 40
0.0
 40
0.0
 40
0.0
 40
0.0
 40
0.2471623518
 40
0.4344797987
 40
0.622865738
 40
1.0
 40
1.0
 40
1.0
 40
1.0
 10
13.1209345175
 20
18.2092743715
 30
0.0
 10
13.1366026251
 20
18.2234947064
 30
0.0
 10
13.1659060944
 20
18.2465922753
 30
0.0
 10
13.2107268991
 20
18.2755432193
 30
0.0
 10
13.2671875496
 20
18.3067169017
 30
0.0
 10
13.3115979284
 20
18.3262372413
 30
0.0
 10
13.3415757308
 20
18.3382247743
 30
0.0
 11
13.1209345175
 21
18.2092743715
 31
0.0
 11
13.1705770225
 21
18.2488343182
 31
0.0
 11
13.2109337466
 21
18.2750198703
 31
0.0
 11
13.2532536854
 21
18.2984687364
 31
0.0
 11
13.3415757308
 21
18.3382247743
 31
0.0
  0
LINE
  5
4ED
100
AcDbEntity
  8
0
100
AcDbLine
 62
9
  6
CONTINUOUS
 10
13.5071104315
 20
18.392242743
 11
13.5593167034
 21
18.4059870118
  0
LINE
  5
4EE
100
AcDbEntity
  8
0
100
AcDbLine
 62
9
  6
CONTINUOUS
 10
13.5593167034
 20
18.4059870118
 11
13.5851121492
 21
18.4126114542
  0
LINE
  5
4EF
100
AcDbEntity
  8
0
100
AcDbLine
 62
9
  6
CONTINUOUS
 10
13.5851121476
 20
18.4126114523
 11
13.5787362035
 21
18.3877821127
  0
LINE
  5
4F0
100
AcDbEntity
  8
0
100
AcDbLine
 62
9
  6
CONTINUOUS
 10
13.5787362035
 20
18.3877821127
 11
13.5647423206
 21
18.3346121421
  0
SPLINE
  5
4F1
100
AcDbEntity
  8
0
100
AcDbSpline
 62
9
  6
CONTINUOUS
 70
0
 71
3
 72
14
 73
10
 74
8
 42
0.0000001
 43
0.0000001
 44
0.0000000001
 12
-0.006631857
 22
-0.0037315178
 32
0.0
 13
-0.0033520556
 23
0.0068315061
 33
0.0
 40
0.0
 40
0.0
 40
0.0
 40
0.0
 40
0.3439739094
 40
0.513807873
 40
0.6604896581
 40
0.7883242559
 40
0.8969476576
 40
0.9703473413
 40
1.0
 40
1.0
 40
1.0
 40
1.0
 10
13.5647378301
 20
18.3346106666
 30
0.0
 10
13.5639774348
 20
18.3341828184
 30
0.0
 10
13.5628188701
 20
18.3335823699
 30
0.0
 10
13.5613073874
 20
18.3328637953
 30
0.0
 10
13.5602733227
 20
18.3324039581
 30
0.0
 10
13.5593867595
 20
18.3320395155
 30
0.0
 10
13.558612902
 20
18.3317571045
 30
0.0
 10
13.5581680174
 20
18.3316383337
 30
0.0
 10
13.5578185786
 20
18.3315778098
 30
0.0
 10
13.5577854461
 20
18.3316453339
 30
0.0
 11
13.5647378301
 21
18.3346106666
 31
0.0
 11
13.5624184791
 21
18.333397445
 31
0.0
 11
13.5612508777
 21
18.332843445
 31
0.0
 11
13.560230497
 21
18.3323910104
 31
0.0
 11
13.5593296228
 21
18.3320239909
 31
0.0
 11
13.5585505843
 21
18.3317477094
 31
0.0
 11
13.5580086766
 21
18.3316124169
 31
0.0
 11
13.5577854461
 21
18.3316453339
 31
0.0
  0
SPLINE
  5
4F2
100
AcDbEntity
  8
0
100
AcDbSpline
 62
9
  6
CONTINUOUS
 70
0
 71
3
 72
12
 73
8
 74
6
 42
0.0000001
 43
0.0000001
 44
0.0000000001
 12
0.0692484419
 22
0.0376891647
 32
0.0
 13
0.0341970871
 23
0.0710378707
 33
0.0
 40
0.0
 40
0.0
 40
0.0
 40
0.0
 40
0.223160219
 40
0.3433704167
 40
0.4688718009
 40
0.7306118613
 40
1.0
 40
1.0
 40
1.0
 40
1.0
 10
13.5107158279
 20
18.1690711123
 30
0.0
 10
13.5158669937
 20
18.1718746864
 30
0.0
 10
13.5236363891
 20
18.176516571
 30
0.0
 10
13.5334456662
 20
18.1839985932
 30
0.0
 10
13.5432877616
 20
18.193020455
 30
0.0
 10
13.5544868935
 20
18.2062570322
 30
0.0
 10
13.5616481567
 20
18.2183296656
 30
0.0
 10
13.56471892
 20
18.2247085856
 30
0.0
 11
13.5107158279
 21
18.1690711123
 31
0.0
 11
13.5257184196
 21
18.1782620357
 31
0.0
 11
13.5332452308
 21
18.1840212688
 31
0.0
 11
13.5405502305
 21
18.1906950876
 31
0.0
 11
13.5538956687
 21
18.2064345853
 31
0.0
 11
13.56471892
 21
18.2247085856
 31
0.0
  0
SPLINE
  5
4F3
100
AcDbEntity
  8
0
100
AcDbSpline
 62
9
  6
CONTINUOUS
 70
0
 71
3
 72
9
 73
5
 74
3
 42
0.0000001
 43
0.0000001
 44
0.0000000001
 12
0.0312786597
 22
0.0649753991
 32
0.0
 13
-0.0097128656
 23
0.0714550018
 33
0.0
 40
0.0
 40
0.0
 40
0.0
 40
0.0
 40
0.2499885562
 40
1.0
 40
1.0
 40
1.0
 40
1.0
 10
13.56471892
 20
18.2247085856
 30
0.0
 10
13.5673253556
 20
18.2301229543
 30
0.0
 10
13.576132879
 20
18.2525100968
 30
0.0
 10
13.5786648299
 20
18.2774756263
 30
0.0
 10
13.5762365765
 20
18.2953396493
 30
0.0
 11
13.56471892
 21
18.2247085856
 31
0.0
 11
13.5713367283
 21
18.2414771476
 31
0.0
 11
13.5762365765
 21
18.2953396493
 31
0.0
  0
SPLINE
  5
4F4
100
AcDbEntity
  8
0
100
AcDbSpline
 62
9
  6
CONTINUOUS
 70
0
 71
3
 72
9
 73
5
 74
3
 42
0.0000001
 43
0.0000001
 44
0.0000000001
 12
-0.0055218431
 22
0.0406227494
 32
0.0
 13
-0.0159862526
 23
0.0377510033
 33
0.0
 40
0.0
 40
0.0
 40
0.0
 40
0.0
 40
0.2500272596
 40
1.0
 40
1.0
 40
1.0
 40
1.0
 10
13.5762365765
 20
18.2953396493
 30
0.0
 10
13.5757763727
 20
18.2987252475
 30
0.0
 10
13.5733082004
 20
18.312183597
 30
0.0
 10
13.5687355091
 20
18.3251738647
 30
0.0
 10
13.5647390912
 20
18.3346112725
 30
0.0
 11
13.5762365765
 21
18.2953396493
 31
0.0
 11
13.5744105909
 21
18.3054258945
 31
0.0
 11
13.5647390912
 21
18.3346112725
 31
0.0
  0
SPLINE
  5
4F5
100
AcDbEntity
  8
0
100
AcDbSpline
 62
9
  6
CONTINUOUS
 70
0
 71
3
 72
9
 73
5
 74
3
 42
0.0000001
 43
0.0000001
 44
0.0000000001
 12
0.0512299058
 22
-0.0063251105
 32
0.0
 13
0.0512988515
 23
0.0057391724
 33
0.0
 40
0.0
 40
0.0
 40
0.0
 40
0.0
 40
0.2556878045
 40
1.0
 40
1.0
 40
1.0
 40
1.0
 10
13.3467023666
 20
17.9084115305
 30
0.0
 10
13.3510686539
 20
17.9078724459
 30
0.0
 10
13.3681987125
 20
17.9062367166
 30
0.0
 10
13.3855262771
 20
17.9065373317
 30
0.0
 10
13.3982537306
 20
17.9079612437
 30
0.0
 11
13.3467023666
 21
17.9084115305
 31
0.0
 11
13.3598414603
 21
17.9071625648
 31
0.0
 11
13.3982537306
 21
17.9079612437
 31
0.0
  0
SPLINE
  5
4F6
100
AcDbEntity
  8
0
100
AcDbSpline
 62
9
  6
CONTINUOUS
 70
0
 71
3
 72
14
 73
10
 74
8
 42
0.0000001
 43
0.0000001
 44
0.0000000001
 12
0.2816057411
 22
0.0315052645
 32
0.0
 13
0.0743215075
 23
0.2734422949
 33
0.0
 40
0.0
 40
0.0
 40
0.0
 40
0.0
 40
0.1223638665
 40
0.2421333652
 40
0.3612944391
 40
0.4817152549
 40
0.7315215006
 40
0.8633465637
 40
1.0
 40
1.0
 40
1.0
 40
1.0
 10
13.3982537306
 20
17.9079612437
 30
0.0
 10
13.4097398531
 20
17.909246279
 30
0.0
 10
13.4323069474
 20
17.9137388598
 30
0.0
 10
13.4642208801
 20
17.9263117314
 30
0.0
 10
13.4932362729
 20
17.9442671589
 30
0.0
 10
13.52800116
 20
17.9750193502
 30
0.0
 10
13.5554286949
 20
18.0146429042
 30
0.0
 10
13.5754298988
 20
18.0593758162
 30
0.0
 10
13.5832401398
 20
18.0835660641
 30
0.0
 10
13.5866255696
 20
18.0960216739
 30
0.0
 11
13.3982537306
 21
17.9079612437
 31
0.0
 11
13.4322476653
 21
17.914791568
 31
0.0
 11
13.4638190363
 21
17.9272434709
 31
0.0
 11
13.4925592887
 21
17.9449670924
 31
0.0
 11
13.5181673294
 21
17.9675190516
 31
0.0
 11
13.5592513453
 21
18.0251621466
 31
0.0
 11
13.5746286326
 21
18.0592045088
 31
0.0
 11
13.5866255696
 21
18.0960216739
 31
0.0
  0
SPLINE
  5
4F7
100
AcDbEntity
  8
0
100
AcDbSpline
 62
9
  6
CONTINUOUS
 70
0
 71
3
 72
9
 73
5
 74
3
 42
0.0000001
 43
0.0000001
 44
0.0000000001
 12
0.0230463576
 22
0.084791726
 32
0.0
 13
0.0074942857
 23
0.0875477417
 33
0.0
 40
0.0
 40
0.0
 40
0.0
 40
0.0
 40
0.2444451567
 40
1.0
 40
1.0
 40
1.0
 40
1.0
 10
13.5866255696
 20
18.0960216739
 30
0.0
 10
13.5885034264
 20
18.1029306495
 30
0.0
 10
13.5954484795
 20
18.131393519
 30
0.0
 10
13.5996345246
 20
18.1604987339
 30
0.0
 10
13.6015219725
 20
18.182547774
 30
0.0
 11
13.5866255696
 21
18.0960216739
 31
0.0
 11
13.5917339354
 21
18.116884253
 31
0.0
 11
13.6015219725
 21
18.182547774
 31
0.0
  0
SPLINE
  5
4F8
100
AcDbEntity
  8
0
100
AcDbSpline
 62
9
  6
CONTINUOUS
 70
0
 71
3
 72
9
 73
5
 74
3
 42
0.0000001
 43
0.0000001
 44
0.0000000001
 12
0.013563478
 22
0.158447638
 32
0.0
 13
-0.0222272562
 23
0.1574660948
 33
0.0
 40
0.0
 40
0.0
 40
0.0
 40
0.0
 40
0.4973251779
 40
1.0
 40
1.0
 40
1.0
 40
1.0
 10
13.6015219725
 20
18.182547774
 30
0.0
 10
13.6037704589
 20
18.2088144405
 30
0.0
 10
13.6046838604
 20
18.2619362383
 30
0.0
 10
13.6006254115
 20
18.3148979994
 30
0.0
 10
13.5969010508
 20
18.3412827465
 30
0.0
 11
13.6015219725
 21
18.182547774
 31
0.0
 11
13.6034492747
 21
18.2616124733
 31
0.0
 11
13.5969010508
 21
18.3412827465
 31
0.0
  0
SPLINE
  5
4F9
100
AcDbEntity
  8
0
100
AcDbSpline
 62
9
  6
CONTINUOUS
 70
0
 71
3
 72
9
 73
5
 74
3
 42
0.0000001
 43
0.0000001
 44
0.0000000001
 12
-0.0101050746
 22
0.0715880816
 32
0.0
 13
-0.0108834623
 23
0.0714738848
 33
0.0
 40
0.0
 40
0.0
 40
0.0
 40
0.0
 40
0.5054060275
 40
1.0
 40
1.0
 40
1.0
 40
1.0
 10
13.5969010508
 20
18.3412827465
 30
0.0
 10
13.5951986623
 20
18.3533430958
 30
0.0
 10
13.591130581
 20
18.3771013807
 30
0.0
 10
13.5869077843
 20
18.4008292733
 30
0.0
 10
13.585113486
 20
18.4126127908
 30
0.0
 11
13.5969010508
 21
18.3412827465
 31
0.0
 11
13.5910470769
 21
18.3773504933
 31
0.0
 11
13.585113486
 21
18.4126127908
 31
0.0
  0
SPLINE
  5
4FA
100
AcDbEntity
  8
0
100
AcDbSpline
 62
9
  6
CONTINUOUS
 70
0
 71
3
 72
9
 73
5
 74
3
 42
0.0000001
 43
0.0000001
 44
0.0000000001
 12
0.020935892
 22
-0.0216928093
 32
0.0
 13
0.0257010992
 23
-0.0157589039
 33
0.0
 40
0.0
 40
0.0
 40
0.0
 40
0.0
 40
0.2526894265
 40
1.0
 40
1.0
 40
1.0
 40
1.0
 10
13.3673661279
 20
18.1948654325
 30
0.0
 10
13.3691295541
 20
18.1930382513
 30
0.0
 10
13.376384643
 20
18.1860754577
 30
0.0
 10
13.384561742
 20
18.1801048015
 30
0.0
 10
13.3909639764
 20
18.176179203
 30
0.0
 11
13.3673661279
 21
18.1948654325
 31
0.0
 11
13.3728549948
 21
18.1895827526
 31
0.0
 11
13.3909639764
 21
18.176179203
 31
0.0
  0
SPLINE
  5
4FB
100
AcDbEntity
  8
0
100
AcDbSpline
 62
9
  6
CONTINUOUS
 70
0
 71
3
 72
9
 73
5
 74
3
 42
0.0000001
 43
0.0000001
 44
0.0000000001
 12
0.0275656704
 22
-0.0169021857
 32
0.0
 13
0.0308499984
 23
-0.009686468
 33
0.0
 40
0.0
 40
0.0
 40
0.0
 40
0.0
 40
0.2611292886
 40
1.0
 40
1.0
 40
1.0
 40
1.0
 10
13.3909639764
 20
18.176179203
 30
0.0
 10
13.3933633777
 20
18.1747079844
 30
0.0
 10
13.4027235277
 20
18.1693589016
 30
0.0
 10
13.4127335554
 20
18.1651452669
 30
0.0
 10
13.4203316088
 20
18.1627595844
 30
0.0
 11
13.3909639764
 21
18.176179203
 31
0.0
 11
13.3982961105
 21
18.1719918045
 31
0.0
 11
13.4203316088
 21
18.1627595844
 31
0.0
  0
SPLINE
  5
4FC
100
AcDbEntity
  8
0
100
AcDbSpline
 62
9
  6
CONTINUOUS
 70
0
 71
3
 72
9
 73
5
 74
3
 42
0.0000001
 43
0.0000001
 44
0.0000000001
 12
0.0283749907
 22
-0.0089093502
 32
0.0
 13
0.0296690592
 23
-0.0020648351
 33
0.0
 40
0.0
 40
0.0
 40
0.0
 40
0.0
 40
0.2599715254
 40
1.0
 40
1.0
 40
1.0
 40
1.0
 10
13.4203316088
 20
18.1627595844
 30
0.0
 10
13.4227905054
 20
18.1619875253
 30
0.0
 10
13.4323376606
 20
18.1593054781
 30
0.0
 10
13.442200794
 20
18.1577720282
 30
0.0
 10
13.4495194436
 20
18.1572626826
 30
0.0
 11
13.4203316088
 21
18.1627595844
 31
0.0
 11
13.4277758378
 21
18.1606706416
 31
0.0
 11
13.4495194436
 21
18.1572626826
 31
0.0
  0
SPLINE
  5
4FD
100
AcDbEntity
  8
0
100
AcDbSpline
 62
9
  6
CONTINUOUS
 70
0
 71
3
 72
10
 73
6
 74
4
 42
0.0000001
 43
0.0000001
 44
0.0000000001
 12
0.0588877585
 22
-0.0040983272
 32
0.0
 13
0.0544503426
 23
0.0227974685
 33
0.0
 40
0.0
 40
0.0
 40
0.0
 40
0.0
 40
0.2558100863
 40
0.5049190583
 40
1.0
 40
1.0
 40
1.0
 40
1.0
 10
13.4495194436
 20
18.1572626826
 30
0.0
 10
13.4545408045
 20
18.1569132181
 30
0.0
 10
13.4645050951
 20
18.1567945359
 30
0.0
 10
13.4841004965
 20
18.1591071094
 30
0.0
 10
13.4981465166
 20
18.1637663311
 30
0.0
 10
13.5071322922
 20
18.1675285285
 30
0.0
 11
13.4495194436
 21
18.1572626826
 31
0.0
 11
13.4646193191
 21
18.1571231396
 31
0.0
 11
13.4792204421
 21
18.1588675091
 31
0.0
 11
13.5071322922
 21
18.1675285285
 31
0.0
  0
SPLINE
  5
4FE
100
AcDbEntity
  8
0
100
AcDbSpline
 62
9
  6
CONTINUOUS
 70
0
 71
3
 72
9
 73
5
 74
3
 42
0.0000001
 43
0.0000001
 44
0.0000000001
 12
-0.095891976
 22
-0.2376804849
 32
0.0
 13
-0.1721879769
 23
-0.1898383116
 33
0.0
 40
0.0
 40
0.0
 40
0.0
 40
0.0
 40
0.502883697
 40
1.0
 40
1.0
 40
1.0
 40
1.0
 10
13.5107168718
 20
18.1690707814
 30
0.0
 10
13.4946427013
 20
18.1292289011
 30
0.0
 10
13.4593471134
 20
18.0512255114
 30
0.0
 10
13.4104821784
 20
17.9800830533
 30
0.0
 10
13.3819496949
 20
17.9486258134
 30
0.0
 11
13.5107168718
 21
18.1690707814
 31
0.0
 11
13.4557119704
 21
18.0525107099
 31
0.0
 11
13.3819496949
 21
17.9486258134
 31
0.0
  0
SPLINE
  5
4FF
100
AcDbEntity
  8
0
100
AcDbSpline
 62
9
  6
CONTINUOUS
 70
0
 71
3
 72
13
 73
9
 74
7
 42
0.0000001
 43
0.0000001
 44
0.0000000001
 12
0.0082761058
 22
0.0041319068
 32
0.0
 13
0.0006619487
 23
-0.0092265056
 33
0.0
 40
0.0
 40
0.0
 40
0.0
 40
0.0
 40
0.0992979321
 40
0.2070780523
 40
0.3232118988
 40
0.4417220781
 40
0.7101889149
 40
1.0
 40
1.0
 40
1.0
 40
1.0
 10
13.5048224789
 20
18.1747024052
 30
0.0
 10
13.5050964123
 20
18.1748391685
 30
0.0
 10
13.5057375507
 20
18.1749997362
 30
0.0
 10
13.5067411323
 20
18.1748387844
 30
0.0
 10
13.5077016412
 20
18.174373792
 30
0.0
 10
13.5089192984
 20
18.1733972356
 30
0.0
 10
13.5101468865
 20
18.1716598029
 30
0.0
 10
13.5106502732
 20
18.1699639085
 30
0.0
 10
13.5107142199
 20
18.169072594
 30
0.0
 11
13.5048224789
 21
18.1747024052
 31
0.0
 11
13.5057117129
 21
18.1749325271
 31
0.0
 11
13.5066996299
 21
18.1747983297
 31
0.0
 11
13.5076728593
 21
18.1743435034
 31
0.0
 11
13.5085343562
 21
18.1736655823
 31
0.0
 11
13.5099904094
 21
18.1716538486
 31
0.0
 11
13.5107142199
 21
18.169072594
 31
0.0
  0
SPLINE
  5
500
100
AcDbEntity
  8
0
100
AcDbSpline
 62
9
  6
CONTINUOUS
 70
0
 71
3
 72
13
 73
9
 74
7
 42
0.0000001
 43
0.0000001
 44
0.0000000001
 12
0.0092261039
 22
-0.0006625197
 32
0.0
 13
-0.004131122
 23
-0.0082760954
 33
0.0
 40
0.0
 40
0.0
 40
0.0
 40
0.0
 40
0.2898097068
 40
0.5582755428
 40
0.676785358
 40
0.7929196187
 40
0.900701207
 40
1.0
 40
1.0
 40
1.0
 40
1.0
 10
13.3415756502
 20
18.3382182344
 30
0.0
 10
13.3424669217
 20
18.3381542328
 30
0.0
 10
13.3441627121
 20
18.3376507809
 30
0.0
 10
13.3459000202
 20
18.3364231814
 30
0.0
 10
13.3468765091
 20
18.3352055536
 30
0.0
 10
13.3473414823
 20
18.3342450783
 30
0.0
 10
13.3475024541
 20
18.3332415364
 30
0.0
 10
13.3473419382
 20
18.3326004072
 30
0.0
 10
13.3472051997
 20
18.3323264717
 30
0.0
 11
13.3415756502
 21
18.3382182344
 31
0.0
 11
13.3441567533
 21
18.3374943168
 31
0.0
 11
13.3461683477
 21
18.3360382517
 31
0.0
 11
13.346846223
 21
18.3351767773
 31
0.0
 11
13.3473010329
 21
18.3342035821
 31
0.0
 11
13.3474352559
 21
18.3332156941
 31
0.0
 11
13.3472051997
 21
18.3323264717
 31
0.0
  0
SPLINE
  5
501
100
AcDbEntity
  8
0
100
AcDbSpline
 62
9
  6
CONTINUOUS
 70
0
 71
3
 72
17
 73
13
 74
11
 42
0.0000001
 43
0.0000001
 44
0.0000000001
 12
-0.1974568229
 22
0.1975194249
 32
0.0
 13
-0.2074239317
 23
-0.1870252195
 33
0.0
 40
0.0
 40
0.0
 40
0.0
 40
0.0
 40
0.1635684145
 40
0.3226813855
 40
0.4723621415
 40
0.6089521302
 40
0.7297305484
 40
0.7837801003
 40
0.833638654
 40
0.9218022847
 40
0.9616852497
 40
1.0
 40
1.0
 40
1.0
 40
1.0
 10
12.5501623219
 20
17.3776616366
 30
0.0
 10
12.5393964221
 20
17.3884309496
 30
0.0
 10
12.5172005542
 20
17.4087439467
 30
0.0
 10
12.4821728332
 20
17.4354315716
 30
0.0
 10
12.4467953601
 20
17.4572132917
 30
0.0
 10
12.4123809236
 20
17.473289815
 30
0.0
 10
12.3845185191
 20
17.4818168364
 30
0.0
 10
12.3637924831
 20
17.4849533684
 30
0.0
 10
12.3459145136
 20
17.4856659749
 30
0.0
 10
12.3292139464
 20
17.4831577355
 30
0.0
 10
12.3150361892
 20
17.4767163713
 30
0.0
 10
12.3090895917
 20
17.4724101777
 30
0.0
 10
12.3064404596
 20
17.4700215695
 30
0.0
 11
12.5501623219
 21
17.3776616366
 31
0.0
 11
12.5164489484
 21
17.4084894288
 31
0.0
 11
12.4810407444
 21
17.4353419745
 31
0.0
 11
12.4453552515
 21
17.4571170323
 31
0.0
 11
12.4106872195
 21
17.4730361441
 31
0.0
 11
12.3783168003
 21
17.4825240694
 31
0.0
 11
12.3633824001
 21
17.484723711
 31
0.0
 11
12.34946564
 21
17.4852031092
 31
0.0
 11
12.3252068031
 21
17.4809825058
 31
0.0
 11
12.3150892147
 21
17.4763230918
 31
0.0
 11
12.3064404596
 21
17.4700215695
 31
0.0
  0
SPLINE
  5
502
100
AcDbEntity
  8
0
100
AcDbSpline
 62
9
  6
CONTINUOUS
 70
0
 71
3
 72
9
 73
5
 74
3
 42
0.0000001
 43
0.0000001
 44
0.0000000001
 12
-0.0455474429
 22
0.0460525714
 32
0.0
 13
-0.037486991
 23
0.0528217228
 33
0.0
 40
0.0
 40
0.0
 40
0.0
 40
0.0
 40
0.5052551644
 40
1.0
 40
1.0
 40
1.0
 40
1.0
 10
12.3777203749
 20
17.2052196845
 30
0.0
 10
12.370049348
 20
17.2129757843
 30
0.0
 10
12.3554223962
 20
17.2288864122
 30
0.0
 10
12.3420845173
 20
17.2459037655
 30
0.0
 10
12.3359023522
 20
17.254614857
 30
0.0
 11
12.3777203749
 21
17.2052196845
 31
0.0
 11
12.3555977402
 21
17.2293361661
 31
0.0
 11
12.3359023522
 21
17.254614857
 31
0.0
  0
SPLINE
  5
503
100
AcDbEntity
  8
0
100
AcDbSpline
 62
9
  6
CONTINUOUS
 70
0
 71
3
 72
25
 73
21
 74
19
 42
0.0000001
 43
0.0000001
 44
0.0000000001
 12
-0.2212933858
 22
0.3118174481
 32
0.0
 13
0.2716616315
 23
-0.2690740446
 33
0.0
 40
0.0
 40
0.0
 40
0.0
 40
0.0
 40
0.0793373564
 40
0.1530243377
 40
0.2197641683
 40
0.2787818229
 40
0.3300187949
 40
0.3746550856
 40
0.3953369243
 40
0.4154980041
 40
0.4356641161
 40
0.4563613794
 40
0.5010524587
 40
0.552363574
 40
0.6114651715
 40
0.6782838758
 40
0.7520425517
 40
0.8314403125
 40
0.914848933
 40
1.0
 40
1.0
 40
1.0
 40
1.0
 10
12.3359023522
 20
17.254614857
 30
0.0
 10
12.3300500748
 20
17.2628611143
 30
0.0
 10
12.3194741113
 20
17.2792900858
 30
0.0
 10
12.3067399807
 20
17.3042979201
 30
0.0
 10
12.2979447273
 20
17.3282229454
 30
0.0
 10
12.2933105345
 20
17.3504109726
 30
0.0
 10
12.2930787463
 20
17.3703023454
 30
0.0
 10
12.2968030045
 20
17.3849466635
 30
0.0
 10
12.3021631998
 20
17.3944952482
 30
0.0
 10
12.3071639949
 20
17.4005081435
 30
0.0
 10
12.3131963796
 20
17.4054886224
 30
0.0
 10
12.3227728104
 20
17.4108184499
 30
0.0
 10
12.3374447654
 20
17.4145038731
 30
0.0
 10
12.3573620539
 20
17.4142270244
 30
0.0
 10
12.3795715384
 20
17.4095502568
 30
0.0
 10
12.4035130558
 20
17.4007147057
 30
0.0
 10
12.4285308373
 20
17.3879371465
 30
0.0
 10
12.4539059566
 20
17.3715655967
 30
0.0
 10
12.478802423
 20
17.3520391395
 30
0.0
 10
12.4946323801
 20
17.3374797629
 30
0.0
 10
12.5023431394
 20
17.3298424489
 30
0.0
 11
12.3359023522
 21
17.254614857
 31
0.0
 11
12.3195429928
 21
17.2801612962
 31
0.0
 11
12.3068727946
 21
17.3053268168
 31
0.0
 11
12.2982387579
 21
17.3293406069
 31
0.0
 11
12.2938866848
 21
17.3514830853
 31
0.0
 11
12.2939847844
 21
17.3710739232
 31
0.0
 11
12.2985065297
 21
17.3875312691
 31
0.0
 11
12.3023975663
 21
17.3944157134
 31
0.0
 11
12.3073337591
 21
17.4003368744
 31
0.0
 11
12.3132740645
 21
17.4052530302
 31
0.0
 11
12.3201774381
 21
17.40912246
 31
0.0
 11
12.3366683968
 21
17.4136006538
 31
0.0
 11
12.3562877566
 21
17.4136542627
 31
0.0
 11
12.3784543136
 21
17.409258439
 31
0.0
 11
12.4024849936
 21
17.4005823087
 31
0.0
 11
12.4276598515
 21
17.3878697409
 31
0.0
 11
12.4532101589
 21
17.3714736192
 31
0.0
 11
12.4783594779
 21
17.3518616075
 31
0.0
 11
12.5023431394
 21
17.3298424489
 31
0.0
  0
SPLINE
  5
504
100
AcDbEntity
  8
0
100
AcDbSpline
 62
9
  6
CONTINUOUS
 70
0
 71
3
 72
25
 73
21
 74
19
 42
0.0000001
 43
0.0000001
 44
0.0000000001
 12
0.2686604579
 22
-0.2716401928
 32
0.0
 13
-0.3118076416
 23
0.2207777857
 33
0.0
 40
0.0
 40
0.0
 40
0.0
 40
0.0
 40
0.0851669788
 40
0.168586882
 40
0.2479981881
 40
0.321779118
 40
0.3886294061
 40
0.4477674079
 40
0.4991207082
 40
0.5438492214
 40
0.5645591656
 40
0.5847326235
 40
0.6048942419
 40
0.6255701732
 40
0.670176647
 40
0.7213689294
 40
0.7803396316
 40
0.8470332547
 40
0.9206841648
 40
1.0
 40
1.0
 40
1.0
 40
1.0
 10
12.5023431394
 20
17.3298424489
 30
0.0
 10
12.5099701392
 20
17.3221308574
 30
0.0
 10
12.5245189308
 20
17.3063107471
 30
0.0
 10
12.5440441645
 20
17.2814388597
 30
0.0
 10
12.5604103027
 20
17.2560815569
 30
0.0
 10
12.573184559
 20
17.2310779126
 30
0.0
 10
12.582027327
 20
17.2071489104
 30
0.0
 10
12.5867173836
 20
17.1849465852
 30
0.0
 10
12.5870125356
 20
17.1650313822
 30
0.0
 10
12.583350014
 20
17.1503546644
 30
0.0
 10
12.5780384842
 20
17.1407698962
 30
0.0
 10
12.5730739638
 20
17.1347292889
 30
0.0
 10
12.5670774634
 20
17.129718125
 30
0.0
 10
12.5575520837
 20
17.1243436649
 30
0.0
 10
12.5429371867
 20
17.1205936188
 30
0.0
 10
12.5230762641
 20
17.1207921752
 30
0.0
 10
12.5009167518
 20
17.125388703
 30
0.0
 10
12.4770157866
 20
17.1341433193
 30
0.0
 10
12.4520287449
 20
17.1468399431
 30
0.0
 10
12.4356093783
 20
17.1573879857
 30
0.0
 10
12.4273656171
 20
17.1632250438
 30
0.0
 11
12.5023431394
 21
17.3298424489
 31
0.0
 11
12.5243441269
 21
17.3058692456
 31
0.0
 11
12.5439510869
 21
17.2807429077
 31
0.0
 11
12.5603421972
 21
17.2552121209
 31
0.0
 11
12.5730531689
 21
17.2300522321
 31
0.0
 11
12.5817366678
 21
17.2060331366
 31
0.0
 11
12.5861463575
 21
17.1838736031
 31
0.0
 11
12.5861122186
 21
17.164253793
 31
0.0
 11
12.5816587535
 21
17.1477554984
 31
0.0
 11
12.577802898
 21
17.1408462426
 31
0.0
 11
12.5729018799
 21
17.1348978049
 31
0.0
 11
12.566996668
 21
17.1299518311
 31
0.0
 11
12.5601282313
 21
17.1260499671
 31
0.0
 11
12.5437043842
 21
17.121501018
 31
0.0
 11
12.5241465015
 21
17.1213699523
 31
0.0
 11
12.5020333193
 21
17.1256842572
 31
0.0
 11
12.4780453793
 21
17.1342775667
 31
0.0
 11
12.4529005852
 21
17.1469080889
 31
0.0
 11
12.4273656171
 21
17.1632250438
 31
0.0
  0
SPLINE
  5
505
100
AcDbEntity
  8
0
100
AcDbSpline
 62
9
  6
CONTINUOUS
 70
0
 71
3
 72
9
 73
5
 74
3
 42
0.0000001
 43
0.0000001
 44
0.0000000001
 12
-0.0531124608
 22
0.0376066841
 32
0.0
 13
-0.0462370153
 23
0.0457966657
 33
0.0
 40
0.0
 40
0.0
 40
0.0
 40
0.0
 40
0.4947037017
 40
1.0
 40
1.0
 40
1.0
 40
1.0
 10
12.4273656171
 20
17.1632250438
 30
0.0
 10
12.4186073068
 20
17.1694264325
 30
0.0
 10
12.4014961809
 20
17.182810943
 30
0.0
 10
12.3855081725
 20
17.1975060559
 30
0.0
 10
12.3777203749
 20
17.2052196845
 30
0.0
 11
12.4273656171
 21
17.1632250438
 31
0.0
 11
12.4019522947
 21
17.1829899123
 31
0.0
 11
12.3777203749
 21
17.2052196845
 31
0.0
  0
SPLINE
  5
506
100
AcDbEntity
  8
0
100
AcDbSpline
 62
9
  6
CONTINUOUS
 70
0
 71
3
 72
17
 73
13
 74
11
 42
0.0000001
 43
0.0000001
 44
0.0000000001
 12
0.1975572098
 22
-0.1975079698
 32
0.0
 13
-0.1873300644
 23
-0.2072334342
 33
0.0
 40
0.0
 40
0.0
 40
0.0
 40
0.0
 40
0.1635926464
 40
0.3227265839
 40
0.472420665
 40
0.6090124735
 40
0.729780833
 40
0.7838213029
 40
0.8336689542
 40
0.9218104922
 40
0.9616864444
 40
1.0
 40
1.0
 40
1.0
 40
1.0
 10
12.5501627513
 20
17.3776621053
 30
0.0
 10
12.5609357202
 20
17.3668918215
 30
0.0
 10
12.5812552348
 20
17.3446869963
 30
0.0
 10
12.6079501089
 20
17.3096454444
 30
0.0
 10
12.6297354067
 20
17.2742551405
 30
0.0
 10
12.6458103504
 20
17.2398298811
 30
0.0
 10
12.6543316217
 20
17.2119602861
 30
0.0
 10
12.6574600402
 20
17.1912309872
 30
0.0
 10
12.6581632346
 20
17.1733525172
 30
0.0
 10
12.6556426944
 20
17.1566530583
 30
0.0
 10
12.6491860153
 20
17.1424813196
 30
0.0
 10
12.6448719555
 20
17.1365392402
 30
0.0
 10
12.6424795285
 20
17.1338926236
 30
0.0
 11
12.5501627513
 21
17.3776621053
 31
0.0
 11
12.5810006381
 21
17.3439348523
 31
0.0
 11
12.6078605765
 21
17.3085123467
 31
0.0
 11
12.6296390103
 21
17.2728135271
 31
0.0
 11
12.6455561167
 21
17.2381345641
 31
0.0
 11
12.6550363174
 21
17.2057568958
 31
0.0
 11
12.6572299138
 21
17.1908207356
 31
0.0
 11
12.6577018854
 21
17.1769036319
 31
0.0
 11
12.6534629693
 21
17.1526486253
 31
0.0
 11
12.6487927406
 21
17.1425354198
 31
0.0
 11
12.6424795285
 21
17.1338926236
 31
0.0
  0
SPLINE
  5
507
100
AcDbEntity
  8
0
100
AcDbSpline
 62
9
  6
CONTINUOUS
 70
0
 71
3
 72
17
 73
13
 74
11
 42
0.0000001
 43
0.0000001
 44
0.0000000001
 12
0.1639583631
 22
-0.1639604229
 32
0.0
 13
-0.1558803868
 23
-0.1716585859
 33
0.0
 40
0.0
 40
0.0
 40
0.0
 40
0.0
 40
0.162868484
 40
0.3214861056
 40
0.4707401835
 40
0.6070327013
 40
0.7277725747
 40
0.8317999185
 40
0.8779961772
 40
0.9208743493
 40
0.9611925563
 40
1.0
 40
1.0
 40
1.0
 40
1.0
 10
13.1405102719
 20
17.9680095767
 30
0.0
 10
13.1494114886
 20
17.9591082482
 30
0.0
 10
13.1661926847
 20
17.9407288882
 30
0.0
 10
13.1882089672
 20
17.9116950933
 30
0.0
 10
13.2061115823
 20
17.8823255731
 30
0.0
 10
13.2192692026
 20
17.8537144393
 30
0.0
 10
13.2272333777
 20
17.8268581715
 30
0.0
 10
13.2293643397
 20
17.8058192787
 30
0.0
 10
13.2278398937
 20
17.7909237847
 30
0.0
 10
13.2253021951
 20
17.7812018563
 30
0.0
 10
13.2213136589
 20
17.7725976508
 30
0.0
 10
13.2176639095
 20
17.7676281797
 30
0.0
 10
13.2156474698
 20
17.765407636
 30
0.0
 11
13.1405102719
 21
17.9680095767
 31
0.0
 11
13.1659665958
 21
17.9401139974
 31
0.0
 11
13.1881187169
 21
17.9107542305
 31
0.0
 11
13.2060160449
 21
17.8811332101
 31
0.0
 11
13.2190265252
 21
17.8523329666
 31
0.0
 11
13.2266814537
 21
17.8254034316
 31
0.0
 11
13.228683918
 21
17.8013655
 31
0.0
 11
13.2275329559
 21
17.7907158218
 31
0.0
 11
13.224962947
 21
17.7811114112
 31
0.0
 11
13.220988279
 21
17.7726496902
 31
0.0
 11
13.2156474698
 21
17.765407636
 31
0.0
  0
LINE
  5
508
100
AcDbEntity
  8
0
100
AcDbLine
 62
7
  6
CONTINUOUS
 10
16.7088532894
 20
9.64802304
 11
16.7120017961
 21
9.6507467433
  0
SPLINE
  5
509
100
AcDbEntity
  8
0
100
AcDbSpline
 62
7
  6
CONTINUOUS
 70
0
 71
3
 72
16
 73
12
 74
10
 42
0.0000001
 43
0.0000001
 44
0.0000000001
 12
-0.0121168163
 22
-0.0106316048
 32
0.0
 13
-0.0119647313
 23
0.0108024748
 33
0.0
 40
0.0
 40
0.0
 40
0.0
 40
0.0
 40
0.0075120103
 40
0.0210680463
 40
0.0700212532
 40
0.1492018609
 40
0.2588006519
 40
0.398785992
 40
0.5690628485
 40
0.7695113661
 40
1.0
 40
1.0
 40
1.0
 40
1.0
 10
15.6928996636
 20
19.9775830944
 30
0.0
 10
15.6928693231
 20
19.9775564728
 30
0.0
 10
15.692739899
 20
19.9775562317
 30
0.0
 10
15.692399786
 20
19.9776971435
 30
0.0
 10
15.69174504
 20
19.9781085474
 30
0.0
 10
15.6907225247
 20
19.9788650065
 30
0.0
 10
15.6893399127
 20
19.9799690921
 30
0.0
 10
15.6876109278
 20
19.9814169666
 30
0.0
 10
15.6855335368
 20
19.9832106663
 30
0.0
 10
15.6831116878
 20
19.985348463
 30
0.0
 10
15.6813882925
 20
19.9868950395
 30
0.0
 10
15.6804690476
 20
19.9877249887
 30
0.0
 11
15.6928996636
 21
19.9775830944
 31
0.0
 11
15.6927804725
 21
19.9775617217
 31
0.0
 11
15.6925724148
 21
19.9776285295
 31
0.0
 11
15.6918907025
 21
19.9780259877
 31
0.0
 11
15.6908565331
 21
19.978774072
 31
0.0
 11
15.6894719128
 21
19.9798713854
 31
0.0
 11
15.6877388479
 21
19.9813165308
 31
0.0
 11
15.6856593446
 21
19.9831081112
 31
0.0
 11
15.6832354091
 21
19.9852447295
 31
0.0
 11
15.6804690476
 21
19.9877249887
 31
0.0
  0
SPLINE
  5
50A
100
AcDbEntity
  8
0
100
AcDbSpline
 62
7
  6
CONTINUOUS
 70
0
 71
3
 72
13
 73
9
 74
7
 42
0.0000001
 43
0.0000001
 44
0.0000000001
 12
-0.2423928933
 22
0.2188467963
 32
0.0
 13
-0.2341691476
 23
0.2276247907
 33
0.0
 40
0.0
 40
0.0
 40
0.0
 40
0.0
 40
0.0613315227
 40
0.1454791908
 40
0.2506180945
 40
0.3744279113
 40
0.6673956832
 40
1.0
 40
1.0
 40
1.0
 40
1.0
 10
15.6804690476
 20
19.9877249887
 30
0.0
 10
15.6755136059
 20
19.9921990578
 30
0.0
 10
15.6639048775
 20
20.0029721491
 30
0.0
 10
15.64407332
 20
20.0217066351
 30
0.0
 10
15.61942148
 20
20.0452423585
 30
0.0
 10
15.5784597854
 20
20.0846122755
 30
0.0
 10
15.5198496812
 20
20.1413522348
 30
0.0
 10
15.4710045393
 20
20.1888017424
 30
0.0
 10
15.4450426495
 20
20.2140380717
 30
0.0
 11
15.6804690476
 21
19.9877249887
 31
0.0
 11
15.6657427434
 21
20.0013006743
 31
0.0
 11
15.6457491437
 21
20.0201531011
 31
0.0
 11
15.6209037321
 21
20.0438515246
 31
0.0
 11
15.591745852
 21
20.0718625052
 31
0.0
 11
15.522967611
 21
20.1383695265
 31
0.0
 11
15.4450426495
 21
20.2140380717
 31
0.0
  0
LINE
  5
50B
100
AcDbEntity
  8
0
100
AcDbLine
 62
7
  6
CONTINUOUS
 10
15.4450426495
 20
20.2140380717
 11
15.4161679036
 21
20.2421109458
  0
LINE
  5
50C
100
AcDbEntity
  8
0
100
AcDbLine
 62
7
  6
CONTINUOUS
 10
15.4161679036
 20
20.2421109458
 11
15.363141073
 21
20.2936693409
  0
SPLINE
  5
50D
100
AcDbEntity
  8
0
100
AcDbSpline
 62
7
  6
CONTINUOUS
 70
0
 71
3
 72
9
 73
5
 74
3
 42
0.0000001
 43
0.0000001
 44
0.0000000001
 12
0.0011384499
 22
0.0011384499
 32
0.0
 13
0.0014486739
 23
-0.0007024815
 33
0.0
 40
0.0
 40
0.0
 40
0.0
 40
0.0
 40
0.3418407865
 40
1.0
 40
1.0
 40
1.0
 40
1.0
 10
15.0688960085
 20
20.470919573
 30
0.0
 10
15.0690257314
 20
20.4710492959
 30
0.0
 10
15.069661447
 20
20.4710235714
 30
0.0
 10
15.0701160024
 20
20.4707968955
 30
0.0
 10
15.0704338217
 20
20.4706427807
 30
0.0
 11
15.0688960085
 21
20.470919573
 31
0.0
 11
15.0694391889
 21
20.4710082263
 31
0.0
 11
15.0704338217
 21
20.4706427807
 31
0.0
  0
SPLINE
  5
50E
100
AcDbEntity
  8
0
100
AcDbSpline
 62
7
  6
CONTINUOUS
 70
0
 71
3
 72
10
 73
6
 74
4
 42
0.0000001
 43
0.0000001
 44
0.0000000001
 12
0.0135149143
 22
-0.0071359556
 32
0.0
 13
0.0118113298
 23
-0.0096988278
 33
0.0
 40
0.0
 40
0.0
 40
0.0
 40
0.0
 40
0.1547031862
 40
0.3729188678
 40
1.0
 40
1.0
 40
1.0
 40
1.0
 10
15.0707478685
 20
20.4704834324
 30
0.0
 10
15.071444802
 20
20.4701154473
 30
0.0
 10
15.0730503538
 20
20.4690920693
 30
0.0
 10
15.0771833381
 20
20.4661145314
 30
0.0
 10
15.0805365549
 20
20.4634069477
 30
0.0
 10
15.0830054422
 20
20.4613796304
 30
0.0
 11
15.0707478685
 21
20.4704834324
 31
0.0
 11
15.0727658463
 21
20.46925139
 31
0.0
 11
15.0754841482
 21
20.4673192363
 31
0.0
 11
15.0830054422
 21
20.4613796304
 31
0.0
  0
SPLINE
  5
50F
100
AcDbEntity
  8
0
100
AcDbSpline
 62
7
  6
CONTINUOUS
 70
0
 71
3
 72
9
 73
5
 74
3
 42
0.0000001
 43
0.0000001
 44
0.0000000001
 12
0.0317762267
 22
-0.0269195161
 32
0.0
 13
0.0308952626
 23
-0.0279261828
 33
0.0
 40
0.0
 40
0.0
 40
0.0
 40
0.0
 40
0.442405979
 40
1.0
 40
1.0
 40
1.0
 40
1.0
 10
15.0887055979
 20
20.4566187779
 30
0.0
 10
15.0933915954
 20
20.4526489929
 30
0.0
 10
15.1038627783
 20
20.4435334254
 30
0.0
 10
15.1142045091
 20
20.4342725281
 30
0.0
 10
15.119946847
 20
20.4290820373
 30
0.0
 11
15.0887055979
 21
20.4566187779
 31
0.0
 11
15.1026312865
 21
20.4445549854
 31
0.0
 11
15.119946847
 21
20.4290820373
 31
0.0
  0
SPLINE
  5
510
100
AcDbEntity
  8
0
100
AcDbSpline
 62
7
  6
CONTINUOUS
 70
0
 71
3
 72
9
 73
5
 74
3
 42
0.0000001
 43
0.0000001
 44
0.0000000001
 12
0.047263617
 22
-0.0427215145
 32
0.0
 13
0.0467010167
 23
-0.043335809
 33
0.0
 40
0.0
 40
0.0
 40
0.0
 40
0.0
 40
0.2223396596
 40
1.0
 40
1.0
 40
1.0
 40
1.0
 10
15.119946847
 20
20.4290820373
 30
0.0
 10
15.1234497058
 20
20.4259158083
 30
0.0
 10
15.1391624729
 20
20.4116290843
 30
0.0
 10
15.1547551964
 20
20.3972110268
 30
0.0
 10
15.1668610392
 20
20.3859775134
 30
0.0
 11
15.119946847
 21
20.4290820373
 31
0.0
 11
15.130430914
 21
20.4195563051
 31
0.0
 11
15.1668610392
 21
20.3859775134
 31
0.0
  0
SPLINE
  5
511
100
AcDbEntity
  8
0
100
AcDbSpline
 62
7
  6
CONTINUOUS
 70
0
 71
3
 72
10
 73
6
 74
4
 42
0.0000001
 43
0.0000001
 44
0.0000000001
 12
0.2046846606
 22
-0.1899353804
 32
0.0
 13
0.2028680939
 23
-0.1918744264
 33
0.0
 40
0.0
 40
0.0
 40
0.0
 40
0.0
 40
0.4627401922
 40
0.7266494414
 40
1.0
 40
1.0
 40
1.0
 40
1.0
 10
15.1668610392
 20
20.3859775134
 30
0.0
 10
15.198432979
 20
20.356680602
 30
0.0
 10
15.2477947201
 20
20.3104417738
 30
0.0
 10
15.3154018437
 20
20.2464672421
 30
0.0
 10
15.3517286327
 20
20.212100682
 30
0.0
 10
15.370213335
 20
20.1946176881
 30
0.0
 11
15.1668610392
 21
20.3859775134
 31
0.0
 11
15.2612061024
 21
20.2976889148
 31
0.0
 11
15.3147645571
 21
20.2470723034
 31
0.0
 11
15.370213335
 21
20.1946176881
 31
0.0
  0
LINE
  5
512
100
AcDbEntity
  8
0
100
AcDbLine
 62
7
  6
CONTINUOUS
 10
15.370213335
 20
20.1946176881
 11
15.4790688353
 21
20.0917360771
  0
LINE
  5
513
100
AcDbEntity
  8
0
100
AcDbLine
 62
7
  6
CONTINUOUS
 10
15.4790688353
 20
20.0917360771
 11
15.4907299458
 21
20.0807537339
  0
SPLINE
  5
514
100
AcDbEntity
  8
0
100
AcDbSpline
 62
7
  6
CONTINUOUS
 70
0
 71
3
 72
9
 73
5
 74
3
 42
0.0000001
 43
0.0000001
 44
0.0000000001
 12
0.116207304
 22
-0.1093593025
 32
0.0
 13
0.1179188505
 23
-0.1075115773
 33
0.0
 40
0.0
 40
0.0
 40
0.0
 40
0.0
 40
0.5520804701
 40
1.0
 40
1.0
 40
1.0
 40
1.0
 10
15.4907299458
 20
20.0807537339
 30
0.0
 10
15.5121152068
 20
20.0606286889
 30
0.0
 10
15.5509363537
 20
20.0242666882
 30
0.0
 10
15.589940474
 20
19.9880990663
 30
0.0
 10
15.607546526
 20
19.9720468879
 30
0.0
 11
15.4907299458
 21
20.0807537339
 31
0.0
 11
15.5550357699
 21
20.0205384333
 31
0.0
 11
15.607546526
 21
19.9720468879
 31
0.0
  0
SPLINE
  5
515
100
AcDbEntity
  8
0
100
AcDbSpline
 62
7
  6
CONTINUOUS
 70
0
 71
3
 72
9
 73
5
 74
3
 42
0.0000001
 43
0.0000001
 44
0.0000000001
 12
0.0298063354
 22
-0.0269388196
 32
0.0
 13
0.0305692389
 23
-0.026069892
 33
0.0
 40
0.0
 40
0.0
 40
0.0
 40
0.0
 40
0.5544328567
 40
1.0
 40
1.0
 40
1.0
 40
1.0
 10
15.6174067602
 20
19.9630939768
 30
0.0
 10
15.6229152974
 20
19.9581153879
 30
0.0
 10
15.6328880538
 20
19.9491769893
 30
0.0
 10
15.6429738364
 20
19.94036533
 30
0.0
 10
15.6475140526
 20
19.9364933676
 30
0.0
 11
15.6174067602
 21
19.9630939768
 31
0.0
 11
15.6340084888
 21
19.9482428633
 31
0.0
 11
15.6475140526
 21
19.9364933676
 31
0.0
  0
SPLINE
  5
516
100
AcDbEntity
  8
0
100
AcDbSpline
 62
7
  6
CONTINUOUS
 70
0
 71
3
 72
11
 73
7
 74
5
 42
0.0000001
 43
0.0000001
 44
0.0000000001
 12
0.0097042494
 22
-0.0077754727
 32
0.0
 13
0.0119764832
 23
-0.0033457856
 33
0.0
 40
0.0
 40
0.0
 40
0.0
 40
0.0
 40
0.3702301144
 40
0.6600870324
 40
0.8695992398
 40
1.0
 40
1.0
 40
1.0
 40
1.0
 10
15.6573796408
 20
19.9282934232
 30
0.0
 10
15.6585772426
 20
19.9273338518
 30
0.0
 10
15.6607276247
 20
19.9256438243
 30
0.0
 10
15.6636298963
 20
19.9234972646
 30
0.0
 10
15.6658089182
 20
19.922073545
 30
0.0
 10
15.6670669344
 20
19.921399729
 30
0.0
 10
15.6675875152
 20
19.921254298
 30
0.0
 11
15.6573796408
 21
19.9282934232
 31
0.0
 11
15.6610060204
 21
19.9254571198
 31
0.0
 11
15.6639186634
 21
19.923333891
 31
0.0
 11
15.6661137638
 21
19.921930647
 31
0.0
 11
15.6675875152
 21
19.921254298
 31
0.0
  0
SPLINE
  5
517
100
AcDbEntity
  8
0
100
AcDbSpline
 62
7
  6
CONTINUOUS
 70
0
 71
3
 72
11
 73
7
 74
5
 42
0.0000001
 43
0.0000001
 44
0.0000000001
 12
0.2062619832
 22
-0.1950681815
 32
0.0
 13
0.2106681264
 23
-0.1903011867
 33
0.0
 40
0.0
 40
0.0
 40
0.0
 40
0.0
 40
0.2962255422
 40
0.5696703064
 40
0.8078885275
 40
1.0
 40
1.0
 40
1.0
 40
1.0
 10
15.2614586282
 20
20.0071197525
 30
0.0
 10
15.2818253175
 20
19.9878583599
 30
0.0
 10
15.3209637646
 20
19.9507865669
 30
0.0
 10
15.3766820119
 20
19.8984379325
 30
0.0
 10
15.4254246339
 20
19.8530558558
 30
0.0
 10
15.4553441781
 20
19.8254286036
 30
0.0
 10
15.4688347661
 20
19.8132422565
 30
0.0
 11
15.2614586282
 21
20.0071197525
 31
0.0
 11
15.3225695626
 21
19.949347067
 31
0.0
 11
15.3791540508
 21
19.8962011063
 31
0.0
 11
15.4286532975
 21
19.8501201191
 31
0.0
 11
15.4688347661
 21
19.8132422565
 31
0.0
  0
SPLINE
  5
518
100
AcDbEntity
  8
0
100
AcDbSpline
 62
7
  6
CONTINUOUS
 70
0
 71
3
 72
9
 73
5
 74
3
 42
0.0000001
 43
0.0000001
 44
0.0000000001
 12
0.023007526
 22
-0.0203657168
 32
0.0
 13
0.0237869717
 23
-0.019449644
 33
0.0
 40
0.0
 40
0.0
 40
0.0
 40
0.0
 40
0.5624670864
 40
1.0
 40
1.0
 40
1.0
 40
1.0
 10
15.4823047539
 20
19.8011897359
 30
0.0
 10
15.4866184126
 20
19.7973713874
 30
0.0
 10
15.4943260534
 20
19.790626194
 30
0.0
 10
15.5021472307
 20
19.7840115212
 30
0.0
 10
15.5056164251
 20
19.7811749014
 30
0.0
 11
15.4823047539
 21
19.8011897359
 31
0.0
 11
15.4953249206
 21
19.7898247816
 31
0.0
 11
15.5056164251
 21
19.7811749014
 31
0.0
  0
SPLINE
  5
519
100
AcDbEntity
  8
0
100
AcDbSpline
 62
7
  6
CONTINUOUS
 70
0
 71
3
 72
12
 73
8
 74
6
 42
0.0000001
 43
0.0000001
 44
0.0000000001
 12
0.0122287339
 22
-0.0099989407
 32
0.0
 13
0.0152579223
 23
-0.0040885883
 33
0.0
 40
0.0
 40
0.0
 40
0.0
 40
0.0
 40
0.3792368931
 40
0.6721934161
 40
0.8786946827
 40
0.9497844033
 40
1.0
 40
1.0
 40
1.0
 40
1.0
 10
15.5056164251
 20
19.7811749014
 30
0.0
 10
15.5071622874
 20
19.7799109123
 30
0.0
 10
15.5099192256
 20
19.7776897667
 30
0.0
 10
15.5136031269
 20
19.7748927669
 30
0.0
 10
15.5160782774
 20
19.7731798758
 30
0.0
 10
15.5175844501
 20
19.7723376612
 30
0.0
 10
15.5181752129
 20
19.7720833792
 30
0.0
 10
15.5184306081
 20
19.7720149423
 30
0.0
 11
15.5056164251
 21
19.7811749014
 31
0.0
 11
15.5102925802
 21
19.7774305988
 31
0.0
 11
15.5139906296
 21
19.7746486605
 31
0.0
 11
15.5167051225
 21
19.7728398528
 31
0.0
 11
15.5176918319
 21
19.7723037375
 31
0.0
 11
15.5184306081
 21
19.7720149423
 31
0.0
  0
SPLINE
  5
51A
100
AcDbEntity
  8
0
100
AcDbSpline
 62
7
  6
CONTINUOUS
 70
0
 71
3
 72
13
 73
9
 74
7
 42
0.0000001
 43
0.0000001
 44
0.0000000001
 12
-0.0122163759
 22
-0.0122163759
 32
0.0
 13
-0.0133957157
 23
0.0109102925
 33
0.0
 40
0.0
 40
0.0
 40
0.0
 40
0.0
 40
0.027873451
 40
0.0794928696
 40
0.1594145256
 40
0.2685793033
 40
0.575367272
 40
1.0
 40
1.0
 40
1.0
 40
1.0
 10
15.5330224536
 20
19.7859974987
 30
0.0
 10
15.5329089494
 20
19.7858839945
 30
0.0
 10
15.5323769209
 20
19.7858751574
 30
0.0
 10
15.5315549168
 20
19.7862200514
 30
0.0
 10
15.5303136499
 20
19.7868715864
 30
0.0
 10
15.5279170584
 20
19.7884136188
 30
0.0
 10
15.5240093893
 20
19.7912853303
 30
0.0
 10
15.520716917
 20
19.7939098307
 30
0.0
 10
15.5188208306
 20
19.7954541198
 30
0.0
 11
15.5330224536
 21
19.7859974987
 31
0.0
 11
15.5325508635
 21
19.7859000289
 31
0.0
 11
15.5317008465
 21
19.786169824
 31
0.0
 11
15.5304753856
 21
19.7868060441
 31
0.0
 11
15.528877464
 21
19.7878078493
 31
0.0
 11
15.5245761706
 21
19.7909048545
 31
0.0
 11
15.5188208306
 21
19.7954541198
 31
0.0
  0
SPLINE
  5
51B
100
AcDbEntity
  8
0
100
AcDbSpline
 62
7
  6
CONTINUOUS
 70
0
 71
3
 72
11
 73
7
 74
5
 42
0.0000001
 43
0.0000001
 44
0.0000000001
 12
-0.2106318876
 22
0.1899415484
 32
0.0
 13
-0.206245233
 23
0.1946958852
 33
0.0
 40
0.0
 40
0.0
 40
0.0
 40
0.0
 40
0.1926130397
 40
0.4309453507
 40
0.7041948278
 40
1.0
 40
1.0
 40
1.0
 40
1.0
 10
15.4819416198
 20
19.8276187551
 30
0.0
 10
15.4684181371
 20
19.8398138281
 30
0.0
 10
15.4384068653
 20
19.8673702745
 30
0.0
 10
15.3896425484
 20
19.9126956603
 30
0.0
 10
15.3339973711
 20
19.9649473112
 30
0.0
 10
15.2949047214
 20
20.0019088048
 30
0.0
 10
15.2745685858
 20
20.0211061548
 30
0.0
 11
15.4819416198
 21
19.8276187551
 31
0.0
 11
15.4416245465
 21
19.8644830075
 31
0.0
 11
15.39209695
 21
19.9104873226
 31
0.0
 11
15.3355811125
 21
19.9635184696
 31
0.0
 11
15.2745685858
 21
20.0211061548
 31
0.0
  0
LINE
  5
51C
100
AcDbEntity
  8
0
100
AcDbLine
 62
7
  6
CONTINUOUS
 10
15.2745685858
 20
20.0211061548
 11
15.1898619539
 21
20.1010335055
  0
LINE
  5
51D
100
AcDbEntity
  8
0
100
AcDbLine
 62
7
  6
CONTINUOUS
 10
15.1898619539
 20
20.1010335055
 11
15.1094190026
 21
20.1769184671
  0
LINE
  5
51E
100
AcDbEntity
  8
0
100
AcDbLine
 62
7
  6
CONTINUOUS
 10
15.1094190026
 20
20.1769184671
 11
15.1059635988
 21
20.1801629054
  0
SPLINE
  5
51F
100
AcDbEntity
  8
0
100
AcDbSpline
 62
7
  6
CONTINUOUS
 70
0
 71
3
 72
9
 73
5
 74
3
 42
0.0000001
 43
0.0000001
 44
0.0000000001
 12
-0.0548620915
 22
0.0508722343
 32
0.0
 13
-0.0555970973
 23
0.0500679145
 33
0.0
 40
0.0
 40
0.0
 40
0.0
 40
0.0
 40
0.5407343615
 40
1.0
 40
1.0
 40
1.0
 40
1.0
 10
15.0383225538
 20
20.2432517709
 30
0.0
 10
15.0284339478
 20
20.2524212259
 30
0.0
 10
15.0101287134
 20
20.2693593047
 30
0.0
 10
14.99171922
 20
20.2861848369
 30
0.0
 10
14.9832079412
 20
20.2938496611
 30
0.0
 11
15.0383225538
 21
20.2432517709
 31
0.0
 11
15.0086069246
 21
20.2707063204
 31
0.0
 11
14.9832079412
 21
20.2938496611
 31
0.0
  0
SPLINE
  5
520
100
AcDbEntity
  8
0
100
AcDbSpline
 62
7
  6
CONTINUOUS
 70
0
 71
3
 72
9
 73
5
 74
3
 42
0.0000001
 43
0.0000001
 44
0.0000000001
 12
-0.0200401346
 22
0.0175900181
 32
0.0
 13
-0.0206721721
 23
0.0168427144
 33
0.0
 40
0.0
 40
0.0
 40
0.0
 40
0.0
 40
0.2923111857
 40
1.0
 40
1.0
 40
1.0
 40
1.0
 10
14.9669278926
 20
20.3083389531
 30
0.0
 10
14.9649752407
 20
20.3100528727
 30
0.0
 10
14.9582767839
 20
20.3158948525
 30
0.0
 10
14.9515128818
 20
20.3216641896
 30
0.0
 10
14.9466363935
 20
20.3256373231
 30
0.0
 11
14.9669278926
 21
20.3083389531
 31
0.0
 11
14.961053581
 21
20.3134620178
 31
0.0
 11
14.9466363935
 21
20.3256373231
 31
0.0
  0
SPLINE
  5
521
100
AcDbEntity
  8
0
100
AcDbSpline
 62
7
  6
CONTINUOUS
 70
0
 71
3
 72
9
 73
5
 74
3
 42
0.0000001
 43
0.0000001
 44
0.0000000001
 12
-0.0013103488
 22
-0.0013103488
 32
0.0
 13
-0.0016591438
 23
0.0008253905
 33
0.0
 40
0.0
 40
0.0
 40
0.0
 40
0.0
 40
0.3328278605
 40
1.0
 40
1.0
 40
1.0
 40
1.0
 10
15.6868408616
 20
19.9398159067
 30
0.0
 10
15.6866954881
 20
19.9396705332
 30
0.0
 10
15.6859569886
 20
19.9397411951
 30
0.0
 10
15.6854447966
 20
19.9400007987
 30
0.0
 10
15.6850758184
 20
19.9401843578
 30
0.0
 11
15.6868408616
 21
19.9398159067
 31
0.0
 11
15.6862289707
 21
19.9397384996
 31
0.0
 11
15.6850758184
 21
19.9401843578
 31
0.0
  0
SPLINE
  5
522
100
AcDbEntity
  8
0
100
AcDbSpline
 62
7
  6
CONTINUOUS
 70
0
 71
3
 72
10
 73
6
 74
4
 42
0.0000001
 43
0.0000001
 44
0.0000000001
 12
-0.0122867748
 22
0.0065766682
 32
0.0
 13
-0.0108332592
 23
0.0087668635
 33
0.0
 40
0.0
 40
0.0
 40
0.0
 40
0.0
 40
0.1621415542
 40
0.382857236
 40
1.0
 40
1.0
 40
1.0
 40
1.0
 10
15.6847391021
 20
19.9403584866
 30
0.0
 10
15.6840750365
 20
19.940713937
 30
0.0
 10
15.6825639094
 20
19.9416572034
 30
0.0
 10
15.6787634529
 20
19.9443289195
 30
0.0
 10
15.6757070839
 20
19.9467440346
 30
0.0
 10
15.6734785281
 20
19.9485475034
 30
0.0
 11
15.6847391021
 21
19.9403584866
 31
0.0
 11
15.6828051608
 21
19.9415271713
 31
0.0
 11
15.6802789306
 21
19.9432820336
 31
0.0
 11
15.6734785281
 21
19.9485475034
 31
0.0
  0
LINE
  5
523
100
AcDbEntity
  8
0
100
AcDbLine
 62
7
  6
CONTINUOUS
 10
15.6661805917
 20
19.9546176724
 11
15.6447104634
 21
19.9734340197
  0
LINE
  5
524
100
AcDbEntity
  8
0
100
AcDbLine
 62
7
  6
CONTINUOUS
 10
15.6367267525
 20
19.9806007759
 11
15.6353826359
 21
19.9818125291
  0
SPLINE
  5
525
100
AcDbEntity
  8
0
100
AcDbSpline
 62
7
  6
CONTINUOUS
 70
0
 71
3
 72
11
 73
7
 74
5
 42
0.0000001
 43
0.0000001
 44
0.0000000001
 12
-0.2506940019
 22
0.2261273433
 32
0.0
 13
-0.2454363716
 23
0.2318233065
 33
0.0
 40
0.0
 40
0.0
 40
0.0
 40
0.0
 40
0.1910939161
 40
0.4314857187
 40
0.7066438021
 40
1.0
 40
1.0
 40
1.0
 40
1.0
 10
15.6353826359
 20
19.9818125291
 30
0.0
 10
15.6194139364
 20
19.9962163822
 30
0.0
 10
15.5836261228
 20
20.0290381504
 30
0.0
 10
15.5255248775
 20
20.0833362731
 30
0.0
 10
15.4592472371
 20
20.1457388384
 30
0.0
 10
15.4127269819
 20
20.1896610406
 30
0.0
 10
15.3887268883
 20
20.2123299752
 30
0.0
 11
15.6353826359
 21
19.9818125291
 31
0.0
 11
15.5877758252
 21
20.0253535985
 31
0.0
 11
15.5284155241
 21
20.0806990316
 31
0.0
 11
15.4607525653
 21
20.1443500688
 31
0.0
 11
15.3887268883
 21
20.2123299752
 31
0.0
  0
SPLINE
  5
526
100
AcDbEntity
  8
0
100
AcDbSpline
 62
7
  6
CONTINUOUS
 70
0
 71
3
 72
10
 73
6
 74
4
 42
0.0000001
 43
0.0000001
 44
0.0000000001
 12
-0.2041587125
 22
0.1928351021
 32
0.0
 13
-0.2060497758
 23
0.1908131191
 33
0.0
 40
0.0
 40
0.0
 40
0.0
 40
0.0
 40
0.2735562561
 40
0.6631173341
 40
1.0
 40
1.0
 40
1.0
 40
1.0
 10
15.3887268883
 20
20.2123299752
 30
0.0
 10
15.3701105907
 20
20.2299137247
 30
0.0
 10
15.3249924723
 20
20.2725472508
 30
0.0
 10
15.256903377
 20
20.3367875372
 30
0.0
 10
15.2071739901
 20
20.3831710639
 30
0.0
 10
15.1840357908
 20
20.4045982746
 30
0.0
 11
15.3887268883
 21
20.2123299752
 31
0.0
 11
15.3328797671
 21
20.2650830995
 31
0.0
 11
15.2532399165
 21
20.3400901075
 31
0.0
 11
15.1840357908
 21
20.4045982746
 31
0.0
  0
LINE
  5
527
100
AcDbEntity
  8
0
100
AcDbLine
 62
7
  6
CONTINUOUS
 10
15.1840357908
 20
20.4045982746
 11
15.1402693305
 21
20.4447390234
  0
LINE
  5
528
100
AcDbEntity
  8
0
100
AcDbLine
 62
7
  6
CONTINUOUS
 10
15.1402693305
 20
20.4447390234
 11
15.1375397437
 21
20.4472004699
  0
SPLINE
  5
529
100
AcDbEntity
  8
0
100
AcDbSpline
 62
7
  6
CONTINUOUS
 70
0
 71
3
 72
9
 73
5
 74
3
 42
0.0000001
 43
0.0000001
 44
0.0000000001
 12
-0.0361516705
 22
0.0325483553
 32
0.0
 13
-0.0376260752
 23
0.0308320803
 33
0.0
 40
0.0
 40
0.0
 40
0.0
 40
0.0
 40
0.5773389558
 40
1.0
 40
1.0
 40
1.0
 40
1.0
 10
15.1375397437
 20
20.4472004699
 30
0.0
 10
15.1305824878
 20
20.453464281
 30
0.0
 10
15.1184655161
 20
20.4642396892
 30
0.0
 10
15.1061515151
 20
20.4747935677
 30
0.0
 10
15.1008504896
 20
20.4791374075
 30
0.0
 11
15.1375397437
 21
20.4472004699
 31
0.0
 11
15.1165256144
 21
20.4658325665
 31
0.0
 11
15.1008504896
 21
20.4791374075
 31
0.0
  0
SPLINE
  5
52A
100
AcDbEntity
  8
0
100
AcDbSpline
 62
7
  6
CONTINUOUS
 70
0
 71
3
 72
11
 73
7
 74
5
 42
0.0000001
 43
0.0000001
 44
0.0000000001
 12
-0.0089222407
 22
0.0070516766
 32
0.0
 13
-0.0109783231
 23
0.0029679866
 33
0.0
 40
0.0
 40
0.0
 40
0.0
 40
0.0
 40
0.3676456872
 40
0.6565519914
 40
0.8668636509
 40
1.0
 40
1.0
 40
1.0
 40
1.0
 10
15.0968093858
 20
20.482395459
 30
0.0
 10
15.095715978
 20
20.4832596318
 30
0.0
 10
15.093749556
 20
20.4847839079
 30
0.0
 10
15.0910887988
 20
20.4867201961
 30
0.0
 10
15.0890759926
 20
20.4880106787
 30
0.0
 10
15.0879053342
 20
20.4886167919
 30
0.0
 10
15.0874181296
 20
20.4887485075
 30
0.0
 11
15.0968093858
 21
20.482395459
 31
0.0
 11
15.093498423
 21
20.4849486026
 31
0.0
 11
15.0908285617
 21
20.4868634967
 31
0.0
 11
15.0888012984
 21
20.488132634
 31
0.0
 11
15.0874181296
 21
20.4887485075
 31
0.0
  0
SPLINE
  5
52B
100
AcDbEntity
  8
0
100
AcDbSpline
 62
7
  6
CONTINUOUS
 70
0
 71
3
 72
9
 73
5
 74
3
 42
0.0000001
 43
0.0000001
 44
0.0000000001
 12
-0.0012356976
 22
-0.0012356976
 32
0.0
 13
-0.0015755461
 23
0.0007560103
 33
0.0
 40
0.0
 40
0.0
 40
0.0
 40
0.0
 40
0.343917111
 40
1.0
 40
1.0
 40
1.0
 40
1.0
 10
15.6355578887
 20
19.8885329338
 30
0.0
 10
15.6354162295
 20
19.8883912746
 30
0.0
 10
15.6347280793
 20
19.8884103563
 30
0.0
 10
15.6342316733
 20
19.8886548926
 30
0.0
 10
15.6338871103
 20
19.8888202278
 30
0.0
 11
15.6355578887
 21
19.8885329338
 31
0.0
 11
15.6349655756
 21
19.8884310662
 31
0.0
 11
15.6338871103
 21
19.8888202278
 31
0.0
  0
SPLINE
  5
52C
100
AcDbEntity
  8
0
100
AcDbSpline
 62
7
  6
CONTINUOUS
 70
0
 71
3
 72
10
 73
6
 74
4
 42
0.0000001
 43
0.0000001
 44
0.0000000001
 12
-0.0129922987
 22
0.0067475491
 32
0.0
 13
-0.0113392342
 23
0.0092601842
 33
0.0
 40
0.0
 40
0.0
 40
0.0
 40
0.0
 40
0.1578418034
 40
0.3770516839
 40
1.0
 40
1.0
 40
1.0
 40
1.0
 10
15.6335844216
 20
19.8889716827
 30
0.0
 10
15.6329008456
 20
19.8893266978
 30
0.0
 10
15.6313369093
 20
19.8903035834
 30
0.0
 10
15.627358016
 20
19.8931285961
 30
0.0
 10
15.6241471294
 20
19.8956996637
 30
0.0
 10
15.6217925437
 20
19.8976225358
 30
0.0
 11
15.6335844216
 21
19.8889716827
 31
0.0
 11
15.6316026129
 21
19.89016006
 31
0.0
 11
15.6289739317
 21
19.8920010359
 31
0.0
 11
15.6217925437
 21
19.8976225358
 31
0.0
  0
SPLINE
  5
52D
100
AcDbEntity
  8
0
100
AcDbSpline
 62
7
  6
CONTINUOUS
 70
0
 71
3
 72
9
 73
5
 74
3
 42
0.0000001
 43
0.0000001
 44
0.0000000001
 12
-0.0287166554
 22
0.0245084323
 32
0.0
 13
-0.0280721638
 23
0.0252440719
 33
0.0
 40
0.0
 40
0.0
 40
0.0
 40
0.0
 40
0.2112729014
 40
1.0
 40
1.0
 40
1.0
 40
1.0
 10
15.6139558865
 20
19.9041837699
 30
0.0
 10
15.6119335361
 20
19.9059097591
 30
0.0
 10
15.6024084531
 20
19.9141344554
 30
0.0
 10
15.5930182204
 20
19.9225138179
 30
0.0
 10
15.5856377949
 20
19.9291507124
 30
0.0
 11
15.6139558865
 21
19.9041837699
 31
0.0
 11
15.6079147715
 21
19.9093919737
 31
0.0
 11
15.5856377949
 21
19.9291507124
 31
0.0
  0
SPLINE
  5
52E
100
AcDbEntity
  8
0
100
AcDbSpline
 62
7
  6
CONTINUOUS
 70
0
 71
3
 72
14
 73
10
 74
8
 42
0.0000001
 43
0.0000001
 44
0.0000000001
 12
-0.3773601219
 22
0.3393434901
 32
0.0
 13
-0.3698341672
 23
0.347530365
 33
0.0
 40
0.0
 40
0.0
 40
0.0
 40
0.0
 40
0.1921238554
 40
0.3125560842
 40
0.4443640165
 40
0.5834044178
 40
0.7253287147
 40
0.8656565081
 40
1.0
 40
1.0
 40
1.0
 40
1.0
 10
15.5856377949
 20
19.9291507124
 30
0.0
 10
15.5614711678
 20
19.9508827056
 30
0.0
 10
15.5226463452
 20
19.9867811219
 30
0.0
 10
15.467815978
 20
20.0382034088
 30
0.0
 10
15.4195737215
 20
20.0835246598
 30
0.0
 10
15.3687684405
 20
20.1314272363
 30
0.0
 10
15.3170269773
 20
20.1804375866
 30
0.0
 10
15.2657890849
 20
20.2288240522
 30
0.0
 10
15.2319429133
 20
20.2606586688
 30
0.0
 10
15.2153813088
 20
20.276221483
 30
0.0
 11
15.5856377949
 21
19.9291507124
 31
0.0
 11
15.5138386207
 21
19.9951175765
 31
0.0
 11
15.4692252337
 21
20.0368931485
 31
0.0
 11
15.4204789251
 21
20.0827012249
 31
0.0
 11
15.3691417675
 21
20.1311119995
 31
0.0
 11
15.3168183473
 21
20.1806100411
 31
0.0
 11
15.2650364059
 21
20.2295014369
 31
0.0
 11
15.2153813088
 21
20.276221483
 31
0.0
  0
LINE
  5
52F
100
AcDbEntity
  8
0
100
AcDbLine
 62
7
  6
CONTINUOUS
 10
15.2153813088
 20
20.276221483
 11
15.1850812161
 21
20.3046643242
  0
SPLINE
  5
530
100
AcDbEntity
  8
0
100
AcDbSpline
 62
7
  6
CONTINUOUS
 70
0
 71
3
 72
11
 73
7
 74
5
 42
0.0000001
 43
0.0000001
 44
0.0000000001
 12
-0.0930076703
 22
0.0863311317
 32
0.0
 13
-0.0983088055
 23
0.0802425685
 33
0.0
 40
0.0
 40
0.0
 40
0.0
 40
0.0
 40
0.3321727711
 40
0.6133640585
 40
0.8374602668
 40
1.0
 40
1.0
 40
1.0
 40
1.0
 10
15.1434074811
 20
20.3435657353
 30
0.0
 10
15.1331092759
 20
20.3531246857
 30
0.0
 10
15.1140438497
 20
20.37072203
 30
0.0
 10
15.0878434912
 20
20.3945651594
 30
0.0
 10
15.0667701302
 20
20.4133767726
 30
0.0
 10
15.0543850985
 20
20.4240638094
 30
0.0
 10
15.0490587361
 20
20.4284113446
 30
0.0
 11
15.1434074811
 21
20.3435657353
 31
0.0
 11
15.1124228139
 21
20.3721452641
 31
0.0
 11
15.0860150535
 21
20.3961433832
 31
0.0
 11
15.0647656629
 21
20.4150422296
 31
0.0
 11
15.0490587361
 21
20.4284113446
 31
0.0
  0
SPLINE
  5
531
100
AcDbEntity
  8
0
100
AcDbSpline
 62
7
  6
CONTINUOUS
 70
0
 71
3
 72
12
 73
8
 74
6
 42
0.0000001
 43
0.0000001
 44
0.0000000001
 12
-0.0122483796
 22
0.0099974914
 32
0.0
 13
-0.0152493954
 23
0.0041747546
 33
0.0
 40
0.0
 40
0.0
 40
0.0
 40
0.0
 40
0.3757117068
 40
0.667477668
 40
0.8751598486
 40
0.9477348191
 40
1.0
 40
1.0
 40
1.0
 40
1.0
 10
15.0490587361
 20
20.4284113446
 30
0.0
 10
15.0475247829
 20
20.4296634028
 30
0.0
 10
15.0447795271
 20
20.4318645798
 30
0.0
 10
15.0410917214
 20
20.434633078
 30
0.0
 10
15.0385926392
 20
20.4363293736
 30
0.0
 10
15.0370551289
 20
20.4371703286
 30
0.0
 10
15.0364452222
 20
20.4374274293
 30
0.0
 10
15.0361795514
 20
20.4375001608
 30
0.0
 11
15.0490587361
 21
20.4284113446
 31
0.0
 11
15.0444129118
 21
20.4321130031
 31
0.0
 11
15.0407109879
 21
20.4348653247
 31
0.0
 11
15.037963142
 21
20.4366628603
 31
0.0
 11
15.0369501786
 21
20.4372018805
 31
0.0
 11
15.0361795514
 21
20.4375001608
 31
0.0
  0
SPLINE
  5
532
100
AcDbEntity
  8
0
100
AcDbSpline
 62
7
  6
CONTINUOUS
 70
0
 71
3
 72
12
 73
8
 74
6
 42
0.0000001
 43
0.0000001
 44
0.0000000001
 12
-0.0119900448
 22
-0.0119900448
 32
0.0
 13
-0.0131377875
 23
0.0107201162
 33
0.0
 40
0.0
 40
0.0
 40
0.0
 40
0.0
 40
0.0289975854
 40
0.0810067496
 40
0.2698935105
 40
0.5761603913
 40
1.0
 40
1.0
 40
1.0
 40
1.0
 10
15.5842977245
 20
19.8372727696
 30
0.0
 10
15.5841818304
 20
19.8371568754
 30
0.0
 10
15.583655475
 20
19.8371265415
 30
0.0
 10
15.5822662604
 20
19.8376846229
 30
0.0
 10
15.5795953929
 20
19.8393318207
 30
0.0
 10
15.5754294167
 20
19.8424002663
 30
0.0
 10
15.5721966106
 20
19.8449778722
 30
0.0
 10
15.5703405057
 20
19.8464924088
 30
0.0
 11
15.5842977245
 21
19.8372727696
 31
0.0
 11
15.5838190141
 21
19.8371605093
 31
0.0
 11
15.5829737927
 21
19.8374121744
 31
0.0
 11
15.5801934436
 21
19.8390021245
 31
0.0
 11
15.5759759303
 21
19.842032307
 31
0.0
 11
15.5703405057
 21
19.8464924088
 31
0.0
  0
LINE
  5
533
100
AcDbEntity
  8
0
100
AcDbLine
 62
7
  6
CONTINUOUS
 10
15.5609081804
 20
19.8544187218
 11
15.5345126614
 21
19.8777387708
  0
SPLINE
  5
534
100
AcDbEntity
  8
0
100
AcDbSpline
 62
7
  6
CONTINUOUS
 70
0
 71
3
 72
9
 73
5
 74
3
 42
0.0000001
 43
0.0000001
 44
0.0000000001
 12
-0.1300994374
 22
0.1169949055
 32
0.0
 13
-0.1275399392
 23
0.1197799458
 33
0.0
 40
0.0
 40
0.0
 40
0.0
 40
0.0
 40
0.4370968024
 40
1.0
 40
1.0
 40
1.0
 40
1.0
 10
15.5345126614
 20
19.8777387708
 30
0.0
 10
15.515557312
 20
19.8947848038
 30
0.0
 10
15.4726083385
 20
19.9342465714
 30
0.0
 10
15.4300749701
 20
19.9741517889
 30
0.0
 10
15.4061440902
 20
19.9966266271
 30
0.0
 11
15.5345126614
 21
19.8777387708
 31
0.0
 11
15.4780909969
 21
19.9293667514
 31
0.0
 11
15.4061440902
 21
19.9966266271
 31
0.0
  0
LINE
  5
535
100
AcDbEntity
  8
0
100
AcDbLine
 62
7
  6
CONTINUOUS
 10
15.4061440902
 20
19.9966266271
 11
15.4032510084
 21
19.999343918
  0
LINE
  5
536
100
AcDbEntity
  8
0
100
AcDbLine
 62
7
  6
CONTINUOUS
 10
15.4032510084
 20
19.999343918
 11
15.1618081446
 21
20.2269692311
  0
LINE
  5
537
100
AcDbEntity
  8
0
100
AcDbLine
 62
7
  6
CONTINUOUS
 10
15.1618081446
 20
20.2269692311
 11
15.1356528427
 21
20.2514981724
  0
SPLINE
  5
538
100
AcDbEntity
  8
0
100
AcDbSpline
 62
7
  6
CONTINUOUS
 70
0
 71
3
 72
11
 73
7
 74
5
 42
0.0000001
 43
0.0000001
 44
0.0000000001
 12
-0.090763774
 22
0.0841880018
 32
0.0
 13
-0.0958552396
 23
0.0783419132
 33
0.0
 40
0.0
 40
0.0
 40
0.0
 40
0.0
 40
0.330627838
 40
0.6111207253
 40
0.8356727192
 40
1.0
 40
1.0
 40
1.0
 40
1.0
 10
15.0901662567
 20
20.2939153877
 30
0.0
 10
15.0801632465
 20
20.3031936867
 30
0.0
 10
15.0616360651
 20
20.3203023615
 30
0.0
 10
15.0361453719
 20
20.3435288071
 30
0.0
 10
15.0155276646
 20
20.3619100583
 30
0.0
 10
15.0033613817
 20
20.3723795215
 30
0.0
 10
14.9981108381
 20
20.3766707594
 30
0.0
 11
15.0901662567
 21
20.2939153877
 31
0.0
 11
15.060082782
 21
20.3216698099
 31
0.0
 11
15.034392517
 21
20.3450316943
 31
0.0
 11
15.0136098999
 21
20.363494058
 31
0.0
 11
14.9981108381
 21
20.3766707594
 31
0.0
  0
SPLINE
  5
539
100
AcDbEntity
  8
0
100
AcDbSpline
 62
7
  6
CONTINUOUS
 70
0
 71
3
 72
11
 73
7
 74
5
 42
0.0000001
 43
0.0000001
 44
0.0000000001
 12
-0.0105719786
 22
0.0084700519
 32
0.0
 13
-0.0130850582
 23
0.0035056757
 33
0.0
 40
0.0
 40
0.0
 40
0.0
 40
0.0
 40
0.373261445
 40
0.6641862019
 40
0.8727221125
 40
1.0
 40
1.0
 40
1.0
 40
1.0
 10
14.9958927396
 20
20.3784664577
 30
0.0
 10
14.994577369
 20
20.3795203056
 30
0.0
 10
14.9922193753
 20
20.3813714154
 30
0.0
 10
14.9890440012
 20
20.3837162897
 30
0.0
 10
14.9866799989
 20
20.3852547213
 30
0.0
 10
14.9853257003
 20
20.3859829022
 30
0.0
 10
14.9847705541
 20
20.3861316339
 30
0.0
 11
14.9958927396
 21
20.3784664577
 31
0.0
 11
14.9919085472
 21
20.3815798754
 31
0.0
 11
14.9887216193
 21
20.3838983102
 31
0.0
 11
14.9863397052
 21
20.3854171128
 31
0.0
 11
14.9847705541
 21
20.3861316339
 31
0.0
  0
LINE
  5
53A
100
AcDbEntity
  8
0
100
AcDbLine
 62
7
  6
CONTINUOUS
 10
15.6573723171
 20
19.9282842576
 11
15.6545592808
 21
19.9305642009
  0
SPLINE
  5
53B
100
AcDbEntity
  8
0
100
AcDbSpline
 62
7
  6
CONTINUOUS
 70
0
 71
3
 72
9
 73
5
 74
3
 42
0.0000001
 43
0.0000001
 44
0.0000000001
 12
-0.0298451692
 22
0.025461164
 32
0.0
 13
-0.0291160463
 23
0.0262919052
 33
0.0
 40
0.0
 40
0.0
 40
0.0
 40
0.0
 40
0.4280668517
 40
1.0
 40
1.0
 40
1.0
 40
1.0
 10
15.6475039553
 20
19.9364815317
 30
0.0
 10
15.6432453794
 20
19.9401145585
 30
0.0
 10
15.6333973673
 20
19.9487192188
 30
0.0
 10
15.6236578876
 20
19.9574454126
 30
0.0
 10
15.618107077
 20
19.9624578166
 30
0.0
 11
15.6475039553
 21
19.9364815317
 31
0.0
 11
15.634834052
 21
19.9475035682
 31
0.0
 11
15.618107077
 21
19.9624578166
 31
0.0
  0
SPLINE
  5
53C
100
AcDbEntity
  8
0
100
AcDbSpline
 62
7
  6
CONTINUOUS
 70
0
 71
3
 72
11
 73
7
 74
5
 42
0.0000001
 43
0.0000001
 44
0.0000000001
 12
-0.2520782822
 22
0.2276276879
 32
0.0
 13
-0.2466985932
 23
0.233447272
 33
0.0
 40
0.0
 40
0.0
 40
0.0
 40
0.0
 40
0.1901822671
 40
0.4304302469
 40
0.7059963461
 40
1.0
 40
1.0
 40
1.0
 40
1.0
 10
15.618107077
 20
19.9624578166
 30
0.0
 10
15.6021268039
 20
19.9768880666
 30
0.0
 10
15.5662888639
 20
20.0099110973
 30
0.0
 10
15.5079165617
 20
20.0645124805
 30
0.0
 10
15.4412145655
 20
20.1274147431
 30
0.0
 10
15.3943765145
 20
20.1717354493
 30
0.0
 10
15.3701997519
 20
20.1946135662
 30
0.0
 11
15.618107077
 21
19.9624578166
 31
0.0
 11
15.5705061094
 21
20.0061219787
 31
0.0
 11
15.5108718336
 21
20.0618184958
 31
0.0
 11
15.4427508824
 21
20.1260012478
 31
0.0
 11
15.3701997519
 21
20.1946135662
 31
0.0
  0
SPLINE
  5
53D
100
AcDbEntity
  8
0
100
AcDbSpline
 62
7
  6
CONTINUOUS
 70
0
 71
3
 72
9
 73
5
 74
3
 42
0.0000001
 43
0.0000001
 44
0.0000000001
 12
-0.1940501225
 22
0.183626794
 32
0.0
 13
-0.1956593548
 23
0.1819111497
 33
0.0
 40
0.0
 40
0.0
 40
0.0
 40
0.0
 40
0.533211309
 40
1.0
 40
1.0
 40
1.0
 40
1.0
 10
15.3701997519
 20
20.1946135662
 30
0.0
 10
15.3357098453
 20
20.2272508606
 30
0.0
 10
15.2710268265
 20
20.2884598707
 30
0.0
 10
15.2061449178
 20
20.3494596944
 30
0.0
 10
15.1757010598
 20
20.3777643835
 30
0.0
 11
15.3701997519
 21
20.1946135662
 31
0.0
 11
15.2666738638
 21
20.2924660587
 31
0.0
 11
15.1757010598
 21
20.3777643835
 31
0.0
  0
LINE
  5
53E
100
AcDbEntity
  8
0
100
AcDbLine
 62
7
  6
CONTINUOUS
 10
15.1757010598
 20
20.3777643835
 11
15.16691299
 21
20.3859244231
  0
SPLINE
  5
53F
100
AcDbEntity
  8
0
100
AcDbSpline
 62
7
  6
CONTINUOUS
 70
0
 71
3
 72
9
 73
5
 74
3
 42
0.0000001
 43
0.0000001
 44
0.0000000001
 12
-0.0470268856
 22
0.0436071034
 32
0.0
 13
-0.0475895688
 23
0.0429923292
 33
0.0
 40
0.0
 40
0.0
 40
0.0
 40
0.0
 40
0.2769395376
 40
1.0
 40
1.0
 40
1.0
 40
1.0
 10
15.16691299
 20
20.3859244231
 30
0.0
 10
15.1625717887
 20
20.3899499335
 30
0.0
 10
15.1468802483
 20
20.4044683815
 30
0.0
 10
15.1311249721
 20
20.4189185503
 30
0.0
 10
15.1196549269
 20
20.4292805681
 30
0.0
 11
15.16691299
 21
20.3859244231
 31
0.0
 11
15.1538756846
 21
20.3979861613
 31
0.0
 11
15.1196549269
 21
20.4292805681
 31
0.0
  0
SPLINE
  5
540
100
AcDbEntity
  8
0
100
AcDbSpline
 62
7
  6
CONTINUOUS
 70
0
 71
3
 72
9
 73
5
 74
3
 42
0.0000001
 43
0.0000001
 44
0.0000000001
 12
-0.0303374321
 22
0.0274067805
 32
0.0
 13
-0.0311397628
 23
0.0264916322
 33
0.0
 40
0.0
 40
0.0
 40
0.0
 40
0.0
 40
0.556370114
 40
1.0
 40
1.0
 40
1.0
 40
1.0
 10
15.1196549269
 20
20.4292805681
 30
0.0
 10
15.1140286467
 20
20.4343633393
 30
0.0
 10
15.1038806973
 20
20.4434596884
 30
0.0
 10
15.093616563
 20
20.4524260056
 30
0.0
 10
15.0890117199
 20
20.4563434988
 30
0.0
 11
15.1196549269
 21
20.4292805681
 31
0.0
 11
15.1027006504
 21
20.4444449618
 31
0.0
 11
15.0890117199
 21
20.4563434988
 31
0.0
  0
SPLINE
  5
541
100
AcDbEntity
  8
0
100
AcDbSpline
 62
7
  6
CONTINUOUS
 70
0
 71
3
 72
9
 73
5
 74
3
 42
0.0000001
 43
0.0000001
 44
0.0000000001
 12
-0.0014327327
 22
0.000706658
 32
0.0
 13
-0.0011365079
 23
-0.0011365079
 33
0.0
 40
0.0
 40
0.0
 40
0.0
 40
0.0
 40
0.6486685641
 40
1.0
 40
1.0
 40
1.0
 40
1.0
 10
15.0704324483
 20
20.4706399961
 30
0.0
 10
15.0701226587
 20
20.4707927917
 30
0.0
 10
15.0696663009
 20
20.471013732
 30
0.0
 10
15.0690291055
 20
20.47105267
 30
0.0
 10
15.0688960085
 20
20.470919573
 30
0.0
 11
15.0704324483
 21
20.4706399961
 31
0.0
 11
15.0694545176
 21
20.4710028445
 31
0.0
 11
15.0688960085
 21
20.470919573
 31
0.0
  0
SPLINE
  5
542
100
AcDbEntity
  8
0
100
AcDbSpline
 62
7
  6
CONTINUOUS
 70
0
 71
3
 72
13
 73
9
 74
7
 42
0.0000001
 43
0.0000001
 44
0.0000000001
 12
-0.0160249226
 22
0.0041581575
 32
0.0
 13
-0.012885576
 23
0.0106224801
 33
0.0
 40
0.0
 40
0.0
 40
0.0
 40
0.0
 40
0.0113033059
 40
0.0416622273
 40
0.1246990213
 40
0.2382473211
 40
0.5576477834
 40
1.0
 40
1.0
 40
1.0
 40
1.0
 10
15.6178954973
 20
19.8714866541
 30
0.0
 10
15.6178351191
 20
19.871502321
 30
0.0
 10
15.6176186991
 20
19.8715700052
 30
0.0
 10
15.6169688334
 20
19.8718339148
 30
0.0
 10
15.6158693789
 20
19.8724533453
 30
0.0
 10
15.6134609898
 20
19.8740238595
 30
0.0
 10
15.6095676142
 20
19.8769574123
 30
0.0
 10
15.6062677823
 20
19.879620699
 30
0.0
 10
15.6043677946
 20
19.8811869916
 30
0.0
 11
15.6178954973
 21
19.8714866541
 31
0.0
 11
15.6177176344
 21
19.8715405557
 31
0.0
 11
15.6172463446
 21
19.8717274117
 31
0.0
 11
15.6160234052
 21
19.8723810889
 31
0.0
 11
15.6144283523
 21
19.8734064688
 31
0.0
 11
15.6101300637
 21
19.8765647319
 31
0.0
 11
15.6043677946
 21
19.8811869916
 31
0.0
  0
SPLINE
  5
543
100
AcDbEntity
  8
0
100
AcDbSpline
 62
7
  6
CONTINUOUS
 70
0
 71
3
 72
9
 73
5
 74
3
 42
0.0000001
 43
0.0000001
 44
0.0000000001
 12
-0.0300824345
 22
0.0257342541
 32
0.0
 13
-0.0293645304
 23
0.0265505001
 33
0.0
 40
0.0
 40
0.0
 40
0.0
 40
0.0
 40
0.4467413949
 40
1.0
 40
1.0
 40
1.0
 40
1.0
 10
15.5973641778
 20
19.887080534
 30
0.0
 10
15.5928844882
 20
19.8909127195
 30
0.0
 10
15.5829579361
 20
19.8996085627
 30
0.0
 10
15.5731369625
 20
19.9084224996
 30
0.0
 10
15.5677215695
 20
19.9133189305
 30
0.0
 11
15.5973641778
 21
19.887080534
 31
0.0
 11
15.5840363559
 21
19.8987058747
 31
0.0
 11
15.5677215695
 21
19.9133189305
 31
0.0
  0
SPLINE
  5
544
100
AcDbEntity
  8
0
100
AcDbSpline
 62
7
  6
CONTINUOUS
 70
0
 71
3
 72
12
 73
8
 74
6
 42
0.0000001
 43
0.0000001
 44
0.0000000001
 12
-0.375836789
 22
0.3398200004
 32
0.0
 13
-0.3688955705
 23
0.3473427452
 33
0.0
 40
0.0
 40
0.0
 40
0.0
 40
0.0
 40
0.0874107133
 40
0.1930573883
 40
0.4454668398
 40
0.7260088815
 40
1.0
 40
1.0
 40
1.0
 40
1.0
 10
15.5677215695
 20
19.9133189305
 30
0.0
 10
15.5567708489
 20
19.9232202334
 30
0.0
 10
15.5327407189
 20
19.9452606983
 30
0.0
 10
15.477650996
 20
19.996503275
 30
0.0
 10
15.3991558635
 20
20.0704739981
 30
0.0
 10
15.3001986047
 20
20.1641866218
 30
0.0
 10
15.2321615593
 20
20.2285514883
 30
0.0
 10
15.1984701893
 20
20.2602744307
 30
0.0
 11
15.5677215695
 21
19.9133189305
 31
0.0
 11
15.5350423968
 21
19.9432130502
 31
0.0
 11
15.4958241297
 21
19.9796459727
 31
0.0
 11
15.4026479963
 21
20.0672511766
 31
0.0
 11
15.2993867147
 21
20.1649385177
 31
0.0
 11
15.1984701893
 21
20.2602744307
 31
0.0
  0
LINE
  5
545
100
AcDbEntity
  8
0
100
AcDbLine
 62
7
  6
CONTINUOUS
 10
15.1984701893
 20
20.2602744307
 11
15.1681102269
 21
20.2888105274
  0
SPLINE
  5
546
100
AcDbEntity
  8
0
100
AcDbSpline
 62
7
  6
CONTINUOUS
 70
0
 71
3
 72
9
 73
5
 74
3
 42
0.0000001
 43
0.0000001
 44
0.0000000001
 12
-0.0558643634
 22
0.051957946
 32
0.0
 13
-0.0566000816
 23
0.0511555082
 33
0.0
 40
0.0
 40
0.0
 40
0.0
 40
0.0
 40
0.2798709937
 40
1.0
 40
1.0
 40
1.0
 40
1.0
 10
15.1264580308
 20
20.3277331106
 30
0.0
 10
15.1212464259
 20
20.3325802846
 30
0.0
 10
15.1026050195
 20
20.3498779978
 30
0.0
 10
15.0838861289
 20
20.3670931927
 30
0.0
 10
15.0702996754
 20
20.3793727145
 30
0.0
 11
15.1264580308
 21
20.3277331106
 31
0.0
 11
15.1108059789
 21
20.3422560775
 31
0.0
 11
15.0702996754
 21
20.3793727145
 31
0.0
  0
SPLINE
  5
547
100
AcDbEntity
  8
0
100
AcDbSpline
 62
7
  6
CONTINUOUS
 70
0
 71
3
 72
9
 73
5
 74
3
 42
0.0000001
 43
0.0000001
 44
0.0000000001
 12
-0.0294737742
 22
0.0266385817
 32
0.0
 13
-0.0301989838
 23
0.0258135387
 33
0.0
 40
0.0
 40
0.0
 40
0.0
 40
0.0
 40
0.5532372729
 40
1.0
 40
1.0
 40
1.0
 40
1.0
 10
15.0702996754
 20
20.3793727145
 30
0.0
 10
15.0648643452
 20
20.3842851999
 30
0.0
 10
15.0550066022
 20
20.393128091
 30
0.0
 10
15.0450421904
 20
20.4018516104
 30
0.0
 10
15.0405449303
 20
20.4056957861
 30
0.0
 11
15.0702996754
 21
20.3793727145
 31
0.0
 11
15.0539243552
 21
20.3940330976
 31
0.0
 11
15.0405449303
 21
20.4056957861
 31
0.0
  0
LINE
  5
548
100
AcDbEntity
  8
0
100
AcDbLine
 62
7
  6
CONTINUOUS
 10
15.0405449303
 20
20.4056957861
 11
15.0334124923
 21
20.4116905521
  0
SPLINE
  5
549
100
AcDbEntity
  8
0
100
AcDbSpline
 62
7
  6
CONTINUOUS
 70
0
 71
3
 72
11
 73
7
 74
5
 42
0.0000001
 43
0.0000001
 44
0.0000000001
 12
-0.0116635601
 22
0.0095706491
 32
0.0
 13
-0.0134922082
 23
0.0067526967
 33
0.0
 40
0.0
 40
0.0
 40
0.0
 40
0.0
 40
0.3287072882
 40
0.6213247937
 40
0.8450263971
 40
1.0
 40
1.0
 40
1.0
 40
1.0
 10
15.0330324455
 20
20.4120028515
 30
0.0
 10
15.0317544798
 20
20.4130514989
 30
0.0
 10
15.0293245519
 20
20.4150161005
 30
0.0
 10
15.0259607499
 20
20.4176157003
 30
0.0
 10
15.0232134191
 20
20.4195763832
 30
0.0
 10
15.021594679
 20
20.4205900196
 30
0.0
 10
15.0208977003
 20
20.4209388496
 30
0.0
 11
15.0330324455
 21
20.4120028515
 31
0.0
 11
15.0291712665
 21
20.4151153285
 31
0.0
 11
15.0256678602
 21
20.4178019062
 31
0.0
 11
15.022908072
 21
20.4197448813
 31
0.0
 11
15.0208977003
 21
20.4209388496
 31
0.0
  0
SPLINE
  5
54A
100
AcDbEntity
  8
0
100
AcDbSpline
 62
7
  6
CONTINUOUS
 70
0
 71
3
 72
9
 73
5
 74
3
 42
0.0000001
 43
0.0000001
 44
0.0000000001
 12
-0.0012768489
 22
0.0005759978
 32
0.0
 13
-0.0009904839
 23
-0.0009904839
 33
0.0
 40
0.0
 40
0.0
 40
0.0
 40
0.0
 40
0.6496205758
 40
1.0
 40
1.0
 40
1.0
 40
1.0
 10
15.0205936909
 20
20.4210838527
 30
0.0
 10
15.0203172018
 20
20.4212085794
 30
0.0
 10
15.0199099068
 20
20.4213952256
 30
0.0
 10
15.0193641993
 20
20.4213877638
 30
0.0
 10
15.0192485176
 20
20.4212720821
 30
0.0
 11
15.0205936909
 21
20.4210838527
 31
0.0
 11
15.0197296164
 21
20.4213691629
 31
0.0
 11
15.0192485176
 21
20.4212720821
 31
0.0
  0
LINE
  5
54B
100
AcDbEntity
  8
0
100
AcDbLine
 62
7
  6
CONTINUOUS
 10
15.5581903717
 20
19.8285359707
 11
15.5550676946
 21
19.8310633845
  0
SPLINE
  5
54C
100
AcDbEntity
  8
0
100
AcDbSpline
 62
7
  6
CONTINUOUS
 70
0
 71
3
 72
9
 73
5
 74
3
 42
0.0000001
 43
0.0000001
 44
0.0000000001
 12
-0.0283931913
 22
0.0243566844
 32
0.0
 13
-0.027762982
 23
0.0250726587
 33
0.0
 40
0.0
 40
0.0
 40
0.0
 40
0.0
 40
0.2123502273
 40
1.0
 40
1.0
 40
1.0
 40
1.0
 10
15.5466578113
 20
19.8381409638
 30
0.0
 10
15.5446480444
 20
19.8398650129
 30
0.0
 10
15.5352269888
 20
19.8480344255
 30
0.0
 10
15.5259351511
 20
19.8563515777
 30
0.0
 10
15.5186459823
 20
19.8629344023
 30
0.0
 11
15.5466578113
 21
19.8381409638
 31
0.0
 11
15.5406527446
 21
19.8433412281
 31
0.0
 11
15.5186459823
 21
19.8629344023
 31
0.0
  0
SPLINE
  5
54D
100
AcDbEntity
  8
0
100
AcDbSpline
 62
7
  6
CONTINUOUS
 70
0
 71
3
 72
11
 73
7
 74
5
 42
0.0000001
 43
0.0000001
 44
0.0000000001
 12
-0.2551554484
 22
0.2304300548
 32
0.0
 13
-0.2497093427
 23
0.2363208776
 33
0.0
 40
0.0
 40
0.0
 40
0.0
 40
0.0
 40
0.1900669095
 40
0.430498524
 40
0.7062234664
 40
1.0
 40
1.0
 40
1.0
 40
1.0
 10
15.5186459823
 20
19.8629344023
 30
0.0
 10
15.5024804464
 20
19.8775334451
 30
0.0
 10
15.4662024955
 20
19.9109717908
 30
0.0
 10
15.4071038291
 20
19.9662684927
 30
0.0
 10
15.3395827387
 20
20.0299589844
 30
0.0
 10
15.292180173
 20
20.0748213743
 30
0.0
 10
15.267727258
 20
20.097963217
 30
0.0
 11
15.5186459823
 21
19.8629344023
 31
0.0
 11
15.4704959652
 21
19.9071122843
 31
0.0
 11
15.4100927061
 21
19.963542862
 31
0.0
 11
15.3411051283
 21
20.0285579031
 31
0.0
 11
15.267727258
 21
20.097963217
 31
0.0
  0
LINE
  5
54E
100
AcDbEntity
  8
0
100
AcDbLine
 62
7
  6
CONTINUOUS
 10
15.1478183196
 20
20.2112499614
 11
15.1212861688
 21
20.2361880273
  0
LINE
  5
54F
100
AcDbEntity
  8
0
100
AcDbLine
 62
7
  6
CONTINUOUS
 10
15.1212861688
 20
20.2361880273
 11
15.1039844174
 21
20.2524009812
  0
SPLINE
  5
550
100
AcDbEntity
  8
0
100
AcDbSpline
 62
7
  6
CONTINUOUS
 70
0
 71
3
 72
9
 73
5
 74
3
 42
0.0000001
 43
0.0000001
 44
0.0000000001
 12
-0.0558176712
 22
0.0519065029
 32
0.0
 13
-0.0565516232
 23
0.051105884
 33
0.0
 40
0.0
 40
0.0
 40
0.0
 40
0.0
 40
0.2799266496
 40
1.0
 40
1.0
 40
1.0
 40
1.0
 10
15.0764340636
 20
20.2781061097
 30
0.0
 10
15.071225779
 20
20.2829494475
 30
0.0
 10
15.0525999952
 20
20.3002300729
 30
0.0
 10
15.0338970021
 20
20.3174284618
 30
0.0
 10
15.0203232298
 20
20.3296951235
 30
0.0
 11
15.0764340636
 21
20.2781061097
 31
0.0
 11
15.0607920225
 21
20.2926176187
 31
0.0
 11
15.0203232298
 21
20.3296951235
 31
0.0
  0
SPLINE
  5
551
100
AcDbEntity
  8
0
100
AcDbSpline
 62
7
  6
CONTINUOUS
 70
0
 71
3
 72
9
 73
5
 74
3
 42
0.0000001
 43
0.0000001
 44
0.0000000001
 12
-0.027610722
 22
0.0249395949
 32
0.0
 13
-0.0282237119
 23
0.0242437912
 33
0.0
 40
0.0
 40
0.0
 40
0.0
 40
0.0
 40
0.2744924515
 40
1.0
 40
1.0
 40
1.0
 40
1.0
 10
15.0198437444
 20
20.3301283292
 30
0.0
 10
15.0173174328
 20
20.3324102394
 30
0.0
 10
15.0080978084
 20
20.3407054806
 30
0.0
 10
14.998815679
 20
20.3489328198
 30
0.0
 10
14.9919901737
 20
20.3547958377
 30
0.0
 11
15.0198437444
 21
20.3301283292
 31
0.0
 11
15.0122512887
 21
20.3369590854
 31
0.0
 11
14.9919901737
 21
20.3547958377
 31
0.0
  0
SPLINE
  5
552
100
AcDbEntity
  8
0
100
AcDbSpline
 62
7
  6
CONTINUOUS
 70
0
 71
3
 72
11
 73
7
 74
5
 42
0.0000001
 43
0.0000001
 44
0.0000000001
 12
-0.0120741533
 22
0.0099297854
 32
0.0
 13
-0.0141586728
 23
0.0066270506
 33
0.0
 40
0.0
 40
0.0
 40
0.0
 40
0.0
 40
0.3549496253
 40
0.6399913612
 40
0.8549149867
 40
1.0
 40
1.0
 40
1.0
 40
1.0
 10
14.9834515948
 20
20.3619930396
 30
0.0
 10
14.9820230227
 20
20.3631678974
 30
0.0
 10
14.979431025
 20
20.3652661282
 30
0.0
 10
14.9759007206
 20
20.3679865715
 30
0.0
 10
14.9731577953
 20
20.369926609
 30
0.0
 10
14.9715533831
 20
20.3709127669
 30
0.0
 10
14.9708686461
 20
20.3712332621
 30
0.0
 11
14.9834515948
 21
20.3619930396
 31
0.0
 11
14.9791322695
 21
20.3654763443
 31
0.0
 11
14.9755912101
 21
20.3681813305
 31
0.0
 11
14.9728346059
 21
20.370102227
 31
0.0
 11
14.9708686461
 21
20.3712332621
 31
0.0
  0
SPLINE
  5
553
100
AcDbEntity
  8
0
100
AcDbSpline
 62
7
  6
CONTINUOUS
 70
0
 71
3
 72
9
 73
5
 74
3
 42
0.0000001
 43
0.0000001
 44
0.0000000001
 12
-0.0011101709
 22
0.0004602416
 32
0.0
 13
-0.0008497946
 23
-0.0008497946
 33
0.0
 40
0.0
 40
0.0
 40
0.0
 40
0.0
 40
0.6394512381
 40
1.0
 40
1.0
 40
1.0
 40
1.0
 10
14.9705989265
 20
20.3713526403
 30
0.0
 10
14.9703622932
 20
20.371450741
 30
0.0
 10
14.9700020388
 20
20.371599676
 30
0.0
 10
14.9695419885
 20
20.371565553
 30
0.0
 10
14.9694398577
 20
20.3714634222
 30
0.0
 11
14.9705989265
 21
20.3713526403
 31
0.0
 11
14.9698607566
 21
20.3715663623
 31
0.0
 11
14.9694398577
 21
20.3714634222
 31
0.0
  0
SPLINE
  5
554
100
AcDbEntity
  8
0
100
AcDbSpline
 62
7
  6
CONTINUOUS
 70
0
 71
3
 72
14
 73
10
 74
8
 42
0.0000001
 43
0.0000001
 44
0.0000000001
 12
-0.0123032784
 22
-0.0123032784
 32
0.0
 13
-0.0134317238
 23
0.0110602944
 33
0.0
 40
0.0
 40
0.0
 40
0.0
 40
0.0
 40
0.0278272066
 40
0.0502215108
 40
0.0794039293
 40
0.1591932825
 40
0.2682794991
 40
0.5750957389
 40
1.0
 40
1.0
 40
1.0
 40
1.0
 10
15.519086885
 20
19.7720619301
 30
0.0
 10
15.518972763
 20
19.7719478081
 30
0.0
 10
15.5186272758
 20
19.7719397296
 30
0.0
 10
15.5181974704
 20
19.7720615242
 30
0.0
 10
15.5174836948
 20
19.772349842
 30
0.0
 10
15.5163820767
 20
19.7729684675
 30
0.0
 10
15.5139697831
 20
19.7745378431
 30
0.0
 10
15.5100707881
 20
19.7774709471
 30
0.0
 10
15.50676662
 20
19.7801344717
 30
0.0
 10
15.5048642211
 20
19.7817009937
 30
0.0
 11
15.519086885
 21
19.7720619301
 31
0.0
 11
15.518612511
 21
19.7719649861
 31
0.0
 11
15.5182340136
 21
19.7720575384
 31
0.0
 11
15.5177616485
 21
19.7722437905
 31
0.0
 11
15.5165363332
 21
19.7728964442
 31
0.0
 11
15.5149386011
 21
19.7739210485
 31
0.0
 11
15.5106340296
 21
19.7770785132
 31
0.0
 11
15.5048642211
 21
19.7817009937
 31
0.0
  0
SPLINE
  5
555
100
AcDbEntity
  8
0
100
AcDbSpline
 62
7
  6
CONTINUOUS
 70
0
 71
3
 72
9
 73
5
 74
3
 42
0.0000001
 43
0.0000001
 44
0.0000000001
 12
-0.0279135224
 22
0.0240484295
 32
0.0
 13
-0.0273355404
 23
0.0247034396
 33
0.0
 40
0.0
 40
0.0
 40
0.0
 40
0.0
 40
0.214277071
 40
1.0
 40
1.0
 40
1.0
 40
1.0
 10
15.4955942168
 20
19.7895333645
 30
0.0
 10
15.4936004742
 20
19.7912510402
 30
0.0
 10
15.4843347901
 20
19.7993122441
 30
0.0
 10
15.4751869619
 20
19.8075078692
 30
0.0
 10
15.4680275749
 20
19.8139778888
 30
0.0
 11
15.4955942168
 21
19.7895333645
 31
0.0
 11
15.4896350382
 21
19.7947118744
 31
0.0
 11
15.4680275749
 21
19.8139778888
 31
0.0
  0
SPLINE
  5
556
100
AcDbEntity
  8
0
100
AcDbSpline
 62
7
  6
CONTINUOUS
 70
0
 71
3
 72
26
 73
22
 74
20
 42
0.0000001
 43
0.0000001
 44
0.0000000001
 12
-0.4066597943
 22
0.0
 32
0.0
 13
-0.011547133
 23
0.4064958204
 33
0.0
 40
0.0
 40
0.0
 40
0.0
 40
0.0
 40
0.0018403425
 40
0.0034984882
 40
0.0057145062
 40
0.0118702256
 40
0.0203529521
 40
0.0311664454
 40
0.0443030047
 40
0.0597344675
 40
0.0774180104
 40
0.1193635011
 40
0.1697717448
 40
0.2281596029
 40
0.2939613343
 40
0.3665763212
 40
0.4452754511
 40
0.5292967887
 40
0.6178529613
 40
0.8052482552
 40
1.0
 40
1.0
 40
1.0
 40
1.0
 10
19.9041318103
 20
21.154337365
 30
0.0
 10
19.9038823459
 20
21.154337365
 30
0.0
 10
19.9035382362
 20
21.1548230162
 30
0.0
 10
19.9032497951
 20
21.1554963425
 30
0.0
 10
19.9028259131
 20
21.156811973
 30
0.0
 10
19.9023523623
 20
21.1590353485
 30
0.0
 10
19.9017991367
 20
21.1624478726
 30
0.0
 10
19.9012470574
 20
21.1668076534
 30
0.0
 10
19.9006886175
 20
21.1721177405
 30
0.0
 10
19.9001291187
 20
21.1783621834
 30
0.0
 10
19.8993348143
 20
21.188506096
 30
0.0
 10
19.898367442
 20
21.2033910898
 30
0.0
 10
19.8972546061
 20
21.2237944864
 30
0.0
 10
19.8961375163
 20
21.2474355725
 30
0.0
 10
19.8950165867
 20
21.2740895978
 30
0.0
 10
19.8938942832
 20
21.3034990094
 30
0.0
 10
19.8927702094
 20
21.3353797206
 30
0.0
 10
19.8916452099
 20
21.369422527
 30
0.0
 10
19.8901155987
 20
21.4181940521
 30
0.0
 10
19.8882341311
 20
21.4819717038
 30
0.0
 10
19.8867630948
 20
21.5337520888
 30
0.0
 10
19.8860134867
 20
21.5601406789
 30
0.0
 11
19.9041318103
 21
21.154337365
 31
0.0
 11
19.9035666718
 21
21.1548279882
 31
0.0
 11
19.9032837827
 21
21.1554400795
 31
0.0
 11
19.9030007216
 21
21.1562956352
 31
0.0
 11
19.9024342074
 21
21.1587339728
 31
0.0
 11
19.9018673766
 21
21.1621366676
 31
0.0
 11
19.9013004768
 21
21.166497386
 31
0.0
 11
19.9007337449
 21
21.1718093498
 31
0.0
 11
19.9001672538
 21
21.1780590837
 31
0.0
 11
19.8996009506
 21
21.1852279369
 31
0.0
 11
19.8984686817
 21
21.2022478604
 31
0.0
 11
19.8973365045
 21
21.222715577
 31
0.0
 11
19.8962042332
 21
21.2464325589
 31
0.0
 11
19.8950718623
 21
21.2731675071
 31
0.0
 11
19.8939394167
 21
21.3026753804
 31
0.0
 11
19.8928070244
 21
21.3346591123
 31
0.0
 11
19.8916748353
 21
21.368808449
 31
0.0
 11
19.8905427543
 21
21.4048028855
 31
0.0
 11
19.8882771126
 21
21.4809753304
 31
0.0
 11
19.8860134867
 21
21.5601406789
 31
0.0
  0
SPLINE
  5
557
100
AcDbEntity
  8
0
100
AcDbSpline
 62
7
  6
CONTINUOUS
 70
0
 71
3
 72
12
 73
8
 74
6
 42
0.0000001
 43
0.0000001
 44
0.0000000001
 12
-0.0167770816
 22
0.0
 32
0.0
 13
-0.0016966371
 23
-0.0166910721
 33
0.0
 40
0.0
 40
0.0
 40
0.0
 40
0.0
 40
0.0287340172
 40
0.0805815504
 40
0.2693698761
 40
0.5757772885
 40
1.0
 40
1.0
 40
1.0
 40
1.0
 10
19.9404025634
 20
21.966837365
 30
0.0
 10
19.9402418724
 20
21.966837365
 30
0.0
 10
19.9398565612
 20
21.9664880674
 30
0.0
 10
19.9392869312
 20
21.9651255243
 30
0.0
 10
19.9385823486
 20
21.9621017098
 30
0.0
 10
19.9378256772
 20
21.9570369605
 30
0.0
 10
19.9373683615
 20
21.9529686763
 30
0.0
 10
19.9371284442
 20
21.9506084324
 30
0.0
 11
19.9404025634
 21
21.966837365
 31
0.0
 11
19.9399944073
 21
21.9665808442
 31
0.0
 11
19.9395857517
 21
21.965812964
 31
0.0
 11
19.9387673073
 21
21.9627532178
 31
0.0
 11
19.9379479612
 21
21.9576783121
 31
0.0
 11
19.9371284442
 21
21.9506084324
 31
0.0
  0
SPLINE
  5
558
100
AcDbEntity
  8
0
100
AcDbSpline
 62
7
  6
CONTINUOUS
 70
0
 71
3
 72
9
 73
5
 74
3
 42
0.0000001
 43
0.0000001
 44
0.0000000001
 12
-0.0048322585
 22
-0.0475384948
 32
0.0
 13
-0.0025185915
 23
-0.04771704
 33
0.0
 40
0.0
 40
0.0
 40
0.0
 40
0.0
 40
0.4219416748
 40
1.0
 40
1.0
 40
1.0
 40
1.0
 10
19.9371284442
 20
21.9506084324
 30
0.0
 10
19.9364488004
 20
21.943922275
 30
0.0
 10
19.9352450831
 20
21.9280364632
 30
0.0
 10
19.9343246621
 20
21.9121355736
 30
0.0
 10
19.9338393645
 20
21.9029411629
 30
0.0
 11
19.9371284442
 21
21.9506084324
 31
0.0
 11
19.93548344
 21
21.9305138185
 31
0.0
 11
19.9338393645
 21
21.9029411629
 31
0.0
  0
SPLINE
  5
559
100
AcDbEntity
  8
0
100
AcDbSpline
 62
7
  6
CONTINUOUS
 70
0
 71
3
 72
14
 73
10
 74
8
 42
0.0000001
 43
0.0000001
 44
0.0000000001
 12
-0.0175386855
 22
0.0
 32
0.0
 13
-0.0017336699
 23
0.0174527899
 33
0.0
 40
0.0
 40
0.0
 40
0.0
 40
0.0
 40
0.0282902795
 40
0.0508093321
 40
0.0800702781
 40
0.1599213955
 40
0.268980905
 40
0.5755487621
 40
1.0
 40
1.0
 40
1.0
 40
1.0
 10
19.9766568862
 20
21.154337365
 30
0.0
 10
19.9764914947
 20
21.154337365
 30
0.0
 10
19.9762335629
 20
21.1545750132
 30
0.0
 10
19.9760072808
 20
21.1549697393
 30
0.0
 10
19.97569691
 20
21.1556822507
 30
0.0
 10
19.9753438848
 20
21.1569070176
 30
0.0
 10
19.9747285643
 20
21.1597404535
 30
0.0
 10
19.9740230129
 20
21.1646037373
 30
0.0
 10
19.9735551911
 20
21.1688518885
 30
0.0
 10
19.973309905
 20
21.1713211746
 30
0.0
 11
19.9766568862
 21
21.154337365
 31
0.0
 11
19.9762397137
 21
21.1546059839
 31
0.0
 11
19.9760309186
 21
21.1549412356
 31
0.0
 11
19.9758220007
 21
21.1554099851
 31
0.0
 11
19.9754038461
 21
21.1567465856
 31
0.0
 11
19.9749853485
 21
21.1586130026
 31
0.0
 11
19.9741477198
 21
21.1639241537
 31
0.0
 11
19.973309905
 21
21.1713211746
 31
0.0
  0
SPLINE
  5
55A
100
AcDbEntity
  8
0
100
AcDbSpline
 62
7
  6
CONTINUOUS
 70
0
 71
3
 72
21
 73
17
 74
15
 42
0.0000001
 43
0.0000001
 44
0.0000000001
 12
-0.077053554
 22
0.7756952601
 32
0.0
 13
-0.0778990877
 23
0.7756108038
 33
0.0
 40
0.0
 40
0.0
 40
0.0
 40
0.0
 40
0.0303047455
 40
0.0725920736
 40
0.1258205687
 40
0.1886090105
 40
0.2593653925
 40
0.3362732595
 40
0.5005734343
 40
0.6647973573
 40
0.7416100207
 40
0.8122317663
 40
0.874850597
 40
0.9278755322
 40
0.9699376673
 40
1.0
 40
1.0
 40
1.0
 40
1.0
 10
19.973309905
 20
21.1713211746
 30
0.0
 10
19.9725315422
 20
21.1791569238
 30
0.0
 10
19.9711802255
 20
21.1979751224
 30
0.0
 10
19.9694045364
 20
21.2306190915
 30
0.0
 10
19.9676150121
 20
21.2717146304
 30
0.0
 10
19.9658046151
 20
21.32021155
 30
0.0
 10
19.9639883505
 20
21.3748650779
 30
0.0
 10
19.9615045773
 20
21.455887143
 30
0.0
 10
19.9585170834
 20
21.561191309
 30
0.0
 10
19.9555286225
 20
21.6664707038
 30
0.0
 10
19.9530435779
 20
21.7474131581
 30
0.0
 10
19.9512267431
 20
21.8019628222
 30
0.0
 10
19.9494158995
 20
21.8503276784
 30
0.0
 10
19.9476259227
 20
21.8912676079
 30
0.0
 10
19.945849937
 20
21.9237368566
 30
0.0
 10
19.944497817
 20
21.9424333245
 30
0.0
 10
19.9437172075
 20
21.9502055478
 30
0.0
 11
19.973309905
 21
21.1713211746
 31
0.0
 11
19.9714602439
 21
21.1948715902
 31
0.0
 11
19.9696115282
 21
21.2277832265
 31
0.0
 11
19.9677624312
 21
21.2692343031
 31
0.0
 11
19.9659132218
 21
21.3181437587
 31
0.0
 11
19.9640641065
 21
21.3732682674
 31
0.0
 11
19.9622149129
 21
21.4331904169
 31
0.0
 11
19.9585161833
 21
21.5612111053
 31
0.0
 11
19.9548169311
 21
21.6891723145
 31
0.0
 11
19.9529671697
 21
21.7490201986
 31
0.0
 11
19.9511173794
 21
21.8040396746
 31
0.0
 11
19.9492674202
 21
21.8528167931
 31
0.0
 11
19.947417493
 21
21.8941089966
 31
0.0
 11
19.9455678867
 21
21.9268447635
 31
0.0
 11
19.9437172075
 21
21.9502055478
 31
0.0
  0
SPLINE
  5
55B
100
AcDbEntity
  8
0
100
AcDbSpline
 62
7
  6
CONTINUOUS
 70
0
 71
3
 72
14
 73
10
 74
8
 42
0.0000001
 43
0.0000001
 44
0.0000000001
 12
-0.0017174736
 22
0.0171002143
 32
0.0
 13
-0.0171862458
 23
0.0
 33
0.0
 40
0.0
 40
0.0
 40
0.0
 40
0.0
 40
0.4242564891
 40
0.7307093828
 40
0.839753492
 40
0.9196294641
 40
0.9489248967
 40
0.9714998891
 40
1.0
 40
1.0
 40
1.0
 40
1.0
 10
19.9437172075
 20
21.9502055478
 30
0.0
 10
19.9434743244
 20
21.9526238401
 30
0.0
 10
19.9430110847
 20
21.9567842771
 30
0.0
 10
19.9423122762
 20
21.9615470226
 30
0.0
 10
19.9417029665
 20
21.9643214436
 30
0.0
 10
19.9413531794
 20
21.9655209348
 30
0.0
 10
19.9410459127
 20
21.9662183192
 30
0.0
 10
19.9408211773
 20
21.9666057616
 30
0.0
 10
19.9405658334
 20
21.966837365
 30
0.0
 10
19.9404025634
 20
21.966837365
 30
0.0
 11
19.9437172075
 21
21.9502055478
 31
0.0
 11
19.94288758
 21
21.957449572
 31
0.0
 11
19.9420580776
 21
21.9626506145
 31
0.0
 11
19.9416436167
 21
21.9644782684
 31
0.0
 11
19.9412294792
 21
21.9657870779
 31
0.0
 11
19.9410225621
 21
21.9662460723
 31
0.0
 11
19.9408157623
 21
21.9665743433
 31
0.0
 11
19.9404025634
 21
21.966837365
 31
0.0
  0
SPLINE
  5
55C
100
AcDbEntity
  8
0
100
AcDbSpline
 62
7
  6
CONTINUOUS
 70
0
 71
3
 72
14
 73
10
 74
8
 42
0.0000001
 43
0.0000001
 44
0.0000000001
 12
-0.0172285992
 22
0.0
 32
0.0
 13
-0.0017162768
 23
-0.0171429001
 33
0.0
 40
0.0
 40
0.0
 40
0.0
 40
0.0
 40
0.0284425267
 40
0.0510021412
 40
0.0802881066
 40
0.1601573212
 40
0.2692057746
 40
0.5756903839
 40
1.0
 40
1.0
 40
1.0
 40
1.0
 10
20.0128665086
 20
21.966837365
 30
0.0
 10
20.012703167
 20
21.966837365
 30
0.0
 10
20.0124479055
 20
21.9666048415
 30
0.0
 10
20.0122234461
 20
21.966216618
 30
0.0
 10
20.0119162904
 20
21.9655172885
 30
0.0
 10
20.0115667165
 20
21.9643146516
 30
0.0
 10
20.0109576895
 20
21.9615328107
 30
0.0
 10
20.0102592761
 20
21.9567575428
 30
0.0
 10
20.0097962901
 20
21.9525861996
 30
0.0
 10
20.0095535459
 20
21.9501615672
 30
0.0
 11
20.0128665086
 21
21.966837365
 31
0.0
 11
20.0124535042
 21
21.9665736384
 31
0.0
 11
20.0122468027
 21
21.9662444891
 31
0.0
 11
20.0120399845
 21
21.9657842683
 31
0.0
 11
20.0116260478
 21
21.9644719696
 31
0.0
 11
20.0112117922
 21
21.9626394572
 31
0.0
 11
20.0103827174
 21
21.9574246506
 31
0.0
 11
20.0095535459
 21
21.9501615672
 31
0.0
  0
SPLINE
  5
55D
100
AcDbEntity
  8
0
100
AcDbSpline
 62
7
  6
CONTINUOUS
 70
0
 71
3
 72
9
 73
5
 74
3
 42
0.0000001
 43
0.0000001
 44
0.0000000001
 12
-0.0047004073
 22
-0.0469496588
 32
0.0
 13
-0.0024844711
 23
-0.0471189101
 33
0.0
 40
0.0
 40
0.0
 40
0.0
 40
0.0
 40
0.4235270117
 40
1.0
 40
1.0
 40
1.0
 40
1.0
 10
20.0095535459
 20
21.9501615672
 30
0.0
 10
20.0088899627
 20
21.9435334176
 30
0.0
 10
20.0077081747
 20
21.927846509
 30
0.0
 10
20.0068015053
 20
21.9121447872
 30
0.0
 10
20.0063240951
 20
21.9030905275
 30
0.0
 11
20.0095535459
 21
21.9501615672
 31
0.0
 11
20.0079382739
 21
21.9302431014
 31
0.0
 11
20.0063240951
 21
21.9030905275
 31
0.0
  0
SPLINE
  5
55E
100
AcDbEntity
  8
0
100
AcDbSpline
 62
7
  6
CONTINUOUS
 70
0
 71
3
 72
14
 73
10
 74
8
 42
0.0000001
 43
0.0000001
 44
0.0000000001
 12
-0.0174492439
 22
0.0
 32
0.0
 13
-0.0017361468
 23
0.0173626584
 33
0.0
 40
0.0
 40
0.0
 40
0.0
 40
0.0
 40
0.0284299988
 40
0.0509866518
 40
0.0802711975
 40
0.1601407079
 40
0.2691919815
 40
0.5756849206
 40
1.0
 40
1.0
 40
1.0
 40
1.0
 10
20.0491497056
 20
21.154337365
 30
0.0
 10
20.0489843449
 20
21.154337365
 30
0.0
 10
20.0487259763
 20
21.1545729625
 30
0.0
 10
20.0484988485
 20
21.1549661374
 30
0.0
 10
20.0481879863
 20
21.1556745075
 30
0.0
 10
20.0478342388
 20
21.1568926326
 30
0.0
 10
20.0472179601
 20
21.1597102928
 30
0.0
 10
20.0465113358
 20
21.164546912
 30
0.0
 10
20.0460429549
 20
21.1687718189
 30
0.0
 10
20.0457973971
 20
21.1712275648
 30
0.0
 11
20.0491497056
 21
21.154337365
 31
0.0
 11
20.0487316897
 21
21.154604498
 31
0.0
 11
20.0485224913
 21
21.1549378961
 31
0.0
 11
20.0483131826
 21
21.1554040547
 31
0.0
 11
20.0478942839
 21
21.1567332723
 31
0.0
 11
20.0474750931
 21
21.1585893875
 31
0.0
 11
20.0466362327
 21
21.163871259
 31
0.0
 11
20.0457973971
 21
21.1712275648
 31
0.0
  0
SPLINE
  5
55F
100
AcDbEntity
  8
0
100
AcDbSpline
 62
7
  6
CONTINUOUS
 70
0
 71
3
 72
16
 73
12
 74
10
 42
0.0000001
 43
0.0000001
 44
0.0000000001
 12
-0.0552446709
 22
0.552484581
 32
0.0
 13
-0.0172592204
 23
0.5549714454
 33
0.0
 40
0.0
 40
0.0
 40
0.0
 40
0.0
 40
0.0262229946
 40
0.0600347154
 40
0.1488814653
 40
0.2625857115
 40
0.3960606476
 40
0.5432974016
 40
0.6976630467
 40
0.8522134713
 40
1.0
 40
1.0
 40
1.0
 40
1.0
 10
20.0457973971
 20
21.1712275648
 30
0.0
 10
20.0453145035
 20
21.1760568316
 30
0.0
 10
20.0444162468
 20
21.1871331972
 30
0.0
 10
20.0426552815
 20
21.2146321491
 30
0.0
 10
20.0405935608
 20
21.2583319628
 30
0.0
 10
20.0382247794
 20
21.3204783289
 30
0.0
 10
20.0358424973
 20
21.393438324
 30
0.0
 10
20.0334457044
 20
21.473926699
 30
0.0
 10
20.0310460016
 20
21.5583173412
 30
0.0
 10
20.0286466072
 20
21.6428097455
 30
0.0
 10
20.0269897986
 20
21.6987417627
 30
0.0
 10
20.0261395718
 20
21.7260808638
 30
0.0
 11
20.0457973971
 21
21.1712275648
 31
0.0
 11
20.0445656924
 21
21.1857354225
 31
0.0
 11
20.0433351766
 21
21.2044686636
 31
0.0
 11
20.0408755964
 21
21.2537385577
 31
0.0
 11
20.0384169461
 21
21.3168237826
 31
0.0
 11
20.0359593279
 21
21.3908936131
 31
0.0
 11
20.033502813
 21
21.4726083968
 31
0.0
 11
20.0310475143
 21
21.5582831646
 31
0.0
 11
20.0285931951
 21
21.6440605995
 31
0.0
 11
20.0261395718
 21
21.7260808638
 31
0.0
  0
SPLINE
  5
560
100
AcDbEntity
  8
0
100
AcDbSpline
 62
7
  6
CONTINUOUS
 70
0
 71
3
 72
11
 73
7
 74
5
 42
0.0000001
 43
0.0000001
 44
0.0000000001
 12
-0.0047061642
 22
0.1261323205
 32
0.0
 13
-0.0126004439
 23
0.1255895659
 33
0.0
 40
0.0
 40
0.0
 40
0.0
 40
0.0
 40
0.3309406569
 40
0.61164218
 40
0.8361309236
 40
1.0
 40
1.0
 40
1.0
 40
1.0
 10
20.0228343449
 20
21.8241938297
 30
0.0
 10
20.0223151912
 20
21.838107934
 30
0.0
 10
20.0213015679
 20
21.8638218121
 30
0.0
 10
20.0196849813
 20
21.8989643487
 30
0.0
 10
20.0180804555
 20
21.9270678358
 30
0.0
 10
20.0168618988
 20
21.9433653652
 30
0.0
 10
20.0161736244
 20
21.9502254473
 30
0.0
 11
20.0228343449
 21
21.8241938297
 31
0.0
 11
20.0211688544
 21
21.8659319719
 31
0.0
 11
20.0195038099
 21
21.9013229964
 31
0.0
 11
20.0178391129
 21
21.9296090418
 31
0.0
 11
20.0161736244
 21
21.9502254473
 31
0.0
  0
SPLINE
  5
561
100
AcDbEntity
  8
0
100
AcDbSpline
 62
7
  6
CONTINUOUS
 70
0
 71
3
 72
12
 73
8
 74
6
 42
0.0000001
 43
0.0000001
 44
0.0000000001
 12
-0.0017130471
 22
0.0170740686
 32
0.0
 13
-0.0171597887
 23
0.0
 33
0.0
 40
0.0
 40
0.0
 40
0.0
 40
0.0
 40
0.4244442023
 40
0.7309891775
 40
0.9197741562
 40
0.9715168027
 40
1.0
 40
1.0
 40
1.0
 40
1.0
 10
20.0161736244
 20
21.9502254473
 30
0.0
 10
20.0159312601
 20
21.9526411104
 30
0.0
 10
20.0154690617
 20
21.9568051422
 30
0.0
 10
20.0147055681
 20
21.9619881128
 30
0.0
 10
20.0139928119
 20
21.9650843065
 30
0.0
 10
20.0134193685
 20
21.9664773435
 30
0.0
 10
20.0130294305
 20
21.966837365
 30
0.0
 10
20.0128665086
 20
21.966837365
 30
0.0
 11
20.0161736244
 21
21.9502254473
 31
0.0
 11
20.0153457679
 21
21.9574616185
 31
0.0
 11
20.0145181276
 21
21.9626563475
 31
0.0
 11
20.0136914568
 21
21.9657886059
 31
0.0
 11
20.0132787203
 21
21.9665747372
 31
0.0
 11
20.0128665086
 21
21.966837365
 31
0.0
  0
SPLINE
  5
562
100
AcDbEntity
  8
0
100
AcDbSpline
 62
7
  6
CONTINUOUS
 70
0
 71
3
 72
12
 73
8
 74
6
 42
0.0000001
 43
0.0000001
 44
0.0000000001
 12
-0.0167790848
 22
0.0
 32
0.0
 13
-0.0016925705
 23
-0.0166934985
 33
0.0
 40
0.0
 40
0.0
 40
0.0
 40
0.0
 40
0.0286477992
 40
0.0804587734
 40
0.2692422529
 40
0.575694727
 40
1.0
 40
1.0
 40
1.0
 40
1.0
 10
20.0855143705
 20
21.966837365
 30
0.0
 10
20.0853541426
 20
21.966837365
 30
0.0
 10
20.0849701672
 20
21.9664871441
 30
0.0
 10
20.08440331
 20
21.9651247542
 30
0.0
 10
20.0837007677
 20
21.9620995971
 30
0.0
 10
20.0829465448
 20
21.9570334781
 30
0.0
 10
20.0824902595
 20
21.9529637814
 30
0.0
 10
20.0822508707
 20
21.9506027349
 30
0.0
 11
20.0855143705
 21
21.966837365
 31
0.0
 11
20.0851079128
 21
21.9665807543
 31
0.0
 11
20.0847008508
 21
21.9658126047
 31
0.0
 11
20.0838852769
 21
21.9627517849
 31
0.0
 11
20.0830683749
 21
21.9576750977
 31
0.0
 11
20.0822508707
 21
21.9506027349
 31
0.0
  0
SPLINE
  5
563
100
AcDbEntity
  8
0
100
AcDbSpline
 62
7
  6
CONTINUOUS
 70
0
 71
3
 72
9
 73
5
 74
3
 42
0.0000001
 43
0.0000001
 44
0.0000000001
 12
-0.004818539
 22
-0.0475243256
 32
0.0
 13
-0.002516862
 23
-0.0477016273
 33
0.0
 40
0.0
 40
0.0
 40
0.0
 40
0.0
 40
0.4219671774
 40
1.0
 40
1.0
 40
1.0
 40
1.0
 10
20.0822508707
 20
21.9506027349
 30
0.0
 10
20.0815731156
 20
21.9439181664
 30
0.0
 10
20.0803717662
 20
21.9280373874
 30
0.0
 10
20.0794523106
 20
21.9121416073
 30
0.0
 10
20.0789673677
 20
21.9029505719
 30
0.0
 11
20.0822508707
 21
21.9506027349
 31
0.0
 11
20.0806094485
 21
21.9305131604
 31
0.0
 11
20.0789673677
 21
21.9029505719
 31
0.0
  0
SPLINE
  5
564
100
AcDbEntity
  8
0
100
AcDbSpline
 62
7
  6
CONTINUOUS
 70
0
 71
3
 72
14
 73
10
 74
8
 42
0.0000001
 43
0.0000001
 44
0.0000000001
 12
-0.0186032775
 22
0.0
 32
0.0
 13
-0.001787313
 23
0.0185172203
 33
0.0
 40
0.0
 40
0.0
 40
0.0
 40
0.0
 40
0.0277678311
 40
0.0501547054
 40
0.079339355
 40
0.1591509421
 40
0.2682696384
 40
0.5751351379
 40
1.0
 40
1.0
 40
1.0
 40
1.0
 10
20.1216638891
 20
21.154337365
 30
0.0
 10
20.1214916982
 20
21.154337365
 30
0.0
 10
20.121225295
 20
21.1545931294
 30
0.0
 10
20.1209934565
 20
21.1550100916
 30
0.0
 10
20.120672853
 20
21.1557683386
 30
0.0
 10
20.1203089836
 20
21.1570695377
 30
0.0
 10
20.1196738592
 20
21.1600809416
 30
0.0
 10
20.1189460845
 20
21.1652467567
 30
0.0
 10
20.1184632621
 20
21.1697587451
 30
0.0
 10
20.1182101399
 20
21.1723811839
 30
0.0
 11
20.1216638891
 21
21.154337365
 31
0.0
 11
20.1212334486
 21
21.1546229667
 31
0.0
 11
20.1210180034
 21
21.1549793793
 31
0.0
 11
20.1208024263
 21
21.1554776761
 31
0.0
 11
20.1203709306
 21
21.1568983503
 31
0.0
 11
20.1199390698
 21
21.1588818461
 31
0.0
 11
20.1190746856
 21
21.1645247303
 31
0.0
 11
20.1182101399
 21
21.1723811839
 31
0.0
  0
SPLINE
  5
565
100
AcDbEntity
  8
0
100
AcDbSpline
 62
7
  6
CONTINUOUS
 70
0
 71
3
 72
16
 73
12
 74
10
 42
0.0000001
 43
0.0000001
 44
0.0000000001
 12
-0.0568257677
 22
0.5887358739
 32
0.0
 13
-0.0193829341
 23
0.5911542937
 33
0.0
 40
0.0
 40
0.0
 40
0.0
 40
0.0
 40
0.0268832007
 40
0.0616424359
 40
0.1530302185
 40
0.2696128994
 40
0.4055830974
 40
0.554142469
 40
0.7077955094
 40
0.8590210796
 40
1.0
 40
1.0
 40
1.0
 40
1.0
 10
20.1182101399
 20
21.1723811839
 30
0.0
 10
20.1177009204
 20
21.1776568854
 30
0.0
 10
20.1167560752
 20
21.1897749404
 30
0.0
 10
20.1149043302
 20
21.2198893788
 30
0.0
 10
20.1127386665
 20
21.2676987472
 30
0.0
 10
20.1102473776
 20
21.3354631901
 30
0.0
 10
20.1077415081
 20
21.4145060875
 30
0.0
 10
20.1052199774
 20
21.5008601503
 30
0.0
 10
20.1026953413
 20
21.5902231374
 30
0.0
 10
20.1001718398
 20
21.6780909759
 30
0.0
 10
20.0984073586
 20
21.735674318
 30
0.0
 10
20.0974964968
 20
21.7634544161
 30
0.0
 11
20.1182101399
 21
21.1723811839
 31
0.0
 11
20.1169146354
 21
21.1882289803
 31
0.0
 11
20.1156200069
 21
21.2087472912
 31
0.0
 11
20.1130308741
 21
21.2627385586
 31
0.0
 11
20.1104414133
 21
21.3316453094
 31
0.0
 11
20.107852176
 21
21.4120261793
 31
0.0
 11
20.1052629274
 21
21.499856727
 31
0.0
 11
20.1026746923
 21
21.5907013312
 31
0.0
 11
20.1000842116
 21
21.6801094979
 31
0.0
 11
20.0974964968
 21
21.7634544161
 31
0.0
  0
SPLINE
  5
566
100
AcDbEntity
  8
0
100
AcDbSpline
 62
7
  6
CONTINUOUS
 70
0
 71
3
 72
14
 73
10
 74
8
 42
0.0000001
 43
0.0000001
 44
0.0000000001
 12
-0.0173290408
 22
0.0
 32
0.0
 13
-0.0017246243
 23
-0.017243008
 33
0.0
 40
0.0
 40
0.0
 40
0.0
 40
0.0
 40
0.0284215414
 40
0.0509766637
 40
0.0802607646
 40
0.160131373
 40
0.269185093
 40
0.5756834085
 40
1.0
 40
1.0
 40
1.0
 40
1.0
 10
20.1579342421
 20
21.966837365
 30
0.0
 10
20.1577700694
 20
21.966837365
 30
0.0
 10
20.1575135904
 20
21.9666033254
 30
0.0
 10
20.1572881352
 20
21.9662128857
 30
0.0
 10
20.1569795079
 20
21.9655093522
 30
0.0
 10
20.156628284
 20
21.9642995843
 30
0.0
 10
20.1560163387
 20
21.9615012586
 30
0.0
 10
20.1553145703
 20
21.9566979127
 30
0.0
 10
20.1548493273
 20
21.9525020783
 30
0.0
 10
20.1546053984
 20
21.9500632468
 30
0.0
 11
20.1579342421
 21
21.966837365
 31
0.0
 11
20.1575192891
 21
21.9665720577
 31
0.0
 11
20.1573116083
 21
21.9662409396
 31
0.0
 11
20.1571038079
 21
21.9657779708
 31
0.0
 11
20.1566878981
 21
21.9644578574
 31
0.0
 11
20.156271659
 21
21.9626144705
 31
0.0
 11
20.1554385907
 21
21.957368888
 31
0.0
 11
20.1546053984
 21
21.9500632468
 31
0.0
  0
SPLINE
  5
567
100
AcDbEntity
  8
0
100
AcDbSpline
 62
7
  6
CONTINUOUS
 70
0
 71
3
 72
9
 73
5
 74
3
 42
0.0000001
 43
0.0000001
 44
0.0000000001
 12
-0.0046810749
 22
-0.0468019676
 32
0.0
 13
-0.0024825116
 23
-0.0469699241
 33
0.0
 40
0.0
 40
0.0
 40
0.0
 40
0.0
 40
0.4238899399
 40
1.0
 40
1.0
 40
1.0
 40
1.0
 10
20.1546053984
 20
21.9500632468
 30
0.0
 10
20.1539439782
 20
21.9434502857
 30
0.0
 10
20.1527645079
 20
21.9278130202
 30
0.0
 10
20.1518588532
 20
21.9121609362
 30
0.0
 10
20.1513821199
 20
21.9031409876
 30
0.0
 11
20.1546053984
 21
21.9500632468
 31
0.0
 11
20.1529932469
 21
21.930190664
 31
0.0
 11
20.1513821199
 21
21.9031409876
 31
0.0
  0
SPLINE
  5
568
100
AcDbEntity
  8
0
100
AcDbSpline
 62
7
  6
CONTINUOUS
 70
0
 71
3
 72
14
 73
10
 74
8
 42
0.0000001
 43
0.0000001
 44
0.0000000001
 12
-0.0174748916
 22
0.0
 32
0.0
 13
-0.0017301114
 23
0.0173890353
 33
0.0
 40
0.0
 40
0.0
 40
0.0
 40
0.0
 40
0.0283197207
 40
0.0508462525
 40
0.0801115056
 40
0.1599648031
 40
0.2690208862
 40
0.575571843
 40
1.0
 40
1.0
 40
1.0
 40
1.0
 10
20.1941825474
 20
21.154337365
 30
0.0
 10
20.1940175861
 20
21.154337365
 30
0.0
 10
20.1937602173
 20
21.1545739553
 30
0.0
 10
20.1935343243
 20
21.154967332
 30
0.0
 10
20.1932246286
 20
21.1556771192
 30
0.0
 10
20.1928723276
 20
21.1568973166
 30
0.0
 10
20.1922583171
 20
21.1597201259
 30
0.0
 10
20.1915542389
 20
21.1645653292
 30
0.0
 10
20.1910874067
 20
21.1687977114
 30
0.0
 10
20.1908426374
 20
21.1712578434
 30
0.0
 11
20.1941825474
 21
21.154337365
 31
0.0
 11
20.1937662569
 21
21.15460497
 31
0.0
 11
20.1935579035
 21
21.1549389582
 31
0.0
 11
20.1933494276
 21
21.1554059433
 31
0.0
 11
20.1929321579
 21
21.156737523
 31
0.0
 11
20.1925145457
 21
21.1585969469
 31
0.0
 11
20.1916786872
 21
21.1638882792
 31
0.0
 11
20.1908426374
 21
21.1712578434
 31
0.0
  0
SPLINE
  5
569
100
AcDbEntity
  8
0
100
AcDbSpline
 62
7
  6
CONTINUOUS
 70
0
 71
3
 72
21
 73
17
 74
15
 42
0.0000001
 43
0.0000001
 44
0.0000000001
 12
-0.077186914
 22
0.7757916541
 32
0.0
 13
-0.0779999303
 23
0.7757103332
 33
0.0
 40
0.0
 40
0.0
 40
0.0
 40
0.0
 40
0.0302701388
 40
0.072528057
 40
0.1257298063
 40
0.1885075532
 40
0.2592656851
 40
0.3361861489
 40
0.5005244071
 40
0.6647847392
 40
0.7416123478
 40
0.8122492052
 40
0.8748755344
 40
0.9279009759
 40
0.969954465
 40
1.0
 40
1.0
 40
1.0
 40
1.0
 10
20.1908426374
 20
21.1712578434
 30
0.0
 10
20.1900638179
 20
21.1790856171
 30
0.0
 10
20.1887124003
 20
21.1978898019
 30
0.0
 10
20.1869367696
 20
21.2305147257
 30
0.0
 10
20.1851472655
 20
21.271598646
 30
0.0
 10
20.1833369362
 20
21.3200930828
 30
0.0
 10
20.1815201757
 20
21.374755203
 30
0.0
 10
20.1790357897
 20
21.455802233
 30
0.0
 10
20.1760477916
 20
21.5611437781
 30
0.0
 10
20.1730588965
 20
21.6664611614
 30
0.0
 10
20.1705731969
 20
21.7474322171
 30
0.0
 10
20.1687559577
 20
21.8019992779
 30
0.0
 10
20.1669445925
 20
21.8503769038
 30
0.0
 10
20.1651543504
 20
21.8913224025
 30
0.0
 10
20.1633777571
 20
21.9237896774
 30
0.0
 10
20.1620252707
 20
21.9424821411
 30
0.0
 10
20.1612440875
 20
21.9502510184
 30
0.0
 11
20.1908426374
 21
21.1712578434
 31
0.0
 11
20.1889927515
 21
21.1947844949
 31
0.0
 11
20.1871439581
 21
21.2276777834
 31
0.0
 11
20.1852949608
 21
21.2691138058
 31
0.0
 11
20.1834456457
 21
21.3180217695
 31
0.0
 11
20.1815960914
 21
21.3731553535
 31
0.0
 11
20.1797464084
 21
21.433095709
 31
0.0
 11
20.1760468969
 21
21.5611640127
 31
0.0
 11
20.1723469729
 21
21.6891715262
 31
0.0
 11
20.1704967834
 21
21.7490394397
 31
0.0
 11
20.1686464692
 21
21.8040783965
 31
0.0
 11
20.166796016
 21
21.8528681839
 31
0.0
 11
20.1649456129
 21
21.8941665527
 31
0.0
 11
20.1630954069
 21
21.9269001312
 31
0.0
 11
20.1612440875
 21
21.9502510184
 31
0.0
  0
SPLINE
  5
56A
100
AcDbEntity
  8
0
100
AcDbSpline
 62
7
  6
CONTINUOUS
 70
0
 71
3
 72
12
 73
8
 74
6
 42
0.0000001
 43
0.0000001
 44
0.0000000001
 12
-0.0017144027
 22
0.0170497577
 32
0.0
 13
-0.017135735
 23
0.0
 33
0.0
 40
0.0
 40
0.0
 40
0.0
 40
0.0
 40
0.4243919997
 40
0.7309130862
 40
0.919704992
 40
0.9714694592
 40
1.0
 40
1.0
 40
1.0
 40
1.0
 10
20.1612440875
 20
21.9502510184
 30
0.0
 10
20.1610015612
 20
21.9526629454
 30
0.0
 10
20.1605390772
 20
21.9568205508
 30
0.0
 10
20.1597748444
 20
21.9619957603
 30
0.0
 10
20.1590616815
 20
21.96508706
 30
0.0
 10
20.158487377
 20
21.9664783245
 30
0.0
 10
20.1580972061
 20
21.966837365
 30
0.0
 10
20.1579342421
 20
21.966837365
 30
0.0
 11
20.1612440875
 21
21.9502510184
 31
0.0
 11
20.1604156535
 21
21.9574759469
 31
0.0
 11
20.1595873639
 21
21.9626626911
 31
0.0
 11
20.1587599748
 21
21.9657901857
 31
0.0
 11
20.1583468541
 21
21.9665751313
 31
0.0
 11
20.1579342421
 21
21.966837365
 31
0.0
  0
SPLINE
  5
56B
100
AcDbEntity
  8
0
100
AcDbSpline
 62
7
  6
CONTINUOUS
 70
0
 71
3
 72
12
 73
8
 74
6
 42
0.0000001
 43
0.0000001
 44
0.0000000001
 12
-0.0167514045
 22
0.0
 32
0.0
 13
-0.0016924569
 23
-0.0166656876
 33
0.0
 40
0.0
 40
0.0
 40
0.0
 40
0.0
 40
0.0287212115
 40
0.0805627844
 40
0.269349582
 40
0.5757637963
 40
1.0
 40
1.0
 40
1.0
 40
1.0
 10
20.2303886636
 20
21.966837365
 30
0.0
 10
20.23022829
 20
21.966837365
 30
0.0
 10
20.2298437737
 20
21.9664884724
 30
0.0
 10
20.2292754979
 20
21.9651280362
 30
0.0
 10
20.228572458
 20
21.9621086818
 30
0.0
 10
20.2278175962
 20
21.9570515225
 30
0.0
 10
20.2273613687
 20
21.9529892955
 30
0.0
 10
20.2271220348
 20
21.9506325661
 30
0.0
 11
20.2303886636
 21
21.966837365
 31
0.0
 11
20.2299813924
 21
21.966581226
 31
0.0
 11
20.2295736363
 21
21.9658144882
 31
0.0
 11
20.228757035
 21
21.9627592935
 31
0.0
 11
20.2279395908
 21
21.9576919349
 31
0.0
 11
20.2271220348
 21
21.9506325661
 31
0.0
  0
SPLINE
  5
56C
100
AcDbEntity
  8
0
100
AcDbSpline
 62
7
  6
CONTINUOUS
 70
0
 71
3
 72
9
 73
5
 74
3
 42
0.0000001
 43
0.0000001
 44
0.0000000001
 12
-0.0048337681
 22
-0.0475982976
 32
0.0
 13
-0.0025162985
 23
-0.0477768929
 33
0.0
 40
0.0
 40
0.0
 40
0.0
 40
0.0
 40
0.4218284883
 40
1.0
 40
1.0
 40
1.0
 40
1.0
 10
20.2271220348
 20
21.9506325661
 30
0.0
 10
20.2264423611
 20
21.9439397935
 30
0.0
 10
20.2252391878
 20
21.92803399
 30
0.0
 10
20.2243194881
 20
21.912113147
 30
0.0
 10
20.2238345374
 20
21.9029054008
 30
0.0
 11
20.2271220348
 21
21.9506325661
 31
0.0
 11
20.2254777367
 21
21.9305180753
 31
0.0
 11
20.2238345374
 21
21.9029054008
 31
0.0
  0
SPLINE
  5
56D
100
AcDbEntity
  8
0
100
AcDbSpline
 62
7
  6
CONTINUOUS
 70
0
 71
3
 72
14
 73
10
 74
8
 42
0.0000001
 43
0.0000001
 44
0.0000000001
 12
-0.0175166642
 22
0.0
 32
0.0
 13
-0.0017419806
 23
0.0174298316
 33
0.0
 40
0.0
 40
0.0
 40
0.0
 40
0.0
 40
0.0284158274
 40
0.0509691331
 40
0.0802519575
 40
0.1601212524
 40
0.2691749476
 40
0.5756764298
 40
1.0
 40
1.0
 40
1.0
 40
1.0
 10
20.2667091852
 20
21.154337365
 30
0.0
 10
20.2665432684
 20
21.154337365
 30
0.0
 10
20.2662840833
 20
21.1545739718
 30
0.0
 10
20.2660562853
 20
21.1549686265
 30
0.0
 10
20.2657444326
 20
21.155679804
 30
0.0
 10
20.2653895704
 20
21.1569026976
 30
0.0
 10
20.2647713102
 20
21.1597314014
 30
0.0
 10
20.2640623835
 20
21.1645868737
 30
0.0
 10
20.2635924341
 20
21.1688282337
 30
0.0
 10
20.2633460462
 20
21.1712935298
 30
0.0
 11
20.2667091852
 21
21.154337365
 31
0.0
 11
20.2662898625
 21
21.1546055516
 31
0.0
 11
20.2660800064
 21
21.1549402631
 31
0.0
 11
20.2658700368
 21
21.1554082562
 31
0.0
 11
20.2654498068
 21
21.1567426961
 31
0.0
 11
20.2650292712
 21
21.1586060885
 31
0.0
 11
20.2641876778
 21
21.1639086003
 31
0.0
 11
20.2633460462
 21
21.1712935298
 31
0.0
  0
SPLINE
  5
56E
100
AcDbEntity
  8
0
100
AcDbSpline
 62
7
  6
CONTINUOUS
 70
0
 71
3
 72
19
 73
15
 74
13
 42
0.0000001
 43
0.0000001
 44
0.0000000001
 12
-0.0727003503
 22
0.7274219122
 32
0.0
 13
-0.0381982421
 23
0.7300471722
 33
0.0
 40
0.0
 40
0.0
 40
0.0
 40
0.0
 40
0.0280388918
 40
0.0662471887
 40
0.113897535
 40
0.1700003059
 40
0.2334490798
 40
0.3029403149
 40
0.4543783443
 40
0.6121467403
 40
0.7635447542
 40
0.8963916705
 40
0.9524271905
 40
1.0
 40
1.0
 40
1.0
 40
1.0
 10
20.2633460462
 20
21.1712935298
 30
0.0
 10
20.2626665672
 20
21.1780922312
 30
0.0
 10
20.2614582438
 20
21.1941935185
 30
0.0
 10
20.2598666763
 20
21.2219023681
 30
0.0
 10
20.2582640451
 20
21.2564594736
 30
0.0
 10
20.256645649
 20
21.2971714397
 30
0.0
 10
20.2550235162
 20
21.3432093325
 30
0.0
 10
20.2527906687
 20
21.4124711915
 30
0.0
 10
20.2500922147
 20
21.5047136337
 30
0.0
 10
20.2469312266
 20
21.6169100968
 30
0.0
 10
20.2437785218
 20
21.7245745486
 30
0.0
 10
20.2410572676
 20
21.8074507821
 30
0.0
 10
20.2387768567
 20
21.8650256987
 30
0.0
 10
20.2376090557
 20
21.8902465708
 30
0.0
 10
20.2370033231
 20
21.9018233691
 30
0.0
 11
20.2633460462
 21
21.1712935298
 31
0.0
 11
20.2616943553
 21
21.1917245898
 31
0.0
 11
20.2600442612
 21
21.2196078227
 31
0.0
 11
20.2583946979
 21
21.25440333
 31
0.0
 11
20.2567456747
 21
21.2953838615
 31
0.0
 11
20.2550974436
 21
21.3417385281
 31
0.0
 11
20.2534499597
 21
21.3925130836
 31
0.0
 11
20.250156823
 21
21.5031722309
 31
0.0
 11
20.2468657786
 21
21.6184611925
 31
0.0
 11
20.2435764921
 21
21.7290911882
 31
0.0
 11
20.2402891059
 21
21.8261527156
 31
0.0
 11
20.2386459282
 21
21.8670842788
 31
0.0
 11
20.2370033231
 21
21.9018233691
 31
0.0
  0
SPLINE
  5
56F
100
AcDbEntity
  8
0
100
AcDbSpline
 62
7
  6
CONTINUOUS
 70
0
 71
3
 72
9
 73
5
 74
3
 42
0.0000001
 43
0.0000001
 44
0.0000000001
 12
-0.0025321534
 22
0.0483946728
 32
0.0
 13
-0.0048327949
 23
0.0482192934
 33
0.0
 40
0.0
 40
0.0
 40
0.0
 40
0.0
 40
0.5774986968
 40
1.0
 40
1.0
 40
1.0
 40
1.0
 10
20.2370033231
 20
21.9018233691
 30
0.0
 10
20.2365158847
 20
21.9111393226
 30
0.0
 10
20.2355911353
 20
21.9272661624
 30
0.0
 10
20.2343835698
 20
21.943378028
 30
0.0
 10
20.2337029491
 20
21.9501689328
 30
0.0
 11
20.2370033231
 21
21.9018233691
 31
0.0
 11
20.235353481
 21
21.9297607866
 31
0.0
 11
20.2337029491
 21
21.9501689328
 31
0.0
  0
SPLINE
  5
570
100
AcDbEntity
  8
0
100
AcDbSpline
 62
7
  6
CONTINUOUS
 70
0
 71
3
 72
14
 73
10
 74
8
 42
0.0000001
 43
0.0000001
 44
0.0000000001
 12
-0.0017174485
 22
0.0171358715
 32
0.0
 13
-0.0172217224
 23
0.0
 33
0.0
 40
0.0
 40
0.0
 40
0.0
 40
0.0
 40
0.4242973244
 40
0.7307756832
 40
0.8398237411
 40
0.9196949153
 40
0.9489830714
 40
0.9715460023
 40
1.0
 40
1.0
 40
1.0
 40
1.0
 10
20.2337029491
 20
21.9501689328
 30
0.0
 10
20.2334600462
 20
21.952592501
 30
0.0
 10
20.2329967823
 20
21.9567620192
 30
0.0
 10
20.2322980234
 20
21.9615351876
 30
0.0
 10
20.2316887743
 20
21.9643157851
 30
0.0
 10
20.2313390806
 20
21.9655178987
 30
0.0
 10
20.2310318522
 20
21.9662169019
 30
0.0
 10
20.2308073063
 20
21.9666050014
 30
0.0
 10
20.2305520059
 20
21.966837365
 30
0.0
 10
20.2303886636
 20
21.966837365
 30
0.0
 11
20.2337029491
 21
21.9501689328
 31
0.0
 11
20.2328732914
 21
21.9574288107
 31
0.0
 11
20.2320438361
 21
21.9626413137
 31
0.0
 11
20.2316294289
 21
21.964473016
 31
0.0
 11
20.2312153659
 21
21.9657847343
 31
0.0
 11
20.231008494
 21
21.9662447515
 31
0.0
 11
20.2308017448
 21
21.9665737551
 31
0.0
 11
20.2303886636
 21
21.966837365
 31
0.0
  0
SPLINE
  5
571
100
AcDbEntity
  8
0
100
AcDbSpline
 62
7
  6
CONTINUOUS
 70
0
 71
3
 72
14
 73
10
 74
8
 42
0.0000001
 43
0.0000001
 44
0.0000000001
 12
-0.0172969564
 22
0.0
 32
0.0
 13
-0.0017113477
 23
-0.0172120885
 33
0.0
 40
0.0
 40
0.0
 40
0.0
 40
0.0
 40
0.0282657715
 40
0.050779024
 40
0.0800366806
 40
0.1598860001
 40
0.2689477455
 40
0.5755281873
 40
1.0
 40
1.0
 40
1.0
 40
1.0
 10
20.3030046509
 20
21.966837365
 30
0.0
 10
20.3028416803
 20
21.966837365
 30
0.0
 10
20.3025876109
 20
21.9666028462
 30
0.0
 10
20.3023647392
 20
21.9662136662
 30
0.0
 10
20.3020588997
 20
21.9655109134
 30
0.0
 10
20.3017109644
 20
21.9643030049
 30
0.0
 10
20.3011043203
 20
21.9615084924
 30
0.0
 10
20.3004083626
 20
21.9567120711
 30
0.0
 10
20.2999466514
 20
21.9525223115
 30
0.0
 10
20.2997045117
 20
21.9500869627
 30
0.0
 11
20.3030046509
 21
21.966837365
 31
0.0
 11
20.3025937392
 21
21.966572438
 31
0.0
 11
20.3023880328
 21
21.9662417938
 31
0.0
 11
20.3021821754
 21
21.9657794866
 31
0.0
 11
20.3017700561
 21
21.9644612553
 31
0.0
 11
20.301357478
 21
21.9626204889
 31
0.0
 11
20.3005313323
 21
21.9573823287
 31
0.0
 11
20.2997045117
 21
21.9500869627
 31
0.0
  0
SPLINE
  5
572
100
AcDbEntity
  8
0
100
AcDbSpline
 62
7
  6
CONTINUOUS
 70
0
 71
3
 72
9
 73
5
 74
3
 42
0.0000001
 43
0.0000001
 44
0.0000000001
 12
-0.0046573205
 22
-0.0468415693
 32
0.0
 13
-0.0024738729
 23
-0.0470074802
 33
0.0
 40
0.0
 40
0.0
 40
0.0
 40
0.0
 40
0.4237957818
 40
1.0
 40
1.0
 40
1.0
 40
1.0
 10
20.2997045117
 20
21.9500869627
 30
0.0
 10
20.2990465941
 20
21.9434698762
 30
0.0
 10
20.2978727005
 20
21.9278198511
 30
0.0
 10
20.2969705183
 20
21.9121551955
 30
0.0
 10
20.2964953663
 20
21.9031265594
 30
0.0
 11
20.2997045117
 21
21.9500869627
 31
0.0
 11
20.2981004119
 21
21.9302024193
 31
0.0
 11
20.2964953663
 21
21.9031265594
 31
0.0
  0
SPLINE
  5
573
100
AcDbEntity
  8
0
100
AcDbSpline
 62
7
  6
CONTINUOUS
 70
0
 71
3
 72
14
 73
10
 74
8
 42
0.0000001
 43
0.0000001
 44
0.0000000001
 12
-0.0175837724
 22
0.0
 32
0.0
 13
-0.0017374042
 23
0.0174977278
 33
0.0
 40
0.0
 40
0.0
 40
0.0
 40
0.0
 40
0.0282844207
 40
0.0508009676
 40
0.0800595995
 40
0.1599067261
 40
0.2689635084
 40
0.5755327212
 40
1.0
 40
1.0
 40
1.0
 40
1.0
 10
20.3391962914
 20
21.154337365
 30
0.0
 10
20.3390305092
 20
21.154337365
 30
0.0
 10
20.3387719805
 20
21.1545756324
 30
0.0
 10
20.3385451944
 20
21.1549713394
 30
0.0
 10
20.3382341135
 20
21.1556856669
 30
0.0
 10
20.3378802937
 20
21.1569135564
 30
0.0
 10
20.3372635841
 20
21.1597542872
 30
0.0
 10
20.3365564644
 20
21.1646301928
 30
0.0
 10
20.3360876166
 20
21.1688893872
 30
0.0
 10
20.3358417928
 20
21.1713651248
 30
0.0
 11
20.3391962914
 21
21.154337365
 31
0.0
 11
20.33877816
 21
21.1546066604
 31
0.0
 11
20.3385688881
 21
21.1549427594
 31
0.0
 11
20.3383594951
 21
21.1554126969
 31
0.0
 11
20.3379403946
 21
21.1567527004
 31
0.0
 11
20.3375209568
 21
21.1586238966
 31
0.0
 11
20.3366814612
 21
21.1639487705
 31
0.0
 11
20.3358417928
 21
21.1713651248
 31
0.0
  0
SPLINE
  5
574
100
AcDbEntity
  8
0
100
AcDbSpline
 62
7
  6
CONTINUOUS
 70
0
 71
3
 72
19
 73
15
 74
13
 42
0.0000001
 43
0.0000001
 44
0.0000000001
 12
-0.0732655285
 22
0.7378710708
 32
0.0
 13
-0.0420326391
 23
0.7403072417
 33
0.0
 40
0.0
 40
0.0
 40
0.0
 40
0.0
 40
0.0283940093
 40
0.067228019
 40
0.1157273923
 40
0.1728492243
 40
0.2374236399
 40
0.3080649768
 40
0.4615224606
 40
0.6203098631
 40
0.771150685
 40
0.9013559526
 40
0.9552450946
 40
1.0
 40
1.0
 40
1.0
 40
1.0
 10
20.3358417928
 20
21.1713651248
 30
0.0
 10
20.3351483588
 20
21.1783488309
 30
0.0
 10
20.333919587
 20
21.1949233187
 30
0.0
 10
20.3323014005
 20
21.223481138
 30
0.0
 10
20.330671311
 20
21.2591492444
 30
0.0
 10
20.3290240539
 20
21.3011836667
 30
0.0
 10
20.327372114
 20
21.3486945177
 30
0.0
 10
20.3250994654
 20
21.4200087167
 30
0.0
 10
20.322354177
 20
21.5146056478
 30
0.0
 10
20.3191352556
 20
21.6290196761
 30
0.0
 10
20.3159247567
 20
21.7376842707
 30
0.0
 10
20.3131478322
 20
21.8204234028
 30
0.0
 10
20.3108063848
 20
21.8769390292
 30
0.0
 10
20.3096065626
 20
21.9012915871
 30
0.0
 10
20.308979507
 20
21.912335714
 30
0.0
 11
20.3358417928
 21
21.1713651248
 31
0.0
 11
20.3341619121
 21
21.1923521448
 31
0.0
 11
20.3324831442
 21
21.2210985671
 31
0.0
 11
20.3308043711
 21
21.2570216245
 31
0.0
 11
20.3291254057
 21
21.2993441463
 31
0.0
 11
20.3274463021
 21
21.3471965951
 31
0.0
 11
20.325767104
 21
21.3995501908
 31
0.0
 11
20.322408906
 21
21.5132892777
 31
0.0
 11
20.3190516543
 21
21.6309821883
 31
0.0
 11
20.3156938542
 21
21.7427801734
 31
0.0
 11
20.3123364016
 21
21.8392689225
 31
0.0
 11
20.3106560587
 21
21.8791923496
 31
0.0
 11
20.308979507
 21
21.912335714
 31
0.0
  0
SPLINE
  5
575
100
AcDbEntity
  8
0
100
AcDbSpline
 62
7
  6
CONTINUOUS
 70
0
 71
3
 72
12
 73
8
 74
6
 42
0.0000001
 43
0.0000001
 44
0.0000000001
 12
-0.0167126762
 22
0.0
 32
0.0
 13
-0.00169308
 23
-0.0166266962
 33
0.0
 40
0.0
 40
0.0
 40
0.0
 40
0.0
 40
0.0287677408
 40
0.0806302773
 40
0.2694214552
 40
0.575811014
 40
1.0
 40
1.0
 40
1.0
 40
1.0
 10
20.3754653076
 20
21.966837365
 30
0.0
 10
20.3753050456
 20
21.966837365
 30
0.0
 10
20.3749206758
 20
21.9664897507
 30
0.0
 10
20.3743520382
 20
21.9651323545
 30
0.0
 10
20.3736491241
 20
21.9621205622
 30
0.0
 10
20.3728939872
 20
21.9570756214
 30
0.0
 10
20.3724376937
 20
21.9530233585
 30
0.0
 10
20.3721982984
 20
21.9506724047
 30
0.0
 11
20.3754653076
 21
21.966837365
 31
0.0
 11
20.375058036
 21
21.9665818557
 31
0.0
 11
20.3746502662
 21
21.9658170029
 31
0.0
 11
20.373833597
 21
21.9627693193
 31
0.0
 11
20.3730160308
 21
21.9577144185
 31
0.0
 11
20.3721982984
 21
21.9506724047
 31
0.0
  0
SPLINE
  5
576
100
AcDbEntity
  8
0
100
AcDbSpline
 62
7
  6
CONTINUOUS
 70
0
 71
3
 72
9
 73
5
 74
3
 42
0.0000001
 43
0.0000001
 44
0.0000000001
 12
-0.004857678
 22
-0.0477042647
 32
0.0
 13
-0.002525127
 23
-0.0478844196
 33
0.0
 40
0.0
 40
0.0
 40
0.0
 40
0.0
 40
0.4216390534
 40
1.0
 40
1.0
 40
1.0
 40
1.0
 10
20.3721982984
 20
21.9506724047
 30
0.0
 10
20.3715155695
 20
21.9439677444
 30
0.0
 10
20.3703076812
 20
21.928026204
 30
0.0
 10
20.3693846437
 20
21.912069556
 30
0.0
 10
20.3688978321
 20
21.9028380632
 30
0.0
 11
20.3721982984
 21
21.9506724047
 31
0.0
 11
20.3705476244
 21
21.9305219065
 31
0.0
 11
20.3688978321
 21
21.9028380632
 31
0.0
  0
SPLINE
  5
577
100
AcDbEntity
  8
0
100
AcDbSpline
 62
7
  6
CONTINUOUS
 70
0
 71
3
 72
12
 73
8
 74
6
 42
0.0000001
 43
0.0000001
 44
0.0000000001
 12
-0.0170105581
 22
0.0
 32
0.0
 13
-0.0017079353
 23
0.0169245988
 33
0.0
 40
0.0
 40
0.0
 40
0.0
 40
0.0
 40
0.0286425023
 40
0.0804588348
 40
0.2692687229
 40
0.5757342655
 40
1.0
 40
1.0
 40
1.0
 40
1.0
 10
20.4117143391
 20
21.154337365
 30
0.0
 10
20.4115519307
 20
21.154337365
 30
0.0
 10
20.4111627931
 20
21.1546926903
 30
0.0
 10
20.4105889092
 20
21.1560742697
 30
0.0
 10
20.4098779942
 20
21.15914179
 30
0.0
 10
20.4091157942
 20
21.1642781272
 30
0.0
 10
20.4086551339
 20
21.1684040395
 30
0.0
 10
20.4084135944
 20
21.1707975486
 30
0.0
 11
20.4117143391
 21
21.154337365
 31
0.0
 11
20.4113024564
 21
21.1545976358
 31
0.0
 11
20.4108901608
 21
21.1553766877
 31
0.0
 11
20.4100647508
 21
21.1584805741
 31
0.0
 11
20.4092389487
 21
21.1636279018
 31
0.0
 11
20.4084135944
 21
21.1707975486
 31
0.0
  0
LINE
  5
578
100
AcDbEntity
  8
0
100
AcDbLine
 62
7
  6
CONTINUOUS
 10
20.4084135944
 20
21.1707975486
 11
20.4070873298
 21
21.1865030395
  0
LINE
  5
579
100
AcDbEntity
  8
0
100
AcDbLine
 62
7
  6
CONTINUOUS
 10
20.4070873298
 20
21.1865030395
 11
20.4051200531
 21
21.2188442005
  0
SPLINE
  5
57A
100
AcDbEntity
  8
0
100
AcDbSpline
 62
7
  6
CONTINUOUS
 70
0
 71
3
 72
19
 73
15
 74
13
 42
0.0000001
 43
0.0000001
 44
0.0000000001
 12
-0.0383596963
 22
0.7310465916
 32
0.0
 13
-0.0735121959
 23
0.7283519358
 33
0.0
 40
0.0
 40
0.0
 40
0.0
 40
0.0
 40
0.0475135918
 40
0.1035409385
 40
0.2364967959
 40
0.3881161341
 40
0.5461286669
 40
0.6977447824
 40
0.7672662783
 40
0.8306945065
 40
0.8867177543
 40
0.9342267641
 40
0.9722297826
 40
1.0
 40
1.0
 40
1.0
 40
1.0
 10
20.4051200531
 20
21.2188442005
 30
0.0
 10
20.4045125174
 20
21.2304224169
 30
0.0
 10
20.4033415591
 20
21.2556614858
 30
0.0
 10
20.4010552745
 20
21.3133257123
 30
0.0
 10
20.3983291886
 20
21.3963946648
 30
0.0
 10
20.39517257
 20
21.504347583
 30
0.0
 10
20.392008666
 20
21.6168556571
 30
0.0
 10
20.3893089457
 20
21.7093356311
 30
0.0
 10
20.3870755313
 20
21.7787387796
 30
0.0
 10
20.3854541285
 20
21.8248231203
 30
0.0
 10
20.3838370371
 20
21.8655323173
 30
0.0
 10
20.3822368105
 20
21.9000331475
 30
0.0
 10
20.3806485703
 20
21.9276300253
 30
0.0
 10
20.3794422438
 20
21.9436379061
 30
0.0
 10
20.3787617605
 20
21.95038007
 30
0.0
 11
20.4051200531
 21
21.2188442005
 31
0.0
 11
20.4034736399
 21
21.2535876471
 31
0.0
 11
20.4018265977
 21
21.2945695122
 31
0.0
 11
20.3985327035
 21
21.3918444023
 31
0.0
 11
20.3952384172
 21
21.5027887911
 31
0.0
 11
20.3919437428
 21
21.6184153009
 31
0.0
 11
20.3886487139
 21
21.7293573074
 31
0.0
 11
20.3870011125
 21
21.7802240028
 31
0.0
 11
20.3853533633
 21
21.8266275379
 31
0.0
 11
20.3837054399
 21
21.8676063645
 31
0.0
 11
20.3820576972
 21
21.9023463901
 31
0.0
 11
20.3804102364
 21
21.930117765
 31
0.0
 11
20.3787617605
 21
21.95038007
 31
0.0
  0
SPLINE
  5
57B
100
AcDbEntity
  8
0
100
AcDbSpline
 62
7
  6
CONTINUOUS
 70
0
 71
3
 72
12
 73
8
 74
6
 42
0.0000001
 43
0.0000001
 44
0.0000000001
 12
-0.0017077366
 22
0.0169200938
 32
0.0
 13
-0.0170060559
 23
0.0
 33
0.0
 40
0.0
 40
0.0
 40
0.0
 40
0.0
 40
0.4243024995
 40
0.7307886189
 40
0.9195971301
 40
0.9713972238
 40
1.0
 40
1.0
 40
1.0
 40
1.0
 10
20.3787617605
 20
21.95038007
 30
0.0
 10
20.3785202282
 20
21.9527731494
 30
0.0
 10
20.3780596848
 20
21.9568983378
 30
0.0
 10
20.3772983257
 20
21.9620335796
 30
0.0
 10
20.3765883336
 20
21.9651007004
 30
0.0
 10
20.3760158358
 20
21.9664817226
 30
0.0
 10
20.3756274477
 20
21.966837365
 30
0.0
 10
20.3754653076
 20
21.966837365
 30
0.0
 11
20.3787617605
 21
21.95038007
 31
0.0
 11
20.3779367263
 21
21.9575484602
 31
0.0
 11
20.3771117943
 21
21.9626948845
 31
0.0
 11
20.3762877322
 21
21.9657982253
 31
0.0
 11
20.3758762672
 21
21.9665771402
 31
0.0
 11
20.3754653076
 21
21.966837365
 31
0.0
  0
SPLINE
  5
57C
100
AcDbEntity
  8
0
100
AcDbSpline
 62
7
  6
CONTINUOUS
 70
0
 71
3
 72
9
 73
5
 74
3
 42
0.0000001
 43
0.0000001
 44
0.0000000001
 12
-0.0325584264
 22
0.029267828
 32
0.0
 13
-0.0339580681
 23
0.0276316213
 33
0.0
 40
0.0
 40
0.0
 40
0.0
 40
0.0
 40
0.578508149
 40
1.0
 40
1.0
 40
1.0
 40
1.0
 10
15.1644069415
 20
20.4835700921
 30
0.0
 10
15.1581285031
 20
20.4892139844
 30
0.0
 10
15.1472257187
 20
20.4989136238
 30
0.0
 10
15.1361461737
 20
20.5084163572
 30
0.0
 10
15.1313751574
 20
20.5122985249
 30
0.0
 11
15.1644069415
 21
20.4835700921
 31
0.0
 11
15.1454546471
 21
20.5003707264
 31
0.0
 11
15.1313751574
 21
20.5122985249
 31
0.0
  0
SPLINE
  5
57D
100
AcDbEntity
  8
0
100
AcDbSpline
 62
7
  6
CONTINUOUS
 70
0
 71
3
 72
13
 73
9
 74
7
 42
0.0000001
 43
0.0000001
 44
0.0000000001
 12
-0.0098609667
 22
0.0078737883
 32
0.0
 13
-0.0125749007
 23
0.0010547177
 33
0.0
 40
0.0
 40
0.0
 40
0.0
 40
0.0
 40
0.2741707136
 40
0.626872678
 40
0.7613106311
 40
0.8679203644
 40
0.9470854348
 40
1.0
 40
1.0
 40
1.0
 40
1.0
 10
15.1295071841
 20
20.5138049547
 30
0.0
 10
15.128605988
 20
20.514524542
 30
0.0
 10
15.1265327905
 20
20.5161540603
 30
0.0
 10
15.1239662109
 20
20.5180724508
 30
0.0
 10
15.1218922899
 20
20.5194636843
 30
0.0
 10
15.1207363899
 20
20.5201597741
 30
0.0
 10
15.1198387368
 20
20.520604987
 30
0.0
 10
15.1193023817
 20
20.5207827145
 30
0.0
 10
15.1190805832
 20
20.5208013178
 30
0.0
 11
15.1295071841
 21
20.5138049547
 31
0.0
 11
15.1267848283
 21
20.5159403794
 31
0.0
 11
15.1231993182
 21
20.5185773155
 31
0.0
 11
15.1217863256
 21
20.5195161958
 31
0.0
 11
15.1206280842
 21
20.5202005545
 31
0.0
 11
15.119725776
 21
20.5206292943
 31
0.0
 11
15.1190805832
 21
20.5208013178
 31
0.0
  0
SPLINE
  5
57E
100
AcDbEntity
  8
0
100
AcDbSpline
 62
7
  6
CONTINUOUS
 70
0
 71
3
 72
12
 73
8
 74
6
 42
0.0000001
 43
0.0000001
 44
0.0000000001
 12
0.0118636019
 22
0.0118636019
 32
0.0
 13
0.0130025089
 23
-0.0106030592
 33
0.0
 40
0.0
 40
0.0
 40
0.0
 40
0.0
 40
0.0287336696
 40
0.0805810726
 40
0.2693694387
 40
0.5757770553
 40
1.0
 40
1.0
 40
1.0
 40
1.0
 10
15.0866693064
 20
20.488692871
 30
0.0
 10
15.0867829347
 20
20.4888064992
 30
0.0
 10
15.0873023986
 20
20.4888319587
 30
0.0
 10
15.0886686897
 20
20.4882712563
 30
0.0
 10
15.0913051526
 20
20.4866312434
 30
0.0
 10
15.0954216548
 20
20.4835848536
 30
0.0
 10
15.0986218461
 20
20.4810314165
 30
0.0
 10
15.1004605003
 20
20.4795320628
 30
0.0
 11
15.0866693064
 21
20.488692871
 31
0.0
 11
15.0871393156
 21
20.4888000916
 31
0.0
 11
15.0879712771
 21
20.4885460666
 31
0.0
 11
15.0907136607
 21
20.4869611584
 31
0.0
 11
15.0948816657
 21
20.4839519045
 31
0.0
 11
15.1004605003
 21
20.4795320628
 31
0.0
  0
SPLINE
  5
57F
100
AcDbEntity
  8
0
100
AcDbSpline
 62
7
  6
CONTINUOUS
 70
0
 71
3
 72
9
 73
5
 74
3
 42
0.0000001
 43
0.0000001
 44
0.0000000001
 12
0.0320205499
 22
-0.0269284237
 32
0.0
 13
0.0310975813
 23
-0.0279892132
 33
0.0
 40
0.0
 40
0.0
 40
0.0
 40
0.0
 40
0.4398558266
 40
1.0
 40
1.0
 40
1.0
 40
1.0
 10
15.105394081
 20
20.4754410831
 30
0.0
 10
15.1100888895
 20
20.471492875
 30
0.0
 10
15.1206250845
 20
20.4623539783
 30
0.0
 10
15.1310302086
 20
20.4530678902
 30
0.0
 10
15.136836585
 20
20.447841892
 30
0.0
 11
15.105394081
 21
20.4754410831
 31
0.0
 11
15.1193323443
 21
20.4634248035
 31
0.0
 11
15.136836585
 21
20.447841892
 31
0.0
  0
SPLINE
  5
580
100
AcDbEntity
  8
0
100
AcDbSpline
 62
7
  6
CONTINUOUS
 70
0
 71
3
 72
9
 73
5
 74
3
 42
0.0000001
 43
0.0000001
 44
0.0000000001
 12
0.0477387843
 22
-0.0429670396
 32
0.0
 13
0.0471487533
 23
-0.0436136799
 33
0.0
 40
0.0
 40
0.0
 40
0.0
 40
0.0
 40
0.2217217228
 40
1.0
 40
1.0
 40
1.0
 40
1.0
 10
15.136836585
 20
20.447841892
 30
0.0
 10
15.1403648268
 20
20.4446663166
 30
0.0
 10
15.1562395424
 20
20.430301512
 30
0.0
 10
15.1719955845
 20
20.4158061053
 30
0.0
 10
15.1842272014
 20
20.4044915787
 30
0.0
 11
15.136836585
 21
20.447841892
 31
0.0
 11
15.1473985313
 21
20.4382899177
 31
0.0
 11
15.1842272014
 21
20.4044915787
 31
0.0
  0
LINE
  5
581
100
AcDbEntity
  8
0
100
AcDbLine
 62
7
  6
CONTINUOUS
 10
15.1842272014
 20
20.4044915787
 11
15.1921700912
 21
20.3971348242
  0
SPLINE
  5
582
100
AcDbEntity
  8
0
100
AcDbSpline
 62
7
  6
CONTINUOUS
 70
0
 71
3
 72
9
 73
5
 74
3
 42
0.0000001
 43
0.0000001
 44
0.0000000001
 12
0.1978201765
 22
-0.1834465432
 32
0.0
 13
0.1961112136
 23
-0.1852723626
 33
0.0
 40
0.0
 40
0.0
 40
0.0
 40
0.0
 40
0.4661292435
 40
1.0
 40
1.0
 40
1.0
 40
1.0
 10
15.1921700912
 20
20.3971348242
 30
0.0
 10
15.2229066809
 20
20.368631558
 30
0.0
 10
15.2884855537
 20
20.3070939602
 30
0.0
 10
15.3538551931
 20
20.2453360377
 30
0.0
 10
15.3887545405
 20
20.2123655389
 30
0.0
 11
15.1921700912
 21
20.3971348242
 31
0.0
 11
15.2839976801
 21
20.3112147388
 31
0.0
 11
15.3887545405
 21
20.2123655389
 31
0.0
  0
SPLINE
  5
583
100
AcDbEntity
  8
0
100
AcDbSpline
 62
7
  6
CONTINUOUS
 70
0
 71
3
 72
11
 73
7
 74
5
 42
0.0000001
 43
0.0000001
 44
0.0000000001
 12
0.2470597642
 22
-0.233405043
 32
0.0
 13
0.2526681007
 23
-0.2273219568
 33
0.0
 40
0.0
 40
0.0
 40
0.0
 40
0.0
 40
0.2943665553
 40
0.5701080159
 40
0.8102627305
 40
1.0
 40
1.0
 40
1.0
 40
1.0
 10
15.3887545405
 20
20.2123655389
 30
0.0
 10
15.4129965844
 20
20.1894633261
 30
0.0
 10
15.4599478346
 20
20.145109085
 30
0.0
 10
15.526789015
 20
20.0821891078
 30
0.0
 10
15.5852295722
 20
20.0276405568
 30
0.0
 10
15.621092514
 20
19.9946850612
 30
0.0
 10
15.6370726992
 20
19.9803079121
 30
0.0
 11
15.3887545405
 21
20.2123655389
 31
0.0
 11
15.4615027113
 21
20.1436822363
 31
0.0
 11
15.5297728407
 21
20.0794771603
 31
0.0
 11
15.5894860636
 21
20.0238295244
 31
0.0
 11
15.6370726992
 21
19.9803079121
 31
0.0
  0
SPLINE
  5
584
100
AcDbEntity
  8
0
100
AcDbSpline
 62
7
  6
CONTINUOUS
 70
0
 71
3
 72
9
 73
5
 74
3
 42
0.0000001
 43
0.0000001
 44
0.0000000001
 12
0.0285612679
 22
-0.0256961733
 32
0.0
 13
0.0292836558
 23
-0.0248697979
 33
0.0
 40
0.0
 40
0.0
 40
0.0
 40
0.0
 40
0.5529700944
 40
1.0
 40
1.0
 40
1.0
 40
1.0
 10
15.6370726992
 20
19.9803079121
 30
0.0
 10
15.6423372082
 20
19.975571507
 30
0.0
 10
15.6518908585
 20
19.9670429986
 30
0.0
 10
15.6615510616
 20
19.9586343471
 30
0.0
 10
15.6659146182
 20
19.9549284993
 30
0.0
 11
15.6370726992
 21
19.9803079121
 31
0.0
 11
15.6529355553
 21
19.9661761362
 31
0.0
 11
15.6659146182
 21
19.9549284993
 31
0.0
  0
SPLINE
  5
585
100
AcDbEntity
  8
0
100
AcDbSpline
 62
7
  6
CONTINUOUS
 70
0
 71
3
 72
10
 73
6
 74
4
 42
0.0000001
 43
0.0000001
 44
0.0000000001
 12
0.0109852104
 22
-0.0089465143
 32
0.0
 13
0.0123798704
 23
-0.00688867
 33
0.0
 40
0.0
 40
0.0
 40
0.0
 40
0.0
 40
0.6149677526
 40
0.8362151719
 40
1.0
 40
1.0
 40
1.0
 40
1.0
 10
15.6732102261
 20
19.9488458595
 30
0.0
 10
15.6754620762
 20
19.9470119202
 30
0.0
 10
15.6785503207
 20
19.9445464249
 30
0.0
 10
15.6823879609
 20
19.9417940093
 30
0.0
 10
15.6839204984
 20
19.9408106623
 30
0.0
 10
15.6845963767
 20
19.9404345758
 30
0.0
 11
15.6732102261
 21
19.9488458595
 31
0.0
 11
15.6800697375
 21
19.9434742153
 31
0.0
 11
15.6826266163
 21
19.9416610819
 31
0.0
 11
15.6845963767
 21
19.9404345758
 31
0.0
  0
SPLINE
  5
586
100
AcDbEntity
  8
0
100
AcDbSpline
 62
7
  6
CONTINUOUS
 70
0
 71
3
 72
9
 73
5
 74
3
 42
0.0000001
 43
0.0000001
 44
0.0000000001
 12
0.0016250443
 22
-0.0008412833
 32
0.0
 13
0.001310696
 23
0.001310696
 33
0.0
 40
0.0
 40
0.0
 40
0.0
 40
0.0
 40
0.644353786
 40
1.0
 40
1.0
 40
1.0
 40
1.0
 10
15.685073556
 20
19.9401799876
 30
0.0
 10
15.6854225905
 20
19.9399992929
 30
0.0
 10
15.6859440498
 20
19.939742137
 30
0.0
 10
15.6866854803
 20
19.9396605253
 30
0.0
 10
15.6868408616
 20
19.9398159067
 30
0.0
 11
15.685073556
 21
19.9401799876
 31
0.0
 11
15.6861859293
 21
19.9397407787
 31
0.0
 11
15.6868408616
 21
19.9398159067
 31
0.0
  0
SPLINE
  5
587
100
AcDbEntity
  8
0
100
AcDbSpline
 62
7
  6
CONTINUOUS
 70
0
 71
3
 72
9
 73
5
 74
3
 42
0.0000001
 43
0.0000001
 44
0.0000000001
 12
0.0310343525
 22
-0.0262663768
 32
0.0
 13
0.0302116081
 23
-0.0272086811
 33
0.0
 40
0.0
 40
0.0
 40
0.0
 40
0.0
 40
0.4435188597
 40
1.0
 40
1.0
 40
1.0
 40
1.0
 10
15.055460861
 20
20.4230892984
 30
0.0
 10
15.0600489679
 20
20.4192060873
 30
0.0
 10
15.0702749754
 20
20.4103106437
 30
0.0
 10
15.0803818579
 20
20.4012814205
 30
0.0
 10
15.0859859213
 20
20.3962343812
 30
0.0
 11
15.055460861
 21
20.4230892984
 31
0.0
 11
15.0690963893
 21
20.4112891776
 31
0.0
 11
15.0859859213
 21
20.3962343812
 31
0.0
  0
SPLINE
  5
588
100
AcDbEntity
  8
0
100
AcDbSpline
 62
7
  6
CONTINUOUS
 70
0
 71
3
 72
9
 73
5
 74
3
 42
0.0000001
 43
0.0000001
 44
0.0000000001
 12
0.1003655577
 22
-0.0903895763
 32
0.0
 13
0.0985995658
 23
-0.0923127636
 33
0.0
 40
0.0
 40
0.0
 40
0.0
 40
0.0
 40
0.4440004971
 40
1.0
 40
1.0
 40
1.0
 40
1.0
 10
15.0859859213
 20
20.3962343812
 30
0.0
 10
15.1008400405
 20
20.3828567089
 30
0.0
 10
15.1340031307
 20
20.3524033414
 30
0.0
 10
15.166930959
 20
20.3216981154
 30
0.0
 10
15.1852047288
 20
20.3045894986
 30
0.0
 11
15.0859859213
 21
20.3962343812
 31
0.0
 11
15.1302425189
 21
20.3557644378
 31
0.0
 11
15.1852047288
 21
20.3045894986
 31
0.0
  0
LINE
  5
589
100
AcDbEntity
  8
0
100
AcDbLine
 62
7
  6
CONTINUOUS
 10
15.1852047288
 20
20.3045894986
 11
15.2124333578
 21
20.2790500357
  0
SPLINE
  5
58A
100
AcDbEntity
  8
0
100
AcDbSpline
 62
7
  6
CONTINUOUS
 70
0
 71
3
 72
12
 73
8
 74
6
 42
0.0000001
 43
0.0000001
 44
0.0000000001
 12
0.3720952328
 22
-0.3495833962
 32
0.0
 13
0.3793721477
 23
-0.3416726308
 33
0.0
 40
0.0
 40
0.0
 40
0.0
 40
0.0
 40
0.2735107624
 40
0.554277262
 40
0.8070308305
 40
0.9127142978
 40
1.0
 40
1.0
 40
1.0
 40
1.0
 10
15.2124333578
 20
20.2790500357
 30
0.0
 10
15.2463573748
 20
20.2471784286
 30
0.0
 10
15.3149441188
 20
20.1824182247
 30
0.0
 10
15.4147541333
 20
20.0880721078
 30
0.0
 10
15.4939980093
 20
20.0135457872
 30
0.0
 10
15.5496056564
 20
19.9619533131
 30
0.0
 10
15.5738432798
 20
19.9397931878
 30
0.0
 10
15.5848812012
 20
19.9298521426
 30
0.0
 11
15.2124333578
 21
20.2790500357
 31
0.0
 11
15.3140374788
 21
20.1832567845
 31
0.0
 11
15.4182625686
 21
20.0848434597
 31
0.0
 11
15.5123707148
 21
19.9965486478
 31
0.0
 11
15.5519498531
 21
19.9598765845
 31
0.0
 11
15.5848812012
 21
19.9298521426
 31
0.0
  0
SPLINE
  5
58B
100
AcDbEntity
  8
0
100
AcDbSpline
 62
7
  6
CONTINUOUS
 70
0
 71
3
 72
9
 73
5
 74
3
 42
0.0000001
 43
0.0000001
 44
0.0000000001
 12
0.0283450313
 22
-0.025528288
 32
0.0
 13
0.0290189345
 23
-0.0247595584
 33
0.0
 40
0.0
 40
0.0
 40
0.0
 40
0.0
 40
0.2877426889
 40
1.0
 40
1.0
 40
1.0
 40
1.0
 10
15.5848812012
 20
19.9298521426
 30
0.0
 10
15.5875998931
 20
19.9274036165
 30
0.0
 10
15.5970666168
 20
19.9189148874
 30
0.0
 10
15.6066015075
 20
19.9105002992
 30
0.0
 10
15.6134911569
 20
19.9046219071
 30
0.0
 11
15.5848812012
 21
19.9298521426
 31
0.0
 11
15.5930534981
 21
19.9225246156
 31
0.0
 11
15.6134911569
 21
19.9046219071
 31
0.0
  0
LINE
  5
58C
100
AcDbEntity
  8
0
100
AcDbLine
 62
7
  6
CONTINUOUS
 10
15.6134911569
 20
19.9046219071
 11
15.6215095717
 21
19.8979079477
  0
SPLINE
  5
58D
100
AcDbEntity
  8
0
100
AcDbSpline
 62
7
  6
CONTINUOUS
 70
0
 71
3
 72
10
 73
6
 74
4
 42
0.0000001
 43
0.0000001
 44
0.0000000001
 12
0.0117357331
 22
-0.0095915467
 32
0.0
 13
0.0134766215
 23
-0.0069358397
 33
0.0
 40
0.0
 40
0.0
 40
0.0
 40
0.0
 40
0.6270689949
 40
0.8452688589
 40
1.0
 40
1.0
 40
1.0
 40
1.0
 10
15.6215095717
 20
19.8979079477
 30
0.0
 10
15.6239626098
 20
19.8959030939
 30
0.0
 10
15.627296935
 20
19.8932285637
 30
0.0
 10
15.6314133605
 20
19.8903002621
 30
0.0
 10
15.6330141754
 20
19.8892982953
 30
0.0
 10
15.6337092598
 20
19.8889405651
 30
0.0
 11
15.6215095717
 21
19.8979079477
 31
0.0
 11
15.6289896875
 21
19.8920445543
 31
0.0
 11
15.6316971067
 21
19.8901452468
 31
0.0
 11
15.6337092598
 21
19.8889405651
 31
0.0
  0
SPLINE
  5
58E
100
AcDbEntity
  8
0
100
AcDbSpline
 62
7
  6
CONTINUOUS
 70
0
 71
3
 72
9
 73
5
 74
3
 42
0.0000001
 43
0.0000001
 44
0.0000000001
 12
0.0014724498
 22
-0.0006990671
 32
0.0
 13
0.001152563
 23
0.001152563
 33
0.0
 40
0.0
 40
0.0
 40
0.0
 40
0.0
 40
0.6563445431
 40
1.0
 40
1.0
 40
1.0
 40
1.0
 10
15.6339982926
 20
19.8887973481
 30
0.0
 10
15.6343204374
 20
19.8886444051
 30
0.0
 10
15.6347842686
 20
19.8884189112
 30
0.0
 10
15.6354258605
 20
19.8884009056
 30
0.0
 10
15.6355578887
 20
19.8885329338
 30
0.0
 11
15.6339982926
 21
19.8887973481
 31
0.0
 11
15.6350058808
 21
19.8884377852
 31
0.0
 11
15.6355578887
 21
19.8885329338
 31
0.0
  0
SPLINE
  5
58F
100
AcDbEntity
  8
0
100
AcDbSpline
 62
7
  6
CONTINUOUS
 70
0
 71
3
 72
12
 73
8
 74
6
 42
0.0000001
 43
0.0000001
 44
0.0000000001
 12
0.0118649063
 22
0.0118649063
 32
0.0
 13
0.0130012312
 23
-0.010607544
 33
0.0
 40
0.0
 40
0.0
 40
0.0
 40
0.0
 40
0.0286475408
 40
0.0804584164
 40
0.2692419198
 40
0.5756945436
 40
1.0
 40
1.0
 40
1.0
 40
1.0
 10
14.9840597636
 20
20.3860833281
 30
0.0
 10
14.9841730637
 20
20.3861966283
 30
0.0
 10
14.9846922312
 20
20.3862204918
 30
0.0
 10
14.9860564428
 20
20.3856579445
 30
0.0
 10
14.9886923883
 20
20.384015558
 30
0.0
 10
14.9928080908
 20
20.3809665004
 30
0.0
 10
14.9960085228
 20
20.378411362
 30
0.0
 10
14.9978473539
 20
20.3769110824
 30
0.0
 11
14.9840597636
 21
20.3860833281
 31
0.0
 11
14.9845286322
 21
20.3861892846
 31
0.0
 11
14.9853596504
 21
20.3859339462
 31
0.0
 11
14.9881007392
 21
20.3843462676
 31
0.0
 11
14.9922682378
 21
20.3813340578
 31
0.0
 11
14.9978473539
 21
20.3769110824
 31
0.0
  0
SPLINE
  5
590
100
AcDbEntity
  8
0
100
AcDbSpline
 62
7
  6
CONTINUOUS
 70
0
 71
3
 72
9
 73
5
 74
3
 42
0.0000001
 43
0.0000001
 44
0.0000000001
 12
0.0293041875
 22
-0.0249335431
 32
0.0
 13
0.0285976111
 23
-0.0257408937
 33
0.0
 40
0.0
 40
0.0
 40
0.0
 40
0.0
 40
0.2104601857
 40
1.0
 40
1.0
 40
1.0
 40
1.0
 10
15.005367137
 20
20.3706297887
 30
0.0
 10
15.0074229252
 20
20.368880616
 30
0.0
 10
15.0171412309
 20
20.3605109695
 30
0.0
 10
15.026713908
 20
20.3519738623
 30
0.0
 10
15.0342402256
 20
20.3451993755
 30
0.0
 11
15.005367137
 21
20.3706297887
 31
0.0
 11
15.0115071077
 21
20.3653502439
 31
0.0
 11
15.0342402256
 21
20.3451993755
 31
0.0
  0
SPLINE
  5
591
100
AcDbEntity
  8
0
100
AcDbSpline
 62
7
  6
CONTINUOUS
 70
0
 71
3
 72
9
 73
5
 74
3
 42
0.0000001
 43
0.0000001
 44
0.0000000001
 12
0.0557707006
 22
-0.0501995663
 32
0.0
 13
0.055021705
 23
-0.0510194031
 33
0.0
 40
0.0
 40
0.0
 40
0.0
 40
0.0
 40
0.2186850612
 40
1.0
 40
1.0
 40
1.0
 40
1.0
 10
15.0342402256
 20
20.3451993755
 30
0.0
 10
15.0383056319
 20
20.3415400771
 30
0.0
 10
15.0568447678
 20
20.3247501204
 30
0.0
 10
15.0752313584
 20
20.3077925477
 30
0.0
 10
15.0895611184
 20
20.2945051404
 30
0.0
 11
15.0342402256
 21
20.3451993755
 31
0.0
 11
15.0464068009
 21
20.3341886358
 31
0.0
 11
15.0895611184
 21
20.2945051404
 31
0.0
  0
LINE
  5
592
100
AcDbEntity
  8
0
100
AcDbLine
 62
7
  6
CONTINUOUS
 10
15.118253397
 20
20.267803412
 11
15.1357320085
 21
20.2514619314
  0
LINE
  5
593
100
AcDbEntity
  8
0
100
AcDbLine
 62
7
  6
CONTINUOUS
 10
15.1357320085
 20
20.2514619314
 11
15.1603846058
 21
20.228343209
  0
SPLINE
  5
594
100
AcDbEntity
  8
0
100
AcDbSpline
 62
7
  6
CONTINUOUS
 70
0
 71
3
 72
12
 73
8
 74
6
 42
0.0000001
 43
0.0000001
 44
0.0000000001
 12
0.3737897517
 22
-0.3510488701
 32
0.0
 13
0.3813110599
 23
-0.342864351
 33
0.0
 40
0.0
 40
0.0
 40
0.0
 40
0.0
 40
0.2737793709
 40
0.5549342551
 40
0.8077236389
 40
0.9131703233
 40
1.0
 40
1.0
 40
1.0
 40
1.0
 10
15.1603846058
 20
20.228343209
 30
0.0
 10
15.1944965801
 20
20.1963065627
 30
0.0
 10
15.2634759078
 20
20.1311961542
 30
0.0
 10
15.3638256961
 20
20.0363721165
 30
0.0
 10
15.4434568732
 20
19.9615146222
 30
0.0
 10
15.4992454354
 20
19.9097932847
 30
0.0
 10
15.5235142041
 20
19.8876292817
 30
0.0
 10
15.5345505761
 20
19.8777056814
 30
0.0
 11
15.1603846058
 21
20.228343209
 31
0.0
 11
15.2625504702
 21
20.1320525156
 31
0.0
 11
15.3673948363
 21
20.033089534
 31
0.0
 11
15.4619511803
 21
19.9444187148
 31
0.0
 11
15.5016293193
 21
19.9076840903
 31
0.0
 11
15.5345505761
 21
19.8777056814
 31
0.0
  0
SPLINE
  5
595
100
AcDbEntity
  8
0
100
AcDbSpline
 62
7
  6
CONTINUOUS
 70
0
 71
3
 72
9
 73
5
 74
3
 42
0.0000001
 43
0.0000001
 44
0.0000000001
 12
0.0261867035
 22
-0.0235463589
 32
0.0
 13
0.0267496109
 23
-0.0229048635
 33
0.0
 40
0.0
 40
0.0
 40
0.0
 40
0.0
 40
0.2844775493
 40
1.0
 40
1.0
 40
1.0
 40
1.0
 10
15.5345505761
 20
19.8777056814
 30
0.0
 10
15.5370337525
 20
19.8754728779
 30
0.0
 10
15.5457784553
 20
19.8676418661
 30
0.0
 10
15.5545838762
 20
19.8598773679
 30
0.0
 10
15.5609638586
 20
19.8544143866
 30
0.0
 11
15.5345505761
 21
19.8777056814
 31
0.0
 11
15.5420140095
 21
19.8710227666
 31
0.0
 11
15.5609638586
 21
19.8544143866
 31
0.0
  0
LINE
  5
596
100
AcDbEntity
  8
0
100
AcDbLine
 62
7
  6
CONTINUOUS
 10
15.5609638586
 20
19.8544143866
 11
15.570662054
 21
19.8462888488
  0
SPLINE
  5
597
100
AcDbEntity
  8
0
100
AcDbSpline
 62
7
  6
CONTINUOUS
 70
0
 71
3
 72
10
 73
6
 74
4
 42
0.0000001
 43
0.0000001
 44
0.0000000001
 12
0.0114196485
 22
-0.0092911486
 32
0.0
 13
0.0131676705
 23
-0.0065837883
 33
0.0
 40
0.0
 40
0.0
 40
0.0
 40
0.0
 40
0.6284714518
 40
0.8462942771
 40
1.0
 40
1.0
 40
1.0
 40
1.0
 10
15.570662054
 20
19.8462888488
 30
0.0
 10
15.5730543617
 20
19.8443424416
 30
0.0
 10
15.5763033262
 20
19.8417489026
 30
0.0
 10
15.580314293
 20
19.8389226923
 30
0.0
 10
15.581870297
 20
19.8379634569
 30
0.0
 10
15.5825449458
 20
19.837626135
 30
0.0
 11
15.570662054
 21
19.8462888488
 31
0.0
 11
15.5779600627
 21
19.8406016874
 31
0.0
 11
15.5805940875
 21
19.8387726889
 31
0.0
 11
15.5825449458
 21
19.837626135
 31
0.0
  0
LINE
  5
598
100
AcDbEntity
  8
0
100
AcDbLine
 62
7
  6
CONTINUOUS
 10
14.9470648489
 20
20.3253685417
 11
14.954186572
 21
20.3194141503
  0
SPLINE
  5
599
100
AcDbEntity
  8
0
100
AcDbSpline
 62
7
  6
CONTINUOUS
 70
0
 71
3
 72
9
 73
5
 74
3
 42
0.0000001
 43
0.0000001
 44
0.0000000001
 12
0.0556512789
 22
-0.0501161014
 32
0.0
 13
0.0549103866
 23
-0.0509267898
 33
0.0
 40
0.0
 40
0.0
 40
0.0
 40
0.0
 40
0.2189861912
 40
1.0
 40
1.0
 40
1.0
 40
1.0
 10
14.9835560382
 20
20.2935390808
 30
0.0
 10
14.9876183254
 20
20.2898808361
 30
0.0
 10
15.0061184138
 20
20.2731195715
 30
0.0
 10
15.0244677582
 20
20.2561927241
 30
0.0
 10
15.0387630149
 20
20.2429345488
 30
0.0
 11
14.9835560382
 21
20.2935390808
 31
0.0
 11
14.9957136243
 21
20.2825319246
 31
0.0
 11
15.0387630149
 21
20.2429345488
 31
0.0
  0
LINE
  5
59A
100
AcDbEntity
  8
0
100
AcDbLine
 62
7
  6
CONTINUOUS
 10
15.0850777196
 20
20.1997479506
 11
15.1099440629
 21
20.1764233481
  0
LINE
  5
59B
100
AcDbEntity
  8
0
100
AcDbLine
 62
7
  6
CONTINUOUS
 10
15.190754824
 20
20.1002781729
 11
15.231386383
 21
20.0619000028
  0
LINE
  5
59C
100
AcDbEntity
  8
0
100
AcDbLine
 62
7
  6
CONTINUOUS
 10
15.231386383
 20
20.0619000028
 11
15.2746564371
 21
20.0210288995
  0
SPLINE
  5
59D
100
AcDbEntity
  8
0
100
AcDbSpline
 62
7
  6
CONTINUOUS
 70
0
 71
3
 72
10
 73
6
 74
4
 42
0.0000001
 43
0.0000001
 44
0.0000000001
 12
0.2064500858
 22
-0.1949272789
 32
0.0
 13
0.2109879012
 23
-0.1900062829
 33
0.0
 40
0.0
 40
0.0
 40
0.0
 40
0.0
 40
0.5693381753
 40
0.807626102
 40
1.0
 40
1.0
 40
1.0
 40
1.0
 10
15.2746564371
 20
20.0210288995
 30
0.0
 10
15.3138364088
 20
19.9840357191
 30
0.0
 10
15.3694377554
 20
19.9315831559
 30
0.0
 10
15.4387095959
 20
19.8670927167
 30
0.0
 10
15.4687541505
 20
19.8395466468
 30
0.0
 10
15.4822836722
 20
19.8273625637
 30
0.0
 11
15.2746564371
 21
20.0210288995
 31
0.0
 11
15.3924001965
 21
19.9102656504
 31
0.0
 11
15.4419549927
 21
19.8642013496
 31
0.0
 11
15.4822836722
 21
19.8273625637
 31
0.0
  0
SPLINE
  5
59E
100
AcDbEntity
  8
0
100
AcDbSpline
 62
7
  6
CONTINUOUS
 70
0
 71
3
 72
11
 73
7
 74
5
 42
0.0000001
 43
0.0000001
 44
0.0000000001
 12
0.0121161683
 22
-0.0098992436
 32
0.0
 13
0.0142870687
 23
-0.0063777917
 33
0.0
 40
0.0
 40
0.0
 40
0.0
 40
0.0
 40
0.3560768404
 40
0.6414691881
 40
0.8559901047
 40
1.0
 40
1.0
 40
1.0
 40
1.0
 10
15.5189843784
 20
19.79535969
 30
0.0
 10
15.520422474
 20
19.7941847262
 30
0.0
 10
15.5230300128
 20
19.7920890922
 30
0.0
 10
15.5265802335
 20
19.7893788026
 30
0.0
 10
15.5293330346
 20
19.7874587263
 30
0.0
 10
15.5309425461
 20
19.786490856
 30
0.0
 10
15.5316283725
 20
19.786184701
 30
0.0
 11
15.5189843784
 21
19.79535969
 31
0.0
 11
15.523333659
 21
19.7918780683
 31
0.0
 11
15.5268949531
 21
19.7891844521
 31
0.0
 11
15.5296619584
 21
19.7872847076
 31
0.0
 11
15.5316283725
 21
19.786184701
 31
0.0
  0
SPLINE
  5
59F
100
AcDbEntity
  8
0
100
AcDbSpline
 62
7
  6
CONTINUOUS
 70
0
 71
3
 72
9
 73
5
 74
3
 42
0.0000001
 43
0.0000001
 44
0.0000000001
 12
0.0011041988
 22
-0.0004361463
 32
0.0
 13
0.0008394875
 23
0.0008394875
 33
0.0
 40
0.0
 40
0.0
 40
0.0
 40
0.0
 40
0.6340511892
 40
1.0
 40
1.0
 40
1.0
 40
1.0
 10
15.5318755346
 20
19.7860804369
 30
0.0
 10
15.5321089075
 20
19.7859882572
 30
0.0
 10
15.5324701544
 20
19.7858478053
 30
0.0
 10
15.5329200505
 20
19.7858950955
 30
0.0
 10
15.5330224536
 20
19.7859974987
 30
0.0
 11
15.5318755346
 21
19.7860804369
 31
0.0
 11
15.5326026444
 21
19.7858856261
 31
0.0
 11
15.5330224536
 21
19.7859974987
 31
0.0
  0
SPLINE
  5
5A0
100
AcDbEntity
  8
0
100
AcDbSpline
 62
7
  6
CONTINUOUS
 70
0
 71
3
 72
13
 73
9
 74
7
 42
0.0000001
 43
0.0000001
 44
0.0000000001
 12
0.0169793395
 22
-0.0
 32
0.0
 13
0.0016540811
 23
-0.0168985794
 33
0.0
 40
0.0
 40
0.0
 40
0.0
 40
0.0
 40
0.0280307813
 40
0.0795733826
 40
0.1593852695
 40
0.2684598646
 40
0.5751974861
 40
1.0
 40
1.0
 40
1.0
 40
1.0
 10
19.8951417133
 20
21.966837365
 30
0.0
 10
19.8953003614
 20
21.966837365
 30
0.0
 10
19.8956788047
 20
21.9664760438
 30
0.0
 10
19.8960047822
 20
21.9656609093
 30
0.0
 10
19.896404446
 20
21.9643450653
 30
0.0
 10
19.8969758769
 20
21.9616040021
 30
0.0
 10
19.89766186
 20
21.9568881234
 30
0.0
 10
19.8981042247
 20
21.9527730146
 30
0.0
 10
19.898338444
 20
21.9503801616
 30
0.0
 11
19.8951417133
 21
21.966837365
 31
0.0
 11
19.8955402188
 21
21.9665771417
 31
0.0
 11
19.8959392207
 21
21.9657982313
 31
0.0
 11
19.896338626
 21
21.9645032736
 31
0.0
 11
19.8967383414
 21
21.9626949082
 31
0.0
 11
19.8975383307
 21
21.9575485126
 31
0.0
 11
19.898338444
 21
21.9503801616
 31
0.0
  0
SPLINE
  5
5A1
100
AcDbEntity
  8
0
100
AcDbSpline
 62
7
  6
CONTINUOUS
 70
0
 71
3
 72
11
 73
7
 74
5
 42
0.0000001
 43
0.0000001
 44
0.0000000001
 12
0.0106283612
 22
-0.1085824647
 32
0.0
 13
0.0041589384
 23
-0.1090220938
 33
0.0
 40
0.0
 40
0.0
 40
0.0
 40
0.0
 40
0.1674305001
 40
0.3924971424
 40
0.6716381039
 40
1.0
 40
1.0
 40
1.0
 40
1.0
 10
19.898338444
 20
21.9503801616
 30
0.0
 10
19.8989316146
 20
21.9443201562
 30
0.0
 10
19.9000004734
 20
21.9300836839
 30
0.0
 10
19.9014122231
 20
21.9056990356
 30
0.0
 10
19.902834351
 20
21.8754536446
 30
0.0
 10
19.9037242989
 20
21.8533784007
 30
0.0
 10
19.9041795112
 20
21.8414455003
 30
0.0
 11
19.898338444
 21
21.9503801616
 31
0.0
 11
19.8997991442
 21
21.9321717566
 31
0.0
 11
19.9012589955
 21
21.9076601067
 31
0.0
 11
19.9027190835
 21
21.87724046
 31
0.0
 11
19.9041795112
 21
21.8414455003
 31
0.0
  0
LINE
  5
5A2
100
AcDbEntity
  8
0
100
AcDbLine
 62
7
  6
CONTINUOUS
 10
19.9041795112
 20
21.8414455003
 11
19.9047325092
 21
21.8266117132
  0
SPLINE
  5
5A3
100
AcDbEntity
  8
0
100
AcDbSpline
 62
7
  6
CONTINUOUS
 70
0
 71
3
 72
9
 73
5
 74
3
 42
0.0000001
 43
0.0000001
 44
0.0000000001
 12
0.0075908951
 22
-0.2081813498
 32
0.0
 13
0.0057980927
 23
-0.208238993
 33
0.0
 40
0.0
 40
0.0
 40
0.0
 40
0.0
 40
0.4672041062
 40
1.0
 40
1.0
 40
1.0
 40
1.0
 10
19.9047325092
 20
21.8266117132
 30
0.0
 10
19.905914675
 20
21.7941906527
 30
0.0
 10
19.9081281441
 20
21.7247854856
 30
0.0
 10
19.9100972105
 20
21.6553735634
 30
0.0
 10
19.9111269438
 20
21.6183906032
 30
0.0
 11
19.9047325092
 21
21.8266117132
 31
0.0
 11
19.9079296105
 21
21.7293364201
 31
0.0
 11
19.9111269438
 21
21.6183906032
 31
0.0
  0
LINE
  5
5A4
100
AcDbEntity
  8
0
100
AcDbLine
 62
7
  6
CONTINUOUS
 10
19.9111269438
 20
21.6183906032
 11
19.9143244805
 21
21.5027646239
  0
SPLINE
  5
5A5
100
AcDbEntity
  8
0
100
AcDbSpline
 62
7
  6
CONTINUOUS
 70
0
 71
3
 72
14
 73
10
 74
8
 42
0.0000001
 43
0.0000001
 44
0.0000000001
 12
0.0092481998
 22
-0.3321187521
 32
0.0
 13
0.0323930141
 23
-0.3306646145
 33
0.0
 40
0.0
 40
0.0
 40
0.0
 40
0.0
 40
0.3340614463
 40
0.4872399882
 40
0.6269919917
 40
0.750426846
 40
0.8550999519
 40
0.9388253081
 40
1.0
 40
1.0
 40
1.0
 40
1.0
 10
19.9143244805
 20
21.5027646239
 30
0.0
 10
19.9153543028
 20
21.4657819337
 30
0.0
 10
19.9168814325
 20
21.4118420347
 30
0.0
 10
19.9190492216
 20
21.3424370006
 30
0.0
 10
19.9206227954
 20
21.2963515912
 30
0.0
 10
19.9221922374
 20
21.255641619
 30
0.0
 10
19.9237452982
 20
21.2211404799
 30
0.0
 10
19.9252867522
 20
21.1935437629
 30
0.0
 10
19.9264575538
 20
21.1775357054
 30
0.0
 10
19.927118098
 20
21.1707929368
 30
0.0
 11
19.9143244805
 21
21.5027646239
 31
0.0
 11
19.9175223888
 21
21.391819626
 31
0.0
 11
19.9191214245
 21
21.3409515665
 31
0.0
 11
19.9207206099
 21
21.2945468613
 31
0.0
 11
19.9223199739
 21
21.253567139
 31
0.0
 11
19.9239191777
 21
21.2188265506
 31
0.0
 11
19.92551813
 21
21.1910550031
 31
0.0
 11
19.927118098
 21
21.1707929368
 31
0.0
  0
SPLINE
  5
5A6
100
AcDbEntity
  8
0
100
AcDbSpline
 62
7
  6
CONTINUOUS
 70
0
 71
3
 72
13
 73
9
 74
7
 42
0.0000001
 43
0.0000001
 44
0.0000000001
 12
0.00165535
 22
-0.0168976459
 32
0.0
 13
0.0169785341
 23
0.0
 33
0.0
 40
0.0
 40
0.0
 40
0.0
 40
0.0
 40
0.4247851588
 40
0.7315133199
 40
0.8405868968
 40
0.9204011275
 40
0.9719513376
 40
1.0
 40
1.0
 40
1.0
 40
1.0
 10
19.927118098
 20
21.1707929368
 30
0.0
 10
19.9273524874
 20
21.1684003137
 30
0.0
 10
19.9277951874
 20
21.1642855835
 30
0.0
 10
19.9284816925
 20
21.1595701837
 30
0.0
 10
19.9290536128
 20
21.1568293734
 30
0.0
 10
19.9294535842
 20
21.1555136849
 30
0.0
 10
19.9297799488
 20
21.1546984752
 30
0.0
 10
19.9301586752
 20
21.154337365
 30
0.0
 10
19.9303174169
 20
21.154337365
 30
0.0
 11
19.927118098
 21
21.1707929368
 31
0.0
 11
19.9279188077
 21
21.1636252931
 31
0.0
 11
19.9287194275
 21
21.1584794082
 31
0.0
 11
19.9291194709
 21
21.1566712229
 31
0.0
 11
19.9295192124
 21
21.1553763946
 31
0.0
 11
19.9299185588
 21
21.1545975623
 31
0.0
 11
19.9303174169
 21
21.154337365
 31
0.0
  0
SPLINE
  5
5A7
100
AcDbEntity
  8
0
100
AcDbSpline
 62
7
  6
CONTINUOUS
 70
0
 71
3
 72
12
 73
8
 74
6
 42
0.0000001
 43
0.0000001
 44
0.0000000001
 12
0.0168032883
 22
0.0
 32
0.0
 13
0.001646989
 23
0.0167223779
 33
0.0
 40
0.0
 40
0.0
 40
0.0
 40
0.0
 40
0.0281443006
 40
0.0797319964
 40
0.2684723747
 40
0.5751907937
 40
1.0
 40
1.0
 40
1.0
 40
1.0
 10
19.9303174169
 20
21.154337365
 30
0.0
 10
19.9304750558
 20
21.154337365
 30
0.0
 10
19.9308513482
 20
21.1546933395
 30
0.0
 10
19.9314008747
 20
21.1560562286
 30
0.0
 10
19.9320882389
 20
21.1590922504
 30
0.0
 10
19.9328219094
 20
21.164171139
 30
0.0
 10
19.9332669478
 20
21.1682528804
 30
0.0
 10
19.9335001665
 20
21.1706208204
 30
0.0
 11
19.9303174169
 21
21.154337365
 31
0.0
 11
19.9307141568
 21
21.1545947514
 31
0.0
 11
19.9311113896
 21
21.1553652206
 31
0.0
 11
19.9319069788
 21
21.1584352678
 31
0.0
 11
19.9327034745
 21
21.1635272275
 31
0.0
 11
19.9335001665
 21
21.1706208204
 31
0.0
  0
SPLINE
  5
5A8
100
AcDbEntity
  8
0
100
AcDbSpline
 62
7
  6
CONTINUOUS
 70
0
 71
3
 72
9
 73
5
 74
3
 42
0.0000001
 43
0.0000001
 44
0.0000000001
 12
0.0046705392
 22
0.0474213995
 32
0.0
 13
0.0024392759
 23
0.0475883704
 33
0.0
 40
0.0
 40
0.0
 40
0.0
 40
0.0
 40
0.4221625499
 40
1.0
 40
1.0
 40
1.0
 40
1.0
 10
19.9335001665
 20
21.1706208204
 30
0.0
 10
19.9341574088
 20
21.177294
 30
0.0
 10
19.9353223589
 20
21.193138132
 30
0.0
 10
19.9362136168
 20
21.2089964357
 30
0.0
 10
19.9366834518
 20
21.2181625499
 30
0.0
 11
19.9335001665
 21
21.1706208204
 31
0.0
 11
19.9350922277
 21
21.190674124
 31
0.0
 11
19.9366834518
 21
21.2181625499
 31
0.0
  0
SPLINE
  5
5A9
100
AcDbEntity
  8
0
100
AcDbSpline
 62
7
  6
CONTINUOUS
 70
0
 71
3
 72
14
 73
10
 74
8
 42
0.0000001
 43
0.0000001
 44
0.0000000001
 12
0.0173644229
 22
0.0
 32
0.0
 13
0.0016756665
 23
-0.0172833829
 33
0.0
 40
0.0
 40
0.0
 40
0.0
 40
0.0
 40
0.0278575692
 40
0.0502589623
 40
0.0794450321
 40
0.159234909
 40
0.2683160994
 40
0.5751143034
 40
1.0
 40
1.0
 40
1.0
 40
1.0
 10
19.9655378024
 20
21.966837365
 30
0.0
 10
19.9656990459
 20
21.966837365
 30
0.0
 10
19.9659489487
 20
21.9665994766
 30
0.0
 10
19.9661667455
 20
21.966210129
 30
0.0
 10
19.9664674373
 20
21.965503118
 30
0.0
 10
19.9668088193
 20
21.9642892974
 30
0.0
 10
19.9674045248
 20
21.9614798329
 30
0.0
 10
19.9680871025
 20
21.956658893
 30
0.0
 10
19.968539778
 20
21.9524478759
 30
0.0
 10
19.9687771003
 20
21.9500000552
 30
0.0
 11
19.9655378024
 21
21.966837365
 31
0.0
 11
19.9659416325
 21
21.9665710634
 31
0.0
 11
19.9661437416
 21
21.9662387037
 31
0.0
 11
19.9663459641
 21
21.9657739978
 31
0.0
 11
19.966750701
 21
21.964448927
 31
0.0
 11
19.9671557471
 21
21.9625986099
 31
0.0
 11
19.9679663822
 21
21.9573332721
 31
0.0
 11
19.9687771003
 21
21.9500000552
 31
0.0
  0
SPLINE
  5
5AA
100
AcDbEntity
  8
0
100
AcDbSpline
 62
7
  6
CONTINUOUS
 70
0
 71
3
 72
21
 73
17
 74
15
 42
0.0000001
 43
0.0000001
 44
0.0000000001
 12
0.075232621
 22
-0.7759743129
 32
0.0
 13
0.0752918236
 23
-0.7759685708
 33
0.0
 40
0.0
 40
0.0
 40
0.0
 40
0.0
 40
0.0302098433
 40
0.0724160113
 40
0.1255745013
 40
0.1883186665
 40
0.2590517919
 40
0.3359578309
 40
0.500291329
 40
0.6645785093
 40
0.7414315565
 40
0.8121004095
 40
0.8747614419
 40
0.9278244167
 40
0.9699164836
 40
1.0
 40
1.0
 40
1.0
 40
1.0
 10
19.9687771003
 20
21.9500000552
 30
0.0
 10
19.9695346888
 20
21.9421860344
 30
0.0
 10
19.9708481898
 20
21.9234087877
 30
0.0
 10
19.9725735243
 20
21.8908219444
 30
0.0
 10
19.9743121515
 20
21.8497698255
 30
0.0
 10
19.9760705425
 20
21.8013005378
 30
0.0
 10
19.9778347013
 20
21.7466563358
 30
0.0
 10
19.9802466552
 20
21.6656195714
 30
0.0
 10
19.9831461258
 20
21.5602748122
 30
0.0
 10
19.9860441078
 20
21.4549437891
 30
0.0
 10
19.9884528822
 20
21.3739494603
 30
0.0
 10
19.9902132717
 20
21.3193572405
 30
0.0
 10
19.9919672224
 20
21.270950966
 30
0.0
 10
19.993699889
 20
21.2299747335
 30
0.0
 10
19.9954188141
 20
21.1974749939
 30
0.0
 10
19.9967266935
 20
21.1787599672
 30
0.0
 10
19.9974817078
 20
21.1709786794
 30
0.0
 11
19.9687771003
 21
21.9500000552
 31
0.0
 11
19.9705751614
 21
21.9265168116
 31
0.0
 11
19.9723718043
 21
21.8936614304
 31
0.0
 11
19.9741683463
 21
21.8522573504
 31
0.0
 11
19.9759647165
 21
21.8033741931
 31
0.0
 11
19.9777607709
 21
21.7482590014
 31
0.0
 11
19.9795564728
 21
21.6883289674
 31
0.0
 11
19.9831462321
 21
21.560262774
 31
0.0
 11
19.9867337078
 21
21.4322326409
 31
0.0
 11
19.9885266945
 21
21.3723438571
 31
0.0
 11
19.9903190885
 21
21.3172786803
 31
0.0
 11
19.9921107765
 21
21.2684602061
 31
0.0
 11
19.9939015996
 21
21.2271304131
 31
0.0
 11
19.9956915355
 21
21.1943637527
 31
0.0
 11
19.9974817078
 21
21.1709786794
 31
0.0
  0
SPLINE
  5
5AB
100
AcDbEntity
  8
0
100
AcDbSpline
 62
7
  6
CONTINUOUS
 70
0
 71
3
 72
13
 73
9
 74
7
 42
0.0000001
 43
0.0000001
 44
0.0000000001
 12
0.0016572969
 22
-0.0170803444
 32
0.0
 13
0.0171605594
 23
0.0
 33
0.0
 40
0.0
 40
0.0
 40
0.0
 40
0.0
 40
0.4250044526
 40
0.7318295257
 40
0.8409047403
 40
0.9206837949
 40
0.9721447992
 40
1.0
 40
1.0
 40
1.0
 40
1.0
 10
19.9974817078
 20
21.1709786794
 30
0.0
 10
19.997716494
 20
21.1685589386
 30
0.0
 10
19.9981598036
 20
21.1643979152
 30
0.0
 10
19.9988473623
 20
21.1596290464
 30
0.0
 10
19.9994196541
 20
21.1568576255
 30
0.0
 10
19.9998202873
 20
21.1555269705
 30
0.0
 10
20.0001457638
 20
21.1547043469
 30
0.0
 10
20.0005252693
 20
21.154337365
 30
0.0
 10
20.0006846062
 20
21.154337365
 30
0.0
 11
19.9974817078
 21
21.1709786794
 31
0.0
 11
19.9982836888
 21
21.1637295928
 31
0.0
 11
19.9990853145
 21
21.1585256833
 31
0.0
 11
19.9994857681
 21
21.1566972301
 31
0.0
 11
19.9998858615
 21
21.1553879433
 31
0.0
 11
20.0002855044
 21
21.154600447
 31
0.0
 11
20.0006846062
 21
21.154337365
 31
0.0
  0
SPLINE
  5
5AC
100
AcDbEntity
  8
0
100
AcDbSpline
 62
7
  6
CONTINUOUS
 70
0
 71
3
 72
14
 73
10
 74
8
 42
0.0000001
 43
0.0000001
 44
0.0000000001
 12
0.0173778237
 22
0.0
 32
0.0
 13
0.0016654329
 23
0.0172978348
 33
0.0
 40
0.0
 40
0.0
 40
0.0
 40
0.0
 40
0.0277398724
 40
0.0501106696
 40
0.0792782968
 40
0.1590560654
 40
0.2681474354
 40
0.575010703
 40
1.0
 40
1.0
 40
1.0
 40
1.0
 10
20.0006846062
 20
21.154337365
 30
0.0
 10
20.0008452924
 20
21.154337365
 30
0.0
 10
20.0010938676
 20
21.154576195
 30
0.0
 10
20.0013101156
 20
21.1549654552
 30
0.0
 10
20.0016092124
 20
21.155673501
 30
0.0
 10
20.0019486021
 20
21.1568886519
 30
0.0
 10
20.0025409989
 20
21.1597015004
 30
0.0
 10
20.0032196173
 20
21.1645277484
 30
0.0
 10
20.0036696694
 20
21.1687433344
 30
0.0
 10
20.0039055998
 20
21.1711937992
 30
0.0
 11
20.0006846062
 21
21.154337365
 31
0.0
 11
20.0010862138
 21
21.1546039955
 31
0.0
 11
20.001287206
 21
21.1549367615
 31
0.0
 11
20.0014883073
 21
21.1554020306
 31
0.0
 11
20.001890789
 21
21.1567286857
 31
0.0
 11
20.0022935611
 21
21.1585811761
 31
0.0
 11
20.0030995859
 21
21.1638525246
 31
0.0
 11
20.0039055998
 21
21.1711937992
 31
0.0
  0
SPLINE
  5
5AD
100
AcDbEntity
  8
0
100
AcDbSpline
 62
7
  6
CONTINUOUS
 70
0
 71
3
 72
9
 73
5
 74
3
 42
0.0000001
 43
0.0000001
 44
0.0000000001
 12
0.0044882042
 22
0.0466162361
 32
0.0
 13
0.002386059
 23
0.0467709757
 33
0.0
 40
0.0
 40
0.0
 40
0.0
 40
0.0
 40
0.4242140651
 40
1.0
 40
1.0
 40
1.0
 40
1.0
 10
20.0039055998
 20
21.1711937992
 30
0.0
 10
20.0045402529
 20
21.1777855536
 30
0.0
 10
20.0056730327
 20
21.1933579275
 30
0.0
 10
20.0065433051
 20
21.2089440467
 30
0.0
 10
20.0070012581
 20
21.2179207367
 30
0.0
 11
20.0039055998
 21
21.1711937992
 31
0.0
 11
20.005454095
 21
21.1910000672
 31
0.0
 11
20.0070012581
 21
21.2179207367
 31
0.0
  0
SPLINE
  5
5AE
100
AcDbEntity
  8
0
100
AcDbSpline
 62
7
  6
CONTINUOUS
 70
0
 71
3
 72
12
 73
8
 74
6
 42
0.0000001
 43
0.0000001
 44
0.0000000001
 12
0.0142599342
 22
0.0
 32
0.0
 13
0.0015261058
 23
-0.0141780367
 33
0.0
 40
0.0
 40
0.0
 40
0.0
 40
0.0
 40
0.0298251241
 40
0.0821087675
 40
0.27082782
 40
0.5766028743
 40
1.0
 40
1.0
 40
1.0
 40
1.0
 10
20.0357499574
 20
21.966837365
 30
0.0
 10
20.0358917255
 20
21.966837365
 30
0.0
 10
20.0362338186
 20
21.9665505933
 30
0.0
 10
20.0367518294
 20
21.965392122
 30
0.0
 10
20.0373797467
 20
21.9628346703
 30
0.0
 10
20.0380618696
 20
21.9585402147
 30
0.0
 10
20.0384714507
 20
21.9550925059
 30
0.0
 10
20.0386868336
 20
21.9530915259
 30
0.0
 11
20.0357499574
 21
21.966837365
 31
0.0
 11
20.0361158335
 21
21.9666205278
 31
0.0
 11
20.0364822011
 21
21.9659711924
 31
0.0
 11
20.0372161324
 21
21.9633820847
 31
0.0
 11
20.0379511953
 21
21.9590841574
 31
0.0
 11
20.0386868336
 21
21.9530915259
 31
0.0
  0
SPLINE
  5
5AF
100
AcDbEntity
  8
0
100
AcDbSpline
 62
7
  6
CONTINUOUS
 70
0
 71
3
 72
9
 73
5
 74
3
 42
0.0000001
 43
0.0000001
 44
0.0000000001
 12
0.0043662568
 22
-0.040563997
 32
0.0
 13
0.0022661391
 23
-0.0407353245
 33
0.0
 40
0.0
 40
0.0
 40
0.0
 40
0.0
 40
0.4211186998
 40
1.0
 40
1.0
 40
1.0
 40
1.0
 10
20.0386868336
 20
21.9530915259
 30
0.0
 10
20.0392997377
 20
21.94739744
 30
0.0
 10
20.0403860647
 20
21.9338380482
 30
0.0
 10
20.0412149528
 20
21.9202641954
 30
0.0
 10
20.041652228
 20
21.9124038895
 30
0.0
 11
20.0386868336
 21
21.9530915259
 31
0.0
 11
20.0401690285
 21
21.9359746486
 31
0.0
 11
20.041652228
 21
21.9124038895
 31
0.0
  0
SPLINE
  5
5B0
100
AcDbEntity
  8
0
100
AcDbSpline
 62
7
  6
CONTINUOUS
 70
0
 71
3
 72
9
 73
5
 74
3
 42
0.0000001
 43
0.0000001
 44
0.0000000001
 12
0.0082800822
 22
-0.1488398629
 32
0.0
 13
0.0048118244
 23
-0.1489923182
 33
0.0
 40
0.0
 40
0.0
 40
0.0
 40
0.0
 40
0.4342310595
 40
1.0
 40
1.0
 40
1.0
 40
1.0
 10
20.041652228
 20
21.9124038895
 30
0.0
 10
20.0428507176
 20
21.8908602591
 30
0.0
 10
20.044977094
 20
21.8412130472
 30
0.0
 10
20.0466870212
 20
21.7915528247
 30
0.0
 10
20.0475944814
 20
21.7634544161
 30
0.0
 11
20.041652228
 21
21.9124038895
 31
0.0
 11
20.0446188707
 21
21.847741083
 31
0.0
 11
20.0475944814
 21
21.7634544161
 31
0.0
  0
SPLINE
  5
5B1
100
AcDbEntity
  8
0
100
AcDbSpline
 62
7
  6
CONTINUOUS
 70
0
 71
3
 72
16
 73
12
 74
10
 42
0.0000001
 43
0.0000001
 44
0.0000000001
 12
0.0188089377
 22
-0.5912641014
 32
0.0
 13
0.0552836449
 23
-0.5889743054
 33
0.0
 40
0.0
 40
0.0
 40
0.0
 40
0.0
 40
0.1410337191
 40
0.2923211036
 40
0.4460276242
 40
0.5946225819
 40
0.7306000264
 40
0.8471540167
 40
0.9384718551
 40
0.9731795344
 40
1.0
 40
1.0
 40
1.0
 40
1.0
 10
20.0475944814
 20
21.7634544161
 30
0.0
 10
20.0484787129
 20
21.7356583577
 30
0.0
 10
20.0501914368
 20
21.6780415654
 30
0.0
 10
20.0526405765
 20
21.5901245065
 30
0.0
 10
20.0550905015
 20
21.5007158854
 30
0.0
 10
20.0575371388
 20
21.4143273381
 30
0.0
 10
20.0599682722
 20
21.3352671351
 30
0.0
 10
20.0623850205
 20
21.2675075533
 30
0.0
 10
20.0644856497
 20
21.2197176696
 30
0.0
 10
20.0662821343
 20
21.1896316359
 30
0.0
 10
20.0671987308
 20
21.1775322116
 30
0.0
 10
20.0676929751
 20
21.1722666899
 30
0.0
 11
20.0475944814
 21
21.7634544161
 31
0.0
 11
20.050106317
 21
21.680061879
 31
0.0
 11
20.0526205539
 21
21.590601154
 31
0.0
 11
20.0551322693
 21
21.4997087313
 31
0.0
 11
20.0576446937
 21
21.4118413353
 31
0.0
 11
20.0601568496
 21
21.3314413213
 31
0.0
 11
20.0626689847
 21
21.2625380499
 31
0.0
 11
20.065180595
 21
21.2085761965
 31
0.0
 11
20.0664363844
 21
21.1880828508
 31
0.0
 11
20.0676929751
 21
21.1722666899
 31
0.0
  0
SPLINE
  5
5B2
100
AcDbEntity
  8
0
100
AcDbSpline
 62
7
  6
CONTINUOUS
 70
0
 71
3
 72
14
 73
10
 74
8
 42
0.0000001
 43
0.0000001
 44
0.0000000001
 12
0.0017249843
 22
-0.0183774316
 32
0.0
 13
0.0184582113
 23
0.0
 33
0.0
 40
0.0
 40
0.0
 40
0.0
 40
0.0
 40
0.4253634202
 40
0.7324853277
 40
0.8416256545
 40
0.9213665095
 40
0.9504667539
 40
0.972721574
 40
1.0
 40
1.0
 40
1.0
 40
1.0
 10
20.0676929751
 20
21.1722666899
 30
0.0
 10
20.0679375569
 20
21.1696609942
 30
0.0
 10
20.0684041074
 20
21.1651781183
 30
0.0
 10
20.0691071213
 20
21.1600455128
 30
0.0
 10
20.0697210502
 20
21.1570527019
 30
0.0
 10
20.0700722969
 20
21.1557603181
 30
0.0
 10
20.0703824092
 20
21.155006121
 30
0.0
 10
20.0706049821
 20
21.1545943286
 30
0.0
 10
20.0708625524
 20
21.154337365
 30
0.0
 10
20.0710303894
 20
21.154337365
 30
0.0
 11
20.0676929751
 21
21.1722666899
 31
0.0
 11
20.0685284187
 21
21.1644598168
 31
0.0
 11
20.0693636897
 21
21.1588527687
 31
0.0
 11
20.0697810008
 21
21.1568819304
 31
0.0
 11
20.070197957
 21
21.15547035
 31
0.0
 11
20.0704062695
 21
21.1549752505
 31
0.0
 11
20.0706144545
 21
21.1546211281
 31
0.0
 11
20.0710303894
 21
21.154337365
 31
0.0
  0
SPLINE
  5
5B3
100
AcDbEntity
  8
0
100
AcDbSpline
 62
7
  6
CONTINUOUS
 70
0
 71
3
 72
12
 73
8
 74
6
 42
0.0000001
 43
0.0000001
 44
0.0000000001
 12
0.0167964396
 22
0.0
 32
0.0
 13
0.0016447107
 23
0.0167157205
 33
0.0
 40
0.0
 40
0.0
 40
0.0
 40
0.0
 40
0.0281289019
 40
0.0797092718
 40
0.2684469101
 40
0.5751730617
 40
1.0
 40
1.0
 40
1.0
 40
1.0
 10
20.0710303894
 20
21.154337365
 30
0.0
 10
20.0711878778
 20
21.154337365
 30
0.0
 10
20.0715637631
 20
21.154693348
 30
0.0
 10
20.0721125075
 20
21.1560556245
 30
0.0
 10
20.0727990733
 20
21.1590905993
 30
0.0
 10
20.073531745
 20
21.1641675909
 30
0.0
 10
20.0739762048
 20
21.1682478716
 30
0.0
 10
20.0742091106
 20
21.1706149677
 30
0.0
 11
20.0710303894
 21
21.154337365
 31
0.0
 11
20.0714266537
 21
21.154594655
 31
0.0
 11
20.0718234021
 21
21.1553648379
 31
0.0
 11
20.072617998
 21
21.1584337596
 31
0.0
 11
20.0734134699
 21
21.1635238847
 31
0.0
 11
20.0742091106
 21
21.1706149677
 31
0.0
  0
SPLINE
  5
5B4
100
AcDbEntity
  8
0
100
AcDbSpline
 62
7
  6
CONTINUOUS
 70
0
 71
3
 72
9
 73
5
 74
3
 42
0.0000001
 43
0.0000001
 44
0.0000000001
 12
0.0046675608
 22
0.0474379132
 32
0.0
 13
0.0024367163
 23
0.0476046652
 33
0.0
 40
0.0
 40
0.0
 40
0.0
 40
0.0
 40
0.4221370132
 40
1.0
 40
1.0
 40
1.0
 40
1.0
 10
20.0742091106
 20
21.1706149677
 30
0.0
 10
20.074865894
 20
21.1772900674
 30
0.0
 10
20.0760298411
 20
21.1931396666
 30
0.0
 10
20.0769202193
 20
21.2090034085
 30
0.0
 10
20.0773895821
 20
21.2181730665
 30
0.0
 11
20.0742091106
 21
21.1706149677
 31
0.0
 11
20.0757998344
 21
21.1906739926
 31
0.0
 11
20.0773895821
 21
21.2181730665
 31
0.0
  0
SPLINE
  5
5B5
100
AcDbEntity
  8
0
100
AcDbSpline
 62
7
  6
CONTINUOUS
 70
0
 71
3
 72
14
 73
10
 74
8
 42
0.0000001
 43
0.0000001
 44
0.0000000001
 12
0.0173045196
 22
0.0
 32
0.0
 13
0.0016702196
 23
-0.0172237268
 33
0.0
 40
0.0
 40
0.0
 40
0.0
 40
0.0
 40
0.0278569655
 40
0.0502582871
 40
0.0794443486
 40
0.159234294
 40
0.2683155901
 40
0.5751140316
 40
1.0
 40
1.0
 40
1.0
 40
1.0
 10
20.1061900398
 20
21.966837365
 30
0.0
 10
20.1063507236
 20
21.966837365
 30
0.0
 10
20.1065997564
 20
21.9666002938
 30
0.0
 10
20.1068168001
 20
21.9662122945
 30
0.0
 10
20.1071164588
 20
21.9655077237
 30
0.0
 10
20.1074566778
 20
21.9642980946
 30
0.0
 10
20.1080503714
 20
21.9614983284
 30
0.0
 10
20.1087306817
 20
21.9566940291
 30
0.0
 10
20.1091818763
 20
21.9524975446
 30
0.0
 10
20.1094184273
 20
21.9500581714
 30
0.0
 11
20.1061900398
 21
21.966837365
 31
0.0
 11
20.1065924647
 21
21.9665719829
 31
0.0
 11
20.1067938758
 21
21.9662407706
 31
0.0
 11
20.1069954031
 21
21.9657776691
 31
0.0
 11
20.1073987587
 21
21.9644571728
 31
0.0
 11
20.1078024352
 21
21.9626132431
 31
0.0
 11
20.1086103665
 21
21.9573660796
 31
0.0
 11
20.1094184273
 21
21.9500581714
 31
0.0
  0
SPLINE
  5
5B6
100
AcDbEntity
  8
0
100
AcDbSpline
 62
7
  6
CONTINUOUS
 70
0
 71
3
 72
12
 73
8
 74
6
 42
0.0000001
 43
0.0000001
 44
0.0000000001
 12
0.0177866741
 22
-0.1834206796
 32
0.0
 13
0.0058840903
 23
-0.1841871031
 33
0.0
 40
0.0
 40
0.0
 40
0.0
 40
0.0
 40
0.0684897567
 40
0.1549772683
 40
0.3788448467
 40
0.6638295566
 40
1.0
 40
1.0
 40
1.0
 40
1.0
 10
20.1094184273
 20
21.9500581714
 30
0.0
 10
20.1098244956
 20
21.9458706921
 30
0.0
 10
20.1105900442
 20
21.9363807117
 30
0.0
 10
20.1120932946
 20
21.9131576874
 30
0.0
 10
20.1138675236
 20
21.8766289404
 30
0.0
 10
20.1159046966
 20
21.8247617249
 30
0.0
 10
20.1171811238
 20
21.7866271064
 30
0.0
 10
20.1178404763
 20
21.7659876863
 30
0.0
 11
20.1094184273
 21
21.9500581714
 31
0.0
 11
20.1104717265
 21
21.9374808336
 31
0.0
 11
20.1115243653
 21
21.9215776219
 31
0.0
 11
20.1136293021
 21
21.880376801
 31
0.0
 11
20.1157347689
 21
21.8279017368
 31
0.0
 11
20.1178404763
 21
21.7659876863
 31
0.0
  0
LINE
  5
5B7
100
AcDbEntity
  8
0
100
AcDbLine
 62
7
  6
CONTINUOUS
 10
20.1178404763
 20
21.7659876863
 11
20.1189299373
 21
21.7309687072
  0
SPLINE
  5
5B8
100
AcDbEntity
  8
0
100
AcDbSpline
 62
7
  6
CONTINUOUS
 70
0
 71
3
 72
16
 73
12
 74
10
 42
0.0000001
 43
0.0000001
 44
0.0000000001
 12
0.0170050546
 22
-0.5600754689
 32
0.0
 13
0.0543073892
 23
-0.5576956251
 33
0.0
 40
0.0
 40
0.0
 40
0.0
 40
0.0
 40
0.1471388266
 40
0.3014642028
 40
0.4559100232
 40
0.6034126313
 40
0.7372197608
 40
0.8511912835
 40
0.9401307651
 40
0.9738954177
 40
1.0
 40
1.0
 40
1.0
 40
1.0
 10
20.1189299373
 20
21.7309687072
 30
0.0
 10
20.1197639719
 20
21.7034990914
 30
0.0
 10
20.1213877387
 20
21.6472156171
 30
0.0
 10
20.1237349007
 20
21.5620940883
 30
0.0
 10
20.1260817473
 20
21.4769045411
 30
0.0
 10
20.1284250924
 20
21.3955488219
 30
0.0
 10
20.1307533294
 20
21.321755365
 30
0.0
 10
20.1330675962
 20
21.2589066386
 30
0.0
 10
20.1350807058
 20
21.2147443863
 30
0.0
 10
20.1368014041
 20
21.1870032464
 30
0.0
 10
20.1376788583
 20
21.1758540006
 30
0.0
 10
20.1381514156
 20
21.1710011968
 30
0.0
 11
20.1189299373
 21
21.7309687072
 31
0.0
 11
20.1213319403
 21
21.6485568815
 31
0.0
 11
20.1237339107
 21
21.5621165595
 31
0.0
 11
20.1261359577
 21
21.4756087247
 31
0.0
 11
20.1285383734
 21
21.3929929857
 31
0.0
 11
20.1309411888
 21
21.318054872
 31
0.0
 11
20.1333441644
 21
21.2542380276
 31
0.0
 11
20.1357471073
 21
21.2044602162
 31
0.0
 11
20.1369488772
 21
21.185578955
 31
0.0
 11
20.1381514156
 21
21.1710011968
 31
0.0
  0
SPLINE
  5
5B9
100
AcDbEntity
  8
0
100
AcDbSpline
 62
7
  6
CONTINUOUS
 70
0
 71
3
 72
13
 73
9
 74
7
 42
0.0000001
 43
0.0000001
 44
0.0000000001
 12
0.0016658339
 22
-0.0171068484
 32
0.0
 13
0.017187765
 23
0.0
 33
0.0
 40
0.0
 40
0.0
 40
0.0
 40
0.0
 40
0.4249292317
 40
0.7317109246
 40
0.8407804963
 40
0.9205690209
 40
0.9720636033
 40
1.0
 40
1.0
 40
1.0
 40
1.0
 10
20.1381514156
 20
21.1710011968
 30
0.0
 10
20.1383873694
 20
21.1685781302
 30
0.0
 10
20.1388329533
 20
21.1644113246
 30
0.0
 10
20.1395240791
 20
21.1596360466
 30
0.0
 10
20.1400996135
 20
21.1568607955
 30
0.0
 10
20.1405023679
 20
21.155528478
 30
0.0
 10
20.1408301993
 20
21.1547040163
 30
0.0
 10
20.1412117045
 20
21.154337365
 30
0.0
 10
20.1413717592
 20
21.154337365
 30
0.0
 11
20.1381514156
 21
21.1710011968
 31
0.0
 11
20.1389574735
 21
21.1637422295
 31
0.0
 11
20.1397633646
 21
21.1585312866
 31
0.0
 11
20.140166022
 21
21.1567003783
 31
0.0
 11
20.1405683671
 21
21.1553893409
 31
0.0
 11
20.1409703095
 21
21.1546007959
 31
0.0
 11
20.1413717592
 21
21.154337365
 31
0.0
  0
SPLINE
  5
5BA
100
AcDbEntity
  8
0
100
AcDbSpline
 62
7
  6
CONTINUOUS
 70
0
 71
3
 72
9
 73
5
 74
3
 42
0.0000001
 43
0.0000001
 44
0.0000000001
 12
-0.0047924307
 22
0.1483625418
 32
0.0
 13
-0.00829901
 23
0.1482077516
 33
0.0
 40
0.0
 40
0.0
 40
0.0
 40
0.0
 40
0.5651672765
 40
1.0
 40
1.0
 40
1.0
 40
1.0
 10
20.0974964968
 20
21.7634544161
 30
0.0
 10
20.0965936552
 20
21.7914043006
 30
0.0
 10
20.0948873111
 20
21.8408545146
 30
0.0
 10
20.0927561141
 20
21.8902913459
 30
0.0
 10
20.0915532204
 20
21.9117732059
 30
0.0
 11
20.0974964968
 21
21.7634544161
 31
0.0
 11
20.0945292115
 21
21.8472953115
 31
0.0
 11
20.0915532204
 21
21.9117732059
 31
0.0
  0
SPLINE
  5
5BB
100
AcDbEntity
  8
0
100
AcDbSpline
 62
7
  6
CONTINUOUS
 70
0
 71
3
 72
14
 73
10
 74
8
 42
0.0000001
 43
0.0000001
 44
0.0000000001
 12
-0.0030227555
 22
0.0539818358
 32
0.0
 13
-0.0180078679
 23
0.0509793324
 33
0.0
 40
0.0
 40
0.0
 40
0.0
 40
0.0
 40
0.381117291
 40
0.5399777229
 40
0.6770311591
 40
0.7917864452
 40
0.8838951385
 40
0.9532708336
 40
1.0
 40
1.0
 40
1.0
 40
1.0
 10
20.0915532204
 20
21.9117732059
 30
0.0
 10
20.0911692123
 20
21.9186310096
 30
0.0
 10
20.0905821948
 20
21.9283453186
 30
0.0
 10
20.0896828309
 20
21.940513768
 30
0.0
 10
20.0890521502
 20
21.9478883999
 30
0.0
 10
20.0884235752
 20
21.9540544003
 30
0.0
 10
20.0878027415
 20
21.9589960968
 30
0.0
 10
20.0871866421
 20
21.962695776
 30
0.0
 10
20.086712122
 20
21.9647417611
 30
0.0
 10
20.0864316244
 20
21.965535835
 30
0.0
 11
20.0915532204
 21
21.9117732059
 31
0.0
 11
20.0902756737
 21
21.932339204
 31
0.0
 11
20.0896361795
 21
21.9409043759
 31
0.0
 11
20.0889961279
 21
21.9482866672
 31
0.0
 11
20.088355463
 21
21.9544579064
 31
0.0
 11
20.0877142681
 21
21.959396441
 31
0.0
 11
20.0870728709
 21
21.9630920893
 31
0.0
 11
20.0864316244
 21
21.965535835
 31
0.0
  0
SPLINE
  5
5BC
100
AcDbEntity
  8
0
100
AcDbSpline
 62
7
  6
CONTINUOUS
 70
0
 71
3
 72
9
 73
5
 74
3
 42
0.0000001
 43
0.0000001
 44
0.0000000001
 12
-0.0005464308
 22
0.0015469171
 32
0.0
 13
-0.0016405911
 23
0.0
 33
0.0
 40
0.0
 40
0.0
 40
0.0
 40
0.0
 40
0.6571424456
 40
1.0
 40
1.0
 40
1.0
 40
1.0
 10
20.0864316244
 20
21.965535835
 30
0.0
 10
20.0863119301
 20
21.9658746833
 30
0.0
 10
20.086143983
 20
21.9663651866
 30
0.0
 10
20.0857018669
 20
21.966837365
 30
0.0
 10
20.0855143705
 20
21.966837365
 30
0.0
 11
20.0864316244
 21
21.965535835
 31
0.0
 11
20.0859728037
 21
21.966511431
 31
0.0
 11
20.0855143705
 21
21.966837365
 31
0.0
  0
SPLINE
  5
5BD
100
AcDbEntity
  8
0
100
AcDbSpline
 62
7
  6
CONTINUOUS
 70
0
 71
3
 72
14
 73
10
 74
8
 42
0.0000001
 43
0.0000001
 44
0.0000000001
 12
0.0173960182
 22
0.0
 32
0.0
 13
0.0016766859
 23
0.0173150274
 33
0.0
 40
0.0
 40
0.0
 40
0.0
 40
0.0
 40
0.0278289645
 40
0.0502236802
 40
0.0794063087
 40
0.1591956823
 40
0.2682815925
 40
0.5750967687
 40
1.0
 40
1.0
 40
1.0
 40
1.0
 10
20.1413717592
 20
21.154337365
 30
0.0
 10
20.1415331303
 20
21.154337365
 30
0.0
 10
20.1417831126
 20
21.1545758891
 30
0.0
 10
20.1420008922
 20
21.154965857
 30
0.0
 10
20.1423017042
 20
21.1556742945
 30
0.0
 10
20.1426431978
 20
21.1568904415
 30
0.0
 10
20.1432391689
 20
21.1597053287
 30
0.0
 10
20.1439220878
 20
21.1645353738
 30
0.0
 10
20.1443750443
 20
21.1687543172
 30
0.0
 10
20.1446125208
 20
21.1712067209
 30
0.0
 11
20.1413717592
 21
21.154337365
 31
0.0
 11
20.1417757005
 21
21.1546041927
 31
0.0
 11
20.1419778734
 21
21.1549372059
 31
0.0
 11
20.1421801651
 21
21.155402822
 31
0.0
 11
20.1425850562
 21
21.1567304724
 31
0.0
 11
20.142990277
 21
21.1585843633
 31
0.0
 11
20.1438013203
 21
21.1638597444
 31
0.0
 11
20.1446125208
 21
21.1712067209
 31
0.0
  0
SPLINE
  5
5BE
100
AcDbEntity
  8
0
100
AcDbSpline
 62
7
  6
CONTINUOUS
 70
0
 71
3
 72
9
 73
5
 74
3
 42
0.0000001
 43
0.0000001
 44
0.0000000001
 12
0.0045060091
 22
0.0465332664
 32
0.0
 13
0.0023991901
 23
0.0466893231
 33
0.0
 40
0.0
 40
0.0
 40
0.0
 40
0.0
 40
0.4243168672
 40
1.0
 40
1.0
 40
1.0
 40
1.0
 10
20.1446125208
 20
21.1712067209
 30
0.0
 10
20.145249846
 20
21.1777883375
 30
0.0
 10
20.1463881269
 20
21.1933332953
 30
0.0
 10
20.147263049
 20
21.2088921558
 30
0.0
 10
20.1477234401
 20
21.2178515744
 30
0.0
 11
20.1446125208
 21
21.1712067209
 31
0.0
 11
20.1461684132
 21
21.1909828162
 31
0.0
 11
20.1477234401
 21
21.2178515744
 31
0.0
  0
SPLINE
  5
5BF
100
AcDbEntity
  8
0
100
AcDbSpline
 62
7
  6
CONTINUOUS
 70
0
 71
3
 72
12
 73
8
 74
6
 42
0.0000001
 43
0.0000001
 44
0.0000000001
 12
0.0166382145
 22
0.0
 32
0.0
 13
0.0016389457
 23
-0.0165572957
 33
0.0
 40
0.0
 40
0.0
 40
0.0
 40
0.0
 40
0.0282469262
 40
0.0798792645
 40
0.2686276892
 40
0.5752924458
 40
1.0
 40
1.0
 40
1.0
 40
1.0
 10
20.1765956463
 20
21.966837365
 30
0.0
 10
20.1767523058
 20
21.966837365
 30
0.0
 10
20.1771265807
 20
21.9664859554
 30
0.0
 10
20.1776742648
 20
21.9651360785
 30
0.0
 10
20.1783579066
 20
21.962131171
 30
0.0
 10
20.1790882847
 20
21.9571031805
 30
0.0
 10
20.1795309838
 20
21.9530627379
 30
0.0
 10
20.179763008
 20
21.9507187351
 30
0.0
 11
20.1765956463
 21
21.966837365
 31
0.0
 11
20.1769905713
 21
21.9665825828
 31
0.0
 11
20.1773859578
 21
21.9658199094
 31
0.0
 11
20.1781777613
 21
21.9627809309
 31
0.0
 11
20.1789703477
 21
21.957740512
 31
0.0
 11
20.179763008
 21
21.9507187351
 31
0.0
  0
SPLINE
  5
5C0
100
AcDbEntity
  8
0
100
AcDbSpline
 62
7
  6
CONTINUOUS
 70
0
 71
3
 72
21
 73
17
 74
15
 42
0.0000001
 43
0.0000001
 44
0.0000000001
 12
0.0768952217
 22
-0.776826797
 32
0.0
 13
0.0759211203
 23
-0.7769226031
 33
0.0
 40
0.0
 40
0.0
 40
0.0
 40
0.0
 40
0.029802129
 40
0.0717032712
 40
0.1246607585
 40
0.1872982193
 40
0.2580091801
 40
0.334967552
 40
0.499579787
 40
0.6642559589
 40
0.7412903963
 40
0.8121068126
 40
0.8748695315
 40
0.9279742893
 40
0.9700321402
 40
1.0
 40
1.0
 40
1.0
 40
1.0
 10
20.179763008
 20
21.9507187351
 30
0.0
 10
20.1805268884
 20
21.9430017043
 30
0.0
 10
20.1818439238
 20
21.9243858595
 30
0.0
 10
20.1835729765
 20
21.8919950733
 30
0.0
 10
20.1853151358
 20
21.8510493014
 30
0.0
 10
20.1870777802
 20
21.80260317
 30
0.0
 10
20.1888459516
 20
21.7479081094
 30
0.0
 10
20.1912642946
 20
21.6666859892
 30
0.0
 10
20.1941705455
 20
21.5610173256
 30
0.0
 10
20.1970741895
 20
21.4553287956
 30
0.0
 10
20.1994878454
 20
21.3740426385
 30
0.0
 10
20.2012516428
 20
21.3192675748
 30
0.0
 10
20.2030090203
 20
21.2707228284
 30
0.0
 10
20.2047445677
 20
21.2296650235
 30
0.0
 10
20.2064660375
 20
21.1971513959
 30
0.0
 10
20.207776152
 20
21.1784511089
 30
0.0
 10
20.2085345499
 20
21.1706902063
 30
0.0
 11
20.179763008
 21
21.9507187351
 31
0.0
 11
20.1815659781
 21
21.9275244686
 31
0.0
 11
20.1833676434
 21
21.8948651174
 31
0.0
 11
20.1851692274
 21
21.8535645435
 31
0.0
 11
20.1869704017
 21
21.8047014676
 31
0.0
 11
20.1887709611
 21
21.7495322181
 31
0.0
 11
20.1905710233
 21
21.6894836933
 31
0.0
 11
20.1941694499
 21
21.5610339398
 31
0.0
 11
20.1977652125
 21
21.4325341815
 31
0.0
 11
20.1995620181
 21
21.3724261541
 31
0.0
 11
20.2013580995
 21
21.3171743941
 31
0.0
 11
20.203153517
 21
21.2682132611
 31
0.0
 11
20.2049479904
 21
21.2267973068
 31
0.0
 11
20.2067412123
 21
21.1940149769
 31
0.0
 11
20.2085345499
 21
21.1706902063
 31
0.0
  0
SPLINE
  5
5C1
100
AcDbEntity
  8
0
100
AcDbSpline
 62
7
  6
CONTINUOUS
 70
0
 71
3
 72
13
 73
9
 74
7
 42
0.0000001
 43
0.0000001
 44
0.0000000001
 12
0.0016407176
 22
-0.0167899342
 32
0.0
 13
0.0168699095
 23
0.0
 33
0.0
 40
0.0
 40
0.0
 40
0.0
 40
0.0
 40
0.424890183
 40
0.7316411789
 40
0.8407040321
 40
0.9204959477
 40
0.9720108976
 40
1.0
 40
1.0
 40
1.0
 40
1.0
 10
20.2085345499
 20
21.1706902063
 30
0.0
 10
20.2087669248
 20
21.1683122469
 30
0.0
 10
20.2092057487
 20
21.1642230284
 30
0.0
 10
20.2098862312
 20
21.1595368509
 30
0.0
 10
20.2104529413
 20
21.1568133998
 30
0.0
 10
20.2108493388
 20
21.155506094
 30
0.0
 10
20.2111723896
 20
21.1546966064
 30
0.0
 10
20.2115477394
 20
21.154337365
 30
0.0
 10
20.2117051306
 20
21.154337365
 30
0.0
 11
20.2085345499
 21
21.1706902063
 31
0.0
 11
20.2093283346
 21
21.1635664357
 31
0.0
 11
20.2101218373
 21
21.1584527731
 31
0.0
 11
20.210518259
 21
21.1566561068
 31
0.0
 11
20.2109143415
 21
21.1553696168
 31
0.0
 11
20.2113099952
 21
21.1545958529
 31
0.0
 11
20.2117051306
 21
21.154337365
 31
0.0
  0
SPLINE
  5
5C2
100
AcDbEntity
  8
0
100
AcDbSpline
 62
7
  6
CONTINUOUS
 70
0
 71
3
 72
13
 73
9
 74
7
 42
0.0000001
 43
0.0000001
 44
0.0000000001
 12
0.01679472
 22
0.0
 32
0.0
 13
0.0016360402
 23
0.0167148435
 33
0.0
 40
0.0
 40
0.0
 40
0.0
 40
0.0
 40
0.0280297156
 40
0.0795608344
 40
0.159356599
 40
0.2684157915
 40
0.5751446228
 40
1.0
 40
1.0
 40
1.0
 40
1.0
 10
20.2117051306
 20
21.154337365
 30
0.0
 10
20.2118620477
 20
21.154337365
 30
0.0
 10
20.2122364052
 20
21.1546945514
 30
0.0
 10
20.2125589106
 20
21.1555006839
 30
0.0
 10
20.2129542513
 20
21.1568019343
 30
0.0
 10
20.213519543
 20
21.1595129646
 30
0.0
 10
20.2141981386
 20
21.1641777103
 30
0.0
 10
20.2146357151
 20
21.168248324
 30
0.0
 10
20.2148674085
 20
21.1706154544
 30
0.0
 11
20.2117051306
 21
21.154337365
 31
0.0
 11
20.2120993442
 21
21.1545946632
 31
0.0
 11
20.2124940414
 21
21.1553648704
 31
0.0
 11
20.2128891335
 21
21.1566454552
 31
0.0
 11
20.2132845317
 21
21.1584338867
 31
0.0
 11
20.2140758909
 21
21.1635241645
 31
0.0
 11
20.2148674085
 21
21.1706154544
 31
0.0
  0
SPLINE
  5
5C3
100
AcDbEntity
  8
0
100
AcDbSpline
 62
7
  6
CONTINUOUS
 70
0
 71
3
 72
9
 73
5
 74
3
 42
0.0000001
 43
0.0000001
 44
0.0000000001
 12
0.0046430354
 22
0.0474362494
 32
0.0
 13
0.0024241977
 23
0.0476012479
 33
0.0
 40
0.0
 40
0.0
 40
0.0
 40
0.0
 40
0.422136188
 40
1.0
 40
1.0
 40
1.0
 40
1.0
 10
20.2148674085
 20
21.1706154544
 30
0.0
 10
20.2155207396
 20
21.1772903069
 30
0.0
 10
20.2166785405
 20
21.1931389679
 30
0.0
 10
20.2175642865
 20
21.2090016189
 30
0.0
 10
20.2180312386
 20
21.2181706317
 30
0.0
 11
20.2148674085
 21
21.1706154544
 31
0.0
 11
20.216449759
 21
21.1906733866
 31
0.0
 11
20.2180312386
 21
21.2181706317
 31
0.0
  0
SPLINE
  5
5C4
100
AcDbEntity
  8
0
100
AcDbSpline
 62
7
  6
CONTINUOUS
 70
0
 71
3
 72
15
 73
11
 74
9
 42
0.0000001
 43
0.0000001
 44
0.0000000001
 12
0.0250881127
 22
0.0
 32
0.0
 13
0.0020517191
 23
-0.0250040767
 33
0.0
 40
0.0
 40
0.0
 40
0.0
 40
0.0
 40
0.0248160135
 40
0.0464369603
 40
0.0751448158
 40
0.1546097776
 40
0.2639896202
 40
0.4034136388
 40
0.57272712
 40
1.0
 40
1.0
 40
1.0
 40
1.0
 10
20.2468396713
 20
21.966837365
 30
0.0
 10
20.2470472003
 20
21.966837365
 30
0.0
 10
20.2473470141
 20
21.9664645617
 30
0.0
 10
20.2475998677
 20
21.9659210488
 30
0.0
 10
20.2479663619
 20
21.9648827125
 30
0.0
 10
20.2483788999
 20
21.963117707
 30
0.0
 10
20.2488622216
 20
21.9604106625
 30
0.0
 10
20.2493479112
 20
21.9569489057
 30
0.0
 10
20.250062128
 20
21.950834428
 30
0.0
 10
20.2505087687
 20
21.9458648186
 30
0.0
 10
20.2508009833
 20
21.9423036306
 30
0.0
 11
20.2468396713
 21
21.966837365
 31
0.0
 11
20.2473266442
 21
21.9664494581
 31
0.0
 11
20.2475709941
 21
21.9659651833
 31
0.0
 11
20.2478159752
 21
21.9652879022
 31
0.0
 11
20.2483079977
 21
21.9633559451
 31
0.0
 11
20.2488030451
 21
21.9606568344
 31
0.0
 11
20.2493011514
 21
21.9571945963
 31
0.0
 11
20.2498011524
 21
21.9529763706
 31
0.0
 11
20.2508009833
 21
21.9423036306
 31
0.0
  0
LINE
  5
5C5
100
AcDbEntity
  8
0
100
AcDbLine
 62
7
  6
CONTINUOUS
 10
20.2508009833
 20
21.9423036306
 11
20.2527781379
 21
21.912335714
  0
SPLINE
  5
5C6
100
AcDbEntity
  8
0
100
AcDbSpline
 62
7
  6
CONTINUOUS
 70
0
 71
3
 72
19
 73
15
 74
13
 42
0.0000001
 43
0.0000001
 44
0.0000000001
 12
0.0407737824
 22
-0.7401852035
 32
0.0
 13
0.0707022401
 23
-0.7379280657
 33
0.0
 40
0.0
 40
0.0
 40
0.0
 40
0.0
 40
0.0447337046
 40
0.0985939046
 40
0.2287264769
 40
0.3794909063
 40
0.5382187625
 40
0.6916540441
 40
0.7623037678
 40
0.8269014155
 40
0.8840622719
 40
0.9326167144
 40
0.971521309
 40
1.0
 40
1.0
 40
1.0
 40
1.0
 10
20.2527781379
 20
21.912335714
 30
0.0
 10
20.2533861254
 20
21.9012986386
 30
0.0
 10
20.2545494421
 20
21.8769630745
 30
0.0
 10
20.2568194835
 20
21.8204895953
 30
0.0
 10
20.2595114653
 20
21.73781319
 30
0.0
 10
20.2626233582
 20
21.6292254783
 30
0.0
 10
20.2657430473
 20
21.514877465
 30
0.0
 10
20.2684033021
 20
21.4203207804
 30
0.0
 10
20.2706052689
 20
21.3490205369
 30
0.0
 10
20.2722059449
 20
21.301502802
 30
0.0
 10
20.2738020413
 20
21.2594483022
 30
0.0
 10
20.275381564
 20
21.2237465119
 30
0.0
 10
20.2769495269
 20
21.1951412299
 30
0.0
 10
20.2781398788
 20
21.1785300451
 30
0.0
 10
20.2788110478
 20
21.17152497
 30
0.0
 11
20.2527781379
 21
21.912335714
 31
0.0
 11
20.2544037148
 21
21.8792141554
 31
0.0
 11
20.2560328132
 21
21.8393204406
 31
0.0
 11
20.2592874911
 21
21.7429071232
 31
0.0
 11
20.262542057
 21
21.6311917355
 31
0.0
 11
20.2657956783
 21
21.5135705958
 31
0.0
 11
20.2690498716
 21
21.3998744496
 31
0.0
 11
20.2706769532
 21
21.3475265682
 31
0.0
 11
20.2723038797
 21
21.2996675
 31
0.0
 11
20.2739306134
 21
21.2573249719
 31
0.0
 11
20.2755571056
 21
21.221367973
 31
0.0
 11
20.2771835488
 21
21.1925736078
 31
0.0
 11
20.2788110478
 21
21.17152497
 31
0.0
  0
SPLINE
  5
5C7
100
AcDbEntity
  8
0
100
AcDbSpline
 62
7
  6
CONTINUOUS
 70
0
 71
3
 72
14
 73
10
 74
8
 42
0.0000001
 43
0.0000001
 44
0.0000000001
 12
0.0016894833
 22
-0.017633347
 32
0.0
 13
0.0177140983
 23
0.0
 33
0.0
 40
0.0
 40
0.0
 40
0.0
 40
0.0
 40
0.4250928723
 40
0.7320082868
 40
0.8411036662
 40
0.920866581
 40
0.9500167854
 40
0.9723604373
 40
1.0
 40
1.0
 40
1.0
 40
1.0
 10
20.2788110478
 20
21.17152497
 30
0.0
 10
20.2790504436
 20
21.1690263666
 30
0.0
 10
20.279507065
 20
21.1647280378
 30
0.0
 10
20.2801954058
 20
21.1598070469
 30
0.0
 10
20.28079626
 20
21.1569388474
 30
0.0
 10
20.2811403695
 20
21.1556999408
 30
0.0
 10
20.2814437253
 20
21.1549778457
 30
0.0
 10
20.2816627102
 20
21.1545814322
 30
0.0
 10
20.2819147807
 20
21.154337365
 30
0.0
 10
20.2820779841
 20
21.154337365
 30
0.0
 11
20.2788110478
 21
21.17152497
 31
0.0
 11
20.2796288187
 21
21.1640393696
 31
0.0
 11
20.2804464142
 21
21.1586644679
 31
0.0
 11
20.2808549044
 21
21.1567756075
 31
0.0
 11
20.2812630606
 21
21.155422916
 31
0.0
 11
20.2814669832
 21
21.1549485183
 31
0.0
 11
20.281670786
 21
21.1546092247
 31
0.0
 11
20.2820779841
 21
21.154337365
 31
0.0
  0
SPLINE
  5
5C8
100
AcDbEntity
  8
0
100
AcDbSpline
 62
7
  6
CONTINUOUS
 70
0
 71
3
 72
14
 73
10
 74
8
 42
0.0000001
 43
0.0000001
 44
0.0000000001
 12
0.0174204347
 22
0.0
 32
0.0
 13
0.0016753711
 23
0.017339685
 33
0.0
 40
0.0
 40
0.0
 40
0.0
 40
0.0
 40
0.0277917266
 40
0.0501760093
 40
0.079351724
 40
0.1591346286
 40
0.2682212246
 40
0.5750554814
 40
1.0
 40
1.0
 40
1.0
 40
1.0
 10
20.2820779841
 20
21.154337365
 30
0.0
 10
20.2822393654
 20
21.154337365
 30
0.0
 10
20.2824892237
 20
21.1545764412
 30
0.0
 10
20.2827067725
 20
21.1549668212
 30
0.0
 10
20.2830074326
 20
21.1556763761
 30
0.0
 10
20.283348695
 20
21.1568943177
 30
0.0
 10
20.2839443165
 20
21.1597134993
 30
0.0
 10
20.2846267786
 20
21.1645508538
 30
0.0
 10
20.2850794296
 20
21.1687761776
 30
0.0
 10
20.2853167429
 20
21.1712323123
 30
0.0
 11
20.2820779841
 21
21.154337365
 31
0.0
 11
20.2824816994
 21
21.1546045902
 31
0.0
 11
20.2826837564
 21
21.1549381007
 31
0.0
 11
20.2828859302
 21
21.1554044134
 31
0.0
 11
20.28329058
 21
21.156734056
 31
0.0
 11
20.2836955525
 21
21.1585907396
 31
0.0
 11
20.2845060804
 21
21.1638741153
 31
0.0
 11
20.2853167429
 21
21.1712323123
 31
0.0
  0
SPLINE
  5
5C9
100
AcDbEntity
  8
0
100
AcDbSpline
 62
7
  6
CONTINUOUS
 70
0
 71
3
 72
9
 73
5
 74
3
 42
0.0000001
 43
0.0000001
 44
0.0000000001
 12
0.0044850144
 22
0.0464188129
 32
0.0
 13
0.0023910019
 23
0.0465736476
 33
0.0
 40
0.0
 40
0.0
 40
0.0
 40
0.0
 40
0.4244731035
 40
1.0
 40
1.0
 40
1.0
 40
1.0
 10
20.2853167429
 20
21.1712323123
 30
0.0
 10
20.2859513322
 20
21.1778001582
 30
0.0
 10
20.2870852899
 20
21.193306649
 30
0.0
 10
20.28795714
 20
21.2088269797
 30
0.0
 10
20.2884158353
 20
21.2177617753
 30
0.0
 11
20.2853167429
 21
21.1712323123
 31
0.0
 11
20.2868667754
 21
21.1909668284
 31
0.0
 11
20.2884158353
 21
21.2177617753
 31
0.0
  0
SPLINE
  5
5CA
100
AcDbEntity
  8
0
100
AcDbSpline
 62
7
  6
CONTINUOUS
 70
0
 71
3
 72
12
 73
8
 74
6
 42
0.0000001
 43
0.0000001
 44
0.0000000001
 12
0.0166716245
 22
0.0
 32
0.0
 13
0.0016391937
 23
-0.0165908441
 33
0.0
 40
0.0
 40
0.0
 40
0.0
 40
0.0
 40
0.0282047338
 40
0.0798185893
 40
0.2685631041
 40
0.5752496267
 40
1.0
 40
1.0
 40
1.0
 40
1.0
 10
20.3172389783
 20
21.966837365
 30
0.0
 10
20.3173957179
 20
21.966837365
 30
0.0
 10
20.3177700552
 20
21.9664848163
 30
0.0
 10
20.3183174014
 20
21.9651323969
 30
0.0
 10
20.3190012235
 20
21.9621209441
 30
0.0
 10
20.3197315542
 20
21.9570824563
 30
0.0
 10
20.3201743811
 20
21.9530334103
 30
0.0
 10
20.3204064638
 20
21.9506844212
 30
0.0
 11
20.3172389783
 21
21.966837365
 31
0.0
 11
20.3176338409
 21
21.9665820434
 31
0.0
 11
20.3180291877
 21
21.9658177538
 31
0.0
 11
20.3188209783
 21
21.9627723232
 31
0.0
 11
20.3196136404
 21
21.9577211775
 31
0.0
 11
20.3204064638
 21
21.9506844212
 31
0.0
  0
SPLINE
  5
5CB
100
AcDbEntity
  8
0
100
AcDbSpline
 62
7
  6
CONTINUOUS
 70
0
 71
3
 72
9
 73
5
 74
3
 42
0.0000001
 43
0.0000001
 44
0.0000000001
 12
0.0047039945
 22
-0.0476107475
 32
0.0
 13
0.0024458342
 23
-0.0477800036
 33
0.0
 40
0.0
 40
0.0
 40
0.0
 40
0.0
 40
0.4216636368
 40
1.0
 40
1.0
 40
1.0
 40
1.0
 10
20.3204064638
 20
21.9506844212
 30
0.0
 10
20.3210676316
 20
21.9439925142
 30
0.0
 10
20.3222374844
 20
21.928084585
 30
0.0
 10
20.3231315187
 20
21.9121624514
 30
0.0
 10
20.3236030236
 20
21.9029514802
 30
0.0
 11
20.3204064638
 21
21.9506844212
 31
0.0
 11
20.3220051598
 21
21.9305743981
 31
0.0
 11
20.3236030236
 21
21.9029514802
 31
0.0
  0
SPLINE
  5
5CC
100
AcDbEntity
  8
0
100
AcDbSpline
 62
7
  6
CONTINUOUS
 70
0
 71
3
 72
19
 73
15
 74
13
 42
0.0000001
 43
0.0000001
 44
0.0000000001
 12
0.0374683101
 22
-0.7319531405
 32
0.0
 13
0.072050479
 23
-0.7293613663
 33
0.0
 40
0.0
 40
0.0
 40
0.0
 40
0.0
 40
0.0473887012
 40
0.1033381363
 40
0.2362624762
 40
0.3879730195
 40
0.5461504977
 40
0.6979213309
 40
0.7675002827
 40
0.8309606224
 40
0.8869813108
 40
0.9344478886
 40
0.9723632049
 40
1.0
 40
1.0
 40
1.0
 40
1.0
 10
20.3236030236
 20
21.9029514802
 30
0.0
 10
20.3241948818
 20
21.8913893773
 30
0.0
 10
20.3253347525
 20
21.8661688104
 30
0.0
 10
20.3275595917
 20
21.8084916949
 30
0.0
 10
20.3302119406
 20
21.7253272421
 30
0.0
 10
20.3332830447
 20
21.6171901467
 30
0.0
 10
20.3363609058
 20
21.5044471215
 30
0.0
 10
20.338987625
 20
21.4117642507
 30
0.0
 10
20.3411610885
 20
21.3422179541
 30
0.0
 10
20.342738862
 20
21.2960566825
 30
0.0
 10
20.3443124446
 20
21.2553010835
 30
0.0
 10
20.3458693049
 20
21.2207901668
 30
0.0
 10
20.3474147822
 20
21.1932228689
 30
0.0
 10
20.3485889803
 20
21.1772479775
 30
0.0
 10
20.3492527284
 20
21.1705289073
 30
0.0
 11
20.3236030236
 21
21.9029514802
 31
0.0
 11
20.3252052557
 21
21.8682567324
 31
0.0
 11
20.3268077322
 21
21.8272820714
 31
0.0
 11
20.3300127402
 21
21.7299130272
 31
0.0
 11
20.3332182521
 21
21.6187688401
 31
0.0
 11
20.336424128
 21
21.5028830819
 31
0.0
 11
20.3396303876
 21
21.3916947108
 31
0.0
 11
20.3412337666
 21
21.3407247093
 31
0.0
 11
20.3428373593
 21
21.2942415486
 31
0.0
 11
20.3444411238
 21
21.2532146757
 31
0.0
 11
20.3460447743
 21
21.2184628559
 31
0.0
 11
20.3476482743
 21
21.1907205868
 31
0.0
 11
20.3492527284
 21
21.1705289073
 31
0.0
  0
SPLINE
  5
5CD
100
AcDbEntity
  8
0
100
AcDbSpline
 62
7
  6
CONTINUOUS
 70
0
 71
3
 72
12
 73
8
 74
6
 42
0.0000001
 43
0.0000001
 44
0.0000000001
 12
0.0016428581
 22
-0.0166305243
 32
0.0
 13
0.0167114727
 23
0.0
 33
0.0
 40
0.0
 40
0.0
 40
0.0
 40
0.0
 40
0.4247590048
 40
0.7314437726
 40
0.9201827684
 40
0.9717947943
 40
1.0
 40
1.0
 40
1.0
 40
1.0
 10
20.3492527284
 20
21.1705289073
 30
0.0
 10
20.3494853347
 20
21.1681742523
 30
0.0
 10
20.3499291624
 20
21.1641154862
 30
0.0
 10
20.3506611848
 20
21.1590649304
 30
0.0
 10
20.3513466124
 20
21.1560463415
 30
0.0
 10
20.3518952869
 20
21.1546907153
 30
0.0
 10
20.3522705341
 20
21.154337365
 30
0.0
 10
20.352427651
 20
21.154337365
 30
0.0
 11
20.3492527284
 21
21.1705289073
 31
0.0
 11
20.3500473619
 21
21.1634751771
 31
0.0
 11
20.3508418623
 21
21.1584119791
 31
0.0
 11
20.3516355263
 21
21.1553593596
 31
0.0
 11
20.352031825
 21
21.1545932813
 31
0.0
 11
20.352427651
 21
21.154337365
 31
0.0
  0
SPLINE
  5
5CE
100
AcDbEntity
  8
0
100
AcDbSpline
 62
7
  6
CONTINUOUS
 70
0
 71
3
 72
12
 73
8
 74
6
 42
0.0000001
 43
0.0000001
 44
0.0000000001
 12
-0.0028616702
 22
0.0518820827
 32
0.0
 13
-0.0121279945
 23
0.05052575
 33
0.0
 40
0.0
 40
0.0
 40
0.0
 40
0.0
 40
0.3627581768
 40
0.6522712224
 40
0.8652339604
 40
0.9424531567
 40
1.0
 40
1.0
 40
1.0
 40
1.0
 10
20.308979507
 20
21.912335714
 30
0.0
 10
20.3086334756
 20
21.9186092639
 30
0.0
 10
20.3079638703
 20
21.9298875757
 30
0.0
 10
20.3068428644
 20
21.9448315122
 30
0.0
 10
20.3058489813
 20
21.9548264943
 30
0.0
 10
20.3049975671
 20
21.9607890553
 30
0.0
 10
20.30456853
 20
21.9630857275
 30
0.0
 10
20.3043358874
 20
21.9640549267
 30
0.0
 11
20.308979507
 21
21.912335714
 31
0.0
 11
20.3078344017
 21
21.9311501561
 31
0.0
 11
20.3066738113
 21
21.9461486907
 31
0.0
 11
20.3055015304
 21
21.9571521659
 31
0.0
 11
20.3049168758
 21
21.9611217239
 31
0.0
 11
20.3043358874
 21
21.9640549267
 31
0.0
  0
SPLINE
  5
5CF
100
AcDbEntity
  8
0
100
AcDbSpline
 62
7
  6
CONTINUOUS
 70
0
 71
3
 72
10
 73
6
 74
4
 42
0.0000001
 43
0.0000001
 44
0.0000000001
 12
-0.0007423818
 22
0.0030927949
 32
0.0
 13
-0.0031806463
 23
-0.0000000444
 33
0.0
 40
0.0
 40
0.0
 40
0.0
 40
0.0
 40
0.6881763512
 40
0.8826242473
 40
1.0
 40
1.0
 40
1.0
 40
1.0
 10
20.3043358874
 20
21.9640549267
 30
0.0
 10
20.3041655909
 20
21.9647643895
 30
0.0
 10
20.3039171362
 20
21.9656814411
 30
0.0
 10
20.3034365872
 20
21.9666198597
 30
0.0
 10
20.303134821
 20
21.9668373668
 30
0.0
 10
20.3030103775
 20
21.966837365
 30
0.0
 11
20.3043358874
 21
21.9640549267
 31
0.0
 11
20.3036713484
 21
21.9661404561
 31
0.0
 11
20.3033404755
 21
21.9666629771
 31
0.0
 11
20.3030103775
 21
21.966837365
 31
0.0
  0
SPLINE
  5
5D0
100
AcDbEntity
  8
0
100
AcDbSpline
 62
7
  6
CONTINUOUS
 70
0
 71
3
 72
12
 73
8
 74
6
 42
0.0000001
 43
0.0000001
 44
0.0000000001
 12
0.0168015967
 22
0.0
 32
0.0
 13
0.001647833
 23
0.016720595
 33
0.0
 40
0.0
 40
0.0
 40
0.0
 40
0.0
 40
0.0281547877
 40
0.0797462211
 40
0.268484958
 40
0.5751971136
 40
1.0
 40
1.0
 40
1.0
 40
1.0
 10
20.352427651
 20
21.154337365
 30
0.0
 10
20.3525853328
 20
21.154337365
 30
0.0
 10
20.3529617649
 20
21.1546931755
 30
0.0
 10
20.3535116268
 20
21.1560559449
 30
0.0
 10
20.3541992657
 20
21.1590914924
 30
0.0
 10
20.3549333252
 20
21.1641697655
 30
0.0
 10
20.3553785715
 20
21.1682509851
 30
0.0
 10
20.3556119063
 20
21.1706186374
 30
0.0
 11
20.352427651
 21
21.154337365
 31
0.0
 11
20.3528245714
 21
21.1545947094
 31
0.0
 11
20.3532219862
 21
21.1553650572
 31
0.0
 11
20.3540179456
 21
21.1584346501
 31
0.0
 11
20.3548148215
 21
21.1635259186
 31
0.0
 11
20.3556119063
 21
21.1706186374
 31
0.0
  0
SPLINE
  5
5D1
100
AcDbEntity
  8
0
100
AcDbSpline
 62
7
  6
CONTINUOUS
 70
0
 71
3
 72
9
 73
5
 74
3
 42
0.0000001
 43
0.0000001
 44
0.0000000001
 12
0.0046731617
 22
0.0474186667
 32
0.0
 13
0.0024406834
 23
0.0475858325
 33
0.0
 40
0.0
 40
0.0
 40
0.0
 40
0.0
 40
0.4221651649
 40
1.0
 40
1.0
 40
1.0
 40
1.0
 10
20.3556119063
 20
21.1706186374
 30
0.0
 10
20.3562695216
 20
21.1772914739
 30
0.0
 10
20.3574351266
 20
21.1931347384
 30
0.0
 10
20.3583269025
 20
21.2089921905
 30
0.0
 10
20.3587970065
 20
21.2181577744
 30
0.0
 11
20.3556119063
 21
21.1706186374
 31
0.0
 11
20.3572048745
 21
21.1906709512
 31
0.0
 11
20.3587970065
 21
21.2181577744
 31
0.0
  0
SPLINE
  5
5D2
100
AcDbEntity
  8
0
100
AcDbSpline
 62
7
  6
CONTINUOUS
 70
0
 71
3
 72
12
 73
8
 74
6
 42
0.0000001
 43
0.0000001
 44
0.0000000001
 12
0.0157501967
 22
0.0
 32
0.0
 13
0.0015932981
 23
-0.0156694001
 33
0.0
 40
0.0
 40
0.0
 40
0.0
 40
0.0
 40
0.0287569373
 40
0.0805983526
 40
0.2693426516
 40
0.5757247873
 40
1.0
 40
1.0
 40
1.0
 40
1.0
 10
20.3876503406
 20
21.966837365
 30
0.0
 10
20.3878013165
 20
21.966837365
 30
0.0
 10
20.3881634417
 20
21.9665099513
 30
0.0
 10
20.388699105
 20
21.9652310232
 30
0.0
 10
20.3893610949
 20
21.962393021
 30
0.0
 10
20.3900721083
 20
21.9576383344
 30
0.0
 10
20.3905016113
 20
21.9538189705
 30
0.0
 10
20.3907269436
 20
21.9516029245
 30
0.0
 11
20.3876503406
 21
21.966837365
 31
0.0
 11
20.3880340304
 21
21.9665966881
 31
0.0
 11
20.3884181389
 21
21.9658761651
 31
0.0
 11
20.3891872806
 21
21.9630046286
 31
0.0
 11
20.389957103
 21
21.9582408501
 31
0.0
 11
20.3907269436
 21
21.9516029245
 31
0.0
  0
SPLINE
  5
5D3
100
AcDbEntity
  8
0
100
AcDbSpline
 62
7
  6
CONTINUOUS
 70
0
 71
3
 72
9
 73
5
 74
3
 42
0.0000001
 43
0.0000001
 44
0.0000000001
 12
0.004486131
 22
-0.0441191656
 32
0.0
 13
0.002341394
 23
-0.0442848057
 33
0.0
 40
0.0
 40
0.0
 40
0.0
 40
0.0
 40
0.4221078481
 40
1.0
 40
1.0
 40
1.0
 40
1.0
 10
20.3907269436
 20
21.9516029245
 30
0.0
 10
20.391358154
 20
21.9453952425
 30
0.0
 10
20.3924782373
 20
21.9306522609
 30
0.0
 10
20.3933341216
 20
21.9158951103
 30
0.0
 10
20.393785146
 20
21.9073644964
 30
0.0
 11
20.3907269436
 21
21.9516029245
 31
0.0
 11
20.3922566722
 21
21.9329464615
 31
0.0
 11
20.393785146
 21
21.9073644964
 31
0.0
  0
SPLINE
  5
5D4
100
AcDbEntity
  8
0
100
AcDbSpline
 62
7
  6
CONTINUOUS
 70
0
 71
3
 72
15
 73
11
 74
9
 42
0.0000001
 43
0.0000001
 44
0.0000000001
 12
0.0368567541
 22
-0.6971036012
 32
0.0
 13
0.0379023163
 23
-0.6970475346
 33
0.0
 40
0.0
 40
0.0
 40
0.0
 40
0.0
 40
0.0939580319
 40
0.2146106794
 40
0.3539711707
 40
0.5027885804
 40
0.6512353778
 40
0.7894814217
 40
0.9083301811
 40
1.0
 40
1.0
 40
1.0
 40
1.0
 10
20.393785146
 20
21.9073644964
 30
0.0
 10
20.3949394754
 20
21.885531669
 30
0.0
 10
20.397006815
 20
21.8356339689
 30
0.0
 10
20.3997620193
 20
21.7533138972
 30
0.0
 10
20.4025375918
 20
21.6582222876
 30
0.0
 10
20.4053260495
 20
21.5566613508
 30
0.0
 10
20.4081123063
 20
21.4553597863
 30
0.0
 10
20.4108806097
 20
21.3610335596
 30
0.0
 10
20.4136227427
 20
21.2799253212
 30
0.0
 10
20.4156852256
 20
21.2309802088
 30
0.0
 10
20.4168433917
 20
21.2096808017
 30
0.0
 11
20.393785146
 21
21.9073644964
 31
0.0
 11
20.3966735954
 21
21.8418381632
 31
0.0
 11
20.3995607172
 21
21.7576627925
 31
0.0
 11
20.4024462516
 21
21.6604212066
 31
0.0
 11
20.4053292574
 21
21.5565751698
 31
0.0
 11
20.4082105042
 21
21.4529878999
 31
0.0
 11
20.4110900506
 21
21.3565244508
 31
0.0
 11
20.4139662486
 21
21.2736087053
 31
0.0
 11
20.4168433917
 21
21.2096808017
 31
0.0
  0
SPLINE
  5
5D5
100
AcDbEntity
  8
0
100
AcDbSpline
 62
7
  6
CONTINUOUS
 70
0
 71
3
 72
10
 73
6
 74
4
 42
0.0000001
 43
0.0000001
 44
0.0000000001
 12
-0.0009952273
 22
-0.0062767473
 32
0.0
 13
-0.003179542
 23
-0.0055025946
 33
0.0
 40
0.0
 40
0.0
 40
0.0
 40
0.0
 40
0.6343576927
 40
0.8501002805
 40
1.0
 40
1.0
 40
1.0
 40
1.0
 10
20.4137854877
 20
21.1609662169
 30
0.0
 10
20.4135750443
 20
21.1596389826
 30
0.0
 10
20.4132678312
 20
21.1578595944
 30
0.0
 10
20.4127069566
 20
21.1558178558
 30
0.0
 10
20.4124240995
 20
21.1550904929
 30
0.0
 10
20.4122652287
 20
21.1548155471
 30
0.0
 11
20.4137854877
 21
21.1609662169
 31
0.0
 11
20.4130221181
 21
21.1570077067
 31
0.0
 11
20.4126429492
 21
21.1556901004
 31
0.0
 11
20.4122652287
 21
21.1548155471
 31
0.0
  0
ENDSEC
  0
SECTION
  2
OBJECTS
  0
DICTIONARY
  5
C
100
AcDbDictionary
280
0
281
1
  3
ACAD_GROUP
350
D
  3
ACAD_MLINESTYLE
350
17
  3
ACAD_LAYOUT
350
1A
  3
ACAD_PLOTSETTINGS
350
19
  3
ACAD_PLOTSTYLENAME
350
E
  0
DICTIONARY
  5
D
102
{ACAD_REACTORS
330
C
102
}
100
AcDbDictionary
280
0
281
1
  0
ACDBDICTIONARYWDFLT
  5
E
102
{ACAD_REACTORS
330
C
102
}
100
AcDbDictionary
281
1
  3
Normal
350
F
100
AcDbDictionaryWithDefault
340
F
  0
DICTIONARY
  5
17
102
{ACAD_REACTORS
330
C
102
}
100
AcDbDictionary
280
0
281
1
  3
Standard
350
18
  0
DICTIONARY
  5
19
102
{ACAD_REACTORS
330
C
102
}
100
AcDbDictionary
281
1
  0
DICTIONARY
  5
1A
102
{ACAD_REACTORS
330
C
102
}
100
AcDbDictionary
281
1
  3
Model
350
5D6
  3
Layout1
350
5D7
  0
ACDBPLACEHOLDER
  5
F
102
{ACAD_REACTORS
330
E
102
}
  0
MLINESTYLE
  5
18
102
{ACAD_REACTORS
330
17
102
}
100
AcDbMlineStyle
  2
STANDARD
 70
0
  3

 62
256
 51
90.0
 52
90.0
 71
2
 49
0.5
 62
256
  6
BYLAYER
 49
-0.5
 62
256
  6
BYLAYER
  0
LAYOUT
  5
5D6
102
{ACAD_REACTORS
330
1A
102
}
100
AcDbPlotSettings
  1

  2
none_device
  4
ISO_A1_(594.00_x_841.00_MM)
  6

 40
0.0
 41
0.0
 42
0.0
 43
0.0
 44
841.0
 45
594.0
 46
0.0
 47
0.0
 48
0.0
 49
0.0
140
0.0
141
0.0
142
1.0
143
1.0
 70
1024
 72
0
 73
0
 74
0
  7

 75
0
147
1.0
148
0.0
149
0.0
100
AcDbLayout
  1
Model
 70
0
 71
0
 10
0.0
 20
0.0
 11
33.1102362205
 21
23.3858267717
 12
0.0
 22
0.0
 32
0.0
 14
0.0
 24
0.0
 34
0.0
 15
0.0
 25
0.0
 35
0.0
146
0.0
 13
0.0
 23
0.0
 33
0.0
 16
1.0
 26
0.0
 36
0.0
 17
0.0
 27
1.0
 37
0.0
 76
0
330
24C
345
0
346
0
  0
LAYOUT
  5
5D7
102
{ACAD_REACTORS
330
1A
102
}
100
AcDbPlotSettings
  1

  2
none_device
  4
ISO_A1_(594.00_x_841.00_MM)
  6

 40
0.0
 41
0.0
 42
0.0
 43
0.0
 44
841.0
 45
594.0
 46
0.0
 47
0.0
 48
0.0
 49
0.0
140
0.0
141
0.0
142
1.0
143
1.0
 70
0
 72
0
 73
0
 74
0
  7

 75
0
147
1.0
148
0.0
149
0.0
100
AcDbLayout
  1
Layout1
 70
0
 71
1
 10
0.0
 20
0.0
 11
33.1102362205
 21
23.3858267717
 12
0.0
 22
0.0
 32
0.0
 14
0.0
 24
0.0
 34
0.0
 15
0.0
 25
0.0
 35
0.0
146
0.0
 13
0.0
 23
0.0
 33
0.0
 16
1.0
 26
0.0
 36
0.0
 17
0.0
 27
1.0
 37
0.0
 76
0
330
24D
345
0
346
0
  0
ENDSEC
  0
EOF
