999
DXF file: 3-721_front.dxf
999
Pro/ENGINEER 2018400 by Parametric Technology Corporation
  0
SECTION
  2
HEADER
  9
$ACADVER
  1
AC1027
  9
$DWGCODEPAGE
  3
ANSI_1252
  9
$EXTMAX
 10
11.0
 20
8.5
 30
0.0
  9
$EXTMIN
 10
0.0
 20
0.0
 30
0.0
  9
$LIMMIN
 10
0.0
 20
0.0
  9
$LIMMAX
 10
11.0
 20
8.5
  9
$VIEWCTR
 10
5.5
 20
4.25
  9
$VIEWSIZE
 40
8.5
  9
$CLAYER
  8
0
  9
$LTSCALE
 40
0.605
  9
$CELTYPE
  6
BYLAYER
  9
$DIMSCALE
 40
1.0
  9
$DIMASZ
 40
0.1
  9
$DIMEXO
 40
0.0625
  9
$DIMDLI
 40
0.418
  9
$DIMEXE
 40
0.125
  9
$DIMCEN
 40
0.099
  9
$DIMLFAC
 40
1.0
  9
$DIMBLK
  1
_FILLED
  9
$DIMALT
 70
1
  9
$DIMALTD
 70
2
  9
$DIMALTTD
 70
2
  9
$DIMALTF
 40
25.4
  9
$DIMTXT
 40
0.08
  9
$DIMTOL
 70
1
  9
$DIMLIM
 70
0
  9
$DIMTFAC
 40
1.0
  9
$DIMTP
 40
0.001
  9
$DIMTM
 40
0.001
  9
$DIMGAP
 40
0.09
  9
$DIMDSEP
 70
46
  9
$AUNITS
 70
0
  9
$PDMODE
 70
3
  9
$PDSIZE
 40
0.06
  9
$HANDSEED
  5
243
  9
$TILEMODE
 70
1
  9
$MEASUREMENT
 70
0
  9
$INSUNITS
 70
1
  0
ENDSEC
  0
SECTION
  2
CLASSES
  0
CLASS
  1
ACDBDICTIONARYWDFLT
  2
AcDbDictionaryWithDefault
  3
AutoCAD 2000
 90
0
 91
1
280
0
281
0
  0
CLASS
  1
ACDBPLACEHOLDER
  2
AcDbPlaceHolder
  3
AutoCAD 2000
 90
0
 91
1
280
0
281
0
  0
CLASS
  1
LAYOUT
  2
AcDbLayout
  3
AutoCAD 2000
 90
0
 91
0
280
0
281
0
  0
ENDSEC
  0
SECTION
  2
TABLES
  0
TABLE
  2
VPORT
  5
8
100
AcDbSymbolTable
 70
2
  0
VPORT
  5
1F4
100
AcDbSymbolTableRecord
100
AcDbViewportTableRecord
  2
*ACTIVE
 70
0
 10
0.0
 20
0.0
 11
1.0
 21
1.0
 12
5.5
 22
4.25
 13
0.0
 23
0.0
 14
1.0
 24
1.0
 15
0.0
 25
0.0
 16
0.0
 26
0.0
 36
1.0
 17
0.0
 27
0.0
 37
0.0
 40
8.5
 41
1.2941176471
 42
50.0
 43
0.0
 44
0.0
 50
0.0
 51
0.0
 71
0
 72
100
 73
1
 74
1
 75
0
 76
0
 77
0
 78
0
  0
ENDTAB
  0
TABLE
  2
LTYPE
  5
5
100
AcDbSymbolTable
 70
6
  0
LTYPE
  5
14
100
AcDbSymbolTableRecord
100
AcDbLinetypeTableRecord
  2
BYBLOCK
 70
0
  3

 72
65
 73
0
 40
0.0
  0
LTYPE
  5
15
100
AcDbSymbolTableRecord
100
AcDbLinetypeTableRecord
  2
BYLAYER
 70
0
  3

 72
65
 73
0
 40
0.0
  0
LTYPE
  5
16
100
AcDbSymbolTableRecord
100
AcDbLinetypeTableRecord
  2
CONTINUOUS
 70
64
  3
Solid line
 72
65
 73
0
 40
0.0
  0
LTYPE
  5
1F5
100
AcDbSymbolTableRecord
100
AcDbLinetypeTableRecord
  2
CENTER
 70
64
  3
____ _ ____ _ ____ _ ____ _ ____ _ ____ _ ____
 72
65
 73
4
 40
0.6
 49
0.375
 74
0
 49
-0.075
 74
0
 49
0.075
 74
0
 49
-0.075
 74
0
  0
LTYPE
  5
1F6
100
AcDbSymbolTableRecord
100
AcDbLinetypeTableRecord
  2
HIDDEN
 70
64
  3
- - - - - - - - - - - - - - - - - - - -
 72
65
 73
2
 40
0.2
 49
0.1
 74
0
 49
-0.1
 74
0
  0
LTYPE
  5
1F7
100
AcDbSymbolTableRecord
100
AcDbLinetypeTableRecord
  2
PHANTOM
 70
64
  3
_____ _ _ _____ _ _ _____ _ _ _____
 72
65
 73
6
 40
0.8
 49
0.45
 74
0
 49
-0.05
 74
0
 49
0.1
 74
0
 49
-0.05
 74
0
 49
0.1
 74
0
 49
-0.05
 74
0
  0
LTYPE
  5
1F8
100
AcDbSymbolTableRecord
100
AcDbLinetypeTableRecord
  2
DOT
 70
64
  3
. . . . . . . . . . . . . . . . . . . .
 72
65
 73
2
 40
0.2
 49
0.1
 74
0
 49
-0.1
 74
0
  0
LTYPE
  5
1F9
100
AcDbSymbolTableRecord
100
AcDbLinetypeTableRecord
  2
DASHED
 70
64
  3
- - - - - - - - - - - - - - - - - - - -
 72
65
 73
2
 40
0.2
 49
0.1
 74
0
 49
-0.1
 74
0
  0
ENDTAB
  0
TABLE
  2
LAYER
  5
2
100
AcDbSymbolTable
 70
36
  0
LAYER
  5
10
100
AcDbSymbolTableRecord
100
AcDbLayerTableRecord
  2
0
 70
0
 62
7
  6
CONTINUOUS
370
-3
390
F
  0
LAYER
  5
1FA
100
AcDbSymbolTableRecord
100
AcDbLayerTableRecord
  2
DEFAULT_1
 70
0
 62
7
  6
CENTER
370
-3
390
F
  0
LAYER
  5
1FB
100
AcDbSymbolTableRecord
100
AcDbLayerTableRecord
  2
DEFAULT_2
 70
0
 62
8
  6
HIDDEN
370
-3
390
F
  0
LAYER
  5
1FC
100
AcDbSymbolTableRecord
100
AcDbLayerTableRecord
  2
DEFAULT_3
 70
0
 62
7
  6
PHANTOM
370
-3
390
F
  0
LAYER
  5
1FD
100
AcDbSymbolTableRecord
100
AcDbLayerTableRecord
  2
DEFAULT_COORDINATE_SYSTEM
 70
0
 62
7
  6
CONTINUOUS
370
-3
390
F
  0
LAYER
  5
1FE
100
AcDbSymbolTableRecord
100
AcDbLayerTableRecord
  2
DEFAULT_DATUM_AXES
 70
0
 62
7
  6
CONTINUOUS
370
-3
390
F
  0
LAYER
  5
1FF
100
AcDbSymbolTableRecord
100
AcDbLayerTableRecord
  2
DEFAULT_DATUM_PLANES
 70
0
 62
7
  6
CONTINUOUS
370
-3
390
F
  0
ENDTAB
  0
TABLE
  2
STYLE
  5
3
100
AcDbSymbolTable
 70
1
  0
STYLE
  5
11
100
AcDbSymbolTableRecord
100
AcDbTextStyleTableRecord
  2
STANDARD
 70
0
 40
0.0
 41
0.8
 50
0.0
 71
0
 42
0.2
  3
txt
  4

  0
STYLE
  5
200
100
AcDbSymbolTableRecord
100
AcDbTextStyleTableRecord
  2
TEXTSTYLE_1
 70
0
 40
0.0
 41
0.8
 50
0.0
 71
0
 42
0.2
  3
gdt
  4

  0
ENDTAB
  0
TABLE
  2
VIEW
  5
6
100
AcDbSymbolTable
 70
0
  0
ENDTAB
  0
TABLE
  2
UCS
  5
7
100
AcDbSymbolTable
 70
0
  0
ENDTAB
  0
TABLE
  2
APPID
  5
9
100
AcDbSymbolTable
 70
1
  0
APPID
  5
201
100
AcDbSymbolTableRecord
100
AcDbRegAppTableRecord
  2
ACAD
 70
0
  0
ENDTAB
  0
TABLE
  2
BLOCK_RECORD
  5
1
100
AcDbSymbolTable
 70
0
  0
BLOCK_RECORD
  5
202
100
AcDbSymbolTableRecord
100
AcDbBlockTableRecord
  2
*Model_Space
  0
BLOCK_RECORD
  5
203
100
AcDbSymbolTableRecord
100
AcDbBlockTableRecord
  2
*Paper_Space
  0
BLOCK_RECORD
  5
204
100
AcDbSymbolTableRecord
100
AcDbBlockTableRecord
  2
_FILLED
  0
ENDTAB
  0
TABLE
  2
DIMSTYLE
  5
A
100
AcDbSymbolTable
 70
1
100
AcDbDimStyleTable
 71
0
  0
DIMSTYLE
105
205
100
AcDbSymbolTableRecord
100
AcDbDimStyleTableRecord
  2
STANDARD
 70
0
  3

  4

 40
1.0
 41
0.1
 42
0.0625
 43
0.38
 44
0.125
 45
0.0
 46
0.0
 47
0.001
 48
0.001
140
0.08
141
0.09
142
0.0
143
25.4
144
1.0
145
0.0
146
1.0
147
0.09
 71
1.0
 72
0.0
 73
1
 74
1
 75
0
 76
0
 77
0
 78
4
 79
1
170
1
171
2
172
0
173
0
174
0
175
0
176
0
177
0
178
0
270
2
179
3
271
3
272
3
273
2
274
2
275
0
280
0
281
0
282
0
283
1
284
4
285
0
286
0
287
3
288
0
340
11
278
46
341
204
342
204
343
204
344
204
  0
ENDTAB
  0
ENDSEC
  0
SECTION
  2
BLOCKS
  0
BLOCK
  5
20
100
AcDbEntity
  8
0
100
AcDbBlockBegin
  2
*Model_Space
 70
0
 10
0.0
 20
0.0
 30
0.0
  3
*Model_Space
  1

  0
ENDBLK
  5
21
100
AcDbEntity
  8
0
100
AcDbBlockEnd
  0
BLOCK
  5
1C
100
AcDbEntity
  8
0
100
AcDbBlockBegin
  2
*Paper_Space
 70
0
 10
0.0
 20
0.0
 30
0.0
  3
*Paper_Space
  1

  0
ENDBLK
  5
1D
100
AcDbEntity
  8
0
100
AcDbBlockEnd
  0
BLOCK
  5
206
100
AcDbEntity
  8
0
100
AcDbBlockBegin
  2
_FILLED
 70
64
 10
0.0
 20
0.0
  3
_FILLED
  1

  0
SOLID
  5
207
100
AcDbEntity
  8
0
  6
BYBLOCK
 62
0
100
AcDbTrace
 10
0.0
 20
0.0
 11
-1.0
 21
0.2
 12
-1.0
 22
-0.2
 13
-1.0
 23
-0.2
  0
ENDBLK
  5
208
100
AcDbEntity
  8
0
  6
BYBLOCK
 62
0
100
AcDbBlockEnd
  0
ENDSEC
  0
SECTION
  2
ENTITIES
  0
MTEXT
  5
209
100
AcDbEntity
  8
0
100
AcDbMText
 62
2
  6
CONTINUOUS
  7
STANDARD
 71
3
 72
1
 10
5.7209821429
 20
2.5330076531
 30
0.0
 11
1.0
 21
0.0
 31
0.0
 73
2
 44
0.9
  1
SCALE  1.000
 40
0.08
 41
0.768
  0
LINE
  5
20A
100
AcDbEntity
  8
0
100
AcDbLine
 62
7
  6
CONTINUOUS
 10
0.0
 20
0.0
 11
0.0
 21
8.5
  0
LINE
  5
20B
100
AcDbEntity
  8
0
100
AcDbLine
 62
7
  6
CONTINUOUS
 10
0.0
 20
0.0
 11
11.0
 21
0.0
  0
LINE
  5
20C
100
AcDbEntity
  8
0
100
AcDbLine
 62
7
  6
CONTINUOUS
 10
0.0
 20
8.5
 11
11.0
 21
8.5
  0
LINE
  5
20D
100
AcDbEntity
  8
0
100
AcDbLine
 62
7
  6
CONTINUOUS
 10
11.0
 20
0.0
 11
11.0
 21
8.5
  0
LINE
  5
20E
100
AcDbEntity
  8
0
100
AcDbLine
 62
7
  6
CONTINUOUS
 10
3.9759821429
 20
2.6280076531
 11
3.9759821429
 21
2.7980076531
  0
LINE
  5
20F
100
AcDbEntity
  8
0
100
AcDbLine
 62
7
  6
CONTINUOUS
 10
5.9559821429
 20
2.6280076531
 11
3.9759821429
 21
2.6280076531
  0
LINE
  5
210
100
AcDbEntity
  8
0
100
AcDbLine
 62
9
  6
CONTINUOUS
 10
3.9759821429
 20
2.7980076531
 11
5.9559821429
 21
2.7980076531
  0
LINE
  5
211
100
AcDbEntity
  8
0
100
AcDbLine
 62
7
  6
CONTINUOUS
 10
4.5909821429
 20
2.8380076531
 11
4.5909821429
 21
4.4180076531
  0
LINE
  5
212
100
AcDbEntity
  8
0
100
AcDbLine
 62
7
  6
CONTINUOUS
 10
4.6009821429
 20
2.8380076531
 11
4.6009821429
 21
2.8280076531
  0
LINE
  5
213
100
AcDbEntity
  8
0
100
AcDbLine
 62
7
  6
CONTINUOUS
 10
4.6847321429
 20
4.4690076531
 11
4.6847321429
 21
5.1490076531
  0
LINE
  5
214
100
AcDbEntity
  8
0
100
AcDbLine
 62
7
  6
CONTINUOUS
 10
4.7109821429
 20
4.4480076531
 11
4.7109821429
 21
4.4690076531
  0
LINE
  5
215
100
AcDbEntity
  8
0
100
AcDbLine
 62
7
  6
CONTINUOUS
 10
4.0059821429
 20
2.8280076531
 11
5.9259821429
 21
2.8280076531
  0
LINE
  5
216
100
AcDbEntity
  8
0
100
AcDbLine
 62
7
  6
CONTINUOUS
 10
4.5909821429
 20
2.8380076531
 11
5.3409821429
 21
2.8380076531
  0
LINE
  5
217
100
AcDbEntity
  8
0
100
AcDbLine
 62
7
  6
CONTINUOUS
 10
4.9659821429
 20
5.2690076531
 11
4.9659821429
 21
5.2090076531
  0
LINE
  5
218
100
AcDbEntity
  8
0
100
AcDbLine
 62
9
  6
CONTINUOUS
 10
4.9959821429
 20
5.2690076531
 11
4.9959821429
 21
5.2090076531
  0
LINE
  5
219
100
AcDbEntity
  8
0
100
AcDbLine
 62
9
  6
CONTINUOUS
 10
5.0259821429
 20
5.2990076531
 11
5.0259821429
 21
5.3290076531
  0
LINE
  5
21A
100
AcDbEntity
  8
0
100
AcDbLine
 62
9
  6
CONTINUOUS
 10
5.1942398097
 20
5.1790076531
 11
5.1942398097
 21
5.2090076531
  0
LINE
  5
21B
100
AcDbEntity
  8
0
100
AcDbLine
 62
7
  6
CONTINUOUS
 10
5.2209821429
 20
4.4480076531
 11
5.2209821429
 21
4.4690076531
  0
LINE
  5
21C
100
AcDbEntity
  8
0
100
AcDbLine
 62
9
  6
CONTINUOUS
 10
5.2307451304
 20
5.1490076531
 11
5.2307451304
 21
4.9210076531
  0
LINE
  5
21D
100
AcDbEntity
  8
0
100
AcDbLine
 62
7
  6
CONTINUOUS
 10
5.2472321429
 20
4.4690076531
 11
5.2472321429
 21
4.8610076531
  0
LINE
  5
21E
100
AcDbEntity
  8
0
100
AcDbLine
 62
9
  6
CONTINUOUS
 10
5.2589865157
 20
5.1490076529
 11
5.2589865157
 21
4.9210076531
  0
LINE
  5
21F
100
AcDbEntity
  8
0
100
AcDbLine
 62
7
  6
CONTINUOUS
 10
5.3309821429
 20
2.8380076531
 11
5.3309821429
 21
2.8280076531
  0
LINE
  5
220
100
AcDbEntity
  8
0
100
AcDbLine
 62
7
  6
CONTINUOUS
 10
5.3409821429
 20
2.8380076531
 11
5.3409821429
 21
4.4180076531
  0
LINE
  5
221
100
AcDbEntity
  8
0
100
AcDbLine
 62
7
  6
CONTINUOUS
 10
5.9559821429
 20
2.6280076531
 11
5.9559821429
 21
2.7980076531
  0
LINE
  5
222
100
AcDbEntity
  8
0
100
AcDbLine
 62
9
  6
CONTINUOUS
 10
4.5909821429
 20
4.4180076531
 11
5.3409821429
 21
4.4180076531
  0
LINE
  5
223
100
AcDbEntity
  8
0
100
AcDbLine
 62
7
  6
CONTINUOUS
 10
4.6209821429
 20
4.4480076531
 11
5.3109821429
 21
4.4480076531
  0
LINE
  5
224
100
AcDbEntity
  8
0
100
AcDbLine
 62
7
  6
CONTINUOUS
 10
4.6847321429
 20
4.4690076531
 11
5.2472321429
 21
4.4690076531
  0
LINE
  5
225
100
AcDbEntity
  8
0
100
AcDbLine
 62
9
  6
CONTINUOUS
 10
5.2472321429
 20
4.8610076531
 11
5.2442771506
 21
4.8610076531
  0
LINE
  5
226
100
AcDbEntity
  8
0
100
AcDbLine
 62
7
  6
CONTINUOUS
 10
5.2739619514
 20
4.8910076531
 11
7.4359818556
 21
4.8910076531
  0
LINE
  5
227
100
AcDbEntity
  8
0
100
AcDbLine
 62
9
  6
CONTINUOUS
 10
5.2307451304
 20
4.9210076531
 11
7.4659821429
 21
4.9210076531
  0
LINE
  5
228
100
AcDbEntity
  8
0
100
AcDbLine
 62
9
  6
CONTINUOUS
 10
4.6847321429
 20
5.1490076531
 11
5.2589865157
 21
5.1490076531
  0
LINE
  5
229
100
AcDbEntity
  8
0
100
AcDbLine
 62
7
  6
CONTINUOUS
 10
4.7147321429
 20
5.1790076531
 11
5.1942398098
 21
5.1790076531
  0
LINE
  5
22A
100
AcDbEntity
  8
0
100
AcDbLine
 62
9
  6
CONTINUOUS
 10
4.9659821429
 20
5.2090076531
 11
5.1942398097
 21
5.2090076531
  0
LINE
  5
22B
100
AcDbEntity
  8
0
100
AcDbLine
 62
9
  6
CONTINUOUS
 10
4.9959821429
 20
5.2690076531
 11
4.9659821429
 21
5.2690076531
  0
LINE
  5
22C
100
AcDbEntity
  8
0
100
AcDbLine
 62
9
  6
CONTINUOUS
 10
7.4659821429
 20
5.2990076531
 11
5.0259821429
 21
5.2990076531
  0
LINE
  5
22D
100
AcDbEntity
  8
0
100
AcDbLine
 62
7
  6
CONTINUOUS
 10
7.4359818556
 20
5.3290076531
 11
5.0259821429
 21
5.3290076531
  0
LINE
  5
22E
100
AcDbEntity
  8
0
100
AcDbLine
 62
9
  6
CONTINUOUS
 10
7.3909821429
 20
4.8910076531
 11
7.3909821429
 21
5.3290076531
  0
LINE
  5
22F
100
AcDbEntity
  8
0
100
AcDbLine
 62
7
  6
CONTINUOUS
 10
7.4659821429
 20
5.2990076531
 11
7.4659821429
 21
4.9210076531
  0
ARC
  5
230
100
AcDbEntity
  8
0
100
AcDbCircle
 62
7
  6
CONTINUOUS
 10
5.0259821429
 20
5.2690076531
 40
0.06
100
AcDbArc
 50
90.0
 51
180.0
  0
ARC
  5
231
100
AcDbEntity
  8
0
100
AcDbCircle
 62
7
  6
CONTINUOUS
 10
4.7147321429
 20
5.1490076531
 40
0.03
100
AcDbArc
 50
90.0
 51
180.0
  0
ARC
  5
232
100
AcDbEntity
  8
0
100
AcDbCircle
 62
7
  6
CONTINUOUS
 10
4.0059821429
 20
2.7980076531
 40
0.03
100
AcDbArc
 50
90.0
 51
180.0
  0
ARC
  5
233
100
AcDbEntity
  8
0
100
AcDbCircle
 62
7
  6
CONTINUOUS
 10
5.9259821429
 20
2.7980076531
 40
0.03
100
AcDbArc
 50
0.0
 51
90.0
  0
ARC
  5
234
100
AcDbEntity
  8
0
100
AcDbCircle
 62
7
  6
CONTINUOUS
 10
5.2772321428
 20
4.8610076531
 40
0.03
100
AcDbArc
 50
95.4545454545
 51
180.0
  0
ARC
  5
235
100
AcDbEntity
  8
0
100
AcDbCircle
 62
7
  6
CONTINUOUS
 10
5.3109821429
 20
4.4180076531
 40
0.03
100
AcDbArc
 50
0.0
 51
90.0
  0
ARC
  5
236
100
AcDbEntity
  8
0
100
AcDbCircle
 62
7
  6
CONTINUOUS
 10
4.6209821429
 20
4.4180076531
 40
0.03
100
AcDbArc
 50
90.0
 51
180.0
  0
ARC
  5
237
100
AcDbEntity
  8
0
100
AcDbCircle
 62
7
  6
CONTINUOUS
 10
7.4359821429
 20
4.9210076531
 40
0.03
100
AcDbArc
 50
270.0
 51
360.0
  0
ARC
  5
238
100
AcDbEntity
  8
0
100
AcDbCircle
 62
7
  6
CONTINUOUS
 10
7.4359821429
 20
5.2990076531
 40
0.03
100
AcDbArc
 50
0.0
 51
90.0
  0
ARC
  5
239
100
AcDbEntity
  8
0
100
AcDbCircle
 62
7
  6
CONTINUOUS
 10
4.9359821429
 20
5.2090076531
 40
0.03
100
AcDbArc
 50
270.0
 51
360.0
  0
ARC
  5
23A
100
AcDbEntity
  8
0
100
AcDbCircle
 62
9
  6
CONTINUOUS
 10
5.0259821429
 20
5.2690076531
 40
0.03
100
AcDbArc
 50
90.0
 51
180.0
  0
SPLINE
  5
23B
100
AcDbEntity
  8
0
100
AcDbSpline
 62
9
  6
CONTINUOUS
 70
0
 71
3
 72
35
 73
31
 74
0
 42
0.0000001
 43
0.0000001
 44
0.0000000001
 40
0.0
 40
0.0
 40
0.0
 40
0.0
 40
0.0903593322
 40
0.1800741959
 40
0.2684581736
 40
0.3548609913
 40
0.438618197
 40
0.5190793657
 40
0.5955757541
 40
0.6674286271
 40
0.7339541011
 40
0.7650039518
 40
0.79446084
 40
0.8222372624
 40
0.8482481887
 40
0.872411916
 40
0.8946506192
 40
0.9148941919
 40
0.9330810502
 40
0.9491667622
 40
0.9564153996
 40
0.963133995
 40
0.9693290175
 40
0.9750120403
 40
0.9801998559
 40
0.9849165353
 40
0.9891962941
 40
0.9930876735
 40
0.9966585203
 40
1.0
 40
1.0
 40
1.0
 40
1.0
 10
5.2307451304
 20
4.9210076531
 30
0.0
 10
5.2307451772
 20
4.9191158501
 30
0.0
 10
5.2308040937
 20
4.9153454963
 30
0.0
 10
5.2310618192
 20
4.9097300366
 30
0.0
 10
5.2314841295
 20
4.904207554
 30
0.0
 10
5.2320628934
 20
4.8988247339
 30
0.0
 10
5.2327840296
 20
4.8936265703
 30
0.0
 10
5.2336305583
 20
4.8886576406
 30
0.0
 10
5.2345837691
 20
4.8839621071
 30
0.0
 10
5.2356226848
 20
4.8795841729
 30
0.0
 10
5.2365607283
 20
4.8761623244
 30
0.0
 10
5.2373385341
 20
4.8736188384
 30
0.0
 10
5.2379150858
 20
4.8718625768
 30
0.0
 10
5.2384951634
 20
4.870218943
 30
0.0
 10
5.2390755842
 20
4.8686934348
 30
0.0
 10
5.2396530796
 20
4.8672914234
 30
0.0
 10
5.2402244399
 20
4.8660181576
 30
0.0
 10
5.2407864856
 20
4.8648786895
 30
0.0
 10
5.2413361473
 20
4.8638779256
 30
0.0
 10
5.2417960365
 20
4.8631394449
 30
0.0
 10
5.2421579079
 20
4.8626245333
 30
0.0
 10
5.2424150444
 20
4.8622895795
 30
0.0
 10
5.2426671033
 20
4.8619925957
 30
0.0
 10
5.2429138251
 20
4.861733832
 30
0.0
 10
5.2431549921
 20
4.8615135098
 30
0.0
 10
5.2433904378
 20
4.8613318501
 30
0.0
 10
5.243620082
 20
4.8611891358
 30
0.0
 10
5.2438440225
 20
4.8610858453
 30
0.0
 10
5.2440622046
 20
4.8610226814
 30
0.0
 10
5.2442071919
 20
4.8610077037
 30
0.0
 10
5.2442771506
 20
4.8610076531
 30
0.0
  0
LINE
  5
23C
100
AcDbEntity
  8
0
100
AcDbLine
 62
9
  6
CONTINUOUS
 10
4.9959821429
 20
5.2090076531
 11
4.9959891593
 21
5.1790076531
  0
SPLINE
  5
23D
100
AcDbEntity
  8
0
100
AcDbSpline
 62
9
  6
CONTINUOUS
 70
0
 71
3
 72
23
 73
19
 74
0
 42
0.0000001
 43
0.0000001
 44
0.0000000001
 40
0.0
 40
0.0
 40
0.0
 40
0.0
 40
0.0628198345
 40
0.1256469275
 40
0.1884340678
 40
0.2511890347
 40
0.3138991028
 40
0.3765546808
 40
0.4391509399
 40
0.5016836956
 40
0.5641517566
 40
0.6265563952
 40
0.6889007883
 40
0.7511920746
 40
0.8134367645
 40
0.8756417633
 40
0.9378370272
 40
1.0
 40
1.0
 40
1.0
 40
1.0
 10
5.2442771506
 20
4.8610076531
 30
0.0
 10
5.2442771506
 20
4.8619888529
 30
0.0
 10
5.2443726803
 20
4.863952693
 30
0.0
 10
5.2448005657
 20
4.8668690839
 30
0.0
 10
5.2455094884
 20
4.8697294366
 30
0.0
 10
5.246492302
 20
4.8725055966
 30
0.0
 10
5.2477396448
 20
4.8751711563
 30
0.0
 10
5.2492394912
 20
4.877700384
 30
0.0
 10
5.2509774665
 20
4.8800688843
 30
0.0
 10
5.2529368416
 20
4.8822538479
 30
0.0
 10
5.2550986919
 20
4.8842342894
 30
0.0
 10
5.2574422757
 20
4.8859910544
 30
0.0
 10
5.2599450349
 20
4.8875072003
 30
0.0
 10
5.2625828309
 20
4.8887681611
 30
0.0
 10
5.2653301906
 20
4.8897617468
 30
0.0
 10
5.268160967
 20
4.8904784635
 30
0.0
 10
5.2710472574
 20
4.8909110633
 30
0.0
 10
5.2729910112
 20
4.8910076531
 30
0.0
 10
5.2739619514
 20
4.8910076531
 30
0.0
  0
SPLINE
  5
23E
100
AcDbEntity
  8
0
100
AcDbSpline
 62
9
  6
CONTINUOUS
 70
0
 71
3
 72
24
 73
20
 74
0
 42
0.0000001
 43
0.0000001
 44
0.0000000001
 40
0.0
 40
0.0
 40
0.0
 40
0.0
 40
0.0608893082
 40
0.1219565478
 40
0.183219334
 40
0.2446852125
 40
0.3063685376
 40
0.3682903009
 40
0.4304486263
 40
0.4928507319
 40
0.5555157474
 40
0.6184257863
 40
0.6499812563
 40
0.6815989971
 40
0.7449733018
 40
0.808540706
 40
0.8722671367
 40
0.9361059198
 40
1.0
 40
1.0
 40
1.0
 40
1.0
 10
5.1942380921
 20
5.1790076531
 30
0.0
 10
5.1953043961
 20
5.1790075781
 30
0.0
 10
5.1974408019
 20
5.1789395964
 30
0.0
 10
5.2006362309
 20
5.1786242857
 30
0.0
 10
5.2038121969
 20
5.1780848741
 30
0.0
 10
5.2069506892
 20
5.1773109157
 30
0.0
 10
5.2100310068
 20
5.1762920316
 30
0.0
 10
5.2130285607
 20
5.1750181469
 30
0.0
 10
5.2159156796
 20
5.1734826478
 30
0.0
 10
5.2186605332
 20
5.1716802484
 30
0.0
 10
5.2212260535
 20
5.1696089482
 30
0.0
 10
5.2231816299
 20
5.1676650722
 30
0.0
 10
5.2246160234
 20
5.1659851273
 30
0.0
 10
5.2259588871
 20
5.1642209563
 30
0.0
 10
5.2274486645
 20
5.1618696214
 30
0.0
 10
5.2288903285
 20
5.1588489072
 30
0.0
 10
5.229950209
 20
5.155664526
 30
0.0
 10
5.2305992443
 20
5.1523661529
 30
0.0
 10
5.2307450277
 20
5.1501265771
 30
0.0
 10
5.2307451304
 20
5.1490076531
 30
0.0
  0
SPLINE
  5
23F
100
AcDbEntity
  8
0
100
AcDbSpline
 62
9
  6
CONTINUOUS
 70
0
 71
3
 72
32
 73
28
 74
0
 42
0.0000001
 43
0.0000001
 44
0.0000000001
 40
0.0
 40
0.0
 40
0.0
 40
0.0
 40
0.0264594009
 40
0.0414856123
 40
0.0578361348
 40
0.0755871467
 40
0.0947809723
 40
0.1154260314
 40
0.1375067657
 40
0.1609970616
 40
0.1858675808
 40
0.2120863219
 40
0.2396171762
 40
0.2984406625
 40
0.3620175057
 40
0.3955018535
 40
0.430068456
 40
0.5022747959
 40
0.5783208496
 40
0.6176807883
 40
0.6578620442
 40
0.6988018131
 40
0.7404391412
 40
0.782694981
 40
0.8254848293
 40
0.9122851418
 40
1.0
 40
1.0
 40
1.0
 40
1.0
 10
5.2739619514
 20
4.8910076531
 30
0.0
 10
5.2736499487
 20
4.8910077025
 30
0.0
 10
5.2731599893
 20
4.8910973413
 30
0.0
 10
5.2725199601
 20
4.891333157
 30
0.0
 10
5.2719981919
 20
4.8915873815
 30
0.0
 10
5.271457852
 20
4.8919093042
 30
0.0
 10
5.2708999436
 20
4.8922973483
 30
0.0
 10
5.2703265313
 20
4.8927499608
 30
0.0
 10
5.2697399333
 20
4.8932657781
 30
0.0
 10
5.2691425727
 20
4.8938433296
 30
0.0
 10
5.2685368096
 20
4.8944811872
 30
0.0
 10
5.2679249467
 20
4.8951779587
 30
0.0
 10
5.2670853731
 20
4.8962064684
 30
0.0
 10
5.2660397653
 20
4.8976338373
 30
0.0
 10
5.2650504816
 20
4.8991845544
 30
0.0
 10
5.2642754966
 20
4.900529579
 30
0.0
 10
5.2634931466
 20
4.9019869672
 30
0.0
 10
5.262561957
 20
4.9039328721
 30
0.0
 10
5.2617345058
 20
4.9059862997
 30
0.0
 10
5.2611298557
 20
4.907718716
 30
0.0
 10
5.260705427
 20
4.9090747994
 30
0.0
 10
5.2603196092
 20
4.910470264
 30
0.0
 10
5.2599769112
 20
4.9119021223
 30
0.0
 10
5.2596801529
 20
4.9133664894
 30
0.0
 10
5.2593479196
 20
4.9153657981
 30
0.0
 10
5.2590639581
 20
4.9179147527
 30
0.0
 10
5.2589866176
 20
4.919973341
 30
0.0
 10
5.2589865157
 20
4.9210076531
 30
0.0
  0
SPLINE
  5
240
100
AcDbEntity
  8
0
100
AcDbSpline
 62
9
  6
CONTINUOUS
 70
0
 71
3
 72
30
 73
26
 74
0
 42
0.0000001
 43
0.0000001
 44
0.0000000001
 40
0.0
 40
0.0
 40
0.0
 40
0.0
 40
0.0624925413
 40
0.1249919344
 40
0.1562452712
 40
0.1875000156
 40
0.2499952259
 40
0.312489107
 40
0.37498261
 40
0.4062377494
 40
0.4374930076
 40
0.4687487876
 40
0.5000045817
 40
0.5312594178
 40
0.5625146607
 40
0.5937704374
 40
0.6250264701
 40
0.6562815728
 40
0.6875366983
 40
0.7187923493
 40
0.7500479691
 40
0.8125371065
 40
0.8750249073
 40
0.9375135954
 40
1.0
 40
1.0
 40
1.0
 40
1.0
 10
5.1942398097
 20
5.2090076531
 30
0.0
 10
5.1962834855
 20
5.2090074302
 30
0.0
 10
5.2003730211
 20
5.2088335606
 30
0.0
 10
5.2054475248
 20
5.2081816468
 30
0.0
 10
5.2094608119
 20
5.2073969584
 30
0.0
 10
5.2134353478
 20
5.2064359448
 30
0.0
 10
5.2183178073
 20
5.2049041137
 30
0.0
 10
5.2239847039
 20
5.202542206
 30
0.0
 10
5.2285054994
 20
5.2001432842
 30
0.0
 10
5.2319719114
 20
5.1979739615
 30
0.0
 10
5.2344913526
 20
5.1962238574
 30
0.0
 10
5.2369233644
 20
5.1943542043
 30
0.0
 10
5.2392612352
 20
5.1923680308
 30
0.0
 10
5.2414976236
 20
5.1902682086
 30
0.0
 10
5.2436252603
 20
5.1880582395
 30
0.0
 10
5.2456387981
 20
5.1857437882
 30
0.0
 10
5.2475326824
 20
5.1833304287
 30
0.0
 10
5.2493005704
 20
5.1808232671
 30
0.0
 10
5.2509354926
 20
5.1782274425
 30
0.0
 10
5.2524322732
 20
5.175549456
 30
0.0
 10
5.2542372357
 20
5.1718799559
 30
0.0
 10
5.2561262418
 20
5.167121512
 30
0.0
 10
5.257768417
 20
5.1612025715
 30
0.0
 10
5.2587601727
 20
5.1551413338
 30
0.0
 10
5.2589862982
 20
5.151051128
 30
0.0
 10
5.2589865157
 20
5.1490076529
 30
0.0
  0
ENDSEC
  0
SECTION
  2
OBJECTS
  0
DICTIONARY
  5
C
100
AcDbDictionary
280
0
281
1
  3
ACAD_GROUP
350
D
  3
ACAD_MLINESTYLE
350
17
  3
ACAD_LAYOUT
350
1A
  3
ACAD_PLOTSETTINGS
350
19
  3
ACAD_PLOTSTYLENAME
350
E
  0
DICTIONARY
  5
D
102
{ACAD_REACTORS
330
C
102
}
100
AcDbDictionary
280
0
281
1
  0
ACDBDICTIONARYWDFLT
  5
E
102
{ACAD_REACTORS
330
C
102
}
100
AcDbDictionary
281
1
  3
Normal
350
F
100
AcDbDictionaryWithDefault
340
F
  0
DICTIONARY
  5
17
102
{ACAD_REACTORS
330
C
102
}
100
AcDbDictionary
280
0
281
1
  3
Standard
350
18
  0
DICTIONARY
  5
19
102
{ACAD_REACTORS
330
C
102
}
100
AcDbDictionary
281
1
  0
DICTIONARY
  5
1A
102
{ACAD_REACTORS
330
C
102
}
100
AcDbDictionary
281
1
  3
Model
350
241
  3
Layout1
350
242
  0
ACDBPLACEHOLDER
  5
F
102
{ACAD_REACTORS
330
E
102
}
  0
MLINESTYLE
  5
18
102
{ACAD_REACTORS
330
17
102
}
100
AcDbMlineStyle
  2
STANDARD
 70
0
  3

 62
256
 51
90.0
 52
90.0
 71
2
 49
0.5
 62
256
  6
BYLAYER
 49
-0.5
 62
256
  6
BYLAYER
  0
LAYOUT
  5
241
102
{ACAD_REACTORS
330
1A
102
}
100
AcDbPlotSettings
  1

  2
none_device
  4
ANSI_A_(11.00_x_8.50_Inches)
  6

 40
0.0
 41
0.0
 42
0.0
 43
0.0
 44
279.4
 45
215.9
 46
0.0
 47
0.0
 48
0.0
 49
0.0
140
0.0
141
0.0
142
1.0
143
1.0
 70
1024
 72
0
 73
0
 74
0
  7

 75
0
147
1.0
148
0.0
149
0.0
100
AcDbLayout
  1
Model
 70
0
 71
0
 10
0.0
 20
0.0
 11
11.0
 21
8.5
 12
0.0
 22
0.0
 32
0.0
 14
0.0
 24
0.0
 34
0.0
 15
0.0
 25
0.0
 35
0.0
146
0.0
 13
0.0
 23
0.0
 33
0.0
 16
1.0
 26
0.0
 36
0.0
 17
0.0
 27
1.0
 37
0.0
 76
0
330
202
345
0
346
0
  0
LAYOUT
  5
242
102
{ACAD_REACTORS
330
1A
102
}
100
AcDbPlotSettings
  1

  2
none_device
  4
ANSI_A_(11.00_x_8.50_Inches)
  6

 40
0.0
 41
0.0
 42
0.0
 43
0.0
 44
279.4
 45
215.9
 46
0.0
 47
0.0
 48
0.0
 49
0.0
140
0.0
141
0.0
142
1.0
143
1.0
 70
0
 72
0
 73
0
 74
0
  7

 75
0
147
1.0
148
0.0
149
0.0
100
AcDbLayout
  1
Layout1
 70
0
 71
1
 10
0.0
 20
0.0
 11
11.0
 21
8.5
 12
0.0
 22
0.0
 32
0.0
 14
0.0
 24
0.0
 34
0.0
 15
0.0
 25
0.0
 35
0.0
146
0.0
 13
0.0
 23
0.0
 33
0.0
 16
1.0
 26
0.0
 36
0.0
 17
0.0
 27
1.0
 37
0.0
 76
0
330
203
345
0
346
0
  0
ENDSEC
  0
EOF
