999
DXF file: 3-722_front.dxf
999
Pro/ENGINEER 2018400 by Parametric Technology Corporation
  0
SECTION
  2
HEADER
  9
$ACADVER
  1
AC1027
  9
$DWGCODEPAGE
  3
ANSI_1252
  9
$EXTMAX
 10
11.0
 20
8.5
 30
0.0
  9
$EXTMIN
 10
0.0
 20
0.0
 30
0.0
  9
$LIMMIN
 10
0.0
 20
0.0
  9
$LIMMAX
 10
11.0
 20
8.5
  9
$VIEWCTR
 10
5.5
 20
4.25
  9
$VIEWSIZE
 40
8.5
  9
$CLAYER
  8
0
  9
$LTSCALE
 40
0.605
  9
$CELTYPE
  6
BYLAYER
  9
$DIMSCALE
 40
1.0
  9
$DIMASZ
 40
0.1
  9
$DIMEXO
 40
0.0625
  9
$DIMDLI
 40
0.418
  9
$DIMEXE
 40
0.125
  9
$DIMCEN
 40
0.099
  9
$DIMLFAC
 40
1.0
  9
$DIMBLK
  1
_FILLED
  9
$DIMALT
 70
1
  9
$DIMALTD
 70
2
  9
$DIMALTTD
 70
2
  9
$DIMALTF
 40
25.4
  9
$DIMTXT
 40
0.08
  9
$DIMTOL
 70
1
  9
$DIMLIM
 70
0
  9
$DIMTFAC
 40
1.0
  9
$DIMTP
 40
0.001
  9
$DIMTM
 40
0.001
  9
$DIMGAP
 40
0.09
  9
$DIMDSEP
 70
46
  9
$AUNITS
 70
0
  9
$PDMODE
 70
3
  9
$PDSIZE
 40
0.06
  9
$HANDSEED
  5
254
  9
$TILEMODE
 70
1
  9
$MEASUREMENT
 70
0
  9
$INSUNITS
 70
1
  0
ENDSEC
  0
SECTION
  2
CLASSES
  0
CLASS
  1
ACDBDICTIONARYWDFLT
  2
AcDbDictionaryWithDefault
  3
AutoCAD 2000
 90
0
 91
1
280
0
281
0
  0
CLASS
  1
ACDBPLACEHOLDER
  2
AcDbPlaceHolder
  3
AutoCAD 2000
 90
0
 91
1
280
0
281
0
  0
CLASS
  1
LAYOUT
  2
AcDbLayout
  3
AutoCAD 2000
 90
0
 91
0
280
0
281
0
  0
ENDSEC
  0
SECTION
  2
TABLES
  0
TABLE
  2
VPORT
  5
8
100
AcDbSymbolTable
 70
2
  0
VPORT
  5
1F4
100
AcDbSymbolTableRecord
100
AcDbViewportTableRecord
  2
*ACTIVE
 70
0
 10
0.0
 20
0.0
 11
1.0
 21
1.0
 12
5.5
 22
4.25
 13
0.0
 23
0.0
 14
1.0
 24
1.0
 15
0.0
 25
0.0
 16
0.0
 26
0.0
 36
1.0
 17
0.0
 27
0.0
 37
0.0
 40
8.5
 41
1.2941176471
 42
50.0
 43
0.0
 44
0.0
 50
0.0
 51
0.0
 71
0
 72
100
 73
1
 74
1
 75
0
 76
0
 77
0
 78
0
  0
ENDTAB
  0
TABLE
  2
LTYPE
  5
5
100
AcDbSymbolTable
 70
6
  0
LTYPE
  5
14
100
AcDbSymbolTableRecord
100
AcDbLinetypeTableRecord
  2
BYBLOCK
 70
0
  3

 72
65
 73
0
 40
0.0
  0
LTYPE
  5
15
100
AcDbSymbolTableRecord
100
AcDbLinetypeTableRecord
  2
BYLAYER
 70
0
  3

 72
65
 73
0
 40
0.0
  0
LTYPE
  5
16
100
AcDbSymbolTableRecord
100
AcDbLinetypeTableRecord
  2
CONTINUOUS
 70
64
  3
Solid line
 72
65
 73
0
 40
0.0
  0
LTYPE
  5
1F5
100
AcDbSymbolTableRecord
100
AcDbLinetypeTableRecord
  2
CENTER
 70
64
  3
____ _ ____ _ ____ _ ____ _ ____ _ ____ _ ____
 72
65
 73
4
 40
0.6
 49
0.375
 74
0
 49
-0.075
 74
0
 49
0.075
 74
0
 49
-0.075
 74
0
  0
LTYPE
  5
1F6
100
AcDbSymbolTableRecord
100
AcDbLinetypeTableRecord
  2
HIDDEN
 70
64
  3
- - - - - - - - - - - - - - - - - - - -
 72
65
 73
2
 40
0.2
 49
0.1
 74
0
 49
-0.1
 74
0
  0
LTYPE
  5
1F7
100
AcDbSymbolTableRecord
100
AcDbLinetypeTableRecord
  2
PHANTOM
 70
64
  3
_____ _ _ _____ _ _ _____ _ _ _____
 72
65
 73
6
 40
0.8
 49
0.45
 74
0
 49
-0.05
 74
0
 49
0.1
 74
0
 49
-0.05
 74
0
 49
0.1
 74
0
 49
-0.05
 74
0
  0
LTYPE
  5
1F8
100
AcDbSymbolTableRecord
100
AcDbLinetypeTableRecord
  2
DOT
 70
64
  3
. . . . . . . . . . . . . . . . . . . .
 72
65
 73
2
 40
0.2
 49
0.1
 74
0
 49
-0.1
 74
0
  0
LTYPE
  5
1F9
100
AcDbSymbolTableRecord
100
AcDbLinetypeTableRecord
  2
DASHED
 70
64
  3
- - - - - - - - - - - - - - - - - - - -
 72
65
 73
2
 40
0.2
 49
0.1
 74
0
 49
-0.1
 74
0
  0
ENDTAB
  0
TABLE
  2
LAYER
  5
2
100
AcDbSymbolTable
 70
36
  0
LAYER
  5
10
100
AcDbSymbolTableRecord
100
AcDbLayerTableRecord
  2
0
 70
0
 62
7
  6
CONTINUOUS
370
-3
390
F
  0
LAYER
  5
1FA
100
AcDbSymbolTableRecord
100
AcDbLayerTableRecord
  2
DEFAULT_1
 70
0
 62
7
  6
CENTER
370
-3
390
F
  0
LAYER
  5
1FB
100
AcDbSymbolTableRecord
100
AcDbLayerTableRecord
  2
DEFAULT_2
 70
0
 62
8
  6
HIDDEN
370
-3
390
F
  0
LAYER
  5
1FC
100
AcDbSymbolTableRecord
100
AcDbLayerTableRecord
  2
DEFAULT_3
 70
0
 62
7
  6
PHANTOM
370
-3
390
F
  0
LAYER
  5
1FD
100
AcDbSymbolTableRecord
100
AcDbLayerTableRecord
  2
DEFAULT_COORDINATE_SYSTEM
 70
0
 62
7
  6
CONTINUOUS
370
-3
390
F
  0
LAYER
  5
1FE
100
AcDbSymbolTableRecord
100
AcDbLayerTableRecord
  2
DEFAULT_DATUM_AXES
 70
0
 62
7
  6
CONTINUOUS
370
-3
390
F
  0
LAYER
  5
1FF
100
AcDbSymbolTableRecord
100
AcDbLayerTableRecord
  2
DEFAULT_DATUM_PLANES
 70
0
 62
7
  6
CONTINUOUS
370
-3
390
F
  0
ENDTAB
  0
TABLE
  2
STYLE
  5
3
100
AcDbSymbolTable
 70
1
  0
STYLE
  5
11
100
AcDbSymbolTableRecord
100
AcDbTextStyleTableRecord
  2
STANDARD
 70
0
 40
0.0
 41
0.8
 50
0.0
 71
0
 42
0.2
  3
txt
  4

  0
STYLE
  5
200
100
AcDbSymbolTableRecord
100
AcDbTextStyleTableRecord
  2
TEXTSTYLE_1
 70
0
 40
0.0
 41
0.8
 50
0.0
 71
0
 42
0.2
  3
gdt
  4

  0
ENDTAB
  0
TABLE
  2
VIEW
  5
6
100
AcDbSymbolTable
 70
0
  0
ENDTAB
  0
TABLE
  2
UCS
  5
7
100
AcDbSymbolTable
 70
0
  0
ENDTAB
  0
TABLE
  2
APPID
  5
9
100
AcDbSymbolTable
 70
1
  0
APPID
  5
201
100
AcDbSymbolTableRecord
100
AcDbRegAppTableRecord
  2
ACAD
 70
0
  0
ENDTAB
  0
TABLE
  2
BLOCK_RECORD
  5
1
100
AcDbSymbolTable
 70
0
  0
BLOCK_RECORD
  5
202
100
AcDbSymbolTableRecord
100
AcDbBlockTableRecord
  2
*Model_Space
  0
BLOCK_RECORD
  5
203
100
AcDbSymbolTableRecord
100
AcDbBlockTableRecord
  2
*Paper_Space
  0
BLOCK_RECORD
  5
204
100
AcDbSymbolTableRecord
100
AcDbBlockTableRecord
  2
_FILLED
  0
ENDTAB
  0
TABLE
  2
DIMSTYLE
  5
A
100
AcDbSymbolTable
 70
1
100
AcDbDimStyleTable
 71
0
  0
DIMSTYLE
105
205
100
AcDbSymbolTableRecord
100
AcDbDimStyleTableRecord
  2
STANDARD
 70
0
  3

  4

 40
1.0
 41
0.1
 42
0.0625
 43
0.38
 44
0.125
 45
0.0
 46
0.0
 47
0.001
 48
0.001
140
0.08
141
0.09
142
0.0
143
25.4
144
1.0
145
0.0
146
1.0
147
0.09
 71
1.0
 72
0.0
 73
1
 74
1
 75
0
 76
0
 77
0
 78
4
 79
1
170
1
171
2
172
0
173
0
174
0
175
0
176
0
177
0
178
0
270
2
179
3
271
3
272
3
273
2
274
2
275
0
280
0
281
0
282
0
283
1
284
4
285
0
286
0
287
3
288
0
340
11
278
46
341
204
342
204
343
204
344
204
  0
ENDTAB
  0
ENDSEC
  0
SECTION
  2
BLOCKS
  0
BLOCK
  5
20
100
AcDbEntity
  8
0
100
AcDbBlockBegin
  2
*Model_Space
 70
0
 10
0.0
 20
0.0
 30
0.0
  3
*Model_Space
  1

  0
ENDBLK
  5
21
100
AcDbEntity
  8
0
100
AcDbBlockEnd
  0
BLOCK
  5
1C
100
AcDbEntity
  8
0
100
AcDbBlockBegin
  2
*Paper_Space
 70
0
 10
0.0
 20
0.0
 30
0.0
  3
*Paper_Space
  1

  0
ENDBLK
  5
1D
100
AcDbEntity
  8
0
100
AcDbBlockEnd
  0
BLOCK
  5
206
100
AcDbEntity
  8
0
100
AcDbBlockBegin
  2
_FILLED
 70
64
 10
0.0
 20
0.0
  3
_FILLED
  1

  0
SOLID
  5
207
100
AcDbEntity
  8
0
  6
BYBLOCK
 62
0
100
AcDbTrace
 10
0.0
 20
0.0
 11
-1.0
 21
0.2
 12
-1.0
 22
-0.2
 13
-1.0
 23
-0.2
  0
ENDBLK
  5
208
100
AcDbEntity
  8
0
  6
BYBLOCK
 62
0
100
AcDbBlockEnd
  0
ENDSEC
  0
SECTION
  2
ENTITIES
  0
MTEXT
  5
209
100
AcDbEntity
  8
0
100
AcDbMText
 62
2
  6
CONTINUOUS
  7
STANDARD
 71
3
 72
1
 10
5.2739668367
 20
2.2872678571
 30
0.0
 11
1.0
 21
0.0
 31
0.0
 73
2
 44
0.9
  1
SCALE  1.000
 40
0.08
 41
0.768
  0
LINE
  5
20A
100
AcDbEntity
  8
0
100
AcDbLine
 62
7
  6
CONTINUOUS
 10
0.0
 20
0.0
 11
0.0
 21
8.5
  0
LINE
  5
20B
100
AcDbEntity
  8
0
100
AcDbLine
 62
7
  6
CONTINUOUS
 10
0.0
 20
0.0
 11
11.0
 21
0.0
  0
LINE
  5
20C
100
AcDbEntity
  8
0
100
AcDbLine
 62
7
  6
CONTINUOUS
 10
0.0
 20
8.5
 11
11.0
 21
8.5
  0
LINE
  5
20D
100
AcDbEntity
  8
0
100
AcDbLine
 62
7
  6
CONTINUOUS
 10
11.0
 20
0.0
 11
11.0
 21
8.5
  0
LINE
  5
20E
100
AcDbEntity
  8
0
100
AcDbLine
 62
7
  6
CONTINUOUS
 10
3.7739668367
 20
4.9032678571
 11
3.7739668367
 21
4.5252678571
  0
LINE
  5
20F
100
AcDbEntity
  8
0
100
AcDbLine
 62
9
  6
CONTINUOUS
 10
3.8489668367
 20
4.4952678571
 11
3.8489668367
 21
4.9332678571
  0
LINE
  5
210
100
AcDbEntity
  8
0
100
AcDbLine
 62
7
  6
CONTINUOUS
 10
6.2639668367
 20
2.3822678571
 11
4.2839668367
 21
2.3822678571
  0
LINE
  5
211
100
AcDbEntity
  8
0
100
AcDbLine
 62
9
  6
CONTINUOUS
 10
4.2839668367
 20
2.5522678571
 11
6.2639668367
 21
2.5522678571
  0
LINE
  5
212
100
AcDbEntity
  8
0
100
AcDbLine
 62
7
  6
CONTINUOUS
 10
4.3139668367
 20
2.5822678571
 11
6.2339668367
 21
2.5822678571
  0
LINE
  5
213
100
AcDbEntity
  8
0
100
AcDbLine
 62
7
  6
CONTINUOUS
 10
4.8989668367
 20
2.5922678571
 11
5.6489668367
 21
2.5922678571
  0
LINE
  5
214
100
AcDbEntity
  8
0
100
AcDbLine
 62
7
  6
CONTINUOUS
 10
4.2839668367
 20
2.3822678571
 11
4.2839668367
 21
2.5522678571
  0
LINE
  5
215
100
AcDbEntity
  8
0
100
AcDbLine
 62
7
  6
CONTINUOUS
 10
4.8989668367
 20
2.5922678571
 11
4.8989668367
 21
4.1722678571
  0
LINE
  5
216
100
AcDbEntity
  8
0
100
AcDbLine
 62
7
  6
CONTINUOUS
 10
4.9089668367
 20
2.5922678571
 11
4.9089668367
 21
2.5822678571
  0
LINE
  5
217
100
AcDbEntity
  8
0
100
AcDbLine
 62
9
  6
CONTINUOUS
 10
4.9809624639
 20
4.5252678571
 11
4.9809624639
 21
4.9332678571
  0
LINE
  5
218
100
AcDbEntity
  8
0
100
AcDbLine
 62
7
  6
CONTINUOUS
 10
4.9927168367
 20
4.2232678571
 11
4.9927168367
 21
4.4652678571
  0
LINE
  5
219
100
AcDbEntity
  8
0
100
AcDbLine
 62
9
  6
CONTINUOUS
 10
5.0092038492
 20
4.9032678571
 11
5.0092038492
 21
4.5252678571
  0
LINE
  5
21A
100
AcDbEntity
  8
0
100
AcDbLine
 62
7
  6
CONTINUOUS
 10
5.0189668367
 20
4.2022678571
 11
5.0189668367
 21
4.2232678571
  0
LINE
  5
21B
100
AcDbEntity
  8
0
100
AcDbLine
 62
9
  6
CONTINUOUS
 10
5.1790873187
 20
4.5252678571
 11
5.1790873187
 21
4.9032678571
  0
LINE
  5
21C
100
AcDbEntity
  8
0
100
AcDbLine
 62
7
  6
CONTINUOUS
 10
5.1989668367
 20
4.5252678571
 11
5.1989668367
 21
4.9032678571
  0
LINE
  5
21D
100
AcDbEntity
  8
0
100
AcDbLine
 62
7
  6
CONTINUOUS
 10
5.3489668367
 20
4.5252678571
 11
5.3489668367
 21
4.9032678571
  0
LINE
  5
21E
100
AcDbEntity
  8
0
100
AcDbLine
 62
9
  6
CONTINUOUS
 10
5.3688463548
 20
4.9032678571
 11
5.3688463548
 21
4.5252678571
  0
LINE
  5
21F
100
AcDbEntity
  8
0
100
AcDbLine
 62
7
  6
CONTINUOUS
 10
5.5289668367
 20
4.2022678571
 11
5.5289668367
 21
4.2232678571
  0
LINE
  5
220
100
AcDbEntity
  8
0
100
AcDbLine
 62
9
  6
CONTINUOUS
 10
5.5387298242
 20
4.5252678571
 11
5.5387298242
 21
4.9032678571
  0
LINE
  5
221
100
AcDbEntity
  8
0
100
AcDbLine
 62
7
  6
CONTINUOUS
 10
5.5552168367
 20
4.2232678571
 11
5.5552168367
 21
4.4652678571
  0
LINE
  5
222
100
AcDbEntity
  8
0
100
AcDbLine
 62
9
  6
CONTINUOUS
 10
5.5669712096
 20
4.9332678571
 11
5.5669712096
 21
4.5252678571
  0
LINE
  5
223
100
AcDbEntity
  8
0
100
AcDbLine
 62
7
  6
CONTINUOUS
 10
5.6389668367
 20
2.5922678571
 11
5.6389668367
 21
2.5822678571
  0
LINE
  5
224
100
AcDbEntity
  8
0
100
AcDbLine
 62
7
  6
CONTINUOUS
 10
5.6489668367
 20
2.5922678571
 11
5.6489668367
 21
4.1722678571
  0
LINE
  5
225
100
AcDbEntity
  8
0
100
AcDbLine
 62
9
  6
CONTINUOUS
 10
4.8989668367
 20
4.1722678571
 11
5.6489668367
 21
4.1722678571
  0
LINE
  5
226
100
AcDbEntity
  8
0
100
AcDbLine
 62
7
  6
CONTINUOUS
 10
4.9289668367
 20
4.2022678571
 11
5.6189668367
 21
4.2022678571
  0
LINE
  5
227
100
AcDbEntity
  8
0
100
AcDbLine
 62
7
  6
CONTINUOUS
 10
4.9927168367
 20
4.2232678571
 11
5.5552168367
 21
4.2232678571
  0
LINE
  5
228
100
AcDbEntity
  8
0
100
AcDbLine
 62
9
  6
CONTINUOUS
 10
5.5552168367
 20
4.4652678571
 11
5.5522618445
 21
4.4652678571
  0
LINE
  5
229
100
AcDbEntity
  8
0
100
AcDbLine
 62
9
  6
CONTINUOUS
 10
5.3146294873
 20
4.4652678571
 11
5.2333041861
 21
4.4652678571
  0
LINE
  5
22A
100
AcDbEntity
  8
0
100
AcDbLine
 62
9
  6
CONTINUOUS
 10
4.995671829
 20
4.4652678571
 11
4.9927168367
 21
4.4652678571
  0
LINE
  5
22B
100
AcDbEntity
  8
0
100
AcDbLine
 62
7
  6
CONTINUOUS
 10
6.7439665948
 20
4.4952678571
 11
5.5819466452
 21
4.4952678571
  0
LINE
  5
22C
100
AcDbEntity
  8
0
100
AcDbLine
 62
7
  6
CONTINUOUS
 10
5.3189668367
 20
4.4952678571
 11
5.2289668367
 21
4.4952678571
  0
LINE
  5
22D
100
AcDbEntity
  8
0
100
AcDbLine
 62
7
  6
CONTINUOUS
 10
4.9659870282
 20
4.4952678571
 11
3.8039670787
 21
4.4952678571
  0
LINE
  5
22E
100
AcDbEntity
  8
0
100
AcDbLine
 62
9
  6
CONTINUOUS
 10
3.7739668367
 20
4.5252678571
 11
5.0092038492
 21
4.5252678571
  0
LINE
  5
22F
100
AcDbEntity
  8
0
100
AcDbLine
 62
9
  6
CONTINUOUS
 10
5.1790873187
 20
4.5252678571
 11
5.3688463548
 21
4.5252678571
  0
LINE
  5
230
100
AcDbEntity
  8
0
100
AcDbLine
 62
9
  6
CONTINUOUS
 10
5.5387298242
 20
4.5252678571
 11
6.7739668367
 21
4.5252678571
  0
LINE
  5
231
100
AcDbEntity
  8
0
100
AcDbLine
 62
7
  6
CONTINUOUS
 10
6.2639668367
 20
2.3822678571
 11
6.2639668367
 21
2.5522678571
  0
LINE
  5
232
100
AcDbEntity
  8
0
100
AcDbLine
 62
9
  6
CONTINUOUS
 10
3.7739668367
 20
4.9032678571
 11
6.7739668367
 21
4.9032678571
  0
LINE
  5
233
100
AcDbEntity
  8
0
100
AcDbLine
 62
7
  6
CONTINUOUS
 10
3.8039668367
 20
4.9332678571
 11
6.7439665948
 21
4.9332678571
  0
LINE
  5
234
100
AcDbEntity
  8
0
100
AcDbLine
 62
9
  6
CONTINUOUS
 10
6.6989668367
 20
4.4952678571
 11
6.6989668367
 21
4.9332678571
  0
LINE
  5
235
100
AcDbEntity
  8
0
100
AcDbLine
 62
7
  6
CONTINUOUS
 10
6.7739668367
 20
4.9032678571
 11
6.7739668367
 21
4.5252678571
  0
ARC
  5
236
100
AcDbEntity
  8
0
100
AcDbCircle
 62
7
  6
CONTINUOUS
 10
3.8039668367
 20
4.5252678571
 40
0.03
100
AcDbArc
 50
180.0
 51
270.0
  0
ARC
  5
237
100
AcDbEntity
  8
0
100
AcDbCircle
 62
7
  6
CONTINUOUS
 10
4.3139668367
 20
2.5522678571
 40
0.03
100
AcDbArc
 50
90.0
 51
180.0
  0
ARC
  5
238
100
AcDbEntity
  8
0
100
AcDbCircle
 62
7
  6
CONTINUOUS
 10
6.2339668367
 20
2.5522678571
 40
0.03
100
AcDbArc
 50
0.0
 51
90.0
  0
ARC
  5
239
100
AcDbEntity
  8
0
100
AcDbCircle
 62
7
  6
CONTINUOUS
 10
5.5852168366
 20
4.4652678571
 40
0.03
100
AcDbArc
 50
95.4545454545
 51
180.0
  0
ARC
  5
23A
100
AcDbEntity
  8
0
100
AcDbCircle
 62
7
  6
CONTINUOUS
 10
5.6189668367
 20
4.1722678571
 40
0.03
100
AcDbArc
 50
0.0
 51
90.0
  0
ARC
  5
23B
100
AcDbEntity
  8
0
100
AcDbCircle
 62
7
  6
CONTINUOUS
 10
4.9289668367
 20
4.1722678571
 40
0.03
100
AcDbArc
 50
90.0
 51
180.0
  0
ARC
  5
23C
100
AcDbEntity
  8
0
100
AcDbCircle
 62
7
  6
CONTINUOUS
 10
4.9627168368
 20
4.4652678571
 40
0.03
100
AcDbArc
 50
0.0
 51
84.5454545455
  0
ARC
  5
23D
100
AcDbEntity
  8
0
100
AcDbCircle
 62
7
  6
CONTINUOUS
 10
3.8039668367
 20
4.9032678571
 40
0.03
100
AcDbArc
 50
90.0
 51
180.0
  0
ARC
  5
23E
100
AcDbEntity
  8
0
100
AcDbCircle
 62
7
  6
CONTINUOUS
 10
6.7439668367
 20
4.9032678571
 40
0.03
100
AcDbArc
 50
0.0
 51
90.0
  0
ARC
  5
23F
100
AcDbEntity
  8
0
100
AcDbCircle
 62
7
  6
CONTINUOUS
 10
6.7439668367
 20
4.5252678571
 40
0.03
100
AcDbArc
 50
270.0
 51
360.0
  0
ARC
  5
240
100
AcDbEntity
  8
0
100
AcDbCircle
 62
7
  6
CONTINUOUS
 10
5.2289668367
 20
4.5252678571
 40
0.03
100
AcDbArc
 50
180.0
 51
270.0
  0
ARC
  5
241
100
AcDbEntity
  8
0
100
AcDbCircle
 62
7
  6
CONTINUOUS
 10
5.3189668367
 20
4.5252678571
 40
0.03
100
AcDbArc
 50
270.0
 51
360.0
  0
ARC
  5
242
100
AcDbEntity
  8
0
100
AcDbCircle
 62
7
  6
CONTINUOUS
 10
5.3189668367
 20
4.9032678571
 40
0.03
100
AcDbArc
 50
0.0
 51
90.0
  0
ARC
  5
243
100
AcDbEntity
  8
0
100
AcDbCircle
 62
7
  6
CONTINUOUS
 10
5.2289668367
 20
4.9032678571
 40
0.03
100
AcDbArc
 50
90.0
 51
180.0
  0
SPLINE
  5
244
100
AcDbEntity
  8
0
100
AcDbSpline
 62
9
  6
CONTINUOUS
 70
0
 71
3
 72
28
 73
24
 74
0
 42
0.0000001
 43
0.0000001
 44
0.0000000001
 40
0.0
 40
0.0
 40
0.0
 40
0.0
 40
0.062542652
 40
0.0937595684
 40
0.1249303393
 40
0.1871274652
 40
0.2181870868
 40
0.2492194545
 40
0.2802318813
 40
0.3112301332
 40
0.3731954368
 40
0.4351958671
 40
0.4972869059
 40
0.5595162587
 40
0.6219194797
 40
0.6845165612
 40
0.7473111195
 40
0.8102908063
 40
0.8418468046
 40
0.8734358879
 40
0.9050555503
 40
0.936701536
 40
1.0
 40
1.0
 40
1.0
 40
1.0
 10
5.2333041861
 20
4.4652678571
 30
0.0
 10
5.2314334189
 20
4.4652699898
 30
0.0
 10
5.2286255099
 20
4.4654287819
 30
0.0
 10
5.2249251345
 20
4.4659609866
 30
0.0
 10
5.221271108
 20
4.4667011564
 30
0.0
 10
5.2176897095
 20
4.4677471345
 30
0.0
 10
5.2142181085
 20
4.46908121
 30
0.0
 10
5.2116756015
 20
4.4702211887
 30
0.0
 10
5.2091998884
 20
4.4714955691
 30
0.0
 10
5.2059965313
 20
4.4733667046
 30
0.0
 10
5.2021828598
 20
4.4760173288
 30
0.0
 10
5.1979535289
 20
4.4796487648
 30
0.0
 10
5.1940993354
 20
4.4836867934
 30
0.0
 10
5.1906447334
 20
4.4880862148
 30
0.0
 10
5.1876102595
 20
4.4928028341
 30
0.0
 10
5.1850131273
 20
4.4977924405
 30
0.0
 10
5.1828675655
 20
4.5030103313
 30
0.0
 10
5.1814661129
 20
4.5075097373
 30
0.0
 10
5.1805821859
 20
4.5111783651
 30
0.0
 10
5.1800387607
 20
4.5139613091
 30
0.0
 10
5.1796152851
 20
4.5167677564
 30
0.0
 10
5.1792104247
 20
4.5205325728
 30
0.0
 10
5.179087379
 20
4.5233744809
 30
0.0
 10
5.1790873187
 20
4.5252678571
 30
0.0
  0
SPLINE
  5
245
100
AcDbEntity
  8
0
100
AcDbSpline
 62
9
  6
CONTINUOUS
 70
0
 71
3
 72
31
 73
27
 74
0
 42
0.0000001
 43
0.0000001
 44
0.0000000001
 40
0.0
 40
0.0
 40
0.0
 40
0.0
 40
0.0632947242
 40
0.0949390431
 40
0.1265568952
 40
0.1581442322
 40
0.1896988611
 40
0.2526754902
 40
0.3154664749
 40
0.3780602529
 40
0.4092916557
 40
0.4404767659
 40
0.4716182681
 40
0.5027204315
 40
0.5648081293
 40
0.6268052206
 40
0.6577969557
 40
0.6887877567
 40
0.7197842793
 40
0.7507948795
 40
0.7818256409
 40
0.8128843292
 40
0.8439751408
 40
0.8751013474
 40
0.9374613415
 40
1.0
 40
1.0
 40
1.0
 40
1.0
 10
5.3688463548
 20
4.5252678571
 30
0.0
 10
5.3688462166
 20
4.5233745046
 30
0.0
 10
5.3687221496
 20
4.5205326498
 30
0.0
 10
5.3683165456
 20
4.5167679693
 30
0.0
 10
5.3678931178
 20
4.5139615461
 30
0.0
 10
5.3673500995
 20
4.5111785411
 30
0.0
 10
5.3664670559
 20
4.5075097233
 30
0.0
 10
5.3650666043
 20
4.503009934
 30
0.0
 10
5.3629203534
 20
4.4977925491
 30
0.0
 10
5.3607539062
 20
4.493630696
 30
0.0
 10
5.3588027301
 20
4.4904393349
 30
0.0
 10
5.3572329389
 20
4.4881211557
 30
0.0
 10
5.3555582642
 20
4.4858823632
 30
0.0
 10
5.3531906103
 20
4.4830126792
 30
0.0
 10
5.3499800579
 20
4.479648971
 30
0.0
 10
5.3464541918
 20
4.4766215514
 30
0.0
 10
5.3434627699
 20
4.4744270902
 30
0.0
 10
5.3411369297
 20
4.4728995347
 30
0.0
 10
5.3387337395
 20
4.4714957447
 30
0.0
 10
5.3362581568
 20
4.4702212357
 30
0.0
 10
5.333715834
 20
4.4690810405
 30
0.0
 10
5.3311127691
 20
4.4680805476
 30
0.0
 10
5.3284556126
 20
4.4672244056
 30
0.0
 10
5.324848662
 20
4.466281373
 30
0.0
 10
5.3202394814
 20
4.4654850335
 30
0.0
 10
5.3165002235
 20
4.4652680654
 30
0.0
 10
5.3146294873
 20
4.4652678571
 30
0.0
  0
SPLINE
  5
246
100
AcDbEntity
  8
0
100
AcDbSpline
 62
9
  6
CONTINUOUS
 70
0
 71
3
 72
32
 73
28
 74
0
 42
0.0000001
 43
0.0000001
 44
0.0000000001
 40
0.0
 40
0.0
 40
0.0
 40
0.0
 40
0.0876914097
 40
0.1744683253
 40
0.217246533
 40
0.2594907057
 40
0.3011164041
 40
0.3420446687
 40
0.3822145576
 40
0.421563274
 40
0.4975873531
 40
0.5697725456
 40
0.6043287847
 40
0.6378028996
 40
0.7013600001
 40
0.7601644082
 40
0.7876851505
 40
0.8138936161
 40
0.8387555314
 40
0.8622410378
 40
0.8843189398
 40
0.9049543216
 40
0.9241218937
 40
0.9418432517
 40
0.9732775052
 40
0.9872096275
 40
1.0
 40
1.0
 40
1.0
 40
1.0
 10
4.9809624639
 20
4.5252678571
 30
0.0
 10
4.9809623685
 20
4.5242334721
 30
0.0
 10
4.9808850083
 20
4.5221747375
 30
0.0
 10
4.9806008611
 20
4.5196256268
 30
0.0
 10
4.9802685976
 20
4.517626189
 30
0.0
 10
4.979971884
 20
4.5161617186
 30
0.0
 10
4.9796292321
 20
4.5147297594
 30
0.0
 10
4.9792434122
 20
4.5133342094
 30
0.0
 10
4.9788189435
 20
4.5119780564
 30
0.0
 10
4.9782142047
 20
4.5102455706
 30
0.0
 10
4.9773866031
 20
4.5081920879
 30
0.0
 10
4.9764552837
 20
4.5062461377
 30
0.0
 10
4.975672859
 20
4.5047887142
 30
0.0
 10
4.9748978162
 20
4.5034436667
 30
0.0
 10
4.9739084604
 20
4.5018929434
 30
0.0
 10
4.9728627596
 20
4.5004656186
 30
0.0
 10
4.9720231899
 20
4.4994371282
 30
0.0
 10
4.9714113544
 20
4.498740371
 30
0.0
 10
4.9708055419
 20
4.4981025318
 30
0.0
 10
4.9702079775
 20
4.4975250639
 30
0.0
 10
4.9696211341
 20
4.4970094167
 30
0.0
 10
4.9690478705
 20
4.4965570334
 30
0.0
 10
4.9684905653
 20
4.4961688594
 30
0.0
 10
4.9677984705
 20
4.4957557183
 30
0.0
 10
4.9671118052
 20
4.4954523942
 30
0.0
 10
4.9664421808
 20
4.495295861
 30
0.0
 10
4.9661266684
 20
4.4952678912
 30
0.0
 10
4.9659757965
 20
4.4952678571
 30
0.0
  0
SPLINE
  5
247
100
AcDbEntity
  8
0
100
AcDbSpline
 62
9
  6
CONTINUOUS
 70
0
 71
3
 72
35
 73
31
 74
0
 42
0.0000001
 43
0.0000001
 44
0.0000000001
 40
0.0
 40
0.0
 40
0.0
 40
0.0
 40
0.0903595819
 40
0.1800748981
 40
0.2684597498
 40
0.3548638061
 40
0.4386206474
 40
0.5190805994
 40
0.595576244
 40
0.667429113
 40
0.7339548582
 40
0.7650047175
 40
0.7944614879
 40
0.8222376662
 40
0.8482482966
 40
0.8724118533
 40
0.8946506111
 40
0.9148942417
 40
0.9330809249
 40
0.9491663434
 40
0.9564148561
 40
0.9631333981
 40
0.9693284763
 40
0.9750116183
 40
0.9801995701
 40
0.9849163596
 40
0.9891961805
 40
0.9930875886
 40
0.9966584595
 40
1.0
 40
1.0
 40
1.0
 40
1.0
 10
5.0092038492
 20
4.5252678571
 30
0.0
 10
5.0092038115
 20
4.5233760492
 30
0.0
 10
5.0091448434
 20
4.519605681
 30
0.0
 10
5.0088870418
 20
4.5139901937
 30
0.0
 10
5.0084648068
 20
4.5084676537
 30
0.0
 10
5.0078861611
 20
4.5030847837
 30
0.0
 10
5.0071649752
 20
4.4978866336
 30
0.0
 10
5.0063183934
 20
4.4929177634
 30
0.0
 10
5.0053651751
 20
4.4882222745
 30
0.0
 10
5.0043262758
 20
4.4838443475
 30
0.0
 10
5.0033882462
 20
4.4804224896
 30
0.0
 10
5.0026104435
 20
4.4778789994
 30
0.0
 10
5.002033893
 20
4.4761227454
 30
0.0
 10
5.0014538157
 20
4.4744791263
 30
0.0
 10
5.0008733941
 20
4.4729536345
 30
0.0
 10
5.0002958992
 20
4.4715516326
 30
0.0
 10
4.9997245447
 20
4.4702783657
 30
0.0
 10
4.9991625062
 20
4.4691388957
 30
0.0
 10
4.9986128442
 20
4.4681381417
 30
0.0
 10
4.9981529504
 20
4.4673996784
 30
0.0
 10
4.9977910769
 20
4.4668847805
 30
0.0
 10
4.9975339386
 20
4.4665498314
 30
0.0
 10
4.9972818793
 20
4.4662528449
 30
0.0
 10
4.9970351571
 20
4.4659940727
 30
0.0
 10
4.9967939905
 20
4.4657737389
 30
0.0
 10
4.9965585464
 20
4.4655920667
 30
0.0
 10
4.9963289034
 20
4.4654493424
 30
0.0
 10
4.996104963
 20
4.4653460456
 30
0.0
 10
4.9958867786
 20
4.4652828801
 30
0.0
 10
4.9957417889
 20
4.4652679054
 30
0.0
 10
4.995671829
 20
4.4652678571
 30
0.0
  0
SPLINE
  5
248
100
AcDbEntity
  8
0
100
AcDbSpline
 62
9
  6
CONTINUOUS
 70
0
 71
3
 72
23
 73
19
 74
0
 42
0.0000001
 43
0.0000001
 44
0.0000000001
 40
0.0
 40
0.0
 40
0.0
 40
0.0
 40
0.0621703828
 40
0.1243708247
 40
0.1865789292
 40
0.2488249845
 40
0.3111162122
 40
0.3734594542
 40
0.4358621872
 40
0.4983279152
 40
0.560858208
 40
0.6234521197
 40
0.6861056427
 40
0.7488140547
 40
0.8115677946
 40
0.8743540949
 40
0.937180632
 40
1.0
 40
1.0
 40
1.0
 40
1.0
 10
5.5819466452
 20
4.4952678571
 30
0.0
 10
5.5809755814
 20
4.4952678571
 30
0.0
 10
5.5790316152
 20
4.4951712727
 30
0.0
 10
5.5761450522
 20
4.4947386777
 30
0.0
 10
5.5733140949
 20
4.4940219635
 30
0.0
 10
5.5705666356
 20
4.4930283789
 30
0.0
 10
5.56792881
 20
4.4917674175
 30
0.0
 10
5.5654260802
 20
4.4902512692
 30
0.0
 10
5.5630825735
 20
4.4884945006
 30
0.0
 10
5.560920836
 20
4.4865140549
 30
0.0
 10
5.5589615964
 20
4.484329087
 30
0.0
 10
5.5572237668
 20
4.481960583
 30
0.0
 10
5.5557240639
 20
4.4794313527
 30
0.0
 10
5.5544768506
 20
4.4767657919
 30
0.0
 10
5.5534941409
 20
4.4739896325
 30
0.0
 10
5.5527852873
 20
4.4711292817
 30
0.0
 10
5.5523574205
 20
4.4682128951
 30
0.0
 10
5.5522618652
 20
4.4662490577
 30
0.0
 10
5.5522618444
 20
4.4652678571
 30
0.0
  0
SPLINE
  5
249
100
AcDbEntity
  8
0
100
AcDbSpline
 62
9
  6
CONTINUOUS
 70
0
 71
3
 72
31
 73
27
 74
0
 42
0.0000001
 43
0.0000001
 44
0.0000000001
 40
0.0
 40
0.0
 40
0.0
 40
0.0
 40
0.0034317071
 40
0.0069626604
 40
0.0146431484
 40
0.0189462591
 40
0.0236203082
 40
0.0342121082
 40
0.0466230531
 40
0.0609610061
 40
0.0772817819
 40
0.0956033766
 40
0.1159247265
 40
0.1382289988
 40
0.1624834207
 40
0.1886489917
 40
0.2465095615
 40
0.3113430316
 40
0.3825851253
 40
0.4595969813
 40
0.5416729259
 40
0.628053726
 40
0.717931293
 40
0.8104589428
 40
0.9047958021
 40
1.0
 40
1.0
 40
1.0
 40
1.0
 10
5.2289668367
 20
4.4952678571
 30
0.0
 10
5.229002164
 20
4.4952678571
 30
0.0
 10
5.229073987
 20
4.4952616068
 30
0.0
 10
5.2292204362
 20
4.4952234877
 30
0.0
 10
5.2293632854
 20
4.4951468916
 30
0.0
 10
5.2294986935
 20
4.4950414986
 30
0.0
 10
5.2296448894
 20
4.4949024151
 30
0.0
 10
5.2298248505
 20
4.4946801381
 30
0.0
 10
5.2300302167
 20
4.494354527
 30
0.0
 10
5.2302332063
 20
4.4939598444
 30
0.0
 10
5.2304334195
 20
4.4934967711
 30
0.0
 10
5.2306304768
 20
4.4929661557
 30
0.0
 10
5.2308238313
 20
4.4923691196
 30
0.0
 10
5.2310129573
 20
4.4917069971
 30
0.0
 10
5.2311974329
 20
4.4909813366
 30
0.0
 10
5.2314448483
 20
4.4898943645
 30
0.0
 10
5.2317350383
 20
4.4883892406
 30
0.0
 10
5.2320474172
 20
4.4864171074
 30
0.0
 10
5.2323311635
 20
4.4842416973
 30
0.0
 10
5.232583311
 20
4.4818838611
 30
0.0
 10
5.2328011745
 20
4.4793661732
 30
0.0
 10
5.2329825814
 20
4.4767128487
 30
0.0
 10
5.233125609
 20
4.473949448
 30
0.0
 10
5.2332284555
 20
4.4711023106
 30
0.0
 10
5.2332904311
 20
4.4681991577
 30
0.0
 10
5.2333042305
 20
4.4662479238
 30
0.0
 10
5.2333041859
 20
4.4652678571
 30
0.0
  0
SPLINE
  5
24A
100
AcDbEntity
  8
0
100
AcDbSpline
 62
9
  6
CONTINUOUS
 70
0
 71
3
 72
31
 73
27
 74
0
 42
0.0000001
 43
0.0000001
 44
0.0000000001
 40
0.0
 40
0.0
 40
0.0
 40
0.0
 40
0.0034564944
 40
0.0070099962
 40
0.0147275282
 40
0.0190451193
 40
0.023731205
 40
0.0343407934
 40
0.0467630986
 40
0.0611077435
 40
0.0774317495
 40
0.0957539619
 40
0.1160739505
 40
0.1383753132
 40
0.1626256297
 40
0.1887861873
 40
0.2466347372
 40
0.3114545935
 40
0.3826822841
 40
0.4596795021
 40
0.5417409455
 40
0.6281074613
 40
0.7179711578
 40
0.8104854933
 40
0.9048091274
 40
1.0
 40
1.0
 40
1.0
 40
1.0
 10
5.3189668367
 20
4.4952678571
 30
0.0
 10
5.3189312493
 20
4.4952678571
 30
0.0
 10
5.3188589294
 20
4.4952616138
 30
0.0
 10
5.3187115548
 20
4.4952235333
 30
0.0
 10
5.3185677954
 20
4.4951469759
 30
0.0
 10
5.3184315606
 20
4.4950415353
 30
0.0
 10
5.3182846536
 20
4.4949024958
 30
0.0
 10
5.3181039025
 20
4.4946802488
 30
0.0
 10
5.317897777
 20
4.4943546086
 30
0.0
 10
5.3176942049
 20
4.4939599037
 30
0.0
 10
5.3174935682
 20
4.4934968147
 30
0.0
 10
5.3172962327
 20
4.4929661881
 30
0.0
 10
5.3171027345
 20
4.4923691438
 30
0.0
 10
5.3169135872
 20
4.4917070154
 30
0.0
 10
5.3167292015
 20
4.4909813506
 30
0.0
 10
5.3164820504
 20
4.4898943804
 30
0.0
 10
5.3161924219
 20
4.4883892478
 30
0.0
 10
5.3158809455
 20
4.4864171049
 30
0.0
 10
5.3155982609
 20
4.4842416889
 30
0.0
 10
5.3153472394
 20
4.4818838496
 30
0.0
 10
5.3151304452
 20
4.4793661632
 30
0.0
 10
5.3149500425
 20
4.4767128372
 30
0.0
 10
5.3148078394
 20
4.4739494353
 30
0.0
 10
5.3147052356
 20
4.4711023081
 30
0.0
 10
5.3146432963
 20
4.4681991577
 30
0.0
 10
5.3146294873
 20
4.4662479241
 30
0.0
 10
5.3146294873
 20
4.4652678571
 30
0.0
  0
SPLINE
  5
24B
100
AcDbEntity
  8
0
100
AcDbSpline
 62
9
  6
CONTINUOUS
 70
0
 71
3
 72
23
 73
19
 74
0
 42
0.0000001
 43
0.0000001
 44
0.0000000001
 40
0.0
 40
0.0
 40
0.0
 40
0.0
 40
0.0621628854
 40
0.1243579865
 40
0.1865629421
 40
0.2488076309
 40
0.311098923
 40
0.3734433395
 40
0.4358480059
 40
0.4983160938
 40
0.5608488749
 40
0.6234451596
 40
0.6861007643
 40
0.7488108605
 40
0.8115658504
 40
0.8743530172
 40
0.9371801498
 40
1.0
 40
1.0
 40
1.0
 40
1.0
 10
4.9659870282
 20
4.4952678571
 30
0.0
 10
4.9669579671
 20
4.4952678571
 30
0.0
 10
4.968901717
 20
4.4951712687
 30
0.0
 10
4.9717880028
 20
4.494738669
 30
0.0
 10
4.9746187763
 20
4.4940219544
 30
0.0
 10
4.9773661363
 20
4.493028371
 30
0.0
 10
4.9800039329
 20
4.4917674105
 30
0.0
 10
4.9825066935
 20
4.4902512653
 30
0.0
 10
4.9848502793
 20
4.4884945009
 30
0.0
 10
4.987012131
 20
4.486514059
 30
0.0
 10
4.9889715075
 20
4.484329095
 30
0.0
 10
4.9907094845
 20
4.4819605944
 30
0.0
 10
4.992209332
 20
4.4794313659
 30
0.0
 10
4.9934566755
 20
4.4767658052
 30
0.0
 10
4.9944394903
 20
4.4739896444
 30
0.0
 10
4.9951484135
 20
4.4711292903
 30
0.0
 10
4.9955762991
 20
4.4682128982
 30
0.0
 10
4.9956718291
 20
4.4662490573
 30
0.0
 10
4.9956718291
 20
4.4652678571
 30
0.0
  0
SPLINE
  5
24C
100
AcDbEntity
  8
0
100
AcDbSpline
 62
9
  6
CONTINUOUS
 70
0
 71
3
 72
29
 73
25
 74
0
 42
0.0000001
 43
0.0000001
 44
0.0000000001
 40
0.0
 40
0.0
 40
0.0
 40
0.0
 40
0.012831142
 40
0.026563008
 40
0.0415112421
 40
0.0578479099
 40
0.0756178183
 40
0.0948314124
 40
0.1154867034
 40
0.1375718715
 40
0.161064371
 40
0.1859357127
 40
0.2121529662
 40
0.2396795042
 40
0.2984953889
 40
0.3620765419
 40
0.4301185805
 40
0.5023203525
 40
0.5783674343
 40
0.6578947666
 40
0.7404583083
 40
0.8254877611
 40
0.9122868335
 40
1.0
 40
1.0
 40
1.0
 40
1.0
 10
5.5819470218
 20
4.4952678571
 30
0.0
 10
5.581795715
 20
4.4952678588
 30
0.0
 10
5.5814820781
 20
4.4952950192
 30
0.0
 10
5.58100461
 20
4.4954089152
 30
0.0
 10
5.580505925
 20
4.4955939711
 30
0.0
 10
5.5799853215
 20
4.4958478845
 30
0.0
 10
5.5794443617
 20
4.4961695465
 30
0.0
 10
5.5788856432
 20
4.4965574363
 30
0.0
 10
5.5783116563
 20
4.4970100366
 30
0.0
 10
5.5777247268
 20
4.4975258165
 30
0.0
 10
5.5771271454
 20
4.4981033094
 30
0.0
 10
5.5765212666
 20
4.498741125
 30
0.0
 10
5.5759094446
 20
4.4994379
 30
0.0
 10
5.5750702517
 20
4.5004665785
 30
0.0
 10
5.5740252851
 20
4.5018943828
 30
0.0
 10
5.5728157319
 20
4.5037881408
 30
0.0
 10
5.5716480918
 20
4.5058907306
 30
0.0
 10
5.5705476091
 20
4.5081934062
 30
0.0
 10
5.5695412843
 20
4.5106856684
 30
0.0
 10
5.568659299
 20
4.5133538652
 30
0.0
 10
5.5679315504
 20
4.5161779491
 30
0.0
 10
5.5673865974
 20
4.519130474
 30
0.0
 10
5.5670486299
 20
4.5221748751
 30
0.0
 10
5.5669712545
 20
4.52423353
 30
0.0
 10
5.5669712096
 20
4.5252678571
 30
0.0
  0
SPLINE
  5
24D
100
AcDbEntity
  8
0
100
AcDbSpline
 62
9
  6
CONTINUOUS
 70
0
 71
3
 72
35
 73
31
 74
0
 42
0.0000001
 43
0.0000001
 44
0.0000000001
 40
0.0
 40
0.0
 40
0.0
 40
0.0
 40
0.0033339646
 40
0.0069016878
 40
0.0107895406
 40
0.0150653858
 40
0.0197809784
 40
0.0249724107
 40
0.0306626598
 40
0.0368663519
 40
0.0435922383
 40
0.0508447477
 40
0.0669302886
 40
0.0851131477
 40
0.1053545918
 40
0.1275926224
 40
0.1517561188
 40
0.1777668388
 40
0.2055428272
 40
0.2349991102
 40
0.2660485043
 40
0.3325741719
 40
0.4044279001
 40
0.4809228846
 40
0.561382676
 40
0.6451415792
 40
0.7315415765
 40
0.8199235237
 40
0.9096397542
 40
1.0
 40
1.0
 40
1.0
 40
1.0
 10
5.5522618445
 20
4.4652678571
 30
0.0
 10
5.5521920443
 20
4.4652683395
 30
0.0
 10
5.552047386
 20
4.4652836388
 30
0.0
 10
5.5518293498
 20
4.4653461039
 30
0.0
 10
5.5516051372
 20
4.465448259
 30
0.0
 10
5.5513750626
 20
4.465589981
 30
0.0
 10
5.551139392
 20
4.4657713462
 30
0.0
 10
5.5508982383
 20
4.4659920054
 30
0.0
 10
5.5506516272
 20
4.4662514458
 30
0.0
 10
5.5503997289
 20
4.4665492042
 30
0.0
 10
5.5501427181
 20
4.4668847765
 30
0.0
 10
5.5497809381
 20
4.4674000337
 30
0.0
 10
5.5493209514
 20
4.4681384441
 30
0.0
 10
5.5487711481
 20
4.4691389938
 30
0.0
 10
5.5482091139
 20
4.4702783214
 30
0.0
 10
5.5476377682
 20
4.471551536
 30
0.0
 10
5.5470602778
 20
4.4729535369
 30
0.0
 10
5.5464798551
 20
4.4744790382
 30
0.0
 10
5.5458997673
 20
4.4761226548
 30
0.0
 10
5.5453232003
 20
4.4778788934
 30
0.0
 10
5.5445453748
 20
4.4804223758
 30
0.0
 10
5.543607328
 20
4.4838442656
 30
0.0
 10
5.5425685069
 20
4.4882222495
 30
0.0
 10
5.5416151928
 20
4.4929177558
 30
0.0
 10
5.5407685673
 20
4.4978866893
 30
0.0
 10
5.5400477004
 20
4.5030848763
 30
0.0
 10
5.5394685835
 20
4.5084676292
 30
0.0
 10
5.5390460311
 20
4.5139900668
 30
0.0
 10
5.5387884703
 20
4.5196055871
 30
0.0
 10
5.5387298384
 20
4.5233760205
 30
0.0
 10
5.5387298242
 20
4.5252678571
 30
0.0
  0
SPLINE
  5
24E
100
AcDbEntity
  8
0
100
AcDbSpline
 62
9
  6
CONTINUOUS
 70
0
 71
3
 72
23
 73
19
 74
0
 42
0.0000001
 43
0.0000001
 44
0.0000000001
 40
0.0
 40
0.0
 40
0.0
 40
0.0
 40
0.06060043
 40
0.1212943025
 40
0.1821189962
 40
0.2431579247
 40
0.3044646552
 40
0.36608319
 40
0.428047648
 40
0.4903767625
 40
0.5530755352
 40
0.6161349275
 40
0.6795317048
 40
0.7432317226
 40
0.8071870736
 40
0.8713391863
 40
0.9356447063
 40
1.0
 40
1.0
 40
1.0
 40
1.0
 10
5.5104884392
 20
4.9332678571
 30
0.0
 10
5.5114122867
 20
4.9332678571
 30
0.0
 10
5.5132628437
 20
4.9331711516
 30
0.0
 10
5.5160100804
 20
4.9327381206
 30
0.0
 10
5.5187043268
 20
4.9320207397
 30
0.0
 10
5.5213189293
 20
4.93102633
 30
0.0
 10
5.5238289761
 20
4.9297644752
 30
0.0
 10
5.5262102161
 20
4.9282474604
 30
0.0
 10
5.5284396988
 20
4.9264899448
 30
0.0
 10
5.5304960053
 20
4.9245089512
 30
0.0
 10
5.5323594686
 20
4.9223236903
 30
0.0
 10
5.5340121563
 20
4.9199551881
 30
0.0
 10
5.5354382356
 20
4.917426267
 30
0.0
 10
5.5366241123
 20
4.9147613099
 30
0.0
 10
5.5375584188
 20
4.911986015
 30
0.0
 10
5.5382323101
 20
4.9091267487
 30
0.0
 10
5.5386390341
 20
4.9062115707
 30
0.0
 10
5.5387298243
 20
4.9042489472
 30
0.0
 10
5.5387298243
 20
4.9032678571
 30
0.0
  0
SPLINE
  5
24F
100
AcDbEntity
  8
0
100
AcDbSpline
 62
9
  6
CONTINUOUS
 70
0
 71
3
 72
31
 73
27
 74
0
 42
0.0000001
 43
0.0000001
 44
0.0000000001
 40
0.0
 40
0.0
 40
0.0
 40
0.0
 40
0.0148691117
 40
0.0300212789
 40
0.0457073932
 40
0.0621517449
 40
0.0795455647
 40
0.0980440492
 40
0.1177671508
 40
0.1387997981
 40
0.1612022934
 40
0.1850131285
 40
0.2102496212
 40
0.2369160552
 40
0.2650031845
 40
0.2944881699
 40
0.3253412513
 40
0.3575234423
 40
0.4256726782
 40
0.4984974543
 40
0.5754667736
 40
0.6559848105
 40
0.7394003554
 40
0.8250196093
 40
0.9121491437
 40
1.0
 40
1.0
 40
1.0
 40
1.0
 10
5.3587258729
 20
4.9332678571
 30
0.0
 10
5.3588917717
 20
4.9332678571
 30
0.0
 10
5.3592272176
 20
4.9332431644
 30
0.0
 10
5.3597267563
 20
4.9331329361
 30
0.0
 10
5.3602231992
 20
4.9329500072
 30
0.0
 10
5.360714901
 20
4.9326951018
 30
0.0
 10
5.3612008653
 20
4.9323693909
 30
0.0
 10
5.361680137
 20
4.9319738436
 30
0.0
 10
5.3621517488
 20
4.9315094782
 30
0.0
 10
5.3626148364
 20
4.930977527
 30
0.0
 10
5.3630683584
 20
4.9303791964
 30
0.0
 10
5.3635112651
 20
4.9297158655
 30
0.0
 10
5.3639426533
 20
4.9289891484
 30
0.0
 10
5.3643614696
 20
4.9282007111
 30
0.0
 10
5.3647667149
 20
4.9273524074
 30
0.0
 10
5.3651575057
 20
4.9264462804
 30
0.0
 10
5.3655328528
 20
4.9254844516
 30
0.0
 10
5.3660208432
 20
4.9241043115
 30
0.0
 10
5.3665823764
 20
4.9222546205
 30
0.0
 10
5.3671693695
 20
4.9198939711
 30
0.0
 10
5.3676760814
 20
4.9173739487
 30
0.0
 10
5.3680975971
 20
4.9147186888
 30
0.0
 10
5.3684297878
 20
4.9119536183
 30
0.0
 10
5.36866944
 20
4.9091049999
 30
0.0
 10
5.3688141002
 20
4.9062004945
 30
0.0
 10
5.3688463549
 20
4.9042480338
 30
0.0
 10
5.3688463549
 20
4.9032678571
 30
0.0
  0
SPLINE
  5
250
100
AcDbEntity
  8
0
100
AcDbSpline
 62
9
  6
CONTINUOUS
 70
0
 71
3
 72
31
 73
27
 74
0
 42
0.0000001
 43
0.0000001
 44
0.0000000001
 40
0.0
 40
0.0
 40
0.0
 40
0.0
 40
0.0148691186
 40
0.0300212905
 40
0.0457074075
 40
0.0621517596
 40
0.0795455788
 40
0.0980440626
 40
0.1177671639
 40
0.1387998109
 40
0.1612023061
 40
0.1850131409
 40
0.2102496332
 40
0.2369160669
 40
0.2650031957
 40
0.2944881808
 40
0.3253412617
 40
0.3575234523
 40
0.4256726872
 40
0.4984974622
 40
0.5754667804
 40
0.655984816
 40
0.7394003596
 40
0.8250196124
 40
0.9121491452
 40
1.0
 40
1.0
 40
1.0
 40
1.0
 10
5.1892078011
 20
4.9332678571
 30
0.0
 10
5.1890419021
 20
4.9332678571
 30
0.0
 10
5.1887064562
 20
4.9332431644
 30
0.0
 10
5.1882069173
 20
4.9331329361
 30
0.0
 10
5.1877104743
 20
4.9329500073
 30
0.0
 10
5.1872187724
 20
4.9326951018
 30
0.0
 10
5.1867328081
 20
4.9323693909
 30
0.0
 10
5.1862535364
 20
4.9319738436
 30
0.0
 10
5.1857819247
 20
4.9315094782
 30
0.0
 10
5.1853188371
 20
4.930977527
 30
0.0
 10
5.184865315
 20
4.9303791964
 30
0.0
 10
5.1844224083
 20
4.9297158655
 30
0.0
 10
5.1839910202
 20
4.9289891484
 30
0.0
 10
5.1835722039
 20
4.9282007111
 30
0.0
 10
5.1831669585
 20
4.9273524073
 30
0.0
 10
5.1827761677
 20
4.9264462803
 30
0.0
 10
5.1824008207
 20
4.9254844516
 30
0.0
 10
5.1819128302
 20
4.9241043115
 30
0.0
 10
5.1813512971
 20
4.9222546204
 30
0.0
 10
5.1807643039
 20
4.919893971
 30
0.0
 10
5.1802575921
 20
4.9173739487
 30
0.0
 10
5.1798360764
 20
4.9147186888
 30
0.0
 10
5.1795038857
 20
4.9119536183
 30
0.0
 10
5.1792642334
 20
4.9091049999
 30
0.0
 10
5.1791195733
 20
4.9062004945
 30
0.0
 10
5.179087319
 20
4.9042480338
 30
0.0
 10
5.179087319
 20
4.9032678571
 30
0.0
  0
SPLINE
  5
251
100
AcDbEntity
  8
0
100
AcDbSpline
 62
9
  6
CONTINUOUS
 70
0
 71
3
 72
23
 73
19
 74
0
 42
0.0000001
 43
0.0000001
 44
0.0000000001
 40
0.0
 40
0.0
 40
0.0
 40
0.0
 40
0.060600433
 40
0.1212943062
 40
0.1821189994
 40
0.2431579276
 40
0.304464658
 40
0.3660831925
 40
0.4280476503
 40
0.4903767645
 40
0.553075537
 40
0.6161349291
 40
0.6795317062
 40
0.7432317237
 40
0.8071870745
 40
0.871339187
 40
0.9356447066
 40
1.0
 40
1.0
 40
1.0
 40
1.0
 10
5.0374452346
 20
4.9332678571
 30
0.0
 10
5.036521387
 20
4.9332678571
 30
0.0
 10
5.0346708299
 20
4.9331711516
 30
0.0
 10
5.0319235931
 20
4.9327381207
 30
0.0
 10
5.0292293468
 20
4.9320207398
 30
0.0
 10
5.0266147443
 20
4.9310263301
 30
0.0
 10
5.0241046974
 20
4.9297644752
 30
0.0
 10
5.0217234574
 20
4.9282474604
 30
0.0
 10
5.0194939748
 20
4.9264899448
 30
0.0
 10
5.0174376682
 20
4.9245089512
 30
0.0
 10
5.0155742049
 20
4.9223236904
 30
0.0
 10
5.0139215172
 20
4.9199551881
 30
0.0
 10
5.0124954379
 20
4.917426267
 30
0.0
 10
5.0113095612
 20
4.9147613099
 30
0.0
 10
5.0103752547
 20
4.9119860151
 30
0.0
 10
5.0097013633
 20
4.9091267487
 30
0.0
 10
5.0092946394
 20
4.9062115707
 30
0.0
 10
5.0092038492
 20
4.9042489472
 30
0.0
 10
5.0092038492
 20
4.9032678571
 30
0.0
  0
ENDSEC
  0
SECTION
  2
OBJECTS
  0
DICTIONARY
  5
C
100
AcDbDictionary
280
0
281
1
  3
ACAD_GROUP
350
D
  3
ACAD_MLINESTYLE
350
17
  3
ACAD_LAYOUT
350
1A
  3
ACAD_PLOTSETTINGS
350
19
  3
ACAD_PLOTSTYLENAME
350
E
  0
DICTIONARY
  5
D
102
{ACAD_REACTORS
330
C
102
}
100
AcDbDictionary
280
0
281
1
  0
ACDBDICTIONARYWDFLT
  5
E
102
{ACAD_REACTORS
330
C
102
}
100
AcDbDictionary
281
1
  3
Normal
350
F
100
AcDbDictionaryWithDefault
340
F
  0
DICTIONARY
  5
17
102
{ACAD_REACTORS
330
C
102
}
100
AcDbDictionary
280
0
281
1
  3
Standard
350
18
  0
DICTIONARY
  5
19
102
{ACAD_REACTORS
330
C
102
}
100
AcDbDictionary
281
1
  0
DICTIONARY
  5
1A
102
{ACAD_REACTORS
330
C
102
}
100
AcDbDictionary
281
1
  3
Model
350
252
  3
Layout1
350
253
  0
ACDBPLACEHOLDER
  5
F
102
{ACAD_REACTORS
330
E
102
}
  0
MLINESTYLE
  5
18
102
{ACAD_REACTORS
330
17
102
}
100
AcDbMlineStyle
  2
STANDARD
 70
0
  3

 62
256
 51
90.0
 52
90.0
 71
2
 49
0.5
 62
256
  6
BYLAYER
 49
-0.5
 62
256
  6
BYLAYER
  0
LAYOUT
  5
252
102
{ACAD_REACTORS
330
1A
102
}
100
AcDbPlotSettings
  1

  2
none_device
  4
ANSI_A_(11.00_x_8.50_Inches)
  6

 40
0.0
 41
0.0
 42
0.0
 43
0.0
 44
279.4
 45
215.9
 46
0.0
 47
0.0
 48
0.0
 49
0.0
140
0.0
141
0.0
142
1.0
143
1.0
 70
1024
 72
0
 73
0
 74
0
  7

 75
0
147
1.0
148
0.0
149
0.0
100
AcDbLayout
  1
Model
 70
0
 71
0
 10
0.0
 20
0.0
 11
11.0
 21
8.5
 12
0.0
 22
0.0
 32
0.0
 14
0.0
 24
0.0
 34
0.0
 15
0.0
 25
0.0
 35
0.0
146
0.0
 13
0.0
 23
0.0
 33
0.0
 16
1.0
 26
0.0
 36
0.0
 17
0.0
 27
1.0
 37
0.0
 76
0
330
202
345
0
346
0
  0
LAYOUT
  5
253
102
{ACAD_REACTORS
330
1A
102
}
100
AcDbPlotSettings
  1

  2
none_device
  4
ANSI_A_(11.00_x_8.50_Inches)
  6

 40
0.0
 41
0.0
 42
0.0
 43
0.0
 44
279.4
 45
215.9
 46
0.0
 47
0.0
 48
0.0
 49
0.0
140
0.0
141
0.0
142
1.0
143
1.0
 70
0
 72
0
 73
0
 74
0
  7

 75
0
147
1.0
148
0.0
149
0.0
100
AcDbLayout
  1
Layout1
 70
0
 71
1
 10
0.0
 20
0.0
 11
11.0
 21
8.5
 12
0.0
 22
0.0
 32
0.0
 14
0.0
 24
0.0
 34
0.0
 15
0.0
 25
0.0
 35
0.0
146
0.0
 13
0.0
 23
0.0
 33
0.0
 16
1.0
 26
0.0
 36
0.0
 17
0.0
 27
1.0
 37
0.0
 76
0
330
203
345
0
346
0
  0
ENDSEC
  0
EOF
