999
DXF file: 3-8007_right.dxf
999
Pro/ENGINEER 2013150 by Parametric Technology Corporation
  0
SECTION
  2
HEADER
  9
$ACADVER
  1
AC1021
  9
$DWGCODEPAGE
  3
ANSI_1252
  9
$EXTMAX
 10
11.0
 20
8.5
 30
0.0
  9
$EXTMIN
 10
0.0
 20
0.0
 30
0.0
  9
$LIMMIN
 10
0.0
 20
0.0
  9
$LIMMAX
 10
11.0
 20
8.5
  9
$VIEWCTR
 10
5.5
 20
4.25
  9
$VIEWSIZE
 40
8.5
  9
$CLAYER
  8
0
  9
$LTSCALE
 40
0.605
  9
$CELTYPE
  6
BYLAYER
  9
$DIMSCALE
 40
1.0
  9
$DIMASZ
 40
0.1
  9
$DIMEXO
 40
0.0625
  9
$DIMDLI
 40
0.418
  9
$DIMEXE
 40
0.125
  9
$DIMCEN
 40
0.099
  9
$DIMLFAC
 40
1.0
  9
$DIMBLK
  1
_FILLED
  9
$DIMTXT
 40
0.08
  9
$DIMTOL
 70
1
  9
$DIMLIM
 70
0
  9
$DIMTFAC
 40
1.0
  9
$DIMTP
 40
0.001
  9
$DIMTM
 40
0.001
  9
$DIMGAP
 40
0.09
  9
$DIMDSEP
 70
46
  9
$PDMODE
 70
3
  9
$PDSIZE
 40
0.06
  9
$HANDSEED
  5
35C
  9
$TILEMODE
 70
1
  9
$MEASUREMENT
 70
0
  9
$INSUNITS
 70
1
  0
ENDSEC
  0
SECTION
  2
CLASSES
  0
CLASS
  1
ACDBDICTIONARYWDFLT
  2
AcDbDictionaryWithDefault
  3
AutoCAD 2000
 90
0
 91
1
280
0
281
0
  0
CLASS
  1
ACDBPLACEHOLDER
  2
AcDbPlaceHolder
  3
AutoCAD 2000
 90
0
 91
1
280
0
281
0
  0
CLASS
  1
LAYOUT
  2
AcDbLayout
  3
AutoCAD 2000
 90
0
 91
0
280
0
281
0
  0
ENDSEC
  0
SECTION
  2
TABLES
  0
TABLE
  2
VPORT
  5
8
100
AcDbSymbolTable
 70
2
  0
VPORT
  5
1F4
100
AcDbSymbolTableRecord
100
AcDbViewportTableRecord
  2
*ACTIVE
 70
0
 10
0.0
 20
0.0
 11
1.0
 21
1.0
 12
5.5
 22
4.25
 13
0.0
 23
0.0
 14
1.0
 24
1.0
 15
0.0
 25
0.0
 16
0.0
 26
0.0
 36
1.0
 17
0.0
 27
0.0
 37
0.0
 40
8.5
 41
1.2941176471
 42
50.0
 43
0.0
 44
0.0
 50
0.0
 51
0.0
 71
0
 72
100
 73
1
 74
1
 75
0
 76
0
 77
0
 78
0
  0
ENDTAB
  0
TABLE
  2
LTYPE
  5
5
100
AcDbSymbolTable
 70
6
  0
LTYPE
  5
14
100
AcDbSymbolTableRecord
100
AcDbLinetypeTableRecord
  2
BYBLOCK
 70
0
  3

 72
65
 73
0
 40
0.0
  0
LTYPE
  5
15
100
AcDbSymbolTableRecord
100
AcDbLinetypeTableRecord
  2
BYLAYER
 70
0
  3

 72
65
 73
0
 40
0.0
  0
LTYPE
  5
16
100
AcDbSymbolTableRecord
100
AcDbLinetypeTableRecord
  2
CONTINUOUS
 70
64
  3
Solid line
 72
65
 73
0
 40
0.0
  0
LTYPE
  5
1F5
100
AcDbSymbolTableRecord
100
AcDbLinetypeTableRecord
  2
CENTER
 70
64
  3
____ _ ____ _ ____ _ ____ _ ____ _ ____ _ ____
 72
65
 73
4
 40
0.6
 49
0.375
 74
0
 49
-0.075
 74
0
 49
0.075
 74
0
 49
-0.075
 74
0
  0
LTYPE
  5
1F6
100
AcDbSymbolTableRecord
100
AcDbLinetypeTableRecord
  2
HIDDEN
 70
64
  3
- - - - - - - - - - - - - - - - - - - -
 72
65
 73
2
 40
0.2
 49
0.1
 74
0
 49
-0.1
 74
0
  0
LTYPE
  5
1F7
100
AcDbSymbolTableRecord
100
AcDbLinetypeTableRecord
  2
PHANTOM
 70
64
  3
_____ _ _ _____ _ _ _____ _ _ _____
 72
65
 73
6
 40
0.8
 49
0.45
 74
0
 49
-0.05
 74
0
 49
0.1
 74
0
 49
-0.05
 74
0
 49
0.1
 74
0
 49
-0.05
 74
0
  0
LTYPE
  5
1F8
100
AcDbSymbolTableRecord
100
AcDbLinetypeTableRecord
  2
DOT
 70
64
  3
. . . . . . . . . . . . . . . . . . . .
 72
65
 73
2
 40
0.2
 49
0.1
 74
0
 49
-0.1
 74
0
  0
LTYPE
  5
1F9
100
AcDbSymbolTableRecord
100
AcDbLinetypeTableRecord
  2
DASHED
 70
64
  3
- - - - - - - - - - - - - - - - - - - -
 72
65
 73
2
 40
0.2
 49
0.1
 74
0
 49
-0.1
 74
0
  0
ENDTAB
  0
TABLE
  2
LAYER
  5
2
100
AcDbSymbolTable
 70
36
  0
LAYER
  5
10
100
AcDbSymbolTableRecord
100
AcDbLayerTableRecord
  2
0
 70
0
 62
7
  6
CONTINUOUS
370
-3
390
F
  0
LAYER
  5
1FA
100
AcDbSymbolTableRecord
100
AcDbLayerTableRecord
  2
DEFAULT_1
 70
0
 62
7
  6
CENTER
370
-3
390
F
  0
LAYER
  5
1FB
100
AcDbSymbolTableRecord
100
AcDbLayerTableRecord
  2
DEFAULT_2
 70
0
 62
8
  6
HIDDEN
370
-3
390
F
  0
LAYER
  5
1FC
100
AcDbSymbolTableRecord
100
AcDbLayerTableRecord
  2
DEFAULT_3
 70
0
 62
7
  6
PHANTOM
370
-3
390
F
  0
LAYER
  5
1FD
100
AcDbSymbolTableRecord
100
AcDbLayerTableRecord
  2
ALL_FEATURES
 70
0
 62
7
  6
CONTINUOUS
370
-3
390
F
  0
LAYER
  5
1FE
100
AcDbSymbolTableRecord
100
AcDbLayerTableRecord
  2
AXES_FEATURES
 70
0
 62
7
  6
CONTINUOUS
370
-3
390
F
  0
LAYER
  5
1FF
100
AcDbSymbolTableRecord
100
AcDbLayerTableRecord
  2
CHAMFER_FEATURES
 70
0
 62
7
  6
CONTINUOUS
370
-3
390
F
  0
LAYER
  5
200
100
AcDbSymbolTableRecord
100
AcDbLayerTableRecord
  2
CUT_FEATURES
 70
0
 62
7
  6
CONTINUOUS
370
-3
390
F
  0
LAYER
  5
201
100
AcDbSymbolTableRecord
100
AcDbLayerTableRecord
  2
DEFAULT_COORDINATE_SYSTEM
 70
0
 62
7
  6
CONTINUOUS
370
-3
390
F
  0
LAYER
  5
202
100
AcDbSymbolTableRecord
100
AcDbLayerTableRecord
  2
DEFAULT_DATUM_AXES
 70
0
 62
7
  6
CONTINUOUS
370
-3
390
F
  0
LAYER
  5
203
100
AcDbSymbolTableRecord
100
AcDbLayerTableRecord
  2
DEFAULT_DATUM_PLANES
 70
0
 62
7
  6
CONTINUOUS
370
-3
390
F
  0
LAYER
  5
204
100
AcDbSymbolTableRecord
100
AcDbLayerTableRecord
  2
DEFAULT_SURFACES
 70
0
 62
7
  6
CONTINUOUS
370
-3
390
F
  0
LAYER
  5
205
100
AcDbSymbolTableRecord
100
AcDbLayerTableRecord
  2
DIMENSIONS
 70
0
 62
7
  6
CONTINUOUS
370
-3
390
F
  0
LAYER
  5
206
100
AcDbSymbolTableRecord
100
AcDbLayerTableRecord
  2
PROTRUSION_FEATURES
 70
0
 62
7
  6
CONTINUOUS
370
-3
390
F
  0
LAYER
  5
207
100
AcDbSymbolTableRecord
100
AcDbLayerTableRecord
  2
QUILTS
 70
0
 62
7
  6
CONTINUOUS
370
-3
390
F
  0
LAYER
  5
208
100
AcDbSymbolTableRecord
100
AcDbLayerTableRecord
  2
ROUND_FEATURES
 70
0
 62
7
  6
CONTINUOUS
370
-3
390
F
  0
ENDTAB
  0
TABLE
  2
STYLE
  5
3
100
AcDbSymbolTable
 70
1
  0
STYLE
  5
11
100
AcDbSymbolTableRecord
100
AcDbTextStyleTableRecord
  2
STANDARD
 70
0
 40
0.0
 41
0.8
 50
0.0
 71
0
 42
0.2
  3
txt
  4

  0
STYLE
  5
209
100
AcDbSymbolTableRecord
100
AcDbTextStyleTableRecord
  2
TEXTSTYLE_1
 70
0
 40
0.0
 41
0.8
 50
0.0
 71
0
 42
0.2
  3
gdt
  4

  0
ENDTAB
  0
TABLE
  2
VIEW
  5
6
100
AcDbSymbolTable
 70
0
  0
ENDTAB
  0
TABLE
  2
UCS
  5
7
100
AcDbSymbolTable
 70
0
  0
ENDTAB
  0
TABLE
  2
APPID
  5
9
100
AcDbSymbolTable
 70
1
  0
APPID
  5
20A
100
AcDbSymbolTableRecord
100
AcDbRegAppTableRecord
  2
ACAD
 70
0
  0
ENDTAB
  0
TABLE
  2
BLOCK_RECORD
  5
1
100
AcDbSymbolTable
 70
0
  0
BLOCK_RECORD
  5
20B
100
AcDbSymbolTableRecord
100
AcDbBlockTableRecord
  2
*Model_Space
  0
BLOCK_RECORD
  5
20C
100
AcDbSymbolTableRecord
100
AcDbBlockTableRecord
  2
*Paper_Space
  0
ENDTAB
  0
TABLE
  2
DIMSTYLE
  5
A
100
AcDbSymbolTable
 70
1
100
AcDbDimStyleTable
 71
0
  0
DIMSTYLE
105
20D
100
AcDbSymbolTableRecord
100
AcDbDimStyleTableRecord
  2
STANDARD
 70
0
  3

  4

 40
1.0
 41
0.1
 42
0.0625
 43
0.38
 44
0.125
 45
0.0
 46
0.0
 47
0.001
 48
0.001
140
0.08
141
0.09
142
0.0
143
25.4
144
1.0
145
0.0
146
1.0
147
0.09
 71
1.0
 72
0.0
 73
1
 74
1
 75
0
 76
0
 77
0
 78
4
170
0
171
2
172
0
173
0
174
0
175
0
176
0
177
0
178
0
270
2
271
3
272
3
273
2
274
2
275
0
280
0
281
0
282
0
283
1
284
4
285
0
286
0
287
3
288
0
340
11
278
46
  0
ENDTAB
  0
ENDSEC
  0
SECTION
  2
BLOCKS
  0
BLOCK
  5
20
100
AcDbEntity
  8
0
100
AcDbBlockBegin
  2
*Model_Space
 70
0
 10
0.0
 20
0.0
 30
0.0
  3
*Model_Space
  1

  0
ENDBLK
  5
21
100
AcDbEntity
  8
0
100
AcDbBlockEnd
  0
BLOCK
  5
1C
100
AcDbEntity
  8
0
100
AcDbBlockBegin
  2
*Paper_Space
 70
0
 10
0.0
 20
0.0
 30
0.0
  3
*Paper_Space
  1

  0
ENDBLK
  5
1D
100
AcDbEntity
  8
0
100
AcDbBlockEnd
  0
ENDSEC
  0
SECTION
  2
ENTITIES
  0
LINE
  5
20E
100
AcDbEntity
  8
0
100
AcDbLine
 62
7
  6
CONTINUOUS
 10
0.0
 20
0.0
 11
0.0
 21
8.5
  0
LINE
  5
20F
100
AcDbEntity
  8
0
100
AcDbLine
 62
7
  6
CONTINUOUS
 10
0.0
 20
0.0
 11
11.0
 21
0.0
  0
LINE
  5
210
100
AcDbEntity
  8
0
100
AcDbLine
 62
7
  6
CONTINUOUS
 10
0.0
 20
8.5
 11
11.0
 21
8.5
  0
LINE
  5
211
100
AcDbEntity
  8
0
100
AcDbLine
 62
7
  6
CONTINUOUS
 10
11.0
 20
0.0
 11
11.0
 21
8.5
  0
LINE
  5
212
100
AcDbEntity
  8
0
100
AcDbLine
 62
7
  6
CONTINUOUS
 10
2.7067223103
 20
5.0192977077
 11
2.6931070566
 21
4.99755778
  0
LINE
  5
213
100
AcDbEntity
  8
0
100
AcDbLine
 62
7
  6
CONTINUOUS
 10
2.9635305809
 20
5.4011774466
 11
2.8926112527
 21
5.2070321161
  0
LINE
  5
214
100
AcDbEntity
  8
0
100
AcDbLine
 62
7
  6
CONTINUOUS
 10
3.3205043431
 20
4.7950893307
 11
3.3169009015
 21
4.7696921891
  0
LINE
  5
215
100
AcDbEntity
  8
0
100
AcDbLine
 62
7
  6
CONTINUOUS
 10
3.3703112732
 20
5.2525845684
 11
3.299391945
 21
5.058439238
  0
LINE
  5
216
100
AcDbEntity
  8
0
100
AcDbLine
 62
7
  6
CONTINUOUS
 10
6.2620519562
 20
1.8506161808
 11
7.5335339208
 21
1.8506161808
  0
LINE
  5
217
100
AcDbEntity
  8
0
100
AcDbLine
 62
9
  6
CONTINUOUS
 10
7.5428298977
 20
1.8636952547
 11
7.4165254225
 21
1.8636952547
  0
LINE
  5
218
100
AcDbEntity
  8
0
100
AcDbLine
 62
9
  6
CONTINUOUS
 10
6.3790612761
 20
1.8636952547
 11
6.2527568009
 21
1.8636952547
  0
LINE
  5
219
100
AcDbEntity
  8
0
100
AcDbLine
 62
9
  6
CONTINUOUS
 10
7.3574747043
 20
1.9869144201
 11
7.3556478268
 21
1.9869144201
  0
LINE
  5
21A
100
AcDbEntity
  8
0
100
AcDbLine
 62
9
  6
CONTINUOUS
 10
6.4399399533
 20
1.9869144201
 11
6.4381119943
 21
1.9869144201
  0
LINE
  5
21B
100
AcDbEntity
  8
0
100
AcDbLine
 62
9
  6
CONTINUOUS
 10
6.4399612907
 20
1.9869599279
 11
7.355619137
 21
1.9869599279
  0
LINE
  5
21C
100
AcDbEntity
  8
0
100
AcDbLine
 62
9
  6
CONTINUOUS
 10
6.4402790924
 20
2.0196249891
 11
7.3553013396
 21
2.0196249891
  0
LINE
  5
21D
100
AcDbEntity
  8
0
100
AcDbLine
 62
9
  6
CONTINUOUS
 10
6.4386447241
 20
2.0197839984
 11
6.4402161797
 21
2.0197839984
  0
LINE
  5
21E
100
AcDbEntity
  8
0
100
AcDbLine
 62
9
  6
CONTINUOUS
 10
7.3553705189
 20
2.0197839984
 11
7.3569419745
 21
2.0197839984
  0
LINE
  5
21F
100
AcDbEntity
  8
0
100
AcDbLine
 62
9
  6
CONTINUOUS
 10
6.4595346712
 20
2.0696807032
 11
6.4608693404
 21
2.0696807032
  0
LINE
  5
220
100
AcDbEntity
  8
0
100
AcDbLine
 62
9
  6
CONTINUOUS
 10
7.3347173583
 20
2.0696807032
 11
7.3360520274
 21
2.0696807032
  0
LINE
  5
221
100
AcDbEntity
  8
0
100
AcDbLine
 62
9
  6
CONTINUOUS
 10
7.3326398034
 20
2.0704508997
 11
6.4629526822
 21
2.0704508997
  0
LINE
  5
222
100
AcDbEntity
  8
0
100
AcDbLine
 62
9
  6
CONTINUOUS
 10
7.3144279853
 20
2.0897018909
 11
7.3098926448
 21
2.0897018909
  0
LINE
  5
223
100
AcDbEntity
  8
0
100
AcDbLine
 62
9
  6
CONTINUOUS
 10
6.4856940538
 20
2.0897018909
 11
6.4811587133
 21
2.0897018909
  0
LINE
  5
224
100
AcDbEntity
  8
0
100
AcDbLine
 62
9
  6
CONTINUOUS
 10
7.3085495682
 20
2.0925137143
 11
6.4870425968
 21
2.0925137143
  0
LINE
  5
225
100
AcDbEntity
  8
0
100
AcDbLine
 62
9
  6
CONTINUOUS
 10
7.4576463447
 20
2.1121072093
 11
7.3041383728
 21
2.1121072093
  0
LINE
  5
226
100
AcDbEntity
  8
0
100
AcDbLine
 62
9
  6
CONTINUOUS
 10
6.4914483258
 20
2.1121072093
 11
6.3336901034
 21
2.1121072093
  0
LINE
  5
227
100
AcDbEntity
  8
0
100
AcDbLine
 62
9
  6
CONTINUOUS
 10
7.455758903
 20
2.1441691795
 11
7.2896105699
 21
2.1441691795
  0
LINE
  5
228
100
AcDbEntity
  8
0
100
AcDbLine
 62
9
  6
CONTINUOUS
 10
6.5059761287
 20
2.1441691795
 11
6.3343276978
 21
2.1441691795
  0
LINE
  5
229
100
AcDbEntity
  8
0
100
AcDbLine
 62
9
  6
CONTINUOUS
 10
6.5440777389
 20
2.234873717
 11
7.2514983504
 21
2.234873717
  0
LINE
  5
22A
100
AcDbEntity
  8
0
100
AcDbLine
 62
7
  6
CONTINUOUS
 10
7.2468250001
 20
2.2381161808
 11
6.5487601816
 21
2.2381161808
  0
LINE
  5
22B
100
AcDbEntity
  8
0
100
AcDbLine
 62
9
  6
CONTINUOUS
 10
6.3601177333
 20
2.2387475759
 11
6.545678972
 21
2.2387475759
  0
LINE
  5
22C
100
AcDbEntity
  8
0
100
AcDbLine
 62
9
  6
CONTINUOUS
 10
7.2499077266
 20
2.2387475759
 11
7.4354689653
 21
2.2387475759
  0
LINE
  5
22D
100
AcDbEntity
  8
ALL_FEATURES
100
AcDbLine
 62
9
  6
CONTINUOUS
 10
6.6240433493
 20
2.2417018965
 11
7.1715433493
 21
2.2417018965
  0
LINE
  5
22E
100
AcDbEntity
  8
0
100
AcDbLine
 62
7
  6
CONTINUOUS
 10
3.8851338696
 20
4.8664762012
 11
3.8799095876
 21
4.8521226043
  0
LINE
  5
22F
100
AcDbEntity
  8
0
100
AcDbLine
 62
9
  6
CONTINUOUS
 10
4.4621636108
 20
5.7616605107
 11
4.1674565019
 21
5.4443308791
  0
LINE
  5
230
100
AcDbEntity
  8
0
100
AcDbLine
 62
9
  6
CONTINUOUS
 10
4.1795669249
 20
5.4330838117
 11
4.4742740338
 21
5.7504134432
  0
LINE
  5
231
100
AcDbEntity
  8
0
100
AcDbLine
 62
7
  6
CONTINUOUS
 10
4.270086172
 20
5.2906135598
 11
3.8739889333
 21
5.0800049222
  0
LINE
  5
232
100
AcDbEntity
  8
0
100
AcDbLine
 62
9
  6
CONTINUOUS
 10
6.380466624
 20
2.2736187146
 11
6.5592855951
 21
2.2736187146
  0
LINE
  5
233
100
AcDbEntity
  8
0
100
AcDbLine
 62
9
  6
CONTINUOUS
 10
7.2363011035
 20
2.2736187146
 11
7.4151200746
 21
2.2736187146
  0
LINE
  5
234
100
AcDbEntity
  8
ALL_FEATURES
100
AcDbLine
 62
9
  6
CONTINUOUS
 10
6.6390433493
 20
2.2774090387
 11
7.1565433493
 21
2.2774090387
  0
LINE
  5
235
100
AcDbEntity
  8
ALL_FEATURES
100
AcDbLine
 62
7
  6
CONTINUOUS
 10
7.1415433493
 20
2.3131161808
 11
6.6540433493
 21
2.3131161808
  0
LINE
  5
236
100
AcDbEntity
  8
0
100
AcDbLine
 62
7
  6
CONTINUOUS
 10
3.931308745
 20
4.7771477046
 11
3.926084463
 21
4.7627941077
  0
LINE
  5
237
100
AcDbEntity
  8
0
100
AcDbLine
 62
7
  6
CONTINUOUS
 10
3.9729679232
 20
4.6726211527
 11
3.9781922052
 21
4.6869747496
  0
LINE
  5
238
100
AcDbEntity
  8
0
100
AcDbLine
 62
9
  6
CONTINUOUS
 10
7.0193848722
 20
2.6651831099
 11
7.1216194682
 21
2.6651831099
  0
LINE
  5
239
100
AcDbEntity
  8
0
100
AcDbLine
 62
7
  6
CONTINUOUS
 10
6.557106254
 20
2.554148532
 11
6.5293726965
 21
2.5565752089
  0
LINE
  5
23A
100
AcDbEntity
  8
0
100
AcDbLine
 62
7
  6
CONTINUOUS
 10
4.0071453319
 20
4.5940910154
 11
4.0066786486
 21
4.5936994217
  0
LINE
  5
23B
100
AcDbEntity
  8
0
100
AcDbLine
 62
7
  6
CONTINUOUS
 10
4.0340834084
 20
4.5619874659
 11
4.0290799225
 21
4.5577890427
  0
LINE
  5
23C
100
AcDbEntity
  8
0
100
AcDbLine
 62
7
  6
CONTINUOUS
 10
4.0511235658
 20
4.5315184516
 11
4.0561270517
 21
4.5357168748
  0
LINE
  5
23D
100
AcDbEntity
  8
0
100
AcDbLine
 62
7
  6
CONTINUOUS
 10
4.0825988998
 20
4.5032221131
 11
4.0830651283
 21
4.5036133253
  0
LINE
  5
23E
100
AcDbEntity
  8
0
100
AcDbLine
 62
7
  6
CONTINUOUS
 10
7.6405830875
 20
2.8604587005
 11
7.272853902
 21
2.8604587005
  0
LINE
  5
23F
100
AcDbEntity
  8
0
100
AcDbLine
 62
9
  6
CONTINUOUS
 10
6.7941806117
 20
2.8687883282
 11
7.0988138653
 21
2.8687883282
  0
LINE
  5
240
100
AcDbEntity
  8
0
100
AcDbLine
 62
9
  6
CONTINUOUS
 10
6.7712560875
 20
2.8961087123
 11
7.109208226
 21
2.8961087123
  0
LINE
  5
241
100
AcDbEntity
  8
0
100
AcDbLine
 62
7
  6
CONTINUOUS
 10
7.0852884106
 20
2.9506161808
 11
6.710298288
 21
2.9506161808
  0
LINE
  5
242
100
AcDbEntity
  8
0
100
AcDbLine
 62
7
  6
CONTINUOUS
 10
7.6405830875
 20
3.0179390155
 11
7.246094443
 21
3.0179390155
  0
LINE
  5
243
100
AcDbEntity
  8
0
100
AcDbLine
 62
9
  6
CONTINUOUS
 10
7.0257461052
 20
3.0332933462
 11
6.7698405934
 21
3.0332933462
  0
LINE
  5
244
100
AcDbEntity
  8
0
100
AcDbLine
 62
9
  6
CONTINUOUS
 10
7.047467528
 20
3.087596903
 11
6.9944205247
 21
3.087596903
  0
LINE
  5
245
100
AcDbEntity
  8
0
100
AcDbLine
 62
9
  6
CONTINUOUS
 10
6.8011730741
 20
3.0875919584
 11
6.7481231429
 21
3.0875927334
  0
LINE
  5
246
100
AcDbEntity
  8
0
100
AcDbLine
 62
7
  6
CONTINUOUS
 10
6.7480339806
 20
2.9237810066
 11
6.7203002625
 21
2.9262076792
  0
LINE
  5
247
100
AcDbEntity
  8
0
100
AcDbLine
 62
7
  6
CONTINUOUS
 10
4.8088792713
 20
4.6342040739
 11
4.538474545
 21
4.2881018072
  0
LWPOLYLINE
  5
248
100
AcDbEntity
  8
0
100
AcDbPolyline
 62
7
  6
CONTINUOUS
 90
16
 70
0
 10
4.8088788288
 20
4.6342035091
 10
4.8102877633
 20
4.6358162278
 10
4.8119501123
 20
4.6373357958
 10
4.8138280144
 20
4.6386891475
 10
4.8158962271
 20
4.6398349329
 10
4.8181043296
 20
4.6407318994
 10
4.820414325
 20
4.6413592296
 10
4.822815342
 20
4.6417060273
 10
4.8252462653
 20
4.6417563884
 10
4.8276592818
 20
4.6415091499
 10
4.8300623184
 20
4.6409568453
 10
4.8323815835
 20
4.6401076583
 10
4.8345733883
 20
4.6389770853
 10
4.8366636147
 20
4.6375367555
 10
4.8385986592
 20
4.635790266
 10
4.8395472522
 20
4.6347391384
  0
LINE
  5
249
100
AcDbEntity
  8
0
100
AcDbLine
 62
9
  6
CONTINUOUS
 10
4.8492170536
 20
5.6030272645
 11
4.8492170536
 21
5.1699563983
  0
LINE
  5
24A
100
AcDbEntity
  8
0
100
AcDbLine
 62
7
  6
CONTINUOUS
 10
7.0158989676
 20
3.3997666527
 11
6.9272266207
 21
3.3997666527
  0
LINE
  5
24B
100
AcDbEntity
  8
0
100
AcDbLine
 62
7
  6
CONTINUOUS
 10
6.7796841362
 20
3.3997666527
 11
6.8683600779
 21
3.3997666527
  0
LINE
  5
24C
100
AcDbEntity
  8
0
100
AcDbLine
 62
7
  6
CONTINUOUS
 10
7.0159035855
 20
3.4361392331
 11
6.7796831131
 21
3.4361392331
  0
LINE
  5
24D
100
AcDbEntity
  8
0
100
AcDbLine
 62
7
  6
CONTINUOUS
 10
4.1378932655
 20
4.4623510142
 11
3.9760306942
 21
4.6552513152
  0
LINE
  5
24E
100
AcDbEntity
  8
0
100
AcDbLine
 62
9
  6
CONTINUOUS
 10
3.9729679232
 20
4.6726211527
 11
4.1544673716
 21
4.456318533
  0
LINE
  5
24F
100
AcDbEntity
  8
0
100
AcDbLine
 62
7
  6
CONTINUOUS
 10
3.929147234
 20
4.7454242702
 11
4.2185550634
 21
4.4005214499
  0
LINE
  5
250
100
AcDbEntity
  8
0
100
AcDbLine
 62
9
  6
CONTINUOUS
 10
3.926084463
 20
4.7627941077
 11
4.2351291694
 21
4.3944889686
  0
LINE
  5
251
100
AcDbEntity
  8
0
100
AcDbLine
 62
7
  6
CONTINUOUS
 10
3.8829723586
 20
4.8347527668
 11
4.2985082764
 21
4.3395363439
  0
LINE
  5
252
100
AcDbEntity
  8
0
100
AcDbLine
 62
9
  6
CONTINUOUS
 10
3.8799095876
 20
4.8521226043
 11
4.3150823825
 21
4.3335038626
  0
LINE
  5
253
100
AcDbEntity
  8
0
100
AcDbLine
 62
7
  6
CONTINUOUS
 10
3.8389232375
 20
4.9215478881
 11
4.3763357352
 21
4.2810846133
  0
LINE
  5
254
100
AcDbEntity
  8
0
100
AcDbLine
 62
7
  6
CONTINUOUS
 10
3.7401195006
 20
5.0461574811
 11
4.4818955031
 21
4.1621432652
  0
LINE
  5
255
100
AcDbEntity
  8
0
100
AcDbLine
 62
9
  6
CONTINUOUS
 10
4.5013502685
 20
4.1698304621
 11
3.7510794143
 21
5.0639684479
  0
LINE
  5
256
100
AcDbEntity
  8
0
100
AcDbLine
 62
9
  6
CONTINUOUS
 10
5.0476036311
 20
4.3867871996
 11
5.293401356
 21
4.5930359799
  0
LINE
  5
257
100
AcDbEntity
  8
0
100
AcDbLine
 62
9
  6
CONTINUOUS
 10
5.0516677044
 20
4.3163199297
 11
5.3620923508
 21
4.576797136
  0
LINE
  5
258
100
AcDbEntity
  8
0
100
AcDbLine
 62
9
  6
CONTINUOUS
 10
5.37354085
 20
4.574090662
 11
5.05234505
 21
4.3045753847
  0
LINE
  5
259
100
AcDbEntity
  8
0
100
AcDbLine
 62
9
  6
CONTINUOUS
 10
5.0663135075
 20
4.2879284253
 11
5.3875093075
 21
4.5574437026
  0
LINE
  5
25A
100
AcDbEntity
  8
0
100
AcDbLine
 62
7
  6
CONTINUOUS
 10
5.3862961496
 20
4.5435772454
 11
5.0801799647
 21
4.2867152675
  0
LINE
  5
25B
100
AcDbEntity
  8
0
100
AcDbLine
 62
9
  6
CONTINUOUS
 10
5.1503340228
 20
4.2198720277
 11
5.4399417661
 21
4.4628817783
  0
LINE
  5
25C
100
AcDbEntity
  8
0
100
AcDbLine
 62
9
  6
CONTINUOUS
 10
6.6109361375
 20
3.7997664501
 11
7.1846505611
 21
3.7997664501
  0
LINE
  5
25D
100
AcDbEntity
  8
0
100
AcDbLine
 62
9
  6
CONTINUOUS
 10
3.8739889333
 20
5.0800049222
 11
4.538474545
 21
4.2881018072
  0
LINE
  5
25E
100
AcDbEntity
  8
0
100
AcDbLine
 62
9
  6
CONTINUOUS
 10
6.5926315131
 20
3.8527093864
 11
7.2029551855
 21
3.8527093864
  0
LINE
  5
25F
100
AcDbEntity
  8
0
100
AcDbLine
 62
9
  6
CONTINUOUS
 10
7.2068484674
 20
3.9378992048
 11
6.5887382312
 21
3.9378992048
  0
LINE
  5
260
100
AcDbEntity
  8
0
100
AcDbLine
 62
7
  6
CONTINUOUS
 10
2.7617902457
 20
4.8775886605
 11
3.1870609695
 21
4.7222415606
  0
LINE
  5
261
100
AcDbEntity
  8
0
100
AcDbLine
 62
9
  6
CONTINUOUS
 10
3.3060965018
 20
4.7618549463
 11
2.6963158505
 21
4.984601659
  0
LINE
  5
262
100
AcDbEntity
  8
0
100
AcDbLine
 62
9
  6
CONTINUOUS
 10
3.3169009015
 20
4.7696921891
 11
2.6931070566
 21
4.99755778
  0
LINE
  5
263
100
AcDbEntity
  8
ALL_FEATURES
100
AcDbLine
 62
7
  6
CONTINUOUS
 10
6.6350344603
 20
2.3653426741
 11
6.5690862414
 21
2.4439367009
  0
LINE
  5
264
100
AcDbEntity
  8
0
100
AcDbLine
 62
7
  6
CONTINUOUS
 10
6.200881373
 20
2.9143659562
 11
6.1819014239
 21
2.9369853787
  0
LINE
  5
265
100
AcDbEntity
  8
0
100
AcDbLine
 62
7
  6
CONTINUOUS
 10
5.05234505
 20
4.3045753847
 11
5.0663135075
 21
4.2879284253
  0
LINE
  5
266
100
AcDbEntity
  8
0
100
AcDbLine
 62
7
  6
CONTINUOUS
 10
6.5293712023
 20
2.5565739552
 11
6.4389020894
 21
2.6643908456
  0
LINE
  5
267
100
AcDbEntity
  8
0
100
AcDbLine
 62
7
  6
CONTINUOUS
 10
6.584969039
 20
2.5132833972
 11
6.5533357905
 21
2.5509824348
  0
LINE
  5
268
100
AcDbEntity
  8
0
100
AcDbLine
 62
7
  6
CONTINUOUS
 10
6.6062109303
 20
2.4925619696
 11
6.5872309812
 21
2.5151813921
  0
LINE
  5
269
100
AcDbEntity
  8
0
100
AcDbLine
 62
9
  6
CONTINUOUS
 10
4.8071506193
 20
4.6505650753
 11
4.270086172
 21
5.2906135598
  0
LINE
  5
26A
100
AcDbEntity
  8
0
100
AcDbLine
 62
7
  6
CONTINUOUS
 10
6.6238629429
 20
2.489899811
 11
6.6152586993
 21
2.5001539492
  0
LINE
  5
26B
100
AcDbEntity
  8
0
100
AcDbLine
 62
7
  6
CONTINUOUS
 10
5.0913257407
 20
4.296067684
 11
5.1503340228
 21
4.2198720277
  0
LINE
  5
26C
100
AcDbEntity
  8
0
100
AcDbLine
 62
9
  6
CONTINUOUS
 10
5.3446083279
 20
3.930908558
 11
5.3446549658
 21
3.9309491595
  0
LINE
  5
26D
100
AcDbEntity
  8
0
100
AcDbLine
 62
9
  6
CONTINUOUS
 10
5.3446549658
 20
3.9309491595
 11
5.6907798523
 21
4.2213809564
  0
LINE
  5
26E
100
AcDbEntity
  8
0
100
AcDbLine
 62
9
  6
CONTINUOUS
 10
2.7067223103
 20
5.0192977077
 11
3.3205043431
 21
4.7950893307
  0
LINE
  5
26F
100
AcDbEntity
  8
0
100
AcDbLine
 62
7
  6
CONTINUOUS
 10
3.2986037068
 20
4.844974784
 11
2.7556210193
 21
5.0433208753
  0
LINE
  5
270
100
AcDbEntity
  8
0
100
AcDbLine
 62
9
  6
CONTINUOUS
 10
3.2954486084
 20
4.9872043057
 11
2.8497101791
 21
5.1500280517
  0
LINE
  5
271
100
AcDbEntity
  8
0
100
AcDbLine
 62
9
  6
CONTINUOUS
 10
3.3056588622
 20
4.9944965958
 11
2.846604376
 21
5.1621845629
  0
LINE
  5
272
100
AcDbEntity
  8
0
100
AcDbLine
 62
7
  6
CONTINUOUS
 10
6.4564076197
 20
2.7047775365
 11
6.2729347783
 21
2.9234319543
  0
LINE
  5
273
100
AcDbEntity
  8
0
100
AcDbLine
 62
7
  6
CONTINUOUS
 10
4.8395470475
 20
4.6347393806
 11
5.0476036311
 21
4.3867871996
  0
LINE
  5
274
100
AcDbEntity
  8
0
100
AcDbLine
 62
7
  6
CONTINUOUS
 10
4.3150823825
 20
4.3335038626
 11
4.330125103
 21
4.3361563001
  0
LINE
  5
275
100
AcDbEntity
  8
0
100
AcDbLine
 62
9
  6
CONTINUOUS
 10
6.6162972863
 20
4.4490413777
 11
7.1792894123
 21
4.4490413777
  0
LINE
  5
276
100
AcDbEntity
  8
0
100
AcDbLine
 62
7
  6
CONTINUOUS
 10
3.3178819765
 20
5.0516850162
 11
2.8741212212
 21
5.2137863379
  0
LINE
  5
277
100
AcDbEntity
  8
0
100
AcDbLine
 62
9
  6
CONTINUOUS
 10
3.3703112732
 20
5.2525845684
 11
2.9635305809
 21
5.4011774466
  0
LINE
  5
278
100
AcDbEntity
  8
0
100
AcDbLine
 62
7
  6
CONTINUOUS
 10
4.1674565019
 20
5.4443308791
 11
4.1795669249
 21
5.4330838117
  0
LINE
  5
279
100
AcDbEntity
  8
0
100
AcDbLine
 62
7
  6
CONTINUOUS
 10
5.3751503736
 20
4.5342248288
 11
5.4399417661
 21
4.4628817783
  0
LINE
  5
27A
100
AcDbEntity
  8
0
100
AcDbLine
 62
7
  6
CONTINUOUS
 10
4.8709027458
 20
5.0965502165
 11
5.293401356
 21
4.5930359799
  0
LINE
  5
27B
100
AcDbEntity
  8
0
100
AcDbLine
 62
7
  6
CONTINUOUS
 10
6.5217484262
 20
3.1322113945
 11
6.7052212676
 21
2.9135569766
  0
LINE
  5
27C
100
AcDbEntity
  8
0
100
AcDbLine
 62
7
  6
CONTINUOUS
 10
6.8877562058
 20
2.7113325506
 11
6.8791519622
 21
2.7215866888
  0
LINE
  5
27D
100
AcDbEntity
  8
0
100
AcDbLine
 62
7
  6
CONTINUOUS
 10
6.8881997312
 20
2.7291786684
 11
6.8692197821
 21
2.751798091
  0
LINE
  5
27E
100
AcDbEntity
  8
0
100
AcDbLine
 62
7
  6
CONTINUOUS
 10
6.8714817244
 20
2.7536960859
 11
6.8398484759
 21
2.7913951234
  0
LINE
  5
27F
100
AcDbEntity
  8
0
100
AcDbLine
 62
7
  6
CONTINUOUS
 10
6.7480341973
 20
2.9237834833
 11
6.8385033103
 21
2.815966593
  0
LINE
  5
280
100
AcDbEntity
  8
0
100
AcDbLine
 62
7
  6
CONTINUOUS
 10
5.37354085
 20
4.574090662
 11
5.3875093075
 21
4.5574437026
  0
LINE
  5
281
100
AcDbEntity
  8
0
100
AcDbLine
 62
7
  6
CONTINUOUS
 10
6.5242086849
 20
3.2242152752
 11
6.543188634
 21
3.2015958527
  0
LINE
  5
282
100
AcDbEntity
  8
0
100
AcDbLine
 62
7
  6
CONTINUOUS
 10
7.0407475732
 20
2.6361902357
 11
7.1240076997
 21
2.5369646807
  0
LINE
  5
283
100
AcDbEntity
  8
ALL_FEATURES
100
AcDbLine
 62
7
  6
CONTINUOUS
 10
7.0084811263
 20
2.6787016338
 11
6.9425329074
 21
2.7572956607
  0
LINE
  5
284
100
AcDbEntity
  8
0
100
AcDbLine
 62
7
  6
CONTINUOUS
 10
4.2351291694
 20
4.3944889686
 11
4.25017189
 21
4.3971414061
  0
LINE
  5
285
100
AcDbEntity
  8
0
100
AcDbLine
 62
7
  6
CONTINUOUS
 10
4.1695100922
 20
4.4589709705
 11
4.1544673716
 21
4.456318533
  0
LINE
  5
286
100
AcDbEntity
  8
0
100
AcDbLine
 62
7
  6
CONTINUOUS
 10
4.4621636108
 20
5.7616605107
 11
4.4742740338
 21
5.7504134432
  0
LINE
  5
287
100
AcDbEntity
  8
0
100
AcDbLine
 62
9
  6
CONTINUOUS
 10
6.5945537586
 20
4.9641747729
 11
7.2010329401
 21
4.9641747729
  0
LINE
  5
288
100
AcDbEntity
  8
0
100
AcDbLine
 62
9
  6
CONTINUOUS
 10
7.2003493258
 20
5.0534331537
 11
6.5952373728
 21
5.0534331537
  0
LINE
  5
289
100
AcDbEntity
  8
0
100
AcDbLine
 62
7
  6
CONTINUOUS
 10
6.5274006194
 20
5.1699563983
 11
4.8492170536
 21
5.1699563983
  0
LINE
  5
28A
100
AcDbEntity
  8
0
100
AcDbLine
 62
9
  6
CONTINUOUS
 10
7.2025525262
 20
5.0788033231
 11
6.5930339478
 21
5.0788035451
  0
LINE
  5
28B
100
AcDbEntity
  8
0
100
AcDbLine
 62
7
  6
CONTINUOUS
 10
7.4227933493
 20
1.8506161808
 11
7.3556254079
 21
1.9869599279
  0
LINE
  5
28C
100
AcDbEntity
  8
0
100
AcDbLine
 62
7
  6
CONTINUOUS
 10
7.3574747043
 20
1.9869144201
 11
7.4227933493
 21
1.8506161808
  0
LINE
  5
28D
100
AcDbEntity
  8
0
100
AcDbLine
 62
7
  6
CONTINUOUS
 10
7.3085495682
 20
2.0925137143
 11
7.2515089597
 21
2.234873717
  0
LINE
  5
28E
100
AcDbEntity
  8
0
100
AcDbLine
 62
7
  6
CONTINUOUS
 10
6.5274006194
 20
5.1620823826
 11
6.5274006194
 21
5.6109012802
  0
LINE
  5
28F
100
AcDbEntity
  8
ALL_FEATURES
100
AcDbLine
 62
7
  6
CONTINUOUS
 10
6.6240433493
 20
2.2417018965
 11
6.6240433493
 21
2.2381161808
  0
LINE
  5
290
100
AcDbEntity
  8
0
100
AcDbLine
 62
7
  6
CONTINUOUS
 10
6.4413306698
 20
2.6921243968
 11
6.4389045661
 21
2.6643906289
  0
LINE
  5
291
100
AcDbEntity
  8
0
100
AcDbLine
 62
7
  6
CONTINUOUS
 10
6.7009429556
 20
5.8116083263
 11
6.7009429556
 21
5.7841101361
  0
LINE
  5
292
100
AcDbEntity
  8
0
100
AcDbLine
 62
7
  6
CONTINUOUS
 10
6.7698405934
 20
3.0332933462
 11
6.7698405934
 21
2.9506161808
  0
LINE
  5
293
100
AcDbEntity
  8
0
100
AcDbLine
 62
7
  6
CONTINUOUS
 10
6.7796831131
 20
3.3997666527
 11
6.7796831131
 21
3.4361392331
  0
LINE
  5
294
100
AcDbEntity
  8
0
100
AcDbLine
 62
7
  6
CONTINUOUS
 10
6.2527568009
 20
1.8636952547
 11
6.3336901034
 21
2.1121072093
  0
LINE
  5
295
100
AcDbEntity
  8
0
100
AcDbLine
 62
9
  6
CONTINUOUS
 10
6.4918630783
 20
3.2255059904
 11
6.1862941751
 21
2.9691015671
  0
LINE
  5
296
100
AcDbEntity
  8
0
100
AcDbLine
 62
7
  6
CONTINUOUS
 10
6.5103422277
 20
3.225428433
 11
6.1831145817
 21
2.9508518359
  0
LINE
  5
297
100
AcDbEntity
  8
0
100
AcDbLine
 62
9
  6
CONTINUOUS
 10
6.5242086849
 20
3.2242152752
 11
6.1819014239
 21
2.9369853787
  0
LINE
  5
298
100
AcDbEntity
  8
0
100
AcDbLine
 62
9
  6
CONTINUOUS
 10
6.200881373
 20
2.9143659562
 11
6.543188634
 21
3.2015958527
  0
LINE
  5
299
100
AcDbEntity
  8
0
100
AcDbLine
 62
7
  6
CONTINUOUS
 10
6.5383360027
 20
3.1461300238
 11
6.2563472018
 21
2.909513325
  0
LINE
  5
29A
100
AcDbEntity
  8
0
100
AcDbLine
 62
9
  6
CONTINUOUS
 10
6.1862941751
 20
2.9691015671
 11
6.1862470732
 21
2.9690637132
  0
LINE
  5
29B
100
AcDbEntity
  8
0
100
AcDbLine
 62
7
  6
CONTINUOUS
 10
6.5274006194
 20
5.6030272645
 11
4.849232925
 21
5.6030272645
  0
LINE
  5
29C
100
AcDbEntity
  8
0
100
AcDbLine
 62
7
  6
CONTINUOUS
 10
7.5428298977
 20
1.8636952547
 11
7.474502032
 21
2.0710886218
  0
LINE
  5
29D
100
AcDbEntity
  8
0
100
AcDbLine
 62
7
  6
CONTINUOUS
 10
7.0159035855
 20
3.3997666527
 11
7.0159035855
 21
3.4361392331
  0
LINE
  5
29E
100
AcDbEntity
  8
0
100
AcDbLine
 62
7
  6
CONTINUOUS
 10
7.0257461052
 20
3.0332933462
 11
7.0257461052
 21
2.9506161808
  0
LINE
  5
29F
100
AcDbEntity
  8
0
100
AcDbLine
 62
7
  6
CONTINUOUS
 10
7.094643743
 20
5.8116083263
 11
7.094643743
 21
5.7841101361
  0
LINE
  5
2A0
100
AcDbEntity
  8
0
100
AcDbLine
 62
7
  6
CONTINUOUS
 10
6.8385018161
 20
2.8159653392
 11
6.8360757446
 21
2.7882317287
  0
LINE
  5
2A1
100
AcDbEntity
  8
0
100
AcDbLine
 62
7
  6
CONTINUOUS
 10
6.4870371304
 20
2.0925137143
 11
6.5440777389
 21
2.234873717
  0
LINE
  5
2A2
100
AcDbEntity
  8
0
100
AcDbLine
 62
7
  6
CONTINUOUS
 10
6.72029924
 20
2.9262088977
 11
6.4413296473
 21
2.6921256154
  0
LINE
  5
2A3
100
AcDbEntity
  8
0
100
AcDbLine
 62
7
  6
CONTINUOUS
 10
6.7480341973
 20
2.9237834833
 11
6.4389020894
 21
2.6643908456
  0
LINE
  5
2A4
100
AcDbEntity
  8
0
100
AcDbLine
 62
9
  6
CONTINUOUS
 10
6.6906725141
 20
5.7668223906
 11
7.1049127762
 21
5.7668231581
  0
LINE
  5
2A5
100
AcDbEntity
  8
0
100
AcDbLine
 62
9
  6
CONTINUOUS
 10
6.7009429556
 20
5.7841101361
 11
7.094643743
 21
5.7841101361
  0
LINE
  5
2A6
100
AcDbEntity
  8
0
100
AcDbLine
 62
7
  6
CONTINUOUS
 10
7.094643743
 20
5.8116083263
 11
6.7009429556
 21
5.8116083263
  0
LINE
  5
2A7
100
AcDbEntity
  8
0
100
AcDbLine
 62
9
  6
CONTINUOUS
 10
6.752124058
 20
5.862135043
 11
7.0434626406
 21
5.862135043
  0
LINE
  5
2A8
100
AcDbEntity
  8
ALL_FEATURES
100
AcDbLine
 62
7
  6
CONTINUOUS
 10
7.1715433493
 20
2.2417018965
 11
7.1715433493
 21
2.2381161808
  0
LINE
  5
2A9
100
AcDbEntity
  8
0
100
AcDbLine
 62
7
  6
CONTINUOUS
 10
6.4381119943
 20
1.9869144201
 11
6.3727933493
 21
1.8506161808
  0
LINE
  5
2AA
100
AcDbEntity
  8
0
100
AcDbLine
 62
7
  6
CONTINUOUS
 10
6.3727933493
 20
1.8506161808
 11
6.4399612907
 21
1.9869599279
  0
LINE
  5
2AB
100
AcDbEntity
  8
0
100
AcDbLine
 62
7
  6
CONTINUOUS
 10
6.5293712023
 20
2.5565739552
 11
6.8385033103
 21
2.815966593
  0
LINE
  5
2AC
100
AcDbEntity
  8
0
100
AcDbLine
 62
7
  6
CONTINUOUS
 10
6.8398484759
 20
2.7913951234
 11
6.5533357905
 21
2.5509824348
  0
LINE
  5
2AD
100
AcDbEntity
  8
0
100
AcDbLine
 62
7
  6
CONTINUOUS
 10
6.584969039
 20
2.5132833972
 11
6.8714817244
 21
2.7536960859
  0
LINE
  5
2AE
100
AcDbEntity
  8
0
100
AcDbLine
 62
7
  6
CONTINUOUS
 10
6.6062121462
 20
2.4925629898
 11
6.8881985154
 21
2.7291776482
  0
LINE
  5
2AF
100
AcDbEntity
  8
ALL_FEATURES
100
AcDbLine
 62
7
  6
CONTINUOUS
 10
6.5690884292
 20
2.4439385368
 11
6.9425307195
 21
2.7572938248
  0
LINE
  5
2B0
100
AcDbEntity
  8
0
100
AcDbLine
 62
9
  6
CONTINUOUS
 10
6.656323533
 20
6.0159804608
 11
7.1392631656
 21
6.0159804608
  0
LINE
  5
2B1
100
AcDbEntity
  8
0
100
AcDbLine
 62
9
  6
CONTINUOUS
 10
7.1576120231
 20
6.0488686662
 11
6.637974675
 21
6.0488686661
  0
LINE
  5
2B2
100
AcDbEntity
  8
ALL_FEATURES
100
AcDbLine
 62
9
  6
CONTINUOUS
 10
6.6350344603
 20
2.3653426741
 11
7.0084811263
 21
2.6787016338
  0
LINE
  5
2B3
100
AcDbEntity
  8
0
100
AcDbLine
 62
7
  6
CONTINUOUS
 10
6.9243222032
 20
2.4336511389
 11
6.9076491672
 21
2.4196608005
  0
LINE
  5
2B4
100
AcDbEntity
  8
0
100
AcDbLine
 62
7
  6
CONTINUOUS
 10
6.7393548237
 20
6.1471717737
 11
7.056231875
 21
6.1471717737
  0
LINE
  5
2B5
100
AcDbEntity
  8
0
100
AcDbLine
 62
9
  6
CONTINUOUS
 10
7.6405830875
 20
2.8604587005
 11
7.6405830875
 21
3.0179390155
  0
LINE
  5
2B6
100
AcDbEntity
  8
0
100
AcDbLine
 62
9
  6
CONTINUOUS
 10
7.7493828498
 20
3.0785529306
 11
7.7493828498
 21
2.7998447854
  0
LINE
  5
2B7
100
AcDbEntity
  8
0
100
AcDbLine
 62
9
  6
CONTINUOUS
 10
7.7640662727
 20
2.7951994048
 11
7.7640662891
 21
3.0831839116
  0
LINE
  5
2B8
100
AcDbEntity
  8
0
100
AcDbLine
 62
7
  6
CONTINUOUS
 10
6.9392824157
 20
2.381961763
 11
7.124006093
 21
2.5369633325
  0
LINE
  5
2B9
100
AcDbEntity
  8
0
100
AcDbLine
 62
9
  6
CONTINUOUS
 10
7.8108476613
 20
3.0415323883
 11
7.810847675
 21
2.8368748084
  0
LINE
  5
2BA
100
AcDbEntity
  8
0
100
AcDbLine
 62
9
  6
CONTINUOUS
 10
7.8201545025
 20
2.845177118
 11
7.8201545025
 21
3.033220598
  0
ARC
  5
2BB
100
AcDbEntity
  8
0
100
AcDbCircle
 62
7
  6
CONTINUOUS
 10
3.5568533832
 20
1.6847137771
 40
3.3148638872
100
AcDbArc
 50
27.6981279734
 51
49.9283681393
  0
ARC
  5
2BC
100
AcDbEntity
  8
0
100
AcDbCircle
 62
7
  6
CONTINUOUS
 10
3.0959338225
 20
2.6288807264
 40
2.5984251969
100
AcDbArc
 50
30.0716642786
 51
37.7553125767
  0
ARC
  5
2BD
100
AcDbEntity
  8
0
100
AcDbCircle
 62
7
  6
CONTINUOUS
 10
3.2674296633
 20
3.4651490475
 40
3.5
100
AcDbArc
 50
332.5292901332
 51
335.0176060425
  0
ARC
  5
2BE
100
AcDbEntity
  8
0
100
AcDbCircle
 62
7
  6
CONTINUOUS
 10
3.2674296633
 20
3.4651490475
 40
3.5
100
AcDbArc
 50
336.909691545
 51
339.4204677793
  0
ARC
  5
2BF
100
AcDbEntity
  8
0
100
AcDbCircle
 62
7
  6
CONTINUOUS
 10
4.1291001268
 20
3.1977724689
 40
2.6
100
AcDbArc
 50
334.7745607532
 51
338.1116665307
  0
ARC
  5
2C0
100
AcDbEntity
  8
0
100
AcDbCircle
 62
7
  6
CONTINUOUS
 10
4.1291001268
 20
3.1977724689
 40
2.6
100
AcDbArc
 50
338.2820863498
 51
342.1782453148
  0
ARC
  5
2C1
100
AcDbEntity
  8
ALL_FEATURES
100
AcDbCircle
 62
7
  6
CONTINUOUS
 10
6.5727933493
 20
2.3131161808
 40
0.56875
100
AcDbArc
 50
0.0
 51
21.244552609
  0
ARC
  5
2C2
100
AcDbEntity
  8
ALL_FEATURES
100
AcDbCircle
 62
7
  6
CONTINUOUS
 10
6.5727933493
 20
2.3131161808
 40
0.56875
100
AcDbArc
 50
34.6210495253
 51
40.0
  0
ARC
  5
2C3
100
AcDbEntity
  8
0
100
AcDbCircle
 62
7
  6
CONTINUOUS
 10
6.4295681696
 20
2.1690040724
 40
0.0984251969
100
AcDbArc
 50
134.8793662549
 51
194.6149891647
  0
ARC
  5
2C4
100
AcDbEntity
  8
ALL_FEATURES
100
AcDbCircle
 62
7
  6
CONTINUOUS
 10
6.5727933493
 20
2.3131161808
 40
0.08125
100
AcDbArc
 50
0.0
 51
40.0
  0
ARC
  5
2C5
100
AcDbEntity
  8
0
100
AcDbCircle
 62
7
  6
CONTINUOUS
 10
6.3045573842
 20
2.2945423787
 40
0.0787401575
100
AcDbArc
 50
314.879366255
 51
344.5896342448
  0
ARC
  5
2C6
100
AcDbEntity
  8
0
100
AcDbCircle
 62
7
  6
CONTINUOUS
 10
6.2771834147
 20
2.1292682437
 40
0.0590551181
100
AcDbArc
 50
343.1065076327
 51
14.6149891648
  0
ARC
  5
2C7
100
AcDbEntity
  8
ALL_FEATURES
100
AcDbCircle
 62
7
  6
CONTINUOUS
 10
6.6740433493
 20
2.2417018965
 40
0.05
100
AcDbArc
 50
134.4270040008
 51
180.0
  0
ARC
  5
2C8
100
AcDbEntity
  8
ALL_FEATURES
100
AcDbCircle
 62
7
  6
CONTINUOUS
 10
6.6040433493
 20
2.3131161808
 40
0.05
100
AcDbArc
 50
314.4270040008
 51
360.0
  0
ARC
  5
2C9
100
AcDbEntity
  8
0
100
AcDbCircle
 62
7
  6
CONTINUOUS
 10
6.4507015604
 20
2.1080048845
 40
0.0395
100
AcDbArc
 50
288.0597413803
 51
336.9096915449
  0
ARC
  5
2CA
100
AcDbEntity
  8
0
100
AcDbCircle
 62
7
  6
CONTINUOUS
 10
6.4041570052
 20
2.003642348
 40
0.0395
100
AcDbArc
 50
335.0176060426
 51
23.8675562073
  0
ARC
  5
2CB
100
AcDbEntity
  8
0
100
AcDbCircle
 62
7
  6
CONTINUOUS
 10
6.4026083472
 20
2.0039289475
 40
0.0393700787
100
AcDbArc
 50
334.3947110206
 51
23.7482224283
  0
ARC
  5
2CC
100
AcDbEntity
  8
0
100
AcDbCircle
 62
7
  6
CONTINUOUS
 10
6.4455430472
 20
2.1064806701
 40
0.0393700787
100
AcDbArc
 50
290.8171798159
 51
334.7745607534
  0
ARC
  5
2CD
100
AcDbEntity
  8
0
100
AcDbCircle
 62
7
  6
CONTINUOUS
 10
6.4745722131
 20
2.0347983825
 40
0.0375
100
AcDbArc
 50
108.0597413802
 51
203.8675562072
  0
ARC
  5
2CE
100
AcDbEntity
  8
0
100
AcDbCircle
 62
7
  6
CONTINUOUS
 10
6.4727933493
 20
2.0348084885
 40
0.0373076923
100
AcDbArc
 50
110.817179816
 51
203.7482224283
  0
ARC
  5
2CF
100
AcDbEntity
  8
0
100
AcDbCircle
 62
7
  6
CONTINUOUS
 10
6.2620519562
 20
1.8604587005
 40
0.0098425197
100
AcDbArc
 50
160.8019865701
 51
270.0
  0
ARC
  5
2D0
100
AcDbEntity
  8
0
100
AcDbCircle
 62
7
  6
CONTINUOUS
 10
6.5487586647
 20
2.2331161808
 40
0.005
100
AcDbArc
 50
90.0
 51
159.4204677793
  0
ARC
  5
2D1
100
AcDbEntity
  8
0
100
AcDbCircle
 62
7
  6
CONTINUOUS
 10
6.6911004359
 20
3.0332933462
 40
0.0787401575
100
AcDbArc
 50
0.0
 51
43.6028189728
  0
ARC
  5
2D2
100
AcDbEntity
  8
0
100
AcDbCircle
 62
7
  6
CONTINUOUS
 10
6.5322333279
 20
3.8021913537
 40
0.0787401575
100
AcDbArc
 50
358.2352243018
 51
39.9096636371
  0
ARC
  5
2D3
100
AcDbEntity
  8
0
100
AcDbCircle
 62
7
  6
CONTINUOUS
 10
6.6466128662
 20
3.8978602753
 40
0.070374635
100
AcDbArc
 50
145.3236734195
 51
219.9096636375
  0
ARC
  5
2D4
100
AcDbEntity
  8
0
100
AcDbCircle
 62
7
  6
CONTINUOUS
 10
6.5130294039
 20
3.1762892538
 40
0.0393700787
100
AcDbArc
 50
310.0000000001
 51
40.0
  0
ARC
  5
2D5
100
AcDbEntity
  8
0
100
AcDbCircle
 62
7
  6
CONTINUOUS
 10
6.231040603
 20
2.939672555
 40
0.0393700787
100
AcDbArc
 50
220.0
 51
309.9999999999
  0
ARC
  5
2D6
100
AcDbEntity
  8
0
100
AcDbCircle
 62
7
  6
CONTINUOUS
 10
6.7102933493
 20
2.9181161808
 40
0.0325
100
AcDbArc
 50
90.0
 51
142.1205212201
  0
ARC
  5
2D7
100
AcDbEntity
  8
0
100
AcDbCircle
 62
7
  6
CONTINUOUS
 10
6.5005767765
 20
3.2300827434
 40
0.0098425197
100
AcDbArc
 50
207.6981634286
 51
310.0000000011
  0
ARC
  5
2D8
100
AcDbEntity
  8
0
100
AcDbCircle
 62
7
  6
CONTINUOUS
 10
6.1802267335
 20
2.9612771405
 40
0.0098425197
100
AcDbArc
 50
309.9999999988
 51
52.3018365714
  0
ARC
  5
2D9
100
AcDbEntity
  8
0
100
AcDbCircle
 62
7
  6
CONTINUOUS
 10
6.5166688774
 20
3.2178886255
 40
0.0098425197
100
AcDbArc
 50
40.0
 51
130.0
  0
ARC
  5
2DA
100
AcDbEntity
  8
0
100
AcDbCircle
 62
7
  6
CONTINUOUS
 10
6.1894412314
 20
2.9433120284
 40
0.0098425197
100
AcDbArc
 50
130.0
 51
220.0
  0
ARC
  5
2DB
100
AcDbEntity
  8
0
100
AcDbCircle
 62
7
  6
CONTINUOUS
 10
0.1179543438
 20
3.9998210021
 40
6.4960629921
100
AcDbArc
 50
344.5896342447
 51
347.8262094699
  0
ARC
  5
2DC
100
AcDbEntity
  8
0
100
AcDbCircle
 62
7
  6
CONTINUOUS
 10
0.1179543438
 20
3.9998210021
 40
6.4960629921
100
AcDbArc
 50
352.016627
 51
358.2352243018
  0
ARC
  5
2DD
100
AcDbEntity
  8
0
100
AcDbCircle
 62
7
  6
CONTINUOUS
 10
3.2887800428
 20
4.6152361929
 40
0.1476377953
100
AcDbArc
 50
83.2642649663
 51
133.549199
  0
ARC
  5
2DE
100
AcDbEntity
  8
0
100
AcDbCircle
 62
7
  6
CONTINUOUS
 10
2.6150489471
 20
4.861343357
 40
0.1476377953
100
AcDbArc
 50
6.3173248599
 51
56.6022588935
  0
ARC
  5
2DF
100
AcDbEntity
  8
0
100
AcDbCircle
 62
7
  6
CONTINUOUS
 10
2.7532929885
 20
4.9862817502
 40
0.0570866142
100
AcDbArc
 50
87.6627911543
 51
144.6655316914
  0
ARC
  5
2E0
100
AcDbEntity
  8
0
100
AcDbCircle
 62
7
  6
CONTINUOUS
 10
3.2636178571
 20
4.7998652303
 40
0.0570866142
100
AcDbArc
 50
355.2009921685
 51
52.2037327056
  0
ARC
  5
2E1
100
AcDbEntity
  8
0
100
AcDbCircle
 62
7
  6
CONTINUOUS
 10
3.3077506439
 20
5.023949969
 40
0.0295275591
100
AcDbArc
 50
265.9376683708
 51
69.9332619299
  0
ARC
  5
2E2
100
AcDbEntity
  8
0
100
AcDbCircle
 62
7
  6
CONTINUOUS
 10
3.3049616016
 20
4.9846788048
 40
0.0098425197
100
AcDbArc
 50
85.9376683708
 51
165.1321263177
  0
ARC
  5
2E3
100
AcDbEntity
  8
0
100
AcDbCircle
 62
7
  6
CONTINUOUS
 10
3.3072509324
 20
4.7716295298
 40
0.0098425197
100
AcDbArc
 50
263.2642649663
 51
348.6481300984
  0
ARC
  5
2E4
100
AcDbEntity
  8
0
100
AcDbCircle
 62
7
  6
CONTINUOUS
 10
2.7017336441
 20
4.9928188791
 40
0.0098425197
100
AcDbArc
 50
151.2183937615
 51
236.6022588936
  0
ARC
  5
2E5
100
AcDbEntity
  8
0
100
AcDbCircle
 62
7
  6
CONTINUOUS
 10
2.6182848569
 20
5.2592523679
 40
0.2559055118
100
AcDbArc
 50
302.45706562
 51
334.7343975425
  0
ARC
  5
2E6
100
AcDbEntity
  8
0
100
AcDbCircle
 62
7
  6
CONTINUOUS
 10
2.8639898886
 20
5.1860512907
 40
0.0295275591
100
AcDbArc
 50
69.9332619299
 51
233.9288554891
  0
ARC
  5
2E7
100
AcDbEntity
  8
0
100
AcDbCircle
 62
7
  6
CONTINUOUS
 10
2.8408092051
 20
5.1542289869
 40
0.0098425197
100
AcDbArc
 50
334.7343975422
 51
53.9288554891
  0
ARC
  5
2E8
100
AcDbEntity
  8
0
100
AcDbCircle
 62
7
  6
CONTINUOUS
 10
4.6774622685
 20
4.1795126966
 40
0.1763779528
100
AcDbArc
 50
142.0
 51
183.1468228468
  0
ARC
  5
2E9
100
AcDbEntity
  8
0
100
AcDbCircle
 62
7
  6
CONTINUOUS
 10
5.0023647861
 20
4.3488273014
 40
0.0590551181
100
AcDbArc
 50
326.6015495992
 51
40.0
  0
ARC
  5
2EA
100
AcDbEntity
  8
0
100
AcDbCircle
 62
7
  6
CONTINUOUS
 10
4.1514046006
 20
4.4736883705
 40
0.0176377953
100
AcDbArc
 50
220.0
 51
279.9999999999
  0
ARC
  5
2EB
100
AcDbEntity
  8
0
100
AcDbCircle
 62
7
  6
CONTINUOUS
 10
4.2320663984
 20
4.4118588061
 40
0.0176377953
100
AcDbArc
 50
220.0
 51
280.0000000001
  0
ARC
  5
2EC
100
AcDbEntity
  8
0
100
AcDbCircle
 62
7
  6
CONTINUOUS
 10
4.3120196115
 20
4.3508737002
 40
0.0176377953
100
AcDbArc
 50
220.0
 51
280.0000000001
  0
ARC
  5
2ED
100
AcDbEntity
  8
0
100
AcDbCircle
 62
7
  6
CONTINUOUS
 10
4.3898470702
 20
4.2924219696
 40
0.0176377953
100
AcDbArc
 50
220.0
 51
261.3403407786
  0
ARC
  5
2EE
100
AcDbEntity
  8
0
100
AcDbCircle
 62
7
  6
CONTINUOUS
 10
4.4903432685
 20
4.1692253219
 40
0.011023622
100
AcDbArc
 50
219.9999975915
 51
3.1468252658
  0
ARC
  5
2EF
100
AcDbEntity
  8
0
100
AcDbCircle
 62
7
  6
CONTINUOUS
 10
5.0598848575
 20
4.3109020344
 40
0.0098425197
100
AcDbArc
 50
146.6015495993
 51
220.0
  0
ARC
  5
2F0
100
AcDbEntity
  8
0
100
AcDbCircle
 62
7
  6
CONTINUOUS
 10
5.073853315
 20
4.294255075
 40
0.0098425197
100
AcDbArc
 50
220.0
 51
309.9999999989
  0
ARC
  5
2F1
100
AcDbEntity
  8
0
100
AcDbCircle
 62
7
  6
CONTINUOUS
 10
4.4734006283
 20
4.908234681
 40
0.4330708661
100
AcDbArc
 50
32.2663080374
 51
118.0
  0
ARC
  5
2F2
100
AcDbEntity
  8
0
100
AcDbCircle
 62
7
  6
CONTINUOUS
 10
3.5427864304
 20
4.9215412811
 40
0.2559055118
100
AcDbArc
 50
165.1321263173
 51
197.4094582399
  0
ARC
  5
2F3
100
AcDbEntity
  8
0
100
AcDbCircle
 62
7
  6
CONTINUOUS
 10
4.2304392594
 20
4.7041054726
 40
0.2495156557
100
AcDbArc
 50
195.0833599309
 51
206.262233007
  0
ARC
  5
2F4
100
AcDbEntity
  8
0
100
AcDbCircle
 62
7
  6
CONTINUOUS
 10
4.2298746369
 20
4.7038921114
 40
0.2489149264
100
AcDbArc
 50
233.7898575644
 51
244.930243499
  0
ARC
  5
2F5
100
AcDbEntity
  8
0
100
AcDbCircle
 62
7
  6
CONTINUOUS
 10
4.2298746369
 20
4.7038921114
 40
0.2483236276
100
AcDbArc
 50
223.9594621363
 51
233.7576239178
  0
ARC
  5
2F6
100
AcDbEntity
  8
0
100
AcDbCircle
 62
7
  6
CONTINUOUS
 10
4.2298746369
 20
4.7038921114
 40
0.2483236276
100
AcDbArc
 50
206.2423760822
 51
216.0405378637
  0
ARC
  5
2F7
100
AcDbEntity
  8
0
100
AcDbCircle
 62
7
  6
CONTINUOUS
 10
4.2298746369
 20
4.7038921114
 40
0.2418080511
100
AcDbArc
 50
215.933672079
 51
224.066327921
  0
ARC
  5
2F8
100
AcDbEntity
  8
0
100
AcDbCircle
 62
7
  6
CONTINUOUS
 10
3.9895420292
 20
4.6665886714
 40
0.0176377953
100
AcDbArc
 50
160.0000000001
 51
220.0
  0
ARC
  5
2F9
100
AcDbEntity
  8
0
100
AcDbCircle
 62
7
  6
CONTINUOUS
 10
3.9426585691
 20
4.7567616265
 40
0.0176377953
100
AcDbArc
 50
159.9999999999
 51
220.0
  0
ARC
  5
2FA
100
AcDbEntity
  8
0
100
AcDbCircle
 62
7
  6
CONTINUOUS
 10
3.8964836937
 20
4.8460901231
 40
0.0176377953
100
AcDbArc
 50
159.9999999999
 51
220.0
  0
ARC
  5
2FB
100
AcDbEntity
  8
0
100
AcDbCircle
 62
7
  6
CONTINUOUS
 10
3.8524345726
 20
4.9328852443
 40
0.0176377953
100
AcDbArc
 50
178.6596592214
 51
220.0
  0
ARC
  5
2FC
100
AcDbEntity
  8
0
100
AcDbCircle
 62
7
  6
CONTINUOUS
 10
3.7485605405
 20
5.0532475529
 40
0.011023622
100
AcDbArc
 50
76.8531747342
 51
220.0000024085
  0
ARC
  5
2FD
100
AcDbEntity
  8
0
100
AcDbCircle
 62
7
  6
CONTINUOUS
 10
5.3799694999
 20
4.5511170529
 40
0.0098425197
100
AcDbArc
 50
310.0000000011
 51
40.0
  0
ARC
  5
2FE
100
AcDbEntity
  8
0
100
AcDbCircle
 62
7
  6
CONTINUOUS
 10
5.3660010425
 20
4.5677640123
 40
0.0098425197
100
AcDbArc
 50
40.0
 51
113.3984504007
  0
ARC
  5
2FF
100
AcDbEntity
  8
0
100
AcDbCircle
 62
7
  6
CONTINUOUS
 10
6.6588681237
 20
5.0083140087
 40
0.0780039083
100
AcDbArc
 50
144.6603975947
 51
214.4619829455
  0
ARC
  5
300
100
AcDbEntity
  8
0
100
AcDbCircle
 62
7
  6
CONTINUOUS
 10
5.3386402011
 20
4.6309958781
 40
0.0590551181
100
AcDbArc
 50
220.0
 51
293.3984504008
  0
ARC
  5
301
100
AcDbEntity
  8
0
100
AcDbCircle
 62
7
  6
CONTINUOUS
 10
6.5791795385
 20
5.0648194056
 40
0.0196850394
100
AcDbArc
 50
324.6603975981
 51
45.2736969597
  0
ARC
  5
302
100
AcDbEntity
  8
0
100
AcDbCircle
 62
7
  6
CONTINUOUS
 10
4.8493558087
 20
6.1542875198
 40
0.9842519685
100
AcDbArc
 50
268.1607581809
 51
269.9919233628
  0
ARC
  5
303
100
AcDbEntity
  8
0
100
AcDbCircle
 62
7
  6
CONTINUOUS
 10
4.8493558087
 20
6.1542875198
 40
0.9842519685
100
AcDbArc
 50
227.1168422978
 51
238.2620463309
  0
ARC
  5
304
100
AcDbEntity
  8
0
100
AcDbCircle
 62
7
  6
CONTINUOUS
 10
3.83256206
 20
5.083729025
 40
0.9251968504
100
AcDbArc
 50
47.1168422978
 51
159.93326193
  0
ARC
  5
305
100
AcDbEntity
  8
0
100
AcDbCircle
 62
7
  6
CONTINUOUS
 10
4.8493558087
 20
6.1542875198
 40
0.5511811024
100
AcDbArc
 50
227.1168422978
 51
269.9855783449
  0
ARC
  5
306
100
AcDbEntity
  8
0
100
AcDbCircle
 62
7
  6
CONTINUOUS
 10
3.83256206
 20
5.083729025
 40
0.4921259843
100
AcDbArc
 50
47.1168422978
 51
159.93326193
  0
ARC
  5
307
100
AcDbEntity
  8
0
100
AcDbCircle
 62
7
  6
CONTINUOUS
 10
6.8977883973
 20
5.3864978157
 40
0.4330631109
100
AcDbArc
 50
118.5716812255
 51
148.7899675018
  0
ARC
  5
308
100
AcDbEntity
  8
0
100
AcDbCircle
 62
7
  6
CONTINUOUS
 10
5.1725811669
 20
5.3496751244
 40
0.3938046328
100
AcDbArc
 50
212.2677960285
 51
219.9985127604
  0
ARC
  5
309
100
AcDbEntity
  8
0
100
AcDbCircle
 62
7
  6
CONTINUOUS
 10
6.8092106721
 20
5.9737010139
 40
0.187007874
100
AcDbArc
 50
111.934448349
 51
156.299918145
  0
ARC
  5
30A
100
AcDbEntity
  8
0
100
AcDbCircle
 62
7
  6
CONTINUOUS
 10
3.7911845002
 20
5.235737411
 40
0.1763779528
100
AcDbArc
 50
256.8531771532
 51
298.0
  0
ARC
  5
30B
100
AcDbEntity
  8
0
100
AcDbCircle
 62
7
  6
CONTINUOUS
 10
6.6399193336
 20
5.8990149524
 40
0.1181102362
100
AcDbArc
 50
341.8051276614
 51
82.0164438544
  0
ARC
  5
30C
100
AcDbEntity
  8
0
100
AcDbCircle
 62
7
  6
CONTINUOUS
 10
6.6773209084
 20
5.8867216493
 40
0.0787401575
100
AcDbArc
 50
287.4576031236
 51
341.805127661
  0
ARC
  5
30D
100
AcDbEntity
  8
0
100
AcDbCircle
 62
7
  6
CONTINUOUS
 10
6.6596043729
 20
6.0393735624
 40
0.0236220472
100
AcDbArc
 50
156.3000081646
 51
262.0164438545
  0
ARC
  5
30E
100
AcDbEntity
  8
0
100
AcDbCircle
 62
7
  6
CONTINUOUS
 10
6.6812579162
 20
5.7841101361
 40
0.0196850394
100
AcDbArc
 50
298.5718781406
 51
360.0
  0
ARC
  5
30F
100
AcDbEntity
  8
0
100
AcDbCircle
 62
7
  6
CONTINUOUS
 10
8.1098186582
 20
2.3561305609
 40
0.6963304694
100
AcDbArc
 50
200.5143442167
 51
204.1639247196
  0
ARC
  5
310
100
AcDbEntity
  8
0
100
AcDbCircle
 62
7
  6
CONTINUOUS
 10
7.6405830875
 20
2.7325059446
 40
0.1279527559
100
AcDbArc
 50
31.754380865
 51
90.0
  0
ARC
  5
311
100
AcDbEntity
  8
0
100
AcDbCircle
 62
7
  6
CONTINUOUS
 10
7.3414031018
 20
2.1730200833
 40
0.1179390687
100
AcDbArc
 50
345.8402969111
 51
358.0486202334
  0
ARC
  5
312
100
AcDbEntity
  8
0
100
AcDbCircle
 62
7
  6
CONTINUOUS
 10
7.366018529
 20
2.1690040724
 40
0.0984251969
100
AcDbArc
 50
37.2417251894
 51
45.1206337451
  0
ARC
  5
313
100
AcDbEntity
  8
0
100
AcDbCircle
 62
7
  6
CONTINUOUS
 10
7.4910293144
 20
2.2945423787
 40
0.0787401575
100
AcDbArc
 50
195.4103657552
 51
225.120633745
  0
ARC
  5
314
100
AcDbEntity
  8
0
100
AcDbCircle
 62
7
  6
CONTINUOUS
 10
7.5068584299
 20
2.1312220483
 40
0.0527142282
100
AcDbArc
 50
165.7821259731
 51
182.1241100455
  0
ARC
  5
315
100
AcDbEntity
  8
ALL_FEATURES
100
AcDbCircle
 62
7
  6
CONTINUOUS
 10
7.1215433493
 20
2.2417018965
 40
0.05
100
AcDbArc
 50
0.0
 51
45.5729959992
  0
ARC
  5
316
100
AcDbEntity
  8
ALL_FEATURES
100
AcDbCircle
 62
7
  6
CONTINUOUS
 10
7.1915433493
 20
2.3131161808
 40
0.05
100
AcDbArc
 50
180.0
 51
225.5729959992
  0
ARC
  5
317
100
AcDbEntity
  8
0
100
AcDbCircle
 62
7
  6
CONTINUOUS
 10
7.3448851382
 20
2.1080048845
 40
0.0395
100
AcDbArc
 50
203.0903084551
 51
251.9402586197
  0
ARC
  5
318
100
AcDbEntity
  8
0
100
AcDbCircle
 62
7
  6
CONTINUOUS
 10
7.3914296934
 20
2.003642348
 40
0.0395
100
AcDbArc
 50
156.1324437927
 51
204.9823939574
  0
ARC
  5
319
100
AcDbEntity
  8
0
100
AcDbCircle
 62
7
  6
CONTINUOUS
 10
7.3929783514
 20
2.0039289475
 40
0.0393700787
100
AcDbArc
 50
156.2517775717
 51
205.6052889794
  0
ARC
  5
31A
100
AcDbEntity
  8
0
100
AcDbCircle
 62
7
  6
CONTINUOUS
 10
7.3500436514
 20
2.1064806701
 40
0.0393700787
100
AcDbArc
 50
205.2254392466
 51
249.1828201841
  0
ARC
  5
31B
100
AcDbEntity
  8
0
100
AcDbCircle
 62
7
  6
CONTINUOUS
 10
7.1381783977
 20
2.8694491502
 40
0.0393700787
100
AcDbArc
 50
137.3784424992
 51
180.9617478155
  0
ARC
  5
31C
100
AcDbEntity
  8
0
100
AcDbCircle
 62
7
  6
CONTINUOUS
 10
7.3210144855
 20
2.0347983825
 40
0.0375
100
AcDbArc
 50
336.1324437928
 51
71.9402586198
  0
ARC
  5
31D
100
AcDbEntity
  8
0
100
AcDbCircle
 62
7
  6
CONTINUOUS
 10
7.3227933493
 20
2.0348084885
 40
0.0373076923
100
AcDbArc
 50
336.2517775717
 51
69.182820184
  0
ARC
  5
31E
100
AcDbEntity
  8
0
100
AcDbCircle
 62
7
  6
CONTINUOUS
 10
7.827937462
 20
2.8270960141
 40
0.0196850394
100
AcDbArc
 50
113.2893228845
 51
150.2464539772
  0
ARC
  5
31F
100
AcDbEntity
  8
0
100
AcDbCircle
 62
7
  6
CONTINUOUS
 10
7.7594259048
 20
2.8060606784
 40
0.0118110236
100
AcDbArc
 50
211.754380865
 51
293.1331055141
  0
ARC
  5
320
100
AcDbEntity
  8
0
100
AcDbCircle
 62
7
  6
CONTINUOUS
 10
7.5335347424
 20
1.8604587005
 40
0.0098425197
100
AcDbArc
 50
270.0
 51
19.1980134297
  0
ARC
  5
321
100
AcDbEntity
  8
0
100
AcDbCircle
 62
7
  6
CONTINUOUS
 10
7.2468280339
 20
2.2331161808
 40
0.005
100
AcDbArc
 50
20.5795322207
 51
90.0
  0
ARC
  5
322
100
AcDbEntity
  8
0
100
AcDbCircle
 62
7
  6
CONTINUOUS
 10
6.8977933493
 20
3.1655146842
 40
0.2952755906
100
AcDbArc
 50
66.4218215218
 51
113.5781784782
  0
ARC
  5
323
100
AcDbEntity
  8
0
100
AcDbCircle
 62
7
  6
CONTINUOUS
 10
6.8977933493
 20
3.2301437399
 40
0.2066929134
100
AcDbArc
 50
316.3971810273
 51
55.150095421
  0
ARC
  5
324
100
AcDbEntity
  8
0
100
AcDbCircle
 62
7
  6
CONTINUOUS
 10
6.8977934063
 20
3.2301434272
 40
0.206692539
100
AcDbArc
 50
124.8498675712
 51
223.6027454946
  0
CIRCLE
  5
325
100
AcDbEntity
  8
0
100
AcDbCircle
 62
7
  6
CONTINUOUS
 10
6.8977933493
 20
3.2301437399
 40
0.1722440945
  0
CIRCLE
  5
326
100
AcDbEntity
  8
0
100
AcDbCircle
 62
9
  6
CONTINUOUS
 10
6.8977933493
 20
3.2301437399
 40
0.1086591278
  0
CIRCLE
  5
327
100
AcDbEntity
  8
0
100
AcDbCircle
 62
7
  6
CONTINUOUS
 10
6.8977933493
 20
3.2301437399
 40
0.1064530149
  0
CIRCLE
  5
328
100
AcDbEntity
  8
0
100
AcDbCircle
 62
9
  6
CONTINUOUS
 10
6.8977933493
 20
3.2301437399
 40
0.0975600678
  0
CIRCLE
  5
329
100
AcDbEntity
  8
0
100
AcDbCircle
 62
9
  6
CONTINUOUS
 10
6.8977933493
 20
3.2301437399
 40
0.0904607417
  0
ARC
  5
32A
100
AcDbEntity
  8
0
100
AcDbCircle
 62
7
  6
CONTINUOUS
 10
7.1044862627
 20
3.0332933462
 40
0.0787401575
100
AcDbArc
 50
136.3971810272
 51
180.0
  0
CIRCLE
  5
32B
100
AcDbEntity
  8
0
100
AcDbCircle
 62
9
  6
CONTINUOUS
 10
6.8977933493
 20
3.2301437399
 40
0.0734630561
  0
CIRCLE
  5
32C
100
AcDbEntity
  8
0
100
AcDbCircle
 62
9
  6
CONTINUOUS
 10
6.8977933493
 20
3.2301437399
 40
0.0622000136
  0
ARC
  5
32D
100
AcDbEntity
  8
0
100
AcDbCircle
 62
7
  6
CONTINUOUS
 10
7.0852933493
 20
2.9181161808
 40
0.0325
100
AcDbArc
 50
317.378442499
 51
90.0
  0
ARC
  5
32E
100
AcDbEntity
  8
0
100
AcDbCircle
 62
7
  6
CONTINUOUS
 10
7.2633533707
 20
3.8021913537
 40
0.0787401575
100
AcDbArc
 50
140.0903363629
 51
181.7647756984
  0
ARC
  5
32F
100
AcDbEntity
  8
0
100
AcDbCircle
 62
7
  6
CONTINUOUS
 10
7.1489738324
 20
3.8978602753
 40
0.070374635
100
AcDbArc
 50
320.0903363625
 51
34.6763265805
  0
ARC
  5
330
100
AcDbEntity
  8
0
100
AcDbCircle
 62
7
  6
CONTINUOUS
 10
8.1813385074
 20
2.886960932
 40
1.0826771654
100
AcDbArc
 50
180.9617478156
 51
191.820253616
  0
ARC
  5
331
100
AcDbEntity
  8
0
100
AcDbCircle
 62
7
  6
CONTINUOUS
 10
7.6405830875
 20
3.1458917714
 40
0.1279527559
100
AcDbArc
 50
270.0
 51
328.245619135
  0
ARC
  5
332
100
AcDbEntity
  8
0
100
AcDbCircle
 62
7
  6
CONTINUOUS
 10
7.7796831131
 20
2.939198858
 40
0.1023622047
100
AcDbArc
 50
293.2893228845
 51
66.7106771155
  0
ARC
  5
333
100
AcDbEntity
  8
0
100
AcDbCircle
 62
7
  6
CONTINUOUS
 10
7.7253979223
 20
2.8857106088
 40
0.0984251969
100
AcDbArc
 50
293.1332248285
 51
330.2465977544
  0
ARC
  5
334
100
AcDbEntity
  8
0
100
AcDbCircle
 62
7
  6
CONTINUOUS
 10
7.7253979223
 20
2.9926871071
 40
0.0984251969
100
AcDbArc
 50
29.7534022456
 51
66.8667751715
  0
ARC
  5
335
100
AcDbEntity
  8
0
100
AcDbCircle
 62
7
  6
CONTINUOUS
 10
7.827937462
 20
3.0513017019
 40
0.0196850394
100
AcDbArc
 50
209.7535460228
 51
246.7106771155
  0
ARC
  5
336
100
AcDbEntity
  8
0
100
AcDbCircle
 62
7
  6
CONTINUOUS
 10
7.7594259048
 20
3.0723370376
 40
0.0118110236
100
AcDbArc
 50
66.8668944859
 51
148.245619135
  0
ARC
  5
337
100
AcDbEntity
  8
0
100
AcDbCircle
 62
7
  6
CONTINUOUS
 10
10.5281570353
 20
3.4651490475
 40
3.5
100
AcDbArc
 50
204.9823939575
 51
207.4707098668
  0
ARC
  5
338
100
AcDbEntity
  8
0
100
AcDbCircle
 62
7
  6
CONTINUOUS
 10
10.5281570353
 20
3.4651490475
 40
3.5
100
AcDbArc
 50
200.5795322207
 51
203.090308455
  0
ARC
  5
339
100
AcDbEntity
  8
0
100
AcDbCircle
 62
7
  6
CONTINUOUS
 10
9.6664865718
 20
3.1977724689
 40
2.6
100
AcDbArc
 50
201.8883334693
 51
205.2254392468
  0
ARC
  5
33A
100
AcDbEntity
  8
0
100
AcDbCircle
 62
7
  6
CONTINUOUS
 10
9.6664865718
 20
3.1977724689
 40
2.6
100
AcDbArc
 50
191.820253616
 51
201.7179136502
  0
ARC
  5
33B
100
AcDbEntity
  8
0
100
AcDbCircle
 62
7
  6
CONTINUOUS
 10
13.6776323548
 20
3.9998210021
 40
6.4960629921
100
AcDbArc
 50
181.7647756982
 51
184.8640833226
  0
ARC
  5
33C
100
AcDbEntity
  8
0
100
AcDbCircle
 62
7
  6
CONTINUOUS
 10
13.6776323548
 20
3.9998210021
 40
6.4960629921
100
AcDbArc
 50
190.8961156868
 51
195.4103657553
  0
ARC
  5
33D
100
AcDbEntity
  8
0
100
AcDbCircle
 62
7
  6
CONTINUOUS
 10
13.6195144017
 20
4.0206213554
 40
6.4518442246
100
AcDbArc
 50
185.8377249093
 51
190.3947475784
  0
ARC
  5
33E
100
AcDbEntity
  8
0
100
AcDbCircle
 62
7
  6
CONTINUOUS
 10
8.2132902755
 20
5.5919282561
 40
3.3148638872
100
AcDbArc
 50
210.0716318607
 51
232.3018720266
  0
ARC
  5
33F
100
AcDbEntity
  8
0
100
AcDbCircle
 62
7
  6
CONTINUOUS
 10
7.3635051855
 20
6.2097982832
 40
2.5984251969
100
AcDbArc
 50
222.2446874233
 51
229.9283357214
  0
ARC
  5
340
100
AcDbEntity
  8
0
100
AcDbCircle
 62
7
  6
CONTINUOUS
 10
6.8981286344
 20
5.3867628591
 40
0.4334979369
100
AcDbArc
 50
211.2180365586
 51
225.2674209434
  0
ARC
  5
341
100
AcDbEntity
  8
0
100
AcDbCircle
 62
7
  6
CONTINUOUS
 10
6.897793421
 20
5.3864915953
 40
0.4330704183
100
AcDbArc
 50
314.7263182387
 51
61.4281452358
  0
ARC
  5
342
100
AcDbEntity
  8
0
100
AcDbCircle
 62
7
  6
CONTINUOUS
 10
6.8977933493
 20
6.0478287988
 40
0.187007874
100
AcDbArc
 50
32.0880661028
 51
147.9119338972
  0
ARC
  5
343
100
AcDbEntity
  8
0
100
AcDbCircle
 62
7
  6
CONTINUOUS
 10
6.9863760265
 20
5.9737010139
 40
0.187007874
100
AcDbArc
 50
23.700081855
 51
68.065551651
  0
ARC
  5
344
100
AcDbEntity
  8
0
100
AcDbCircle
 62
7
  6
CONTINUOUS
 10
7.155667365
 20
5.8990149524
 40
0.1181102362
100
AcDbArc
 50
97.9835561456
 51
198.1948723386
  0
ARC
  5
345
100
AcDbEntity
  8
0
100
AcDbCircle
 62
7
  6
CONTINUOUS
 10
7.1182657902
 20
5.8867216493
 40
0.0787401575
100
AcDbArc
 50
198.194872339
 51
252.5423968764
  0
ARC
  5
346
100
AcDbEntity
  8
0
100
AcDbCircle
 62
7
  6
CONTINUOUS
 10
7.1367185749
 20
5.0083140087
 40
0.0780039083
100
AcDbArc
 50
325.5380170545
 51
35.3396024053
  0
ARC
  5
347
100
AcDbEntity
  8
0
100
AcDbCircle
 62
7
  6
CONTINUOUS
 10
7.1359823257
 20
6.0393735624
 40
0.0236220472
100
AcDbArc
 50
277.9835561455
 51
23.6999918354
  0
ARC
  5
348
100
AcDbEntity
  8
0
100
AcDbCircle
 62
7
  6
CONTINUOUS
 10
7.1143287824
 20
5.7841101361
 40
0.0196850394
100
AcDbArc
 50
180.0
 51
241.4281218594
  0
ARC
  5
349
100
AcDbEntity
  8
0
100
AcDbCircle
 62
7
  6
CONTINUOUS
 10
7.2164071601
 20
5.0648194056
 40
0.0196850394
100
AcDbArc
 50
134.7263030403
 51
215.3396024019
  0
SPLINE
  5
34A
100
AcDbEntity
  8
0
100
AcDbSpline
 62
7
  6
CONTINUOUS
 70
0
 71
3
 72
9
 73
5
 74
0
 42
0.0000001
 43
0.0000001
 44
0.0000000001
 40
0.0
 40
0.0
 40
0.0
 40
0.0
 40
0.6837922868
 40
1.0
 40
1.0
 40
1.0
 40
1.0
 10
7.2735545726
 20
2.8565216926
 30
0.0
 10
7.2771838653
 20
2.8367187581
 30
0.0
 10
7.2848530099
 20
2.8081453899
 30
0.0
 10
7.2951932494
 20
2.7805742295
 30
0.0
 10
7.2986597943
 20
2.7719336326
 30
0.0
  0
SPLINE
  5
34B
100
AcDbEntity
  8
0
100
AcDbSpline
 62
7
  6
CONTINUOUS
 70
0
 71
3
 72
8
 73
4
 74
0
 42
0.0000001
 43
0.0000001
 44
0.0000000001
 40
0.0
 40
0.0
 40
0.0
 40
0.0
 40
1.0
 40
1.0
 40
1.0
 40
1.0
 10
7.2986597943
 20
2.7719336326
 30
0.0
 10
7.2986671577
 20
2.7719152511
 30
0.0
 10
7.2986745211
 20
2.7718968696
 30
0.0
 10
7.2986818844
 20
2.7718784881
 30
0.0
  0
LINE
  5
34C
100
AcDbEntity
  8
0
100
AcDbLine
 62
7
  6
CONTINUOUS
 10
7.2049013251
 20
3.4487315238
 11
7.2049608636
 21
3.4490413748
  0
SPLINE
  5
34D
100
AcDbEntity
  8
0
100
AcDbSpline
 62
7
  6
CONTINUOUS
 70
0
 71
3
 72
9
 73
5
 74
0
 42
0.0000001
 43
0.0000001
 44
0.0000000001
 40
0.0
 40
0.0
 40
0.0
 40
0.0
 40
0.2979669592
 40
1.0
 40
1.0
 40
1.0
 40
1.0
 10
7.4443737862
 20
2.2285689367
 30
0.0
 10
7.4476058775
 20
2.223331491
 30
0.0
 10
7.4566386187
 20
2.2046319856
 30
0.0
 10
7.4597687226
 20
2.1834968596
 30
0.0
 10
7.4592737755
 20
2.1690040907
 30
0.0
  0
SPLINE
  5
34E
100
AcDbEntity
  8
0
100
AcDbSpline
 62
7
  6
CONTINUOUS
 70
0
 71
3
 72
9
 73
5
 74
0
 42
0.0000001
 43
0.0000001
 44
0.0000000001
 40
0.0
 40
0.0
 40
0.0
 40
0.0
 40
0.2426064302
 40
1.0
 40
1.0
 40
1.0
 40
1.0
 10
7.4576463447
 20
2.1121072093
 30
0.0
 10
7.4571499456
 20
2.1134366748
 30
0.0
 10
7.4553063424
 20
2.1189893202
 30
0.0
 10
7.4543440281
 20
2.1248409163
 30
0.0
 10
7.4541804224
 20
2.1292682364
 30
0.0
  0
SPLINE
  5
34F
100
AcDbEntity
  8
0
100
AcDbSpline
 62
7
  6
CONTINUOUS
 70
0
 71
3
 72
19
 73
15
 74
0
 42
0.0000001
 43
0.0000001
 44
0.0000000001
 40
0.0
 40
0.0
 40
0.0
 40
0.0
 40
0.0646366333
 40
0.1241297778
 40
0.153693063
 40
0.1841100476
 40
0.248167739
 40
0.3152925174
 40
0.3831554133
 40
0.5141878425
 40
0.6393346486
 40
0.7606327325
 40
0.8801354273
 40
1.0
 40
1.0
 40
1.0
 40
1.0
 10
6.5945537586
 20
4.9641747729
 30
0.0
 10
6.6009536758
 20
4.9548495863
 30
0.0
 10
6.6126923674
 20
4.9365299745
 30
0.0
 10
6.6240820672
 20
4.9120298188
 30
0.0
 10
6.630261512
 20
4.89202836
 30
0.0
 10
6.6347297049
 20
4.8707611885
 30
0.0
 10
6.6372731518
 20
4.8425164488
 30
0.0
 10
6.6372499685
 20
4.8076695549
 30
0.0
 10
6.6349688318
 20
4.761170489
 30
0.0
 10
6.6311688717
 20
4.7045959723
 30
0.0
 10
6.6259225641
 20
4.6387534347
 30
0.0
 10
6.6209912486
 20
4.5749094278
 30
0.0
 10
6.6173005571
 20
4.5119024096
 30
0.0
 10
6.6162972863
 20
4.4700152212
 30
0.0
 10
6.6162972863
 20
4.4490413777
 30
0.0
  0
SPLINE
  5
350
100
AcDbEntity
  8
0
100
AcDbSpline
 62
7
  6
CONTINUOUS
 70
0
 71
3
 72
19
 73
15
 74
0
 42
0.0000001
 43
0.0000001
 44
0.0000000001
 40
0.0
 40
0.0
 40
0.0
 40
0.0
 40
0.0646366333
 40
0.1241297778
 40
0.153693063
 40
0.1841100476
 40
0.248167739
 40
0.3152925174
 40
0.3831554133
 40
0.5141878425
 40
0.6393346486
 40
0.7606327325
 40
0.8801354273
 40
1.0
 40
1.0
 40
1.0
 40
1.0
 10
7.2010329401
 20
4.9641747729
 30
0.0
 10
7.1946330228
 20
4.9548495863
 30
0.0
 10
7.1828943312
 20
4.9365299745
 30
0.0
 10
7.1715046314
 20
4.9120298188
 30
0.0
 10
7.1653251866
 20
4.89202836
 30
0.0
 10
7.1608569937
 20
4.8707611885
 30
0.0
 10
7.1583135468
 20
4.8425164488
 30
0.0
 10
7.1583367301
 20
4.8076695549
 30
0.0
 10
7.1606178668
 20
4.761170489
 30
0.0
 10
7.1644178269
 20
4.7045959723
 30
0.0
 10
7.1696641345
 20
4.6387534347
 30
0.0
 10
7.17459545
 20
4.5749094278
 30
0.0
 10
7.1782861415
 20
4.5119024096
 30
0.0
 10
7.1792894123
 20
4.4700152212
 30
0.0
 10
7.1792894123
 20
4.4490413777
 30
0.0
  0
SPLINE
  5
351
100
AcDbEntity
  8
0
100
AcDbSpline
 62
7
  6
CONTINUOUS
 70
0
 71
3
 72
19
 73
15
 74
0
 42
0.0000001
 43
0.0000001
 44
0.0000000001
 40
0.0
 40
0.0
 40
0.0
 40
0.0
 40
0.1199005741
 40
0.2394206091
 40
0.3606960548
 40
0.4858141621
 40
0.6168473247
 40
0.6847180038
 40
0.7518424952
 40
0.8158816495
 40
0.8462869606
 40
0.8758446715
 40
0.9353473639
 40
1.0
 40
1.0
 40
1.0
 40
1.0
 10
7.1792894123
 20
4.4490413777
 30
0.0
 10
7.1792894123
 20
4.4282292939
 30
0.0
 10
7.1786235804
 20
4.3866697572
 30
0.0
 10
7.1761217735
 20
4.3241077249
 30
0.0
 10
7.1726900916
 20
4.2606853582
 30
0.0
 10
7.1688920124
 20
4.1952821838
 30
0.0
 10
7.1659380918
 20
4.1391180621
 30
0.0
 10
7.1639657151
 20
4.0929782822
 30
0.0
 10
7.1640542715
 20
4.0584146432
 30
0.0
 10
7.1666332196
 20
4.0304063917
 30
0.0
 10
7.1711251143
 20
4.0093279122
 30
0.0
 10
7.1773299611
 20
3.9895108329
 30
0.0
 10
7.1887402833
 20
3.9652547072
 30
0.0
 10
7.2004636741
 20
3.9471281624
 30
0.0
 10
7.2068484674
 20
3.9378992048
 30
0.0
  0
SPLINE
  5
352
100
AcDbEntity
  8
0
100
AcDbSpline
 62
7
  6
CONTINUOUS
 70
0
 71
3
 72
19
 73
15
 74
0
 42
0.0000001
 43
0.0000001
 44
0.0000000001
 40
0.0
 40
0.0
 40
0.0
 40
0.0
 40
0.1199005741
 40
0.2394206091
 40
0.3606960548
 40
0.4858141621
 40
0.6168473247
 40
0.6847180038
 40
0.7518424952
 40
0.8158816495
 40
0.8462869606
 40
0.8758446715
 40
0.9353473639
 40
1.0
 40
1.0
 40
1.0
 40
1.0
 10
6.6162972863
 20
4.4490413777
 30
0.0
 10
6.6162972863
 20
4.4282292939
 30
0.0
 10
6.6169631182
 20
4.3866697572
 30
0.0
 10
6.6194649251
 20
4.3241077249
 30
0.0
 10
6.622896607
 20
4.2606853582
 30
0.0
 10
6.6266946862
 20
4.1952821838
 30
0.0
 10
6.6296486068
 20
4.1391180621
 30
0.0
 10
6.6316209835
 20
4.0929782822
 30
0.0
 10
6.6315324271
 20
4.0584146432
 30
0.0
 10
6.628953479
 20
4.0304063917
 30
0.0
 10
6.6244615843
 20
4.0093279122
 30
0.0
 10
6.6182567375
 20
3.9895108329
 30
0.0
 10
6.6068464153
 20
3.9652547072
 30
0.0
 10
6.5951230245
 20
3.9471281624
 30
0.0
 10
6.5887382312
 20
3.9378992048
 30
0.0
  0
SPLINE
  5
353
100
AcDbEntity
  8
0
100
AcDbSpline
 62
7
  6
CONTINUOUS
 70
0
 71
3
 72
18
 73
14
 74
0
 42
0.0000001
 43
0.0000001
 44
0.0000000001
 40
0.0
 40
0.0
 40
0.0
 40
0.0
 40
0.0049141199
 40
0.0195361996
 40
0.0437039838
 40
0.0771506181
 40
0.1194577627
 40
0.1701920135
 40
0.2947617352
 40
0.4460603729
 40
0.6184127435
 40
0.8055374486
 40
1.0
 40
1.0
 40
1.0
 40
1.0
 10
7.2049608635
 20
3.4490413746
 30
0.0
 10
7.2049051991
 20
3.4489137044
 30
0.0
 10
7.2048717364
 20
3.4483479213
 30
0.0
 10
7.2045773804
 20
3.4471512046
 30
0.0
 10
7.2042498243
 20
3.4451249093
 30
0.0
 10
7.2037475563
 20
3.4423399789
 30
0.0
 10
7.2031782513
 20
3.4387994784
 30
0.0
 10
7.2022613665
 20
3.4327007286
 30
0.0
 10
7.2011170312
 20
3.4235126456
 30
0.0
 10
7.2000452202
 20
3.4108504333
 30
0.0
 10
7.1995145045
 20
3.3963770639
 30
0.0
 10
7.1997803932
 20
3.3806716863
 30
0.0
 10
7.2005735955
 20
3.3698787496
 30
0.0
 10
7.2011331092
 20
3.3643957084
 30
0.0
  0
LINE
  5
354
100
AcDbEntity
  8
0
100
AcDbLine
 62
7
  6
CONTINUOUS
 10
7.2986818737
 20
2.7718785115
 11
7.298353214
 21
2.7726967568
  0
SPLINE
  5
355
100
AcDbEntity
  8
0
100
AcDbSpline
 62
9
  6
CONTINUOUS
 70
0
 71
3
 72
16
 73
12
 74
0
 42
0.0000001
 43
0.0000001
 44
0.0000000001
 40
0.0
 40
0.0
 40
0.0
 40
0.0
 40
0.0147969611
 40
0.0285474406
 40
0.049123779
 40
0.1141513113
 40
0.2149092909
 40
0.3532972374
 40
0.5304147136
 40
0.746338637
 40
1.0
 40
1.0
 40
1.0
 40
1.0
 10
4.8088788307
 20
4.6342035115
 30
0.0
 10
4.8088275085
 20
4.6341381974
 30
0.0
 10
4.8086016159
 20
4.6341492534
 30
0.0
 10
4.8084504387
 20
4.6343864071
 30
0.0
 10
4.808173223
 20
4.6348682883
 30
0.0
 10
4.8078906351
 20
4.6358904698
 30
0.0
 10
4.8075921288
 20
4.6375670155
 30
0.0
 10
4.8073556107
 20
4.6398960931
 30
0.0
 10
4.8071913176
 20
4.6428744136
 30
0.0
 10
4.8071186698
 20
4.646505044
 30
0.0
 10
4.8071309071
 20
4.6491412337
 30
0.0
 10
4.8071506193
 20
4.6505650753
 30
0.0
  0
SPLINE
  5
356
100
AcDbEntity
  8
0
100
AcDbSpline
 62
9
  6
CONTINUOUS
 70
0
 71
3
 72
30
 73
26
 74
0
 42
0.0000001
 43
0.0000001
 44
0.0000000001
 40
0.0
 40
0.0
 40
0.0
 40
0.0
 40
0.0009911145
 40
0.0038975649
 40
0.0085507072
 40
0.0147305256
 40
0.0222133369
 40
0.0308008091
 40
0.0403305217
 40
0.0506754257
 40
0.0734454323
 40
0.0985887298
 40
0.1258067986
 40
0.154921299
 40
0.1858145119
 40
0.2183950104
 40
0.2882658256
 40
0.3637387154
 40
0.4437381884
 40
0.5268857819
 40
0.6114649006
 40
0.7755092754
 40
0.912364749
 40
0.9631691122
 40
1.0
 40
1.0
 40
1.0
 40
1.0
 10
4.839594918
 20
5.1394318205
 30
0.0
 10
4.8395130073
 20
5.1395724973
 30
0.0
 10
4.840017977
 20
5.1382503366
 30
0.0
 10
4.8401343934
 20
5.137576254
 30
0.0
 10
4.8409350694
 20
5.1350493715
 30
0.0
 10
4.8416832745
 20
5.1323030035
 30
0.0
 10
4.8426378523
 20
5.1287150895
 30
0.0
 10
4.8436247961
 20
5.1246472922
 30
0.0
 10
4.8446418667
 20
5.1200780468
 30
0.0
 10
4.8460181378
 20
5.1132122502
 30
0.0
 10
4.847592499
 20
5.1037695489
 30
0.0
 10
4.8491155081
 20
5.0915210492
 30
0.0
 10
4.8502473311
 20
5.0781836181
 30
0.0
 10
4.8509464089
 20
5.0638715118
 30
0.0
 10
4.8511978843
 20
5.048663988
 30
0.0
 10
4.8509305477
 20
5.0267618699
 30
0.0
 10
4.8494479164
 20
4.9975652833
 30
0.0
 10
4.8461667938
 20
4.9606933839
 30
0.0
 10
4.841572729
 20
4.9217669318
 30
0.0
 10
4.8359286114
 20
4.8814705773
 30
0.0
 10
4.8276611833
 20
4.8276076417
 30
0.0
 10
4.8176458732
 20
4.7651000087
 30
0.0
 10
4.8100407151
 20
4.7077978163
 30
0.0
 10
4.8073872604
 20
4.6710141966
 30
0.0
 10
4.8070256954
 20
4.6566130971
 30
0.0
 10
4.8071506191
 20
4.6505650755
 30
0.0
  0
SPLINE
  5
357
100
AcDbEntity
  8
0
100
AcDbSpline
 62
9
  6
CONTINUOUS
 70
0
 71
3
 72
11
 73
7
 74
0
 42
0.0000001
 43
0.0000001
 44
0.0000000001
 40
0.0
 40
0.0
 40
0.0
 40
0.0
 40
0.2427089268
 40
0.5063799213
 40
0.7658090288
 40
1.0
 40
1.0
 40
1.0
 40
1.0
 10
4.86135117
 20
4.6484773017
 30
0.0
 10
4.8582073731
 20
4.6523036645
 30
0.0
 10
4.8499875041
 20
4.6590672186
 30
0.0
 10
4.8344157711
 20
4.6633406207
 30
0.0
 10
4.8186872526
 20
4.660361625
 30
0.0
 10
4.8103086999
 20
4.6541511461
 30
0.0
 10
4.8071506191
 20
4.6505650827
 30
0.0
  0
SPLINE
  5
358
100
AcDbEntity
  8
0
100
AcDbSpline
 62
9
  6
CONTINUOUS
 70
0
 71
3
 72
14
 73
10
 74
0
 42
0.0000001
 43
0.0000001
 44
0.0000000001
 40
0.0
 40
0.0
 40
0.0
 40
0.0
 40
0.4250842148
 40
0.5955500766
 40
0.7367128495
 40
0.8479391275
 40
0.928584348
 40
0.9785606955
 40
1.0
 40
1.0
 40
1.0
 40
1.0
 10
4.8613511646
 20
4.6484772976
 30
0.0
 10
4.8584086474
 20
4.6462774184
 30
0.0
 10
4.8542632639
 20
4.6432195252
 30
0.0
 10
4.8490032908
 20
4.6396395839
 30
0.0
 10
4.8458967555
 20
4.6376900049
 30
0.0
 10
4.8434318398
 20
4.6362647237
 30
0.0
 10
4.8415104136
 20
4.6352674031
 30
0.0
 10
4.8404317035
 20
4.6347936681
 30
0.0
 10
4.8396670858
 20
4.6345974338
 30
0.0
 10
4.8395474347
 20
4.6347389209
 30
0.0
  0
SPLINE
  5
359
100
AcDbEntity
  8
0
100
AcDbSpline
 62
9
  6
CONTINUOUS
 70
0
 71
3
 72
18
 73
14
 74
0
 42
0.0000001
 43
0.0000001
 44
0.0000000001
 40
0.0
 40
0.0
 40
0.0
 40
0.0
 40
0.0554170635
 40
0.1205531934
 40
0.1896512593
 40
0.2594212758
 40
0.39609841
 40
0.5293815782
 40
0.6626050336
 40
0.7976992836
 40
0.9266237925
 40
0.9777482602
 40
1.0
 40
1.0
 40
1.0
 40
1.0
 10
4.8613511693
 20
4.6484772919
 30
0.0
 10
4.8686430117
 20
4.654071354
 30
0.0
 10
4.883758547
 20
4.6672236518
 30
0.0
 10
4.905256446
 20
4.6902748157
 30
0.0
 10
4.9249472879
 20
4.7179322848
 30
0.0
 10
4.9458952552
 20
4.7587074151
 30
0.0
 10
4.9603399218
 20
4.8139982702
 30
0.0
 10
4.9601592998
 20
4.8814575172
 30
0.0
 10
4.9458480006
 20
4.9469057146
 30
0.0
 10
4.9215071138
 20
5.0083382787
 30
0.0
 10
4.8969142892
 20
5.0545411347
 30
0.0
 10
4.8794839977
 20
5.0832127767
 30
0.0
 10
4.8728989128
 20
5.0934463416
 30
0.0
 10
4.8709028042
 20
5.0965501468
 30
0.0
  0
ENDSEC
  0
SECTION
  2
OBJECTS
  0
DICTIONARY
  5
C
100
AcDbDictionary
280
0
281
1
  3
ACAD_GROUP
350
D
  3
ACAD_MLINESTYLE
350
17
  3
ACAD_LAYOUT
350
1A
  3
ACAD_PLOTSETTINGS
350
19
  3
ACAD_PLOTSTYLENAME
350
E
  0
DICTIONARY
  5
D
102
{ACAD_REACTORS
330
C
102
}
100
AcDbDictionary
280
0
281
1
  0
ACDBDICTIONARYWDFLT
  5
E
102
{ACAD_REACTORS
330
C
102
}
100
AcDbDictionary
281
1
  3
Normal
350
F
100
AcDbDictionaryWithDefault
340
F
  0
DICTIONARY
  5
17
102
{ACAD_REACTORS
330
C
102
}
100
AcDbDictionary
280
0
281
1
  3
Standard
350
18
  0
DICTIONARY
  5
19
102
{ACAD_REACTORS
330
C
102
}
100
AcDbDictionary
281
1
  0
DICTIONARY
  5
1A
102
{ACAD_REACTORS
330
C
102
}
100
AcDbDictionary
281
1
  3
Model
350
35A
  3
Layout1
350
35B
  0
ACDBPLACEHOLDER
  5
F
102
{ACAD_REACTORS
330
E
102
}
  0
MLINESTYLE
  5
18
102
{ACAD_REACTORS
330
17
102
}
100
AcDbMlineStyle
  2
STANDARD
 70
0
  3

 62
256
 51
90.0
 52
90.0
 71
2
 49
0.5
 62
256
  6
BYLAYER
 49
-0.5
 62
256
  6
BYLAYER
  0
LAYOUT
  5
35A
102
{ACAD_REACTORS
330
1A
102
}
100
AcDbPlotSettings
  1

  2
none_device
  4
ANSI_A_(11.00_x_8.50_Inches)
  6

 40
0.0
 41
0.0
 42
0.0
 43
0.0
 44
279.4
 45
215.9
 46
0.0
 47
0.0
 48
0.0
 49
0.0
140
0.0
141
0.0
142
1.0
143
1.0
 70
1024
 72
0
 73
0
 74
0
  7

 75
0
147
1.0
148
0.0
149
0.0
100
AcDbLayout
  1
Model
 70
0
 71
0
 10
0.0
 20
0.0
 11
11.0
 21
8.5
 12
0.0
 22
0.0
 32
0.0
 14
0.0
 24
0.0
 34
0.0
 15
0.0
 25
0.0
 35
0.0
146
0.0
 13
0.0
 23
0.0
 33
0.0
 16
1.0
 26
0.0
 36
0.0
 17
0.0
 27
1.0
 37
0.0
 76
0
330
20B
345
0
346
0
  0
LAYOUT
  5
35B
102
{ACAD_REACTORS
330
1A
102
}
100
AcDbPlotSettings
  1

  2
none_device
  4
ANSI_A_(11.00_x_8.50_Inches)
  6

 40
0.0
 41
0.0
 42
0.0
 43
0.0
 44
279.4
 45
215.9
 46
0.0
 47
0.0
 48
0.0
 49
0.0
140
0.0
141
0.0
142
1.0
143
1.0
 70
0
 72
0
 73
0
 74
0
  7

 75
0
147
1.0
148
0.0
149
0.0
100
AcDbLayout
  1
Layout1
 70
0
 71
1
 10
0.0
 20
0.0
 11
11.0
 21
8.5
 12
0.0
 22
0.0
 32
0.0
 14
0.0
 24
0.0
 34
0.0
 15
0.0
 25
0.0
 35
0.0
146
0.0
 13
0.0
 23
0.0
 33
0.0
 16
1.0
 26
0.0
 36
0.0
 17
0.0
 27
1.0
 37
0.0
 76
0
330
20C
345
0
346
0
  0
ENDSEC
  0
EOF
