999
DXF file: 3-803ts_FRONT.dxf
999
Pro/ENGINEER 2013150 by Parametric Technology Corporation
  0
SECTION
  2
HEADER
  9
$ACADVER
  1
AC1021
  9
$DWGCODEPAGE
  3
ANSI_1252
  9
$EXTMAX
 10
11.0
 20
8.5
 30
0.0
  9
$EXTMIN
 10
0.0
 20
0.0
 30
0.0
  9
$LIMMIN
 10
0.0
 20
0.0
  9
$LIMMAX
 10
11.0
 20
8.5
  9
$VIEWCTR
 10
5.5
 20
4.25
  9
$VIEWSIZE
 40
8.5
  9
$CLAYER
  8
0
  9
$LTSCALE
 40
0.605
  9
$CELTYPE
  6
BYLAYER
  9
$DIMSCALE
 40
1.0
  9
$DIMASZ
 40
0.1
  9
$DIMEXO
 40
0.0625
  9
$DIMDLI
 40
0.418
  9
$DIMEXE
 40
0.125
  9
$DIMCEN
 40
0.099
  9
$DIMLFAC
 40
1.0
  9
$DIMBLK
  1
_FILLED
  9
$DIMTXT
 40
0.08
  9
$DIMTOL
 70
1
  9
$DIMLIM
 70
0
  9
$DIMTFAC
 40
1.0
  9
$DIMTP
 40
0.001
  9
$DIMTM
 40
0.001
  9
$DIMGAP
 40
0.09
  9
$DIMDSEP
 70
46
  9
$PDMODE
 70
3
  9
$PDSIZE
 40
0.06
  9
$HANDSEED
  5
3AD
  9
$TILEMODE
 70
1
  9
$MEASUREMENT
 70
0
  9
$INSUNITS
 70
1
  0
ENDSEC
  0
SECTION
  2
CLASSES
  0
CLASS
  1
ACDBDICTIONARYWDFLT
  2
AcDbDictionaryWithDefault
  3
AutoCAD 2000
 90
0
 91
1
280
0
281
0
  0
CLASS
  1
ACDBPLACEHOLDER
  2
AcDbPlaceHolder
  3
AutoCAD 2000
 90
0
 91
1
280
0
281
0
  0
CLASS
  1
LAYOUT
  2
AcDbLayout
  3
AutoCAD 2000
 90
0
 91
0
280
0
281
0
  0
ENDSEC
  0
SECTION
  2
TABLES
  0
TABLE
  2
VPORT
  5
8
100
AcDbSymbolTable
 70
2
  0
VPORT
  5
1F4
100
AcDbSymbolTableRecord
100
AcDbViewportTableRecord
  2
*ACTIVE
 70
0
 10
0.0
 20
0.0
 11
1.0
 21
1.0
 12
5.5
 22
4.25
 13
0.0
 23
0.0
 14
1.0
 24
1.0
 15
0.0
 25
0.0
 16
0.0
 26
0.0
 36
1.0
 17
0.0
 27
0.0
 37
0.0
 40
8.5
 41
1.2941176471
 42
50.0
 43
0.0
 44
0.0
 50
0.0
 51
0.0
 71
0
 72
100
 73
1
 74
1
 75
0
 76
0
 77
0
 78
0
  0
ENDTAB
  0
TABLE
  2
LTYPE
  5
5
100
AcDbSymbolTable
 70
6
  0
LTYPE
  5
14
100
AcDbSymbolTableRecord
100
AcDbLinetypeTableRecord
  2
BYBLOCK
 70
0
  3

 72
65
 73
0
 40
0.0
  0
LTYPE
  5
15
100
AcDbSymbolTableRecord
100
AcDbLinetypeTableRecord
  2
BYLAYER
 70
0
  3

 72
65
 73
0
 40
0.0
  0
LTYPE
  5
16
100
AcDbSymbolTableRecord
100
AcDbLinetypeTableRecord
  2
CONTINUOUS
 70
64
  3
Solid line
 72
65
 73
0
 40
0.0
  0
LTYPE
  5
1F5
100
AcDbSymbolTableRecord
100
AcDbLinetypeTableRecord
  2
CENTER
 70
64
  3
____ _ ____ _ ____ _ ____ _ ____ _ ____ _ ____
 72
65
 73
4
 40
0.6
 49
0.375
 74
0
 49
-0.075
 74
0
 49
0.075
 74
0
 49
-0.075
 74
0
  0
LTYPE
  5
1F6
100
AcDbSymbolTableRecord
100
AcDbLinetypeTableRecord
  2
HIDDEN
 70
64
  3
- - - - - - - - - - - - - - - - - - - -
 72
65
 73
2
 40
0.2
 49
0.1
 74
0
 49
-0.1
 74
0
  0
LTYPE
  5
1F7
100
AcDbSymbolTableRecord
100
AcDbLinetypeTableRecord
  2
PHANTOM
 70
64
  3
_____ _ _ _____ _ _ _____ _ _ _____
 72
65
 73
6
 40
0.8
 49
0.45
 74
0
 49
-0.05
 74
0
 49
0.1
 74
0
 49
-0.05
 74
0
 49
0.1
 74
0
 49
-0.05
 74
0
  0
LTYPE
  5
1F8
100
AcDbSymbolTableRecord
100
AcDbLinetypeTableRecord
  2
DOT
 70
64
  3
. . . . . . . . . . . . . . . . . . . .
 72
65
 73
2
 40
0.2
 49
0.1
 74
0
 49
-0.1
 74
0
  0
LTYPE
  5
1F9
100
AcDbSymbolTableRecord
100
AcDbLinetypeTableRecord
  2
DASHED
 70
64
  3
- - - - - - - - - - - - - - - - - - - -
 72
65
 73
2
 40
0.2
 49
0.1
 74
0
 49
-0.1
 74
0
  0
ENDTAB
  0
TABLE
  2
LAYER
  5
2
100
AcDbSymbolTable
 70
36
  0
LAYER
  5
10
100
AcDbSymbolTableRecord
100
AcDbLayerTableRecord
  2
0
 70
0
 62
7
  6
CONTINUOUS
370
-3
390
F
  0
LAYER
  5
1FA
100
AcDbSymbolTableRecord
100
AcDbLayerTableRecord
  2
DEFAULT_1
 70
0
 62
7
  6
CENTER
370
-3
390
F
  0
LAYER
  5
1FB
100
AcDbSymbolTableRecord
100
AcDbLayerTableRecord
  2
DEFAULT_2
 70
0
 62
8
  6
HIDDEN
370
-3
390
F
  0
LAYER
  5
1FC
100
AcDbSymbolTableRecord
100
AcDbLayerTableRecord
  2
DEFAULT_3
 70
0
 62
7
  6
PHANTOM
370
-3
390
F
  0
LAYER
  5
1FD
100
AcDbSymbolTableRecord
100
AcDbLayerTableRecord
  2
ALL_ASSEMBLY_MEMBERS
 70
0
 62
7
  6
CONTINUOUS
370
-3
390
F
  0
LAYER
  5
1FE
100
AcDbSymbolTableRecord
100
AcDbLayerTableRecord
  2
ALL_FEATURES
 70
0
 62
7
  6
CONTINUOUS
370
-3
390
F
  0
LAYER
  5
1FF
100
AcDbSymbolTableRecord
100
AcDbLayerTableRecord
  2
AXES_FEATURES
 70
0
 62
7
  6
CONTINUOUS
370
-3
390
F
  0
LAYER
  5
200
100
AcDbSymbolTableRecord
100
AcDbLayerTableRecord
  2
CHAMFER_FEATURES
 70
0
 62
7
  6
CONTINUOUS
370
-3
390
F
  0
LAYER
  5
201
100
AcDbSymbolTableRecord
100
AcDbLayerTableRecord
  2
COSMETIC_SKETCHES
 70
0
 62
7
  6
CONTINUOUS
370
-3
390
F
  0
LAYER
  5
202
100
AcDbSymbolTableRecord
100
AcDbLayerTableRecord
  2
CUT_FEATURES
 70
0
 62
7
  6
CONTINUOUS
370
-3
390
F
  0
LAYER
  5
203
100
AcDbSymbolTableRecord
100
AcDbLayerTableRecord
  2
DATUM_CURVES
 70
0
 62
7
  6
CONTINUOUS
370
-3
390
F
  0
LAYER
  5
204
100
AcDbSymbolTableRecord
100
AcDbLayerTableRecord
  2
DATUM_PLANES
 70
0
 62
7
  6
CONTINUOUS
370
-3
390
F
  0
LAYER
  5
205
100
AcDbSymbolTableRecord
100
AcDbLayerTableRecord
  2
DATUM_POINTS
 70
0
 62
7
  6
CONTINUOUS
370
-3
390
F
  0
LAYER
  5
206
100
AcDbSymbolTableRecord
100
AcDbLayerTableRecord
  2
DEFAULT_COORDINATE_SYSTEM
 70
0
 62
7
  6
CONTINUOUS
370
-3
390
F
  0
LAYER
  5
207
100
AcDbSymbolTableRecord
100
AcDbLayerTableRecord
  2
DEFAULT_DATUM_AXES
 70
0
 62
7
  6
CONTINUOUS
370
-3
390
F
  0
LAYER
  5
208
100
AcDbSymbolTableRecord
100
AcDbLayerTableRecord
  2
DEFAULT_DATUM_CURVES
 70
0
 62
7
  6
CONTINUOUS
370
-3
390
F
  0
LAYER
  5
209
100
AcDbSymbolTableRecord
100
AcDbLayerTableRecord
  2
DEFAULT_DATUM_PLANES
 70
0
 62
7
  6
CONTINUOUS
370
-3
390
F
  0
LAYER
  5
20A
100
AcDbSymbolTableRecord
100
AcDbLayerTableRecord
  2
DEFAULT_SURFACES
 70
0
 62
7
  6
CONTINUOUS
370
-3
390
F
  0
LAYER
  5
20B
100
AcDbSymbolTableRecord
100
AcDbLayerTableRecord
  2
DIMENSIONS
 70
0
 62
7
  6
CONTINUOUS
370
-3
390
F
  0
LAYER
  5
20C
100
AcDbSymbolTableRecord
100
AcDbLayerTableRecord
  2
HOLE_FEATURES
 70
0
 62
7
  6
CONTINUOUS
370
-3
390
F
  0
LAYER
  5
20D
100
AcDbSymbolTableRecord
100
AcDbLayerTableRecord
  2
HOLE_PATTERN
 70
0
 62
7
  6
CONTINUOUS
370
-3
390
F
  0
LAYER
  5
20E
100
AcDbSymbolTableRecord
100
AcDbLayerTableRecord
  2
INTFCLR_1
 70
0
 62
7
  6
CONTINUOUS
370
-3
390
F
  0
LAYER
  5
20F
100
AcDbSymbolTableRecord
100
AcDbLayerTableRecord
  2
NOTES
 70
0
 62
7
  6
CONTINUOUS
370
-3
390
F
  0
LAYER
  5
210
100
AcDbSymbolTableRecord
100
AcDbLayerTableRecord
  2
PART_REFERENCE_DIMENSIONS
 70
0
 62
7
  6
CONTINUOUS
370
-3
390
F
  0
LAYER
  5
211
100
AcDbSymbolTableRecord
100
AcDbLayerTableRecord
  2
PLATED_SURFACE_AREA
 70
0
 62
7
  6
CONTINUOUS
370
-3
390
F
  0
LAYER
  5
212
100
AcDbSymbolTableRecord
100
AcDbLayerTableRecord
  2
POINTS
 70
0
 62
7
  6
CONTINUOUS
370
-3
390
F
  0
LAYER
  5
213
100
AcDbSymbolTableRecord
100
AcDbLayerTableRecord
  2
PROTRUSION
 70
0
 62
7
  6
CONTINUOUS
370
-3
390
F
  0
LAYER
  5
214
100
AcDbSymbolTableRecord
100
AcDbLayerTableRecord
  2
PROTRUSION_FEATURES
 70
0
 62
7
  6
CONTINUOUS
370
-3
390
F
  0
LAYER
  5
215
100
AcDbSymbolTableRecord
100
AcDbLayerTableRecord
  2
REFERENCE_DIMENSIONS
 70
0
 62
7
  6
CONTINUOUS
370
-3
390
F
  0
LAYER
  5
216
100
AcDbSymbolTableRecord
100
AcDbLayerTableRecord
  2
ROUND_FEATURES
 70
0
 62
7
  6
CONTINUOUS
370
-3
390
F
  0
LAYER
  5
217
100
AcDbSymbolTableRecord
100
AcDbLayerTableRecord
  2
SATIN_DIRECTION
 70
0
 62
7
  6
CONTINUOUS
370
-3
390
F
  0
LAYER
  5
218
100
AcDbSymbolTableRecord
100
AcDbLayerTableRecord
  2
SHELL_FEATURES
 70
0
 62
7
  6
CONTINUOUS
370
-3
390
F
  0
LAYER
  5
219
100
AcDbSymbolTableRecord
100
AcDbLayerTableRecord
  2
SIZE_REF
 70
0
 62
7
  6
CONTINUOUS
370
-3
390
F
  0
ENDTAB
  0
TABLE
  2
STYLE
  5
3
100
AcDbSymbolTable
 70
1
  0
STYLE
  5
11
100
AcDbSymbolTableRecord
100
AcDbTextStyleTableRecord
  2
STANDARD
 70
0
 40
0.0
 41
0.8
 50
0.0
 71
0
 42
0.2
  3
txt
  4

  0
STYLE
  5
21A
100
AcDbSymbolTableRecord
100
AcDbTextStyleTableRecord
  2
TEXTSTYLE_1
 70
0
 40
0.0
 41
0.8
 50
0.0
 71
0
 42
0.2
  3
gdt
  4

  0
ENDTAB
  0
TABLE
  2
VIEW
  5
6
100
AcDbSymbolTable
 70
0
  0
ENDTAB
  0
TABLE
  2
UCS
  5
7
100
AcDbSymbolTable
 70
0
  0
ENDTAB
  0
TABLE
  2
APPID
  5
9
100
AcDbSymbolTable
 70
1
  0
APPID
  5
21B
100
AcDbSymbolTableRecord
100
AcDbRegAppTableRecord
  2
ACAD
 70
0
  0
ENDTAB
  0
TABLE
  2
BLOCK_RECORD
  5
1
100
AcDbSymbolTable
 70
0
  0
BLOCK_RECORD
  5
21C
100
AcDbSymbolTableRecord
100
AcDbBlockTableRecord
  2
*Model_Space
  0
BLOCK_RECORD
  5
21D
100
AcDbSymbolTableRecord
100
AcDbBlockTableRecord
  2
*Paper_Space
  0
ENDTAB
  0
TABLE
  2
DIMSTYLE
  5
A
100
AcDbSymbolTable
 70
1
100
AcDbDimStyleTable
 71
0
  0
DIMSTYLE
105
21E
100
AcDbSymbolTableRecord
100
AcDbDimStyleTableRecord
  2
STANDARD
 70
0
  3

  4

 40
1.0
 41
0.1
 42
0.0625
 43
0.38
 44
0.125
 45
0.0
 46
0.0
 47
0.001
 48
0.001
140
0.08
141
0.09
142
0.0
143
25.4
144
1.0
145
0.0
146
1.0
147
0.09
 71
1.0
 72
0.0
 73
1
 74
1
 75
0
 76
0
 77
0
 78
4
170
0
171
2
172
0
173
0
174
0
175
0
176
0
177
0
178
0
270
2
271
3
272
3
273
2
274
2
275
0
280
0
281
0
282
0
283
1
284
4
285
0
286
0
287
3
288
0
340
11
278
46
  0
ENDTAB
  0
ENDSEC
  0
SECTION
  2
BLOCKS
  0
BLOCK
  5
20
100
AcDbEntity
  8
0
100
AcDbBlockBegin
  2
*Model_Space
 70
0
 10
0.0
 20
0.0
 30
0.0
  3
*Model_Space
  1

  0
ENDBLK
  5
21
100
AcDbEntity
  8
0
100
AcDbBlockEnd
  0
BLOCK
  5
1C
100
AcDbEntity
  8
0
100
AcDbBlockBegin
  2
*Paper_Space
 70
0
 10
0.0
 20
0.0
 30
0.0
  3
*Paper_Space
  1

  0
ENDBLK
  5
1D
100
AcDbEntity
  8
0
100
AcDbBlockEnd
  0
ENDSEC
  0
SECTION
  2
ENTITIES
  0
LINE
  5
21F
100
AcDbEntity
  8
0
100
AcDbLine
 62
7
  6
CONTINUOUS
 10
0.0
 20
0.0
 11
0.0
 21
8.5
  0
LINE
  5
220
100
AcDbEntity
  8
0
100
AcDbLine
 62
7
  6
CONTINUOUS
 10
0.0
 20
0.0
 11
11.0
 21
0.0
  0
LINE
  5
221
100
AcDbEntity
  8
0
100
AcDbLine
 62
7
  6
CONTINUOUS
 10
0.0
 20
8.5
 11
11.0
 21
8.5
  0
LINE
  5
222
100
AcDbEntity
  8
0
100
AcDbLine
 62
7
  6
CONTINUOUS
 10
11.0
 20
0.0
 11
11.0
 21
8.5
  0
LINE
  5
223
100
AcDbEntity
  8
ALL_FEATURES
100
AcDbLine
 62
7
  6
CONTINUOUS
 10
2.6708273883
 20
0.8338244417
 11
5.4158273883
 21
0.8338244417
  0
LINE
  5
224
100
AcDbEntity
  8
ALL_FEATURES
100
AcDbLine
 62
7
  6
CONTINUOUS
 10
2.6708273883
 20
0.9275744417
 11
5.4158273883
 21
0.9275744417
  0
LINE
  5
225
100
AcDbEntity
  8
ALL_FEATURES
100
AcDbLine
 62
7
  6
CONTINUOUS
 10
2.2958273883
 20
1.2088244417
 11
2.3258273883
 21
1.2088244417
  0
LINE
  5
226
100
AcDbEntity
  8
ALL_FEATURES
100
AcDbLine
 62
7
  6
CONTINUOUS
 10
5.7608273883
 20
1.2088244417
 11
5.7908273883
 21
1.2088244417
  0
LINE
  5
227
100
AcDbEntity
  8
ALL_FEATURES
100
AcDbLine
 62
7
  6
CONTINUOUS
 10
2.2958273883
 20
1.3025744417
 11
2.3258273883
 21
1.3025744417
  0
LINE
  5
228
100
AcDbEntity
  8
ALL_FEATURES
100
AcDbLine
 62
7
  6
CONTINUOUS
 10
5.7608273883
 20
1.3025744417
 11
5.7908273883
 21
1.3025744417
  0
LINE
  5
229
100
AcDbEntity
  8
ALL_FEATURES
100
AcDbLine
 62
7
  6
CONTINUOUS
 10
1.9808273883
 20
6.3313244417
 11
1.9808273883
 21
1.5238244417
  0
LINE
  5
22A
100
AcDbEntity
  8
ALL_FEATURES
100
AcDbLine
 62
7
  6
CONTINUOUS
 10
2.0745773883
 20
6.3313244417
 11
2.0745773883
 21
1.5238244417
  0
LINE
  5
22B
100
AcDbEntity
  8
ALL_FEATURES
100
AcDbLine
 62
7
  6
CONTINUOUS
 10
2.3558273883
 20
6.7063244417
 11
2.3558273883
 21
6.6763244417
  0
LINE
  5
22C
100
AcDbEntity
  8
ALL_FEATURES
100
AcDbLine
 62
7
  6
CONTINUOUS
 10
2.3558273883
 20
1.1788244417
 11
2.3558273883
 21
1.1488244417
  0
LINE
  5
22D
100
AcDbEntity
  8
ALL_FEATURES
100
AcDbLine
 62
7
  6
CONTINUOUS
 10
2.4495773883
 20
6.7063244417
 11
2.4495773883
 21
6.6763244417
  0
LINE
  5
22E
100
AcDbEntity
  8
ALL_FEATURES
100
AcDbLine
 62
7
  6
CONTINUOUS
 10
2.4495773883
 20
1.1788244417
 11
2.4495773883
 21
1.1488244417
  0
LINE
  5
22F
100
AcDbEntity
  8
0
100
AcDbLine
 62
7
  6
CONTINUOUS
 10
3.1613734603
 20
2.9181450685
 11
3.1574144584
 21
2.9194314261
  0
LINE
  5
230
100
AcDbEntity
  8
0
100
AcDbLine
 62
7
  6
CONTINUOUS
 10
3.2646735881
 20
2.9075932499
 11
3.1728045341
 21
2.9374433151
  0
LINE
  5
231
100
AcDbEntity
  8
0
100
AcDbLine
 62
9
  6
CONTINUOUS
 10
4.8714119959
 20
2.9610528258
 11
4.8712548345
 21
2.9610107145
  0
LINE
  5
232
100
AcDbEntity
  8
0
100
AcDbLine
 62
7
  6
CONTINUOUS
 10
4.9155330614
 20
3.0162018866
 11
4.9153749707
 21
3.0161595263
  0
LINE
  5
233
100
AcDbEntity
  8
0
100
AcDbLine
 62
9
  6
CONTINUOUS
 10
4.8147692889
 20
3.0461651247
 11
4.8146114632
 21
3.0461228354
  0
LINE
  5
234
100
AcDbEntity
  8
0
100
AcDbLine
 62
9
  6
CONTINUOUS
 10
4.8546298753
 20
3.076013359
 11
4.8544724772
 21
3.0759711843
  0
LINE
  5
235
100
AcDbEntity
  8
0
100
AcDbLine
 62
7
  6
CONTINUOUS
 10
4.8346258342
 20
3.0880293013
 11
4.8344690264
 21
3.0879872848
  0
LINE
  5
236
100
AcDbEntity
  8
0
100
AcDbLine
 62
9
  6
CONTINUOUS
 10
4.8755824026
 20
3.1330184326
 11
4.8754269945
 21
3.1329767911
  0
LINE
  5
237
100
AcDbEntity
  8
0
100
AcDbLine
 62
9
  6
CONTINUOUS
 10
4.7934627299
 20
3.1183370447
 11
4.7933080358
 21
3.1182955945
  0
LINE
  5
238
100
AcDbEntity
  8
0
100
AcDbLine
 62
7
  6
CONTINUOUS
 10
3.2654199461
 20
2.7251055482
 11
3.1847930063
 21
2.718051605
  0
LINE
  5
239
100
AcDbEntity
  8
0
100
AcDbLine
 62
7
  6
CONTINUOUS
 10
3.1831588361
 20
2.7367302556
 11
3.2638494489
 21
2.7437897695
  0
LINE
  5
23A
100
AcDbEntity
  8
0
100
AcDbLine
 62
7
  6
CONTINUOUS
 10
4.8912281373
 20
2.6435470382
 11
4.8115709112
 21
2.6575927564
  0
LINE
  5
23B
100
AcDbEntity
  8
0
100
AcDbLine
 62
7
  6
CONTINUOUS
 10
4.8147009166
 20
2.6760801009
 11
4.8944840406
 21
2.6620121836
  0
LINE
  5
23C
100
AcDbEntity
  8
0
100
AcDbLine
 62
7
  6
CONTINUOUS
 10
3.2704456181
 20
2.9253625622
 11
3.1495441316
 21
2.9646458365
  0
LINE
  5
23D
100
AcDbEntity
  8
0
100
AcDbLine
 62
7
  6
CONTINUOUS
 10
3.1950183702
 20
3.0217140423
 11
3.1910593965
 21
3.0230003909
  0
LINE
  5
23E
100
AcDbEntity
  8
0
100
AcDbLine
 62
7
  6
CONTINUOUS
 10
3.2905014267
 20
3.0137021536
 11
3.2064506308
 21
3.0410119127
  0
LINE
  5
23F
100
AcDbEntity
  8
0
100
AcDbLine
 62
7
  6
CONTINUOUS
 10
3.1831914005
 20
3.0682140438
 11
3.2959512293
 21
3.0315761545
  0
LINE
  5
240
100
AcDbEntity
  8
0
100
AcDbLine
 62
7
  6
CONTINUOUS
 10
3.2112263844
 20
3.1461031322
 11
3.2231531239
 21
3.1347087364
  0
LINE
  5
241
100
AcDbEntity
  8
0
100
AcDbLine
 62
7
  6
CONTINUOUS
 10
4.9153749707
 20
3.0161595263
 11
4.8990951368
 21
3.0192333855
  0
LINE
  5
242
100
AcDbEntity
  8
0
100
AcDbLine
 62
7
  6
CONTINUOUS
 10
3.211721251
 20
3.1476261749
 11
3.2112263844
 21
3.1461031322
  0
LINE
  5
243
100
AcDbEntity
  8
0
100
AcDbLine
 62
7
  6
CONTINUOUS
 10
3.5653544989
 20
3.4212880131
 11
3.5166940496
 21
3.4858626105
  0
LINE
  5
244
100
AcDbEntity
  8
0
100
AcDbLine
 62
7
  6
CONTINUOUS
 10
3.5316684654
 20
3.4971466422
 11
3.5804231073
 21
3.432447047
  0
LINE
  5
245
100
AcDbEntity
  8
0
100
AcDbLine
 62
7
  6
CONTINUOUS
 10
3.888202834
 20
3.677076399
 11
3.888202834
 21
3.6812391369
  0
LINE
  5
246
100
AcDbEntity
  8
0
100
AcDbLine
 62
7
  6
CONTINUOUS
 10
3.9100889532
 20
3.5755714328
 11
3.9100889532
 21
3.6721682052
  0
LINE
  5
247
100
AcDbEntity
  8
0
100
AcDbLine
 62
7
  6
CONTINUOUS
 10
3.9287722288
 20
3.5755728425
 11
3.9287722288
 21
3.7026961135
  0
LINE
  5
248
100
AcDbEntity
  8
0
100
AcDbLine
 62
9
  6
CONTINUOUS
 10
3.9888789925
 20
3.6793235631
 11
3.9888789925
 21
3.679160601
  0
LINE
  5
249
100
AcDbEntity
  8
0
100
AcDbLine
 62
7
  6
CONTINUOUS
 10
4.0501302351
 20
1.8940022247
 11
4.0501302351
 21
1.8874528967
  0
LINE
  5
24A
100
AcDbEntity
  8
0
100
AcDbLine
 62
9
  6
CONTINUOUS
 10
4.0621855067
 20
3.6812216404
 11
4.0621855067
 21
3.6810579694
  0
LINE
  5
24B
100
AcDbEntity
  8
0
100
AcDbLine
 62
7
  6
CONTINUOUS
 10
4.0726804142
 20
2.0214285064
 11
4.0726804142
 21
1.9220889861
  0
LINE
  5
24C
100
AcDbEntity
  8
0
100
AcDbLine
 62
7
  6
CONTINUOUS
 10
4.1874148789
 20
2.0342925422
 11
4.1879508791
 21
2.022350188
  0
LINE
  5
24D
100
AcDbEntity
  8
0
100
AcDbLine
 62
9
  6
CONTINUOUS
 10
4.0977757933
 20
3.6793235631
 11
4.0977757933
 21
3.679160601
  0
LINE
  5
24E
100
AcDbEntity
  8
0
100
AcDbLine
 62
7
  6
CONTINUOUS
 10
4.0998918014
 20
2.0228150485
 11
4.0998918014
 21
1.981285529
  0
LINE
  5
24F
100
AcDbEntity
  8
0
100
AcDbLine
 62
7
  6
CONTINUOUS
 10
4.0998918014
 20
1.9699501373
 11
4.0998918014
 21
1.9220896183
  0
LINE
  5
250
100
AcDbEntity
  8
0
100
AcDbLine
 62
7
  6
CONTINUOUS
 10
4.1224419779
 20
1.8940038518
 11
4.1224419779
 21
1.8874545122
  0
LINE
  5
251
100
AcDbEntity
  8
0
100
AcDbLine
 62
9
  6
CONTINUOUS
 10
4.1710823165
 20
3.6812173317
 11
4.1710823165
 21
3.6810579694
  0
LINE
  5
252
100
AcDbEntity
  8
0
100
AcDbLine
 62
7
  6
CONTINUOUS
 10
4.1725814803
 20
2.0055976457
 11
4.1725814803
 21
1.9456457646
  0
LINE
  5
253
100
AcDbEntity
  8
0
100
AcDbLine
 62
7
  6
CONTINUOUS
 10
4.538561465
 20
3.4073563426
 11
4.5906362008
 21
3.4694165961
  0
LINE
  5
254
100
AcDbEntity
  8
0
100
AcDbLine
 62
7
  6
CONTINUOUS
 10
4.6049995341
 20
3.4573643284
 11
4.5530069723
 21
3.3954020061
  0
LINE
  5
255
100
AcDbEntity
  8
0
100
AcDbLine
 62
7
  6
CONTINUOUS
 10
4.928058022
 20
2.9688257343
 11
4.9153749707
 21
3.0161595263
  0
LINE
  5
256
100
AcDbEntity
  8
0
100
AcDbLine
 62
9
  6
CONTINUOUS
 10
3.2724476882
 20
2.3599415669
 11
3.272589514
 21
2.36002345
  0
LINE
  5
257
100
AcDbEntity
  8
0
100
AcDbLine
 62
9
  6
CONTINUOUS
 10
3.2764075124
 20
2.3306687021
 11
3.2765491933
 21
2.3307505016
  0
LINE
  5
258
100
AcDbEntity
  8
0
100
AcDbLine
 62
7
  6
CONTINUOUS
 10
3.4349191844
 20
2.310372643
 11
3.3248271374
 21
2.24681097
  0
LINE
  5
259
100
AcDbEntity
  8
0
100
AcDbLine
 62
7
  6
CONTINUOUS
 10
3.4442621149
 20
2.2941931981
 11
3.3606067976
 21
2.2458947781
  0
LINE
  5
25A
100
AcDbEntity
  8
0
100
AcDbLine
 62
7
  6
CONTINUOUS
 10
3.3672993084
 20
2.2244867873
 11
3.363694269
 21
2.2224054169
  0
LINE
  5
25B
100
AcDbEntity
  8
ALL_FEATURES
100
AcDbLine
 62
7
  6
CONTINUOUS
 10
5.6370773883
 20
1.1488244417
 11
5.6370773883
 21
1.1788244417
  0
LINE
  5
25C
100
AcDbEntity
  8
ALL_FEATURES
100
AcDbLine
 62
7
  6
CONTINUOUS
 10
5.6370773883
 20
6.6763244417
 11
5.6370773883
 21
6.7063244417
  0
LINE
  5
25D
100
AcDbEntity
  8
ALL_FEATURES
100
AcDbLine
 62
7
  6
CONTINUOUS
 10
5.7308273883
 20
1.1488244417
 11
5.7308273883
 21
1.1788244417
  0
LINE
  5
25E
100
AcDbEntity
  8
ALL_FEATURES
100
AcDbLine
 62
7
  6
CONTINUOUS
 10
5.7308273883
 20
6.6763244417
 11
5.7308273883
 21
6.7063244417
  0
LINE
  5
25F
100
AcDbEntity
  8
ALL_FEATURES
100
AcDbLine
 62
7
  6
CONTINUOUS
 10
6.0120773883
 20
1.5238244417
 11
6.0120773883
 21
6.3313244417
  0
LINE
  5
260
100
AcDbEntity
  8
ALL_FEATURES
100
AcDbLine
 62
7
  6
CONTINUOUS
 10
6.1058273883
 20
1.5238244417
 11
6.1058273883
 21
6.3313244417
  0
LINE
  5
261
100
AcDbEntity
  8
ALL_FEATURES
100
AcDbLine
 62
7
  6
CONTINUOUS
 10
5.7908273883
 20
6.5525744417
 11
5.7608273883
 21
6.5525744417
  0
LINE
  5
262
100
AcDbEntity
  8
ALL_FEATURES
100
AcDbLine
 62
7
  6
CONTINUOUS
 10
2.3258273883
 20
6.5525744417
 11
2.2958273883
 21
6.5525744417
  0
LINE
  5
263
100
AcDbEntity
  8
ALL_FEATURES
100
AcDbLine
 62
7
  6
CONTINUOUS
 10
5.7908273883
 20
6.6463244417
 11
5.7608273883
 21
6.6463244417
  0
LINE
  5
264
100
AcDbEntity
  8
ALL_FEATURES
100
AcDbLine
 62
7
  6
CONTINUOUS
 10
2.3258273883
 20
6.6463244417
 11
2.2958273883
 21
6.6463244417
  0
LINE
  5
265
100
AcDbEntity
  8
ALL_FEATURES
100
AcDbLine
 62
7
  6
CONTINUOUS
 10
5.4158273883
 20
6.9275744417
 11
2.6708273883
 21
6.9275744417
  0
LINE
  5
266
100
AcDbEntity
  8
ALL_FEATURES
100
AcDbLine
 62
7
  6
CONTINUOUS
 10
5.4158273883
 20
7.0213244417
 11
2.6708273883
 21
7.0213244417
  0
ARC
  5
267
100
AcDbEntity
  8
0
100
AcDbCircle
 62
7
  6
CONTINUOUS
 10
2.8049987039
 20
-0.4585719013
 40
2.8880545028
100
AcDbArc
 50
78.2580827967
 51
78.4283428969
  0
ARC
  5
268
100
AcDbEntity
  8
0
100
AcDbCircle
 62
7
  6
CONTINUOUS
 10
3.1318476428
 20
1.3649565412
 40
1.0453240063
100
AcDbArc
 50
76.1879158122
 51
76.7730431885
  0
ARC
  5
269
100
AcDbEntity
  8
0
100
AcDbCircle
 62
7
  6
CONTINUOUS
 10
3.210803528
 20
1.7041920543
 40
0.6970225541
100
AcDbArc
 50
76.7106683111
 51
77.9135613767
  0
ARC
  5
26A
100
AcDbEntity
  8
0
100
AcDbCircle
 62
7
  6
CONTINUOUS
 10
2.9187801694
 20
1.7119467884
 40
0.681077579
100
AcDbArc
 50
48.8111220309
 51
49.2669839164
  0
ARC
  5
26B
100
AcDbEntity
  8
ALL_FEATURES
100
AcDbCircle
 62
7
  6
CONTINUOUS
 10
2.6708273883
 20
1.1488244417
 40
0.315
100
AcDbArc
 50
180.0
 51
270.0
  0
ARC
  5
26C
100
AcDbEntity
  8
ALL_FEATURES
100
AcDbCircle
 62
7
  6
CONTINUOUS
 10
2.2958273883
 20
1.5238244417
 40
0.315
100
AcDbArc
 50
180.0
 51
270.0
  0
ARC
  5
26D
100
AcDbEntity
  8
ALL_FEATURES
100
AcDbCircle
 62
7
  6
CONTINUOUS
 10
2.6708273883
 20
1.1488244417
 40
0.22125
100
AcDbArc
 50
180.0
 51
270.0
  0
ARC
  5
26E
100
AcDbEntity
  8
ALL_FEATURES
100
AcDbCircle
 62
7
  6
CONTINUOUS
 10
2.2958273883
 20
1.5238244417
 40
0.22125
100
AcDbArc
 50
180.0
 51
270.0
  0
ARC
  5
26F
100
AcDbEntity
  8
ALL_FEATURES
100
AcDbCircle
 62
7
  6
CONTINUOUS
 10
2.3258273883
 20
1.1788244417
 40
0.12375
100
AcDbArc
 50
0.0
 51
90.0
  0
ARC
  5
270
100
AcDbEntity
  8
0
100
AcDbCircle
 62
7
  6
CONTINUOUS
 10
3.347479464
 20
2.3315410554
 40
0.0976527969
100
AcDbArc
 50
84.614320575
 51
85.4960848429
  0
ARC
  5
271
100
AcDbEntity
  8
0
100
AcDbCircle
 62
7
  6
CONTINUOUS
 10
3.0762128962
 20
2.9232355846
 40
0.0850361139
100
AcDbArc
 50
2.2914118957
 51
3.2812564878
  0
ARC
  5
272
100
AcDbEntity
  8
0
100
AcDbCircle
 62
7
  6
CONTINUOUS
 10
3.1127619852
 20
3.0269574269
 40
0.0821285803
100
AcDbArc
 50
2.2650071885
 51
3.2898682506
  0
ARC
  5
273
100
AcDbEntity
  8
0
100
AcDbCircle
 62
7
  6
CONTINUOUS
 10
3.3179571904
 20
2.3674312343
 40
0.0603007897
100
AcDbArc
 50
272.7152769447
 51
276.6712426467
  0
ARC
  5
274
100
AcDbEntity
  8
0
100
AcDbCircle
 62
7
  6
CONTINUOUS
 10
3.3024332718
 20
3.1209157932
 40
0.0516776848
100
AcDbArc
 50
36.6349697485
 51
45.4813864869
  0
ARC
  5
275
100
AcDbEntity
  8
0
100
AcDbCircle
 62
7
  6
CONTINUOUS
 10
3.3183426024
 20
2.357647378
 40
0.0506048386
100
AcDbArc
 50
243.7957263773
 51
250.1153650342
  0
ARC
  5
276
100
AcDbEntity
  8
0
100
AcDbCircle
 62
7
  6
CONTINUOUS
 10
3.3174568104
 20
2.3552063648
 40
0.0480080781
100
AcDbArc
 50
250.1186172724
 51
254.8021951329
  0
ARC
  5
277
100
AcDbEntity
  8
0
100
AcDbCircle
 62
7
  6
CONTINUOUS
 10
3.3303566104
 20
2.3497190801
 40
0.039808946
100
AcDbArc
 50
209.9801220797
 51
213.2024451921
  0
ARC
  5
278
100
AcDbEntity
  8
0
100
AcDbCircle
 62
7
  6
CONTINUOUS
 10
3.3122957773
 20
3.1147372468
 40
0.0368826182
100
AcDbArc
 50
44.7137109408
 51
53.678417691
  0
ARC
  5
279
100
AcDbEntity
  8
0
100
AcDbCircle
 62
7
  6
CONTINUOUS
 10
3.2545644844
 20
2.4419860814
 40
0.0365053823
100
AcDbArc
 50
235.5438047657
 51
240.358482324
  0
ARC
  5
27A
100
AcDbEntity
  8
ALL_FEATURES
100
AcDbCircle
 62
7
  6
CONTINUOUS
 10
2.3258273883
 20
1.1788244417
 40
0.03
100
AcDbArc
 50
0.0
 51
90.0
  0
ARC
  5
27B
100
AcDbEntity
  8
0
100
AcDbCircle
 62
7
  6
CONTINUOUS
 10
3.3211001869
 20
2.3417753663
 40
0.027521378
100
AcDbArc
 50
243.4704595619
 51
248.5740886574
  0
ARC
  5
27C
100
AcDbEntity
  8
0
100
AcDbCircle
 62
7
  6
CONTINUOUS
 10
3.2512616778
 20
2.441742379
 40
0.0258597518
100
AcDbArc
 50
209.9461151752
 51
215.4058400454
  0
ARC
  5
27D
100
AcDbEntity
  8
0
100
AcDbCircle
 62
7
  6
CONTINUOUS
 10
4.0058277628
 20
2.0374275106
 40
0.0236287604
100
AcDbArc
 50
225.0829880294
 51
315.2687159722
  0
ARC
  5
27E
100
AcDbEntity
  8
0
100
AcDbCircle
 62
7
  6
CONTINUOUS
 10
4.0057743025
 20
2.0373743228
 40
0.0235537531
100
AcDbArc
 50
218.3804607105
 51
225.0837225549
  0
ARC
  5
27F
100
AcDbEntity
  8
ALL_FEATURES
100
AcDbCircle
 62
7
  6
CONTINUOUS
 10
2.2958273883
 20
6.3313244417
 40
0.315
100
AcDbArc
 50
90.0
 51
180.0
  0
ARC
  5
280
100
AcDbEntity
  8
ALL_FEATURES
100
AcDbCircle
 62
7
  6
CONTINUOUS
 10
2.6708273883
 20
6.7063244417
 40
0.315
100
AcDbArc
 50
90.0
 51
180.0
  0
ARC
  5
281
100
AcDbEntity
  8
ALL_FEATURES
100
AcDbCircle
 62
7
  6
CONTINUOUS
 10
2.2958273883
 20
6.3313244417
 40
0.22125
100
AcDbArc
 50
90.0
 51
180.0
  0
ARC
  5
282
100
AcDbEntity
  8
ALL_FEATURES
100
AcDbCircle
 62
7
  6
CONTINUOUS
 10
2.6708273883
 20
6.7063244417
 40
0.22125
100
AcDbArc
 50
90.0
 51
180.0
  0
ARC
  5
283
100
AcDbEntity
  8
ALL_FEATURES
100
AcDbCircle
 62
7
  6
CONTINUOUS
 10
2.3258273883
 20
6.6763244417
 40
0.12375
100
AcDbArc
 50
270.0
 51
360.0
  0
ARC
  5
284
100
AcDbEntity
  8
0
100
AcDbCircle
 62
7
  6
CONTINUOUS
 10
3.8667320948
 20
3.7596322909
 40
0.0850257014
100
AcDbArc
 50
290.2910746695
 51
291.2810319574
  0
ARC
  5
285
100
AcDbEntity
  8
0
100
AcDbCircle
 62
7
  6
CONTINUOUS
 10
4.0111506763
 20
3.6498887193
 40
0.0598858089
100
AcDbArc
 50
31.5477114136
 51
35.9919043275
  0
ARC
  5
286
100
AcDbEntity
  8
0
100
AcDbCircle
 62
7
  6
CONTINUOUS
 10
3.8602909089
 20
3.5774713154
 40
0.0498342712
100
AcDbArc
 50
354.6448814176
 51
357.8151888737
  0
ARC
  5
287
100
AcDbEntity
  8
0
100
AcDbCircle
 62
7
  6
CONTINUOUS
 10
4.0243437872
 20
3.6653799015
 40
0.0371609946
100
AcDbArc
 50
115.5805645709
 51
125.0673308781
  0
ARC
  5
288
100
AcDbEntity
  8
0
100
AcDbCircle
 62
7
  6
CONTINUOUS
 10
4.0275655537
 20
3.6654955157
 40
0.0370617777
100
AcDbArc
 50
64.8312675305
 51
69.2022843165
  0
ARC
  5
289
100
AcDbEntity
  8
ALL_FEATURES
100
AcDbCircle
 62
7
  6
CONTINUOUS
 10
2.3258273883
 20
6.6763244417
 40
0.03
100
AcDbArc
 50
270.0
 51
360.0
  0
ARC
  5
28A
100
AcDbEntity
  8
0
100
AcDbCircle
 62
7
  6
CONTINUOUS
 10
4.025475291
 20
3.6689390643
 40
0.0258619631
100
AcDbArc
 50
89.9492111543
 51
95.4079636796
  0
ARC
  5
28B
100
AcDbEntity
  8
0
100
AcDbCircle
 62
7
  6
CONTINUOUS
 10
4.0255060931
 20
3.6716400614
 40
0.0231609572
100
AcDbArc
 50
83.8676267028
 51
90.019486588
  0
CIRCLE
  5
28C
100
AcDbEntity
  8
0
100
AcDbCircle
 62
7
  6
CONTINUOUS
 10
4.0433273883
 20
2.8025744417
 40
1.012875
  0
CIRCLE
  5
28D
100
AcDbEntity
  8
0
100
AcDbCircle
 62
7
  6
CONTINUOUS
 10
4.0433273883
 20
2.8025744417
 40
0.952875
  0
CIRCLE
  5
28E
100
AcDbEntity
  8
ALL_ASSEMBLY_MEMBERS
100
AcDbCircle
 62
7
  6
CONTINUOUS
 10
4.0433273883
 20
2.8025744417
 40
0.781875
  0
CIRCLE
  5
28F
100
AcDbEntity
  8
ALL_ASSEMBLY_MEMBERS
100
AcDbCircle
 62
9
  6
CONTINUOUS
 10
4.0433273883
 20
2.8025744417
 40
0.744375
  0
CIRCLE
  5
290
100
AcDbEntity
  8
ALL_ASSEMBLY_MEMBERS
100
AcDbCircle
 62
7
  6
CONTINUOUS
 10
4.0433273883
 20
2.8025744417
 40
0.732488789
  0
CIRCLE
  5
291
100
AcDbEntity
  8
ALL_ASSEMBLY_MEMBERS
100
AcDbCircle
 62
7
  6
CONTINUOUS
 10
4.0433273883
 20
2.8025744417
 40
0.69975
  0
CIRCLE
  5
292
100
AcDbEntity
  8
ALL_ASSEMBLY_MEMBERS
100
AcDbCircle
 62
7
  6
CONTINUOUS
 10
4.0433273883
 20
2.8025744417
 40
0.6173806817
  0
CIRCLE
  5
293
100
AcDbEntity
  8
ALL_ASSEMBLY_MEMBERS
100
AcDbCircle
 62
9
  6
CONTINUOUS
 10
4.0433273883
 20
2.8025744417
 40
0.45375
  0
CIRCLE
  5
294
100
AcDbEntity
  8
ALL_ASSEMBLY_MEMBERS
100
AcDbCircle
 62
7
  6
CONTINUOUS
 10
4.0433273883
 20
2.8025744417
 40
0.248625
  0
CIRCLE
  5
295
100
AcDbEntity
  8
ALL_ASSEMBLY_MEMBERS
100
AcDbCircle
 62
9
  6
CONTINUOUS
 10
4.0433273883
 20
2.8025744417
 40
0.213375
  0
CIRCLE
  5
296
100
AcDbEntity
  8
ALL_ASSEMBLY_MEMBERS
100
AcDbCircle
 62
7
  6
CONTINUOUS
 10
4.0433273883
 20
2.8025744417
 40
0.20625
  0
CIRCLE
  5
297
100
AcDbEntity
  8
ALL_ASSEMBLY_MEMBERS
100
AcDbCircle
 62
9
  6
CONTINUOUS
 10
4.0433273883
 20
2.8025744417
 40
0.1866963982
  0
CIRCLE
  5
298
100
AcDbEntity
  8
ALL_ASSEMBLY_MEMBERS
100
AcDbCircle
 62
7
  6
CONTINUOUS
 10
4.0433273883
 20
2.8025744417
 40
0.1395
  0
ARC
  5
299
100
AcDbEntity
  8
0
100
AcDbCircle
 62
7
  6
CONTINUOUS
 10
4.7651619451
 20
3.0366226523
 40
0.0730433808
100
AcDbArc
 50
48.7093621078
 51
53.0819266951
  0
ARC
  5
29A
100
AcDbEntity
  8
0
100
AcDbCircle
 62
7
  6
CONTINUOUS
 10
4.8274962277
 20
3.0886744026
 40
0.0686266579
100
AcDbArc
 50
14.9891559644
 51
16.9091342447
  0
ARC
  5
29B
100
AcDbEntity
  8
0
100
AcDbCircle
 62
7
  6
CONTINUOUS
 10
4.6780991327
 20
2.3092305425
 40
0.0515438002
100
AcDbArc
 50
204.9364402951
 51
208.4831547726
  0
ARC
  5
29C
100
AcDbEntity
  8
0
100
AcDbCircle
 62
7
  6
CONTINUOUS
 10
4.6779124765
 20
2.3091269774
 40
0.0513303471
100
AcDbArc
 50
208.4809078544
 51
214.0502515834
  0
ARC
  5
29D
100
AcDbEntity
  8
0
100
AcDbCircle
 62
7
  6
CONTINUOUS
 10
4.784403829
 20
3.0740319397
 40
0.0413285628
100
AcDbArc
 50
278.1105714896
 51
285.0658100067
  0
ARC
  5
29E
100
AcDbEntity
  8
0
100
AcDbCircle
 62
7
  6
CONTINUOUS
 10
4.8556028961
 20
3.1013139889
 40
0.0376447071
100
AcDbArc
 50
34.4258141387
 51
41.7086251441
  0
ARC
  5
29F
100
AcDbEntity
  8
0
100
AcDbCircle
 62
7
  6
CONTINUOUS
 10
4.8597953379
 20
3.097874099
 40
0.0271485261
100
AcDbArc
 50
14.9874500157
 51
21.2884589419
  0
ARC
  5
2A0
100
AcDbEntity
  8
0
100
AcDbCircle
 62
7
  6
CONTINUOUS
 10
4.8623410683
 20
3.0982122717
 40
0.0248302014
100
AcDbArc
 50
49.943079059
 51
57.1449569744
  0
ARC
  5
2A1
100
AcDbEntity
  8
0
100
AcDbCircle
 62
7
  6
CONTINUOUS
 10
4.8656871276
 20
3.0973151734
 40
0.0213714631
100
AcDbArc
 50
330.7380291487
 51
336.2285169961
  0
ARC
  5
2A2
100
AcDbEntity
  8
ALL_FEATURES
100
AcDbCircle
 62
7
  6
CONTINUOUS
 10
5.4158273883
 20
1.1488244417
 40
0.315
100
AcDbArc
 50
270.0
 51
360.0
  0
ARC
  5
2A3
100
AcDbEntity
  8
ALL_FEATURES
100
AcDbCircle
 62
7
  6
CONTINUOUS
 10
5.7908273883
 20
1.5238244417
 40
0.315
100
AcDbArc
 50
270.0
 51
360.0
  0
ARC
  5
2A4
100
AcDbEntity
  8
ALL_FEATURES
100
AcDbCircle
 62
7
  6
CONTINUOUS
 10
5.4158273883
 20
1.1488244417
 40
0.22125
100
AcDbArc
 50
270.0
 51
360.0
  0
ARC
  5
2A5
100
AcDbEntity
  8
ALL_FEATURES
100
AcDbCircle
 62
7
  6
CONTINUOUS
 10
5.7908273883
 20
1.5238244417
 40
0.22125
100
AcDbArc
 50
270.0
 51
360.0
  0
ARC
  5
2A6
100
AcDbEntity
  8
ALL_FEATURES
100
AcDbCircle
 62
7
  6
CONTINUOUS
 10
5.7608273883
 20
1.1788244417
 40
0.12375
100
AcDbArc
 50
90.0
 51
180.0
  0
ARC
  5
2A7
100
AcDbEntity
  8
ALL_FEATURES
100
AcDbCircle
 62
7
  6
CONTINUOUS
 10
5.7608273883
 20
1.1788244417
 40
0.03
100
AcDbArc
 50
90.0
 51
180.0
  0
CIRCLE
  5
2A8
100
AcDbEntity
  8
ALL_ASSEMBLY_MEMBERS
100
AcDbCircle
 62
7
  6
CONTINUOUS
 10
4.0433273883
 20
5.1650744417
 40
0.781875
  0
CIRCLE
  5
2A9
100
AcDbEntity
  8
ALL_ASSEMBLY_MEMBERS
100
AcDbCircle
 62
9
  6
CONTINUOUS
 10
4.0433273883
 20
5.1650744417
 40
0.744375
  0
CIRCLE
  5
2AA
100
AcDbEntity
  8
ALL_ASSEMBLY_MEMBERS
100
AcDbCircle
 62
7
  6
CONTINUOUS
 10
4.0433273883
 20
5.1650744417
 40
0.732488789
  0
CIRCLE
  5
2AB
100
AcDbEntity
  8
ALL_ASSEMBLY_MEMBERS
100
AcDbCircle
 62
7
  6
CONTINUOUS
 10
4.0433273883
 20
5.1650744417
 40
0.69975
  0
CIRCLE
  5
2AC
100
AcDbEntity
  8
ALL_ASSEMBLY_MEMBERS
100
AcDbCircle
 62
7
  6
CONTINUOUS
 10
4.0433273883
 20
5.1650744417
 40
0.6173806817
  0
CIRCLE
  5
2AD
100
AcDbEntity
  8
ALL_ASSEMBLY_MEMBERS
100
AcDbCircle
 62
9
  6
CONTINUOUS
 10
4.0433273883
 20
5.1650744417
 40
0.45375
  0
ARC
  5
2AE
100
AcDbEntity
  8
ALL_FEATURES
100
AcDbCircle
 62
7
  6
CONTINUOUS
 10
5.4158273883
 20
6.7063244417
 40
0.315
100
AcDbArc
 50
0.0
 51
90.0
  0
ARC
  5
2AF
100
AcDbEntity
  8
ALL_FEATURES
100
AcDbCircle
 62
7
  6
CONTINUOUS
 10
5.7908273883
 20
6.3313244417
 40
0.315
100
AcDbArc
 50
0.0
 51
90.0
  0
CIRCLE
  5
2B0
100
AcDbEntity
  8
ALL_ASSEMBLY_MEMBERS
100
AcDbCircle
 62
7
  6
CONTINUOUS
 10
4.0433273883
 20
5.1650744417
 40
0.248625
  0
ARC
  5
2B1
100
AcDbEntity
  8
ALL_FEATURES
100
AcDbCircle
 62
7
  6
CONTINUOUS
 10
5.4158273883
 20
6.7063244417
 40
0.22125
100
AcDbArc
 50
0.0
 51
90.0
  0
ARC
  5
2B2
100
AcDbEntity
  8
ALL_FEATURES
100
AcDbCircle
 62
7
  6
CONTINUOUS
 10
5.7908273883
 20
6.3313244417
 40
0.22125
100
AcDbArc
 50
0.0
 51
90.0
  0
CIRCLE
  5
2B3
100
AcDbEntity
  8
ALL_ASSEMBLY_MEMBERS
100
AcDbCircle
 62
9
  6
CONTINUOUS
 10
4.0433273883
 20
5.1650744417
 40
0.213375
  0
CIRCLE
  5
2B4
100
AcDbEntity
  8
ALL_ASSEMBLY_MEMBERS
100
AcDbCircle
 62
7
  6
CONTINUOUS
 10
4.0433273883
 20
5.1650744417
 40
0.20625
  0
CIRCLE
  5
2B5
100
AcDbEntity
  8
ALL_ASSEMBLY_MEMBERS
100
AcDbCircle
 62
9
  6
CONTINUOUS
 10
4.0433273883
 20
5.1650744417
 40
0.1866963982
  0
CIRCLE
  5
2B6
100
AcDbEntity
  8
ALL_ASSEMBLY_MEMBERS
100
AcDbCircle
 62
7
  6
CONTINUOUS
 10
4.0433273883
 20
5.1650744417
 40
0.1395
  0
ARC
  5
2B7
100
AcDbEntity
  8
ALL_FEATURES
100
AcDbCircle
 62
7
  6
CONTINUOUS
 10
5.7608273883
 20
6.6763244417
 40
0.12375
100
AcDbArc
 50
180.0
 51
270.0
  0
ARC
  5
2B8
100
AcDbEntity
  8
0
100
AcDbCircle
 62
7
  6
CONTINUOUS
 10
4.9119831425
 20
3.1809037759
 40
0.1208710932
100
AcDbArc
 50
230.2082985595
 51
232.7334180964
  0
ARC
  5
2B9
100
AcDbEntity
  8
0
100
AcDbCircle
 62
7
  6
CONTINUOUS
 10
4.1350456854
 20
3.6575982995
 40
0.0450990471
100
AcDbArc
 50
83.6123667791
 51
90.0132617249
  0
ARC
  5
2BA
100
AcDbEntity
  8
0
100
AcDbCircle
 62
7
  6
CONTINUOUS
 10
4.133238217
 20
3.6653798851
 40
0.0371589819
100
AcDbArc
 50
115.5864870825
 51
125.0764292739
  0
ARC
  5
2BB
100
AcDbEntity
  8
ALL_FEATURES
100
AcDbCircle
 62
7
  6
CONTINUOUS
 10
5.7608273883
 20
6.6763244417
 40
0.03
100
AcDbArc
 50
180.0
 51
270.0
  0
ARC
  5
2BC
100
AcDbEntity
  8
0
100
AcDbCircle
 62
7
  6
CONTINUOUS
 10
4.13437036
 20
3.6689397224
 40
0.0258591811
100
AcDbArc
 50
89.9458923157
 51
95.4057750423
  0
SPLINE
  5
2BD
100
AcDbEntity
  8
0
100
AcDbSpline
 62
7
  6
CONTINUOUS
 70
0
 71
3
 72
10
 73
6
 74
0
 42
0.0000001
 43
0.0000001
 44
0.0000000001
 40
0.0
 40
0.0
 40
0.0
 40
0.0
 40
0.5209442881
 40
0.7646246527
 40
1.0
 40
1.0
 40
1.0
 40
1.0
 10
4.0754626198
 20
3.6277704958
 30
0.0
 10
4.0754626156
 20
3.6199989709
 30
0.0
 10
4.0746038668
 20
3.6085457231
 30
0.0
 10
4.0713352565
 20
3.5939710298
 30
0.0
 10
4.069061753
 20
3.5871783817
 30
0.0
 10
4.067766553
 20
3.5839146202
 30
0.0
  0
SPLINE
  5
2BE
100
AcDbEntity
  8
0
100
AcDbSpline
 62
7
  6
CONTINUOUS
 70
0
 71
3
 72
11
 73
7
 74
0
 42
0.0000001
 43
0.0000001
 44
0.0000000001
 40
0.0
 40
0.0
 40
0.0
 40
0.0
 40
0.2499790321
 40
0.4999776534
 40
0.7499829065
 40
1.0
 40
1.0
 40
1.0
 40
1.0
 10
4.0928091139
 20
3.5827993541
 30
0.0
 10
4.0913555925
 20
3.5861217924
 30
0.0
 10
4.0889119019
 20
3.5929774345
 30
0.0
 10
4.0865198547
 20
3.6036125964
 30
0.0
 10
4.0852193521
 20
3.6144308119
 30
0.0
 10
4.0849643989
 20
3.621688366
 30
0.0
 10
4.0849643989
 20
3.6253153931
 30
0.0
  0
SPLINE
  5
2BF
100
AcDbEntity
  8
0
100
AcDbSpline
 62
7
  6
CONTINUOUS
 70
0
 71
3
 72
11
 73
7
 74
0
 42
0.0000001
 43
0.0000001
 44
0.0000000001
 40
0.0
 40
0.0
 40
0.0
 40
0.0
 40
0.249805003
 40
0.4998646891
 40
0.7502275112
 40
1.0
 40
1.0
 40
1.0
 40
1.0
 10
4.1843594214
 20
3.6277651077
 30
0.0
 10
4.1843594214
 20
3.6230630685
 30
0.0
 10
4.1839356412
 20
3.613646431
 30
0.0
 10
4.1817742465
 20
3.5996578053
 30
0.0
 10
4.1778337713
 20
3.5860555661
 30
0.0
 10
4.1739450054
 20
3.5774359303
 30
0.0
 10
4.1716771687
 20
3.5733176376
 30
0.0
  0
SPLINE
  5
2C0
100
AcDbEntity
  8
0
100
AcDbSpline
 62
7
  6
CONTINUOUS
 70
0
 71
3
 72
9
 73
5
 74
0
 42
0.0000001
 43
0.0000001
 44
0.0000000001
 40
0.0
 40
0.0
 40
0.0
 40
0.0
 40
0.5001404461
 40
1.0
 40
1.0
 40
1.0
 40
1.0
 10
4.7601076582
 20
3.1148444085
 30
0.0
 10
4.7617046338
 20
3.1159507031
 30
0.0
 10
4.7651223368
 20
3.1178502789
 30
0.0
 10
4.7688064488
 20
3.119135748
 30
0.0
 10
4.7706819326
 20
3.1196382824
 30
0.0
  0
SPLINE
  5
2C1
100
AcDbEntity
  8
0
100
AcDbSpline
 62
7
  6
CONTINUOUS
 70
0
 71
3
 72
16
 73
12
 74
0
 42
0.0000001
 43
0.0000001
 44
0.0000000001
 40
0.0
 40
0.0
 40
0.0
 40
0.0
 40
0.1249532793
 40
0.250260153
 40
0.3128489388
 40
0.3753851012
 40
0.5004973239
 40
0.6255268472
 40
0.7503316482
 40
0.875215979
 40
1.0
 40
1.0
 40
1.0
 40
1.0
 10
4.8738471352
 20
3.0591907497
 30
0.0
 10
4.8722398974
 20
3.0587600916
 30
0.0
 10
4.8689454157
 20
3.0581582523
 30
0.0
 10
4.8647603726
 20
3.0580756237
 30
0.0
 10
4.861441199
 20
3.0584347344
 30
0.0
 10
4.8581666224
 20
3.0590698588
 30
0.0
 10
4.8541822776
 20
3.0603318571
 30
0.0
 10
4.8496512595
 20
3.0624575758
 30
0.0
 10
4.8453948721
 20
3.0650792601
 30
0.0
 10
4.8414070654
 20
3.0680823629
 30
0.0
 10
4.8389041352
 20
3.070275152
 30
0.0
 10
4.8376894143
 20
3.0714090116
 30
0.0
  0
SPLINE
  5
2C2
100
AcDbEntity
  8
0
100
AcDbSpline
 62
7
  6
CONTINUOUS
 70
0
 71
3
 72
9
 73
5
 74
0
 42
0.0000001
 43
0.0000001
 44
0.0000000001
 40
0.0
 40
0.0
 40
0.0
 40
0.0
 40
0.2501120929
 40
1.0
 40
1.0
 40
1.0
 40
1.0
 10
4.8376894143
 20
3.0714090116
 30
0.0
 10
4.8371184371
 20
3.0719419802
 30
0.0
 10
4.8348672562
 20
3.0741068373
 30
0.0
 10
4.8327359208
 20
3.0763945367
 30
0.0
 10
4.8311938761
 20
3.0781569704
 30
0.0
  0
SPLINE
  5
2C3
100
AcDbEntity
  8
0
100
AcDbSpline
 62
7
  6
CONTINUOUS
 70
0
 71
3
 72
9
 73
5
 74
0
 42
0.0000001
 43
0.0000001
 44
0.0000000001
 40
0.0
 40
0.0
 40
0.0
 40
0.0
 40
0.4999944305
 40
1.0
 40
1.0
 40
1.0
 40
1.0
 10
4.8324491843
 20
3.1278991466
 30
0.0
 10
4.8346118528
 20
3.1300063212
 30
0.0
 10
4.8395023319
 20
3.1336830518
 30
0.0
 10
4.8451771512
 20
3.1359518289
 30
0.0
 10
4.8480938196
 20
3.1367333478
 30
0.0
  0
SPLINE
  5
2C4
100
AcDbEntity
  8
0
100
AcDbSpline
 62
7
  6
CONTINUOUS
 70
0
 71
3
 72
13
 73
9
 74
0
 42
0.0000001
 43
0.0000001
 44
0.0000000001
 40
0.0
 40
0.0
 40
0.0
 40
0.0
 40
0.2500100126
 40
0.5000062709
 40
0.6250129748
 40
0.750020228
 40
0.8750138708
 40
1.0
 40
1.0
 40
1.0
 40
1.0
 10
4.8171454413
 20
3.1004772409
 30
0.0
 10
4.8181524152
 20
3.1029069977
 30
0.0
 10
4.8202345689
 20
3.1077384029
 30
0.0
 10
4.8230734501
 20
3.1136728615
 30
0.0
 10
4.8255653982
 20
3.1183064089
 30
0.0
 10
4.8275830943
 20
3.1216991485
 30
0.0
 10
4.8298084788
 20
3.1249585007
 30
0.0
 10
4.8315074203
 20
3.1269815481
 30
0.0
 10
4.8324491843
 20
3.1278991466
 30
0.0
  0
SPLINE
  5
2C5
100
AcDbEntity
  8
0
100
AcDbSpline
 62
7
  6
CONTINUOUS
 70
0
 71
3
 72
15
 73
11
 74
0
 42
0.0000001
 43
0.0000001
 44
0.0000000001
 40
0.0
 40
0.0
 40
0.0
 40
0.0
 40
0.1249918881
 40
0.1876539703
 40
0.2501927842
 40
0.3751677042
 40
0.5001490752
 40
0.6251370252
 40
0.7501035765
 40
1.0
 40
1.0
 40
1.0
 40
1.0
 10
4.8506491236
 20
2.9728675284
 30
0.0
 10
4.8517411984
 20
2.9749176657
 30
0.0
 10
4.8530312852
 20
2.9781870644
 30
0.0
 10
4.8542365451
 20
2.9826780807
 30
0.0
 10
4.8551635329
 20
2.9872372753
 30
0.0
 10
4.8558662013
 20
2.9930104596
 30
0.0
 10
4.8562022431
 20
2.9999744923
 30
0.0
 10
4.8561424529
 20
3.006945162
 30
0.0
 10
4.8556527578
 20
3.0162235255
 30
0.0
 10
4.8549158263
 20
3.0231565977
 30
0.0
 10
4.854312108
 20
3.0277612913
 30
0.0
  0
SPLINE
  5
2C6
100
AcDbEntity
  8
0
100
AcDbSpline
 62
7
  6
CONTINUOUS
 70
0
 71
3
 72
9
 73
5
 74
0
 42
0.0000001
 43
0.0000001
 44
0.0000000001
 40
0.0
 40
0.0
 40
0.0
 40
0.0
 40
0.4999582829
 40
1.0
 40
1.0
 40
1.0
 40
1.0
 10
4.8246483507
 20
2.9520594431
 30
0.0
 10
4.830133104
 20
2.9535290783
 30
0.0
 10
4.840742049
 20
2.9586094374
 30
0.0
 10
4.8479791029
 20
2.9678551339
 30
0.0
 10
4.8506491236
 20
2.9728675284
 30
0.0
  0
SPLINE
  5
2C7
100
AcDbEntity
  8
0
100
AcDbSpline
 62
7
  6
CONTINUOUS
 70
0
 71
3
 72
11
 73
7
 74
0
 42
0.0000001
 43
0.0000001
 44
0.0000000001
 40
0.0
 40
0.0
 40
0.0
 40
0.0
 40
0.2497778179
 40
0.4998752466
 40
0.7499129279
 40
1.0
 40
1.0
 40
1.0
 40
1.0
 10
4.8394899063
 20
2.937909668
 30
0.0
 10
4.8373674024
 20
2.9373409448
 30
0.0
 10
4.8330557557
 20
2.9364259937
 30
0.0
 10
4.8264717321
 20
2.9358023488
 30
0.0
 10
4.8198573969
 20
2.9360332475
 30
0.0
 10
4.8155034321
 20
2.9367593603
 30
0.0
 10
4.8133607433
 20
2.9372586772
 30
0.0
  0
LINE
  5
2C8
100
AcDbEntity
  8
0
100
AcDbLine
 62
7
  6
CONTINUOUS
 10
4.878318764
 20
3.0136357085
 11
4.8972865743
 21
3.0096548413
  0
LINE
  5
2C9
100
AcDbEntity
  8
0
100
AcDbLine
 62
7
  6
CONTINUOUS
 10
4.8972865743
 20
3.0096548413
 11
4.9095540382
 21
2.9638676068
  0
LINE
  5
2CA
100
AcDbEntity
  8
0
100
AcDbLine
 62
7
  6
CONTINUOUS
 10
4.9095540382
 20
2.9638676068
 11
4.9307015268
 21
2.9595865575
  0
LINE
  5
2CB
100
AcDbEntity
  8
0
100
AcDbLine
 62
7
  6
CONTINUOUS
 10
4.8122979041
 20
2.3967806861
 11
4.8085722008
 21
2.3944368426
  0
LINE
  5
2CC
100
AcDbEntity
  8
0
100
AcDbLine
 62
7
  6
CONTINUOUS
 10
4.8136545391
 20
2.377085906
 11
4.8134748934
 21
2.3791610135
  0
SPLINE
  5
2CD
100
AcDbEntity
  8
0
100
AcDbSpline
 62
7
  6
CONTINUOUS
 70
0
 71
3
 72
12
 73
8
 74
0
 42
0.0000001
 43
0.0000001
 44
0.0000000001
 40
0.0
 40
0.0
 40
0.0
 40
0.0
 40
0.1251310956
 40
0.2501195604
 40
0.5000732932
 40
0.7500367327
 40
1.0
 40
1.0
 40
1.0
 40
1.0
 10
4.8134748934
 20
2.3791610135
 30
0.0
 10
4.813380913
 20
2.3798251446
 30
0.0
 10
4.8131366453
 20
2.381144836
 30
0.0
 10
4.8124980787
 20
2.3837490936
 30
0.0
 10
4.8114968428
 20
2.3869487121
 30
0.0
 10
4.8101066008
 20
2.3907210901
 30
0.0
 10
4.8090938584
 20
2.393202668
 30
0.0
 10
4.8085722008
 20
2.3944368426
 30
0.0
  0
SPLINE
  5
2CE
100
AcDbEntity
  8
0
100
AcDbSpline
 62
7
  6
CONTINUOUS
 70
0
 71
3
 72
13
 73
9
 74
0
 42
0.0000001
 43
0.0000001
 44
0.0000000001
 40
0.0
 40
0.0
 40
0.0
 40
0.0
 40
0.2499074822
 40
0.4998137666
 40
0.6247924539
 40
0.7497406909
 40
0.8750038079
 40
1.0
 40
1.0
 40
1.0
 40
1.0
 10
4.8064398862
 20
2.3608704857
 30
0.0
 10
4.8072990447
 20
2.3620975984
 30
0.0
 10
4.8089590909
 20
2.3645932075
 30
0.0
 10
4.8108243104
 20
2.3678468657
 30
0.0
 10
4.8121026644
 20
2.3705583403
 30
0.0
 10
4.8129155827
 20
2.3726584718
 30
0.0
 10
4.8135090853
 20
2.3748320141
 30
0.0
 10
4.8136725802
 20
2.3763368763
 30
0.0
 10
4.8136545391
 20
2.377085906
 30
0.0
  0
LINE
  5
2CF
100
AcDbEntity
  8
0
100
AcDbLine
 62
7
  6
CONTINUOUS
 10
4.8064399637
 20
2.3608705965
 11
4.7815792236
 21
2.3253635615
  0
LINE
  5
2D0
100
AcDbEntity
  8
0
100
AcDbLine
 62
7
  6
CONTINUOUS
 10
4.7113393159
 20
2.396266509
 11
4.7692178527
 21
2.3190671528
  0
LINE
  5
2D1
100
AcDbEntity
  8
0
100
AcDbLine
 62
7
  6
CONTINUOUS
 10
4.7692178527
 20
2.3190671528
 11
4.7706438999
 21
2.3171650631
  0
LINE
  5
2D2
100
AcDbEntity
  8
0
100
AcDbLine
 62
7
  6
CONTINUOUS
 10
4.7706438999
 20
2.3171650631
 11
4.7855250463
 21
2.2973162889
  0
SPLINE
  5
2D3
100
AcDbEntity
  8
0
100
AcDbSpline
 62
7
  6
CONTINUOUS
 70
0
 71
3
 72
15
 73
11
 74
0
 42
0.0000001
 43
0.0000001
 44
0.0000000001
 40
0.0
 40
0.0
 40
0.0
 40
0.0
 40
0.1249921185
 40
0.1876542857
 40
0.2501931595
 40
0.3751681336
 40
0.5001494998
 40
0.6251373956
 40
0.7501038515
 40
1.0
 40
1.0
 40
1.0
 40
1.0
 10
4.6833720106
 20
2.2802488003
 30
0.0
 10
4.6856444903
 20
2.2807300152
 30
0.0
 10
4.6889782647
 20
2.2818432675
 30
0.0
 10
4.6931933357
 20
2.2838067354
 30
0.0
 10
4.6972817649
 20
2.2860271924
 30
0.0
 10
4.702155984
 20
2.2891998166
 30
0.0
 10
4.7077067922
 20
2.2934187499
 30
0.0
 10
4.7130082501
 20
2.2979451734
 30
0.0
 10
4.7198011829
 20
2.3042842659
 30
0.0
 10
4.7246385842
 20
2.3093052425
 30
0.0
 10
4.7277779554
 20
2.3127275322
 30
0.0
  0
SPLINE
  5
2D4
100
AcDbEntity
  8
0
100
AcDbSpline
 62
7
  6
CONTINUOUS
 70
0
 71
3
 72
9
 73
5
 74
0
 42
0.0000001
 43
0.0000001
 44
0.0000000001
 40
0.0
 40
0.0
 40
0.0
 40
0.0
 40
0.4999512892
 40
1.0
 40
1.0
 40
1.0
 40
1.0
 10
4.6507189746
 20
2.2867914282
 30
0.0
 10
4.6553702668
 20
2.2835345583
 30
0.0
 10
4.666081371
 20
2.2786731919
 30
0.0
 10
4.6778159297
 20
2.2790722578
 30
0.0
 10
4.6833720106
 20
2.2802488003
 30
0.0
  0
SPLINE
  5
2D5
100
AcDbEntity
  8
0
100
AcDbSpline
 62
7
  6
CONTINUOUS
 70
0
 71
3
 72
9
 73
5
 74
0
 42
0.0000001
 43
0.0000001
 44
0.0000000001
 40
0.0
 40
0.0
 40
0.0
 40
0.0
 40
0.2497170048
 40
1.0
 40
1.0
 40
1.0
 40
1.0
 10
4.649419445
 20
2.2663269389
 30
0.0
 10
4.6487320111
 20
2.2668082854
 30
0.0
 10
4.646018388
 20
2.2687909412
 30
0.0
 10
4.6434686171
 20
2.2710005332
 30
0.0
 10
4.6416825424
 20
2.272780265
 30
0.0
  0
SPLINE
  5
2D6
100
AcDbEntity
  8
0
100
AcDbSpline
 62
7
  6
CONTINUOUS
 70
0
 71
3
 72
9
 73
5
 74
0
 42
0.0000001
 43
0.0000001
 44
0.0000000001
 40
0.0
 40
0.0
 40
0.0
 40
0.0
 40
0.5000121318
 40
1.0
 40
1.0
 40
1.0
 40
1.0
 10
4.6416825424
 20
2.272780265
 30
0.0
 10
4.6405151754
 20
2.2739434864
 30
0.0
 10
4.6382850455
 20
2.2763779044
 30
0.0
 10
4.6363057168
 20
2.2790208376
 30
0.0
 10
4.6353828811
 20
2.2803860996
 30
0.0
  0
LINE
  5
2D7
100
AcDbEntity
  8
0
100
AcDbLine
 62
7
  6
CONTINUOUS
 10
4.7323881656
 20
2.2852577198
 11
4.7415308575
 21
2.2681687242
  0
LINE
  5
2D8
100
AcDbEntity
  8
0
100
AcDbLine
 62
7
  6
CONTINUOUS
 10
4.7415308575
 20
2.2681687242
 11
4.7143408334
 21
2.2293400736
  0
LINE
  5
2D9
100
AcDbEntity
  8
0
100
AcDbLine
 62
7
  6
CONTINUOUS
 10
4.7143408334
 20
2.2293400736
 11
4.7246546476
 21
2.2103883909
  0
SPLINE
  5
2DA
100
AcDbEntity
  8
0
100
AcDbSpline
 62
7
  6
CONTINUOUS
 70
0
 71
3
 72
11
 73
7
 74
0
 42
0.0000001
 43
0.0000001
 44
0.0000000001
 40
0.0
 40
0.0
 40
0.0
 40
0.0
 40
0.24993619
 40
0.4999265278
 40
0.7499670289
 40
1.0
 40
1.0
 40
1.0
 40
1.0
 10
4.104552731
 20
1.9000490805
 30
0.0
 10
4.1056236819
 20
1.8988499348
 30
0.0
 10
4.1083143728
 20
1.8969363339
 30
0.0
 10
4.1128790325
 20
1.8953036266
 30
0.0
 10
4.1176289642
 20
1.8943872423
 30
0.0
 10
4.1208362118
 20
1.8940955217
 30
0.0
 10
4.1224419779
 20
1.8940038518
 30
0.0
  0
SPLINE
  5
2DB
100
AcDbEntity
  8
0
100
AcDbSpline
 62
7
  6
CONTINUOUS
 70
0
 71
3
 72
14
 73
10
 74
0
 42
0.0000001
 43
0.0000001
 44
0.0000000001
 40
0.0
 40
0.0
 40
0.0
 40
0.0
 40
0.2498475677
 40
0.4996945709
 40
0.6246499666
 40
0.7495680997
 40
0.8121515477
 40
0.8750028964
 40
1.0
 40
1.0
 40
1.0
 40
1.0
 10
4.0998918014
 20
1.9220896168
 30
0.0
 10
4.0998918014
 20
1.9201810501
 30
0.0
 10
4.0999804801
 20
1.9163634742
 30
0.0
 10
4.100412954
 20
1.9116037197
 30
0.0
 10
4.101087694
 20
1.9078441521
 30
0.0
 10
4.1016917782
 20
1.9055305241
 30
0.0
 10
4.1023471721
 20
1.9037317189
 30
0.0
 10
4.1031328012
 20
1.9019878941
 30
0.0
 10
4.1039166961
 20
1.90076125
 30
0.0
 10
4.104552731
 20
1.9000490805
 30
0.0
  0
LINE
  5
2DC
100
AcDbEntity
  8
0
100
AcDbLine
 62
7
  6
CONTINUOUS
 10
4.1725814803
 20
2.0055976457
 11
4.1661565695
 21
2.0055971671
  0
SPLINE
  5
2DD
100
AcDbEntity
  8
0
100
AcDbSpline
 62
7
  6
CONTINUOUS
 70
0
 71
3
 72
11
 73
7
 74
0
 42
0.0000001
 43
0.0000001
 44
0.0000000001
 40
0.0
 40
0.0
 40
0.0
 40
0.0
 40
0.2499137543
 40
0.4999013012
 40
0.7499601868
 40
1.0
 40
1.0
 40
1.0
 40
1.0
 10
4.1599811427
 20
1.9868322912
 30
0.0
 10
4.1611209602
 20
1.988054797
 30
0.0
 10
4.1629369432
 20
1.9909352101
 30
0.0
 10
4.1646022722
 20
1.9956839877
 30
0.0
 10
4.1656252813
 20
2.000605872
 30
0.0
 10
4.1660137235
 20
2.0039309983
 30
0.0
 10
4.1661565695
 20
2.0055971671
 30
0.0
  0
SPLINE
  5
2DE
100
AcDbEntity
  8
0
100
AcDbSpline
 62
7
  6
CONTINUOUS
 70
0
 71
3
 72
12
 73
8
 74
0
 42
0.0000001
 43
0.0000001
 44
0.0000000001
 40
0.0
 40
0.0
 40
0.0
 40
0.0
 40
0.2499959169
 40
0.5000194132
 40
0.6250088767
 40
0.7502126332
 40
1.0
 40
1.0
 40
1.0
 40
1.0
 10
4.1380630341
 20
1.981287198
 30
0.0
 10
4.1399886336
 20
1.9812873032
 30
0.0
 10
4.1438417562
 20
1.9813903053
 30
0.0
 10
4.1486349185
 20
1.9819207382
 30
0.0
 10
4.1524106619
 20
1.9827299582
 30
0.0
 10
4.1560653141
 20
1.983917167
 30
0.0
 10
4.1586690981
 20
1.985425064
 30
0.0
 10
4.1599811427
 20
1.9868322912
 30
0.0
  0
LINE
  5
2DF
100
AcDbEntity
  8
0
100
AcDbLine
 62
7
  6
CONTINUOUS
 10
4.1380633271
 20
1.9812871979
 11
4.0998918014
 21
1.981285529
  0
SPLINE
  5
2E0
100
AcDbEntity
  8
0
100
AcDbSpline
 62
7
  6
CONTINUOUS
 70
0
 71
3
 72
14
 73
10
 74
0
 42
0.0000001
 43
0.0000001
 44
0.0000000001
 40
0.0
 40
0.0
 40
0.0
 40
0.0
 40
0.078829365
 40
0.1689678232
 40
0.2718532111
 40
0.3883998553
 40
0.5191892351
 40
0.6645903951
 40
1.0
 40
1.0
 40
1.0
 40
1.0
 10
4.0685228869
 20
1.9000476673
 30
0.0
 10
4.0688921861
 20
1.9005175306
 30
0.0
 10
4.0695802944
 20
1.9016069903
 30
0.0
 10
4.0704143947
 20
1.903496939
 30
0.0
 10
4.0711179936
 20
1.9057400035
 30
0.0
 10
4.0716920893
 20
1.9083348124
 30
0.0
 10
4.0721377138
 20
1.9112805717
 30
0.0
 10
4.0725811226
 20
1.9158976291
 30
0.0
 10
4.0726804142
 20
1.9195461523
 30
0.0
 10
4.0726804142
 20
1.9220889676
 30
0.0
  0
SPLINE
  5
2E1
100
AcDbEntity
  8
0
100
AcDbSpline
 62
7
  6
CONTINUOUS
 70
0
 71
3
 72
9
 73
5
 74
0
 42
0.0000001
 43
0.0000001
 44
0.0000000001
 40
0.0
 40
0.0
 40
0.0
 40
0.0
 40
0.5000137732
 40
1.0
 40
1.0
 40
1.0
 40
1.0
 10
4.0501302351
 20
1.8940022247
 30
0.0
 10
4.0519045053
 20
1.8940968362
 30
0.0
 10
4.0554477715
 20
1.8944009544
 30
0.0
 10
4.0589523998
 20
1.8950626865
 30
0.0
 10
4.0606642802
 20
1.8955381902
 30
0.0
  0
SPLINE
  5
2E2
100
AcDbEntity
  8
0
100
AcDbSpline
 62
7
  6
CONTINUOUS
 70
0
 71
3
 72
9
 73
5
 74
0
 42
0.0000001
 43
0.0000001
 44
0.0000000001
 40
0.0
 40
0.0
 40
0.0
 40
0.0
 40
0.5001162371
 40
1.0
 40
1.0
 40
1.0
 40
1.0
 10
4.0606642802
 20
1.8955381902
 30
0.0
 10
4.0621367499
 20
1.8959471936
 30
0.0
 10
4.0650238419
 20
1.8969799459
 30
0.0
 10
4.0675790798
 20
1.8988465755
 30
0.0
 10
4.06852294
 20
1.9000475785
 30
0.0
  0
SPLINE
  5
2E3
100
AcDbEntity
  8
0
100
AcDbSpline
 62
7
  6
CONTINUOUS
 70
0
 71
3
 72
13
 73
9
 74
0
 42
0.0000001
 43
0.0000001
 44
0.0000000001
 40
0.0
 40
0.0
 40
0.0
 40
0.0
 40
0.2497577368
 40
0.3748558925
 40
0.499981485
 40
0.6250963345
 40
0.7502157512
 40
1.0
 40
1.0
 40
1.0
 40
1.0
 10
4.8758118368
 20
3.1190707783
 30
0.0
 10
4.8746308389
 20
3.1198338535
 30
0.0
 10
4.8727518904
 20
3.1208311574
 30
0.0
 10
4.8700863385
 20
3.121749451
 30
0.0
 10
4.8680196923
 20
3.1222112224
 30
0.0
 10
4.8659142341
 20
3.1224407711
 30
0.0
 10
4.8630945808
 20
3.122422096
 30
0.0
 10
4.8609954648
 20
3.1220637779
 30
0.0
 10
4.8596371588
 20
3.1216998209
 30
0.0
  0
SPLINE
  5
2E4
100
AcDbEntity
  8
0
100
AcDbSpline
 62
7
  6
CONTINUOUS
 70
0
 71
3
 72
9
 73
5
 74
0
 42
0.0000001
 43
0.0000001
 44
0.0000000001
 40
0.0
 40
0.0
 40
0.0
 40
0.0
 40
0.4997931398
 40
1.0
 40
1.0
 40
1.0
 40
1.0
 10
4.8850913674
 20
3.1077307393
 30
0.0
 10
4.8843789567
 20
3.1095542243
 30
0.0
 10
4.8825333483
 20
3.1130623099
 30
0.0
 10
4.8798200273
 20
3.1159563332
 30
0.0
 10
4.8783205028
 20
3.117217444
 30
0.0
  0
SPLINE
  5
2E5
100
AcDbEntity
  8
0
100
AcDbSpline
 62
7
  6
CONTINUOUS
 70
0
 71
3
 72
11
 73
7
 74
0
 42
0.0000001
 43
0.0000001
 44
0.0000000001
 40
0.0
 40
0.0
 40
0.0
 40
0.0
 40
0.2502074219
 40
0.5001776003
 40
0.750178219
 40
1.0
 40
1.0
 40
1.0
 40
1.0
 10
4.8852454444
 20
3.0887005534
 30
0.0
 10
4.8858008158
 20
3.0899613297
 30
0.0
 10
4.8866708149
 20
3.0925970374
 30
0.0
 10
4.8871639988
 20
3.0967221724
 30
0.0
 10
4.8869339451
 20
3.100861816
 30
0.0
 10
4.8863764106
 20
3.1035662416
 30
0.0
 10
4.8860203388
 20
3.1048949104
 30
0.0
  0
SPLINE
  5
2E6
100
AcDbEntity
  8
0
100
AcDbSpline
 62
7
  6
CONTINUOUS
 70
0
 71
3
 72
12
 73
8
 74
0
 42
0.0000001
 43
0.0000001
 44
0.0000000001
 40
0.0
 40
0.0
 40
0.0
 40
0.0
 40
0.2498000967
 40
0.4997287526
 40
0.6248550313
 40
0.7500594443
 40
1.0
 40
1.0
 40
1.0
 40
1.0
 10
4.87034619
 20
3.0763792356
 30
0.0
 10
4.8717904972
 20
3.0767662366
 30
0.0
 10
4.8746282049
 20
3.0777628466
 30
0.0
 10
4.8778838123
 20
3.0796591922
 30
0.0
 10
4.8802045874
 20
3.081560457
 30
0.0
 10
4.8822993164
 20
3.0837069295
 30
0.0
 10
4.8836000467
 20
3.0855636062
 30
0.0
 10
4.8843314616
 20
3.086868727
 30
0.0
  0
SPLINE
  5
2E7
100
AcDbEntity
  8
0
100
AcDbSpline
 62
7
  6
CONTINUOUS
 70
0
 71
3
 72
9
 73
5
 74
0
 42
0.0000001
 43
0.0000001
 44
0.0000000001
 40
0.0
 40
0.0
 40
0.0
 40
0.0
 40
0.4999908831
 40
1.0
 40
1.0
 40
1.0
 40
1.0
 10
4.8012900194
 20
3.0638717425
 30
0.0
 10
4.803711205
 20
3.0682807205
 30
0.0
 10
4.8080798626
 20
3.0773624869
 30
0.0
 10
4.8117009314
 20
3.0867572629
 30
0.0
 10
4.8133617311
 20
3.0915054011
 30
0.0
  0
SPLINE
  5
2E8
100
AcDbEntity
  8
0
100
AcDbSpline
 62
7
  6
CONTINUOUS
 70
0
 71
3
 72
11
 73
7
 74
0
 42
0.0000001
 43
0.0000001
 44
0.0000000001
 40
0.0
 40
0.0
 40
0.0
 40
0.0
 40
0.2501885124
 40
0.500730112
 40
0.7504796095
 40
1.0
 40
1.0
 40
1.0
 40
1.0
 10
4.7851040333
 20
3.0495973075
 30
0.0
 10
4.7868559665
 20
3.0501691756
 30
0.0
 10
4.7902483069
 20
3.0516966227
 30
0.0
 10
4.7947420034
 20
3.0549865741
 30
0.0
 10
4.7984323022
 20
3.05914147
 30
0.0
 10
4.800405313
 20
3.0622606924
 30
0.0
 10
4.8012900194
 20
3.0638717425
 30
0.0
  0
SPLINE
  5
2E9
100
AcDbEntity
  8
0
100
AcDbSpline
 62
7
  6
CONTINUOUS
 70
0
 71
3
 72
9
 73
5
 74
0
 42
0.0000001
 43
0.0000001
 44
0.0000000001
 40
0.0
 40
0.0
 40
0.0
 40
0.0
 40
0.7498422215
 40
1.0
 40
1.0
 40
1.0
 40
1.0
 10
4.8090370913
 20
3.0950204864
 30
0.0
 10
4.8068976143
 20
3.0966232701
 30
0.0
 10
4.803907368
 20
3.0985950978
 30
0.0
 10
4.8007328945
 20
3.1002211393
 30
0.0
 10
4.7999271889
 20
3.100603509
 30
0.0
  0
SPLINE
  5
2EA
100
AcDbEntity
  8
0
100
AcDbSpline
 62
7
  6
CONTINUOUS
 70
0
 71
3
 72
12
 73
8
 74
0
 42
0.0000001
 43
0.0000001
 44
0.0000000001
 40
0.0
 40
0.0
 40
0.0
 40
0.0
 40
0.2498982808
 40
0.4998058585
 40
0.6249239391
 40
0.7500903835
 40
1.0
 40
1.0
 40
1.0
 40
1.0
 10
4.7999271889
 20
3.100603509
 30
0.0
 10
4.7981288769
 20
3.1014569473
 30
0.0
 10
4.7944107122
 20
3.1029262359
 30
0.0
 10
4.7895147593
 20
3.103969123
 30
0.0
 10
4.7855346106
 20
3.104250263
 30
0.0
 10
4.7815470465
 20
3.104141742
 30
0.0
 10
4.7785806693
 20
3.1036282219
 30
0.0
 10
4.7766578599
 20
3.1031130066
 30
0.0
  0
SPLINE
  5
2EB
100
AcDbEntity
  8
0
100
AcDbSpline
 62
7
  6
CONTINUOUS
 70
0
 71
3
 72
13
 73
9
 74
0
 42
0.0000001
 43
0.0000001
 44
0.0000000001
 40
0.0
 40
0.0
 40
0.0
 40
0.0
 40
0.0927677232
 40
0.1940789972
 40
0.3043684614
 40
0.4239729147
 40
0.6920814084
 40
1.0
 40
1.0
 40
1.0
 40
1.0
 10
4.1130426537
 20
3.6785759576
 30
0.0
 10
4.1124843588
 20
3.6771665917
 30
0.0
 10
4.1114464784
 20
3.6741656951
 30
0.0
 10
4.110156243
 20
3.669359037
 30
0.0
 10
4.1090654952
 20
3.6640550085
 30
0.0
 10
4.1078305014
 20
3.6560085822
 30
0.0
 10
4.1068527339
 20
3.6446714803
 30
0.0
 10
4.1066370054
 20
3.6352562743
 30
0.0
 10
4.1066370054
 20
3.6302245767
 30
0.0
  0
SPLINE
  5
2EC
100
AcDbEntity
  8
0
100
AcDbSpline
 62
7
  6
CONTINUOUS
 70
0
 71
3
 72
8
 73
4
 74
0
 42
0.0000001
 43
0.0000001
 44
0.0000000001
 40
0.0
 40
0.0
 40
0.0
 40
0.0
 40
1.0
 40
1.0
 40
1.0
 40
1.0
 10
4.1319342012
 20
3.694683894
 30
0.0
 10
4.1303752991
 20
3.6945348813
 30
0.0
 10
4.1288194727
 20
3.6942332528
 30
0.0
 10
4.1273300049
 20
3.6937496556
 30
0.0
  0
SPLINE
  5
2ED
100
AcDbEntity
  8
0
100
AcDbSpline
 62
7
  6
CONTINUOUS
 70
0
 71
3
 72
10
 73
6
 74
0
 42
0.0000001
 43
0.0000001
 44
0.0000000001
 40
0.0
 40
0.0
 40
0.0
 40
0.0
 40
0.4997328351
 40
0.7497860967
 40
1.0
 40
1.0
 40
1.0
 40
1.0
 10
4.1273300049
 20
3.6937496556
 30
0.0
 10
4.1254880128
 20
3.6931516016
 30
0.0
 10
4.1228375452
 20
3.6918258593
 30
0.0
 10
4.1198395363
 20
3.6893560195
 30
0.0
 10
4.1185243052
 20
3.6879222006
 30
0.0
 10
4.1179116313
 20
3.6871706081
 30
0.0
  0
SPLINE
  5
2EE
100
AcDbEntity
  8
0
100
AcDbSpline
 62
7
  6
CONTINUOUS
 70
0
 71
3
 72
9
 73
5
 74
0
 42
0.0000001
 43
0.0000001
 44
0.0000000001
 40
0.0
 40
0.0
 40
0.0
 40
0.0
 40
0.5004238426
 40
1.0
 40
1.0
 40
1.0
 40
1.0
 10
4.1179116313
 20
3.6871706081
 30
0.0
 10
4.1168674627
 20
3.685889683
 30
0.0
 10
4.1150346872
 20
3.6831178342
 30
0.0
 10
4.1136502629
 20
3.6801096428
 30
0.0
 10
4.113042654
 20
3.6785758163
 30
0.0
  0
SPLINE
  5
2EF
100
AcDbEntity
  8
0
100
AcDbSpline
 62
7
  6
CONTINUOUS
 70
0
 71
3
 72
9
 73
5
 74
0
 42
0.0000001
 43
0.0000001
 44
0.0000000001
 40
0.0
 40
0.0
 40
0.0
 40
0.0
 40
0.4999531922
 40
1.0
 40
1.0
 40
1.0
 40
1.0
 10
4.1559607705
 20
3.6768661642
 30
0.0
 10
4.1553771299
 20
3.678422211
 30
0.0
 10
4.1540646066
 20
3.6814829081
 30
0.0
 10
4.1523744759
 20
3.6843623667
 30
0.0
 10
4.1514128875
 20
3.685718206
 30
0.0
  0
SPLINE
  5
2F0
100
AcDbEntity
  8
0
100
AcDbSpline
 62
7
  6
CONTINUOUS
 70
0
 71
3
 72
13
 73
9
 74
0
 42
0.0000001
 43
0.0000001
 44
0.0000000001
 40
0.0
 40
0.0
 40
0.0
 40
0.0
 40
0.2498465583
 40
0.3749410994
 40
0.5000973972
 40
0.6251851586
 40
0.7502989088
 40
1.0
 40
1.0
 40
1.0
 40
1.0
 10
4.1514128875
 20
3.685718206
 30
0.0
 10
4.1504450122
 20
3.6870829097
 30
0.0
 10
4.1488048473
 20
3.6890143146
 30
0.0
 10
4.1462238637
 20
3.6911592614
 30
0.0
 10
4.1440954177
 20
3.6925101593
 30
0.0
 10
4.1418039216
 20
3.6935626709
 30
0.0
 10
4.1385933116
 20
3.6945386683
 30
0.0
 10
4.1360668868
 20
3.6947988109
 30
0.0
 10
4.1343947803
 20
3.6947988919
 30
0.0
  0
SPLINE
  5
2F1
100
AcDbEntity
  8
0
100
AcDbSpline
 62
7
  6
CONTINUOUS
 70
0
 71
3
 72
12
 73
8
 74
0
 42
0.0000001
 43
0.0000001
 44
0.0000000001
 40
0.0
 40
0.0
 40
0.0
 40
0.0
 40
0.2499984462
 40
0.4999830813
 40
0.749940014
 40
0.8749768498
 40
1.0
 40
1.0
 40
1.0
 40
1.0
 10
4.1626868232
 20
3.6275533004
 30
0.0
 10
4.1626868232
 20
3.6317205517
 30
0.0
 10
4.1625107398
 20
3.6400569255
 30
0.0
 10
4.1615499578
 20
3.6525278118
 30
0.0
 10
4.159953347
 20
3.6628409784
 30
0.0
 10
4.1579750353
 20
3.6709426415
 30
0.0
 10
4.1566926557
 20
3.674914882
 30
0.0
 10
4.1559607705
 20
3.6768661642
 30
0.0
  0
SPLINE
  5
2F2
100
AcDbEntity
  8
0
100
AcDbSpline
 62
7
  6
CONTINUOUS
 70
0
 71
3
 72
13
 73
9
 74
0
 42
0.0000001
 43
0.0000001
 44
0.0000000001
 40
0.0
 40
0.0
 40
0.0
 40
0.0
 40
0.092767667
 40
0.1940789051
 40
0.30436835
 40
0.4239727987
 40
0.6920813232
 40
1.0
 40
1.0
 40
1.0
 40
1.0
 10
4.004145875
 20
3.678576631
 30
0.0
 10
4.0035875789
 20
3.6771672652
 30
0.0
 10
4.0025496957
 20
3.6741663684
 30
0.0
 10
4.0012594555
 20
3.6693597091
 30
0.0
 10
4.0001687025
 20
3.6640556781
 30
0.0
 10
3.9989337014
 20
3.6560092459
 30
0.0
 10
3.9979559263
 20
3.6446721332
 30
0.0
 10
3.9977401956
 20
3.6352569174
 30
0.0
 10
3.9977401956
 20
3.6302252142
 30
0.0
  0
SPLINE
  5
2F3
100
AcDbEntity
  8
0
100
AcDbSpline
 62
7
  6
CONTINUOUS
 70
0
 71
3
 72
8
 73
4
 74
0
 42
0.0000001
 43
0.0000001
 44
0.0000000001
 40
0.0
 40
0.0
 40
0.0
 40
0.0
 40
1.0
 40
1.0
 40
1.0
 40
1.0
 10
4.0230378867
 20
3.6946859126
 30
0.0
 10
4.0214787795
 20
3.6945368202
 30
0.0
 10
4.0199227524
 20
3.6942350851
 30
0.0
 10
4.01843311
 20
3.6937513401
 30
0.0
  0
SPLINE
  5
2F4
100
AcDbEntity
  8
0
100
AcDbSpline
 62
7
  6
CONTINUOUS
 70
0
 71
3
 72
10
 73
6
 74
0
 42
0.0000001
 43
0.0000001
 44
0.0000000001
 40
0.0
 40
0.0
 40
0.0
 40
0.0
 40
0.4997315799
 40
0.7497854714
 40
1.0
 40
1.0
 40
1.0
 40
1.0
 10
4.01843311
 20
3.6937513401
 30
0.0
 10
4.0165910693
 20
3.6931531575
 30
0.0
 10
4.0139405575
 20
3.6918272025
 30
0.0
 10
4.0109425274
 20
3.6893571041
 30
0.0
 10
4.0096272898
 20
3.6879231616
 30
0.0
 10
4.0090146136
 20
3.6871715092
 30
0.0
  0
SPLINE
  5
2F5
100
AcDbEntity
  8
0
100
AcDbSpline
 62
7
  6
CONTINUOUS
 70
0
 71
3
 72
9
 73
5
 74
0
 42
0.0000001
 43
0.0000001
 44
0.0000000001
 40
0.0
 40
0.0
 40
0.0
 40
0.0
 40
0.5004251432
 40
1.0
 40
1.0
 40
1.0
 40
1.0
 10
4.0090146136
 20
3.6871715092
 30
0.0
 10
4.0079705062
 20
3.6858905619
 30
0.0
 10
4.006137832
 20
3.6831187138
 30
0.0
 10
4.0047534614
 20
3.6801105559
 30
0.0
 10
4.0041458753
 20
3.6785767527
 30
0.0
  0
SPLINE
  5
2F6
100
AcDbEntity
  8
0
100
AcDbSpline
 62
7
  6
CONTINUOUS
 70
0
 71
3
 72
9
 73
5
 74
0
 42
0.0000001
 43
0.0000001
 44
0.0000000001
 40
0.0
 40
0.0
 40
0.0
 40
0.0
 40
0.2503277221
 40
1.0
 40
1.0
 40
1.0
 40
1.0
 10
4.0279802826
 20
3.6946684857
 30
0.0
 10
4.0283718236
 20
3.6946259721
 30
0.0
 10
4.0299308725
 20
3.6944144009
 30
0.0
 10
4.0314679927
 20
3.6940264969
 30
0.0
 10
4.0325776024
 20
3.6936266187
 30
0.0
  0
SPLINE
  5
2F7
100
AcDbEntity
  8
0
100
AcDbSpline
 62
7
  6
CONTINUOUS
 70
0
 71
3
 72
9
 73
5
 74
0
 42
0.0000001
 43
0.0000001
 44
0.0000000001
 40
0.0
 40
0.0
 40
0.0
 40
0.0
 40
0.7496666334
 40
1.0
 40
1.0
 40
1.0
 40
1.0
 10
4.0325776024
 20
3.6936266187
 30
0.0
 10
4.0336565996
 20
3.6932377726
 30
0.0
 10
4.035050306
 20
3.692578428
 30
0.0
 10
4.0363467437
 20
3.691765721
 30
0.0
 10
4.036665232
 20
3.6915530117
 30
0.0
  0
SPLINE
  5
2F8
100
AcDbEntity
  8
0
100
AcDbSpline
 62
7
  6
CONTINUOUS
 70
0
 71
3
 72
9
 73
5
 74
0
 42
0.0000001
 43
0.0000001
 44
0.0000000001
 40
0.0
 40
0.0
 40
0.0
 40
0.0
 40
0.5001400465
 40
1.0
 40
1.0
 40
1.0
 40
1.0
 10
4.036665232
 20
3.6915530117
 30
0.0
 10
4.0376792915
 20
3.6908757502
 30
0.0
 10
4.0395833588
 20
3.6893280711
 30
0.0
 10
4.0411937186
 20
3.6874838971
 30
0.0
 10
4.04193271
 20
3.68651476
 30
0.0
  0
SPLINE
  5
2F9
100
AcDbEntity
  8
0
100
AcDbSpline
 62
7
  6
CONTINUOUS
 70
0
 71
3
 72
9
 73
5
 74
0
 42
0.0000001
 43
0.0000001
 44
0.0000000001
 40
0.0
 40
0.0
 40
0.0
 40
0.0
 40
0.2503759301
 40
1.0
 40
1.0
 40
1.0
 40
1.0
 10
4.04193271
 20
3.68651476
 30
0.0
 10
4.042200092
 20
3.6861641067
 30
0.0
 10
4.0432338899
 20
3.6847376595
 30
0.0
 10
4.0441408614
 20
3.6832212414
 30
0.0
 10
4.0447579155
 20
3.6820540642
 30
0.0
  0
LINE
  5
2FA
100
AcDbEntity
  8
0
100
AcDbLine
 62
7
  6
CONTINUOUS
 10
4.0447579155
 20
3.6820540642
 11
4.0470640594
 21
3.6768693806
  0
SPLINE
  5
2FB
100
AcDbEntity
  8
0
100
AcDbSpline
 62
7
  6
CONTINUOUS
 70
0
 71
3
 72
11
 73
7
 74
0
 42
0.0000001
 43
0.0000001
 44
0.0000000001
 40
0.0
 40
0.0
 40
0.0
 40
0.0
 40
0.2971063421
 40
0.5616775089
 40
0.7952366178
 40
1.0
 40
1.0
 40
1.0
 40
1.0
 10
4.0537900134
 20
3.6275573321
 30
0.0
 10
4.0537900134
 20
3.632509195
 30
0.0
 10
4.0535560038
 20
3.6418738089
 30
0.0
 10
4.0523502664
 20
3.6550854878
 30
0.0
 10
4.0503105465
 20
3.6666370563
 30
0.0
 10
4.0482626188
 20
3.6736739659
 30
0.0
 10
4.0470640628
 20
3.6768693639
 30
0.0
  0
SPLINE
  5
2FC
100
AcDbEntity
  8
0
100
AcDbSpline
 62
7
  6
CONTINUOUS
 70
0
 71
3
 72
13
 73
9
 74
0
 42
0.0000001
 43
0.0000001
 44
0.0000000001
 40
0.0
 40
0.0
 40
0.0
 40
0.0
 40
0.0927677131
 40
0.1940789793
 40
0.3043684382
 40
0.4239728894
 40
0.6920813886
 40
1.0
 40
1.0
 40
1.0
 40
1.0
 10
3.253579958
 20
2.4184535547
 30
0.0
 10
3.2550796523
 20
2.4186747398
 30
0.0
 10
3.2581974457
 20
2.4192763568
 30
0.0
 10
3.2630052522
 20
2.4205623089
 30
0.0
 10
3.2681440506
 20
2.4222697077
 30
0.0
 10
3.2757299589
 20
2.4252233851
 30
0.0
 10
3.2860370636
 20
2.4300451656
 30
0.0
 10
3.2942987376
 20
2.4345659434
 30
0.0
 10
3.2986563168
 20
2.4370817929
 30
0.0
  0
SPLINE
  5
2FD
100
AcDbEntity
  8
0
100
AcDbSpline
 62
7
  6
CONTINUOUS
 70
0
 71
3
 72
10
 73
6
 74
0
 42
0.0000001
 43
0.0000001
 44
0.0000000001
 40
0.0
 40
0.0
 40
0.0
 40
0.0
 40
0.2503488813
 40
0.5006248327
 40
1.0
 40
1.0
 40
1.0
 40
1.0
 10
3.2301842023
 20
2.4267601632
 30
0.0
 10
3.2307466675
 20
2.4259704588
 30
0.0
 10
3.231967215
 20
2.4244550057
 30
0.0
 10
3.2348013068
 20
2.4218021109
 30
0.0
 10
3.2373618989
 20
2.4203156722
 30
0.0
 10
3.2391596577
 20
2.4196027727
 30
0.0
  0
SPLINE
  5
2FE
100
AcDbEntity
  8
0
100
AcDbSpline
 62
7
  6
CONTINUOUS
 70
0
 71
3
 72
9
 73
5
 74
0
 42
0.0000001
 43
0.0000001
 44
0.0000000001
 40
0.0
 40
0.0
 40
0.0
 40
0.0
 40
0.499948229
 40
1.0
 40
1.0
 40
1.0
 40
1.0
 10
3.2391596577
 20
2.4196027727
 30
0.0
 10
3.2414196877
 20
2.4187065601
 30
0.0
 10
3.2462921331
 20
2.4177705974
 30
0.0
 10
3.2511743472
 20
2.4180988209
 30
0.0
 10
3.2535800695
 20
2.4184536193
 30
0.0
  0
SPLINE
  5
2FF
100
AcDbEntity
  8
0
100
AcDbSpline
 62
7
  6
CONTINUOUS
 70
0
 71
3
 72
11
 73
7
 74
0
 42
0.0000001
 43
0.0000001
 44
0.0000000001
 40
0.0
 40
0.0
 40
0.0
 40
0.0
 40
0.2500085127
 40
0.4376111515
 40
0.625253428
 40
1.0
 40
1.0
 40
1.0
 40
1.0
 10
3.2336014949
 20
2.4564765664
 30
0.0
 10
3.2328006975
 20
2.4555030443
 30
0.0
 10
3.2314578054
 20
2.4537488624
 30
0.0
 10
3.2297417031
 20
2.4511003751
 30
0.0
 10
3.2279405974
 20
2.4477738221
 30
0.0
 10
3.2269510267
 20
2.4450825876
 30
0.0
 10
3.22653515
 20
2.4432394187
 30
0.0
  0
SPLINE
  5
300
100
AcDbEntity
  8
0
100
AcDbSpline
 62
7
  6
CONTINUOUS
 70
0
 71
3
 72
11
 73
7
 74
0
 42
0.0000001
 43
0.0000001
 44
0.0000000001
 40
0.0
 40
0.0
 40
0.0
 40
0.0
 40
0.2500503331
 40
0.5000389227
 40
0.7500673005
 40
1.0
 40
1.0
 40
1.0
 40
1.0
 10
3.22653515
 20
2.4432394187
 30
0.0
 10
3.226261204
 20
2.4420252876
 30
0.0
 10
3.2259259172
 20
2.4395418901
 30
0.0
 10
3.2261623519
 20
2.435790608
 30
0.0
 10
3.2271482501
 20
2.4321658248
 30
0.0
 10
3.2282323398
 20
2.4299109924
 30
0.0
 10
3.2288543256
 20
2.4288335708
 30
0.0
  0
SPLINE
  5
301
100
AcDbEntity
  8
0
100
AcDbSpline
 62
7
  6
CONTINUOUS
 70
0
 71
3
 72
12
 73
8
 74
0
 42
0.0000001
 43
0.0000001
 44
0.0000000001
 40
0.0
 40
0.0
 40
0.0
 40
0.0
 40
0.2499985372
 40
0.4999832133
 40
0.7499401213
 40
0.8749769159
 40
1.0
 40
1.0
 40
1.0
 40
1.0
 10
3.2729446002
 20
2.4869578812
 30
0.0
 10
3.269335659
 20
2.4848742581
 30
0.0
 10
3.2622041984
 20
2.4805535846
 30
0.0
 10
3.2518844996
 20
2.4734860904
 30
0.0
 10
3.243751354
 20
2.466946812
 30
0.0
 10
3.2377242747
 20
2.4611827232
 30
0.0
 10
3.2349254084
 20
2.4580860362
 30
0.0
 10
3.2336014949
 20
2.4564765664
 30
0.0
  0
LINE
  5
302
100
AcDbEntity
  8
0
100
AcDbLine
 62
7
  6
CONTINUOUS
 10
3.8962181192
 20
3.6798830323
 11
3.888202834
 21
3.677076399
  0
SPLINE
  5
303
100
AcDbEntity
  8
0
100
AcDbSpline
 62
7
  6
CONTINUOUS
 70
0
 71
3
 72
9
 73
5
 74
0
 42
0.0000001
 43
0.0000001
 44
0.0000000001
 40
0.0
 40
0.0
 40
0.0
 40
0.0
 40
0.4999834407
 40
1.0
 40
1.0
 40
1.0
 40
1.0
 10
3.9037907595
 20
3.6816673037
 30
0.0
 10
3.9027319445
 20
3.6816672246
 30
0.0
 10
3.9006115674
 20
3.6814120759
 30
0.0
 10
3.8985779964
 20
3.680789309
 30
0.0
 10
3.8975915584
 20
3.6804043703
 30
0.0
  0
SPLINE
  5
304
100
AcDbEntity
  8
0
100
AcDbSpline
 62
7
  6
CONTINUOUS
 70
0
 71
3
 72
12
 73
8
 74
0
 42
0.0000001
 43
0.0000001
 44
0.0000000001
 40
0.0
 40
0.0
 40
0.0
 40
0.0
 40
0.2498838032
 40
0.3751399943
 40
0.5004440003
 40
0.75013596
 40
1.0
 40
1.0
 40
1.0
 40
1.0
 10
3.9100889532
 20
3.672168256
 30
0.0
 10
3.9100889532
 20
3.6732358177
 30
0.0
 10
3.9099954348
 20
3.6748424958
 30
0.0
 10
3.9095780166
 20
3.6769466965
 30
0.0
 10
3.9088538281
 20
3.6789572637
 30
0.0
 10
3.9071012502
 20
3.6811965949
 30
0.0
 10
3.9048582367
 20
3.6816673835
 30
0.0
 10
3.9037907595
 20
3.6816673037
 30
0.0
  0
SPLINE
  5
305
100
AcDbEntity
  8
0
100
AcDbSpline
 62
7
  6
CONTINUOUS
 70
0
 71
3
 72
11
 73
7
 74
0
 42
0.0000001
 43
0.0000001
 44
0.0000000001
 40
0.0
 40
0.0
 40
0.0
 40
0.0
 40
0.2499738087
 40
0.4999710863
 40
0.749978158
 40
1.0
 40
1.0
 40
1.0
 40
1.0
 10
3.9842218613
 20
3.5821008519
 30
0.0
 10
3.9827096687
 20
3.5854666393
 30
0.0
 10
3.9801670301
 20
3.5924233787
 30
0.0
 10
3.9776809455
 20
3.6032339041
 30
0.0
 10
3.9763315352
 20
3.6142391343
 30
0.0
 10
3.976067598
 20
3.6216239943
 30
0.0
 10
3.976067598
 20
3.6253145884
 30
0.0
  0
LINE
  5
306
100
AcDbEntity
  8
0
100
AcDbLine
 62
7
  6
CONTINUOUS
 10
3.1611810151
 20
2.9266355004
 11
3.1613734603
 21
2.9181450685
  0
SPLINE
  5
307
100
AcDbEntity
  8
0
100
AcDbSpline
 62
7
  6
CONTINUOUS
 70
0
 71
3
 72
9
 73
5
 74
0
 42
0.0000001
 43
0.0000001
 44
0.0000000001
 40
0.0
 40
0.0
 40
0.0
 40
0.0
 40
0.4999832617
 40
1.0
 40
1.0
 40
1.0
 40
1.0
 10
3.161824166
 20
2.9343888845
 30
0.0
 10
3.1614970536
 20
2.9333818668
 30
0.0
 10
3.1610844592
 20
2.9312864313
 30
0.0
 10
3.1610483253
 20
2.9291599437
 30
0.0
 10
3.1611096014
 20
2.9281028332
 30
0.0
  0
SPLINE
  5
308
100
AcDbEntity
  8
0
100
AcDbSpline
 62
7
  6
CONTINUOUS
 70
0
 71
3
 72
12
 73
8
 74
0
 42
0.0000001
 43
0.0000001
 44
0.0000000001
 40
0.0
 40
0.0
 40
0.0
 40
0.0
 40
0.2498841114
 40
0.3751404098
 40
0.5004443899
 40
0.7501361424
 40
1.0
 40
1.0
 40
1.0
 40
1.0
 10
3.1728044733
 20
2.9374433347
 30
0.0
 10
3.1717891729
 20
2.9377732258
 30
0.0
 10
3.1702322496
 20
2.9381807708
 30
0.0
 10
3.1681020718
 20
2.9384340171
 30
0.0
 10
3.1659661477
 20
2.9383665843
 30
0.0
 10
3.163294876
 20
2.9373918242
 30
0.0
 10
3.1621539505
 20
2.9354041285
 30
0.0
 10
3.161824166
 20
2.9343888845
 30
0.0
  0
LINE
  5
309
100
AcDbEntity
  8
0
100
AcDbLine
 62
7
  6
CONTINUOUS
 10
3.1948263999
 20
3.0302032746
 11
3.1950182365
 21
3.0217140858
  0
SPLINE
  5
30A
100
AcDbEntity
  8
0
100
AcDbSpline
 62
7
  6
CONTINUOUS
 70
0
 71
3
 72
9
 73
5
 74
0
 42
0.0000001
 43
0.0000001
 44
0.0000000001
 40
0.0
 40
0.0
 40
0.0
 40
0.0
 40
0.4999858375
 40
1.0
 40
1.0
 40
1.0
 40
1.0
 10
3.1954696748
 20
3.0379566805
 30
0.0
 10
3.1951425018
 20
3.0369496746
 30
0.0
 10
3.194729997
 20
3.0348541998
 30
0.0
 10
3.1946938898
 20
3.0327277246
 30
0.0
 10
3.1947551096
 20
3.0316706143
 30
0.0
  0
SPLINE
  5
30B
100
AcDbEntity
  8
0
100
AcDbSpline
 62
7
  6
CONTINUOUS
 70
0
 71
3
 72
12
 73
8
 74
0
 42
0.0000001
 43
0.0000001
 44
0.0000000001
 40
0.0
 40
0.0
 40
0.0
 40
0.0
 40
0.2498801125
 40
0.3751351918
 40
0.5004395337
 40
0.7501344809
 40
1.0
 40
1.0
 40
1.0
 40
1.0
 10
3.2064506331
 20
3.0410119119
 30
0.0
 10
3.2054352585
 20
3.0413418272
 30
0.0
 10
3.2038782174
 20
3.0417494006
 30
0.0
 10
3.2017478641
 20
3.0420026409
 30
0.0
 10
3.1996117465
 20
3.0419351248
 30
0.0
 10
3.1969402089
 20
3.0409600523
 30
0.0
 10
3.1957995498
 20
3.0389720026
 30
0.0
 10
3.1954696748
 20
3.0379566805
 30
0.0
  0
SPLINE
  5
30C
100
AcDbEntity
  8
0
100
AcDbSpline
 62
7
  6
CONTINUOUS
 70
0
 71
3
 72
15
 73
11
 74
0
 42
0.0000001
 43
0.0000001
 44
0.0000000001
 40
0.0
 40
0.0
 40
0.0
 40
0.0
 40
0.1249926183
 40
0.18765498
 40
0.2501939842
 40
0.3751690599
 40
0.5001504121
 40
0.625138192
 40
0.7501044408
 40
1.0
 40
1.0
 40
1.0
 40
1.0
 10
3.2890124023
 20
3.1471832202
 30
0.0
 10
3.2869798869
 20
3.1460586389
 30
0.0
 10
3.2841172331
 20
3.1440193366
 30
0.0
 10
3.2806603527
 20
3.140909312
 30
0.0
 10
3.2773997093
 20
3.1375905671
 30
0.0
 10
3.2736659718
 20
3.1331315343
 30
0.0
 10
3.2695911003
 20
3.127474103
 30
0.0
 10
3.2658445796
 20
3.121595523
 30
0.0
 10
3.2612016862
 20
3.1135474371
 30
0.0
 10
3.2580435297
 20
3.1073315912
 30
0.0
 10
3.256041835
 20
3.1031410132
 30
0.0
  0
SPLINE
  5
30D
100
AcDbEntity
  8
0
100
AcDbSpline
 62
7
  6
CONTINUOUS
 70
0
 71
3
 72
9
 73
5
 74
0
 42
0.0000001
 43
0.0000001
 44
0.0000000001
 40
0.0
 40
0.0
 40
0.0
 40
0.0
 40
0.4999370779
 40
1.0
 40
1.0
 40
1.0
 40
1.0
 10
3.3221519476
 20
3.1504732976
 30
0.0
 10
3.3167517678
 20
3.1522279224
 30
0.0
 10
3.3050872527
 20
3.1537453034
 30
0.0
 10
3.2939819521
 20
3.149932849
 30
0.0
 10
3.2890124023
 20
3.1471832202
 30
0.0
  0
SPLINE
  5
30E
100
AcDbEntity
  8
0
100
AcDbSpline
 62
7
  6
CONTINUOUS
 70
0
 71
3
 72
11
 73
7
 74
0
 42
0.0000001
 43
0.0000001
 44
0.0000000001
 40
0.0
 40
0.0
 40
0.0
 40
0.0
 40
0.2497632794
 40
0.4998700869
 40
0.7499115708
 40
1.0
 40
1.0
 40
1.0
 40
1.0
 10
3.3174117797
 20
3.1704234213
 30
0.0
 10
3.3193875756
 20
3.1697814463
 30
0.0
 10
3.323280924
 20
3.1682981762
 30
0.0
 10
3.3288489288
 20
3.1654569796
 30
0.0
 10
3.3340376315
 20
3.1619624089
 30
0.0
 10
3.3371833111
 20
3.1592215675
 30
0.0
 10
3.3386666122
 20
3.157763156
 30
0.0
  0
LINE
  5
30F
100
AcDbEntity
  8
0
100
AcDbLine
 62
7
  6
CONTINUOUS
 10
3.243602016
 20
3.1280625191
 11
3.2298626113
 21
3.1417316896
  0
LINE
  5
310
100
AcDbEntity
  8
0
100
AcDbLine
 62
7
  6
CONTINUOUS
 10
3.2298626113
 20
3.1417316896
 11
3.2445129811
 21
3.1868130403
  0
LINE
  5
311
100
AcDbEntity
  8
0
100
AcDbLine
 62
7
  6
CONTINUOUS
 10
3.2445129811
 20
3.1868130403
 11
3.2291090249
 21
3.201921134
  0
LINE
  5
312
100
AcDbEntity
  8
0
100
AcDbLine
 62
7
  6
CONTINUOUS
 10
3.359722691
 20
2.2309537471
 11
3.363207238
 21
2.2280390759
  0
SPLINE
  5
313
100
AcDbEntity
  8
0
100
AcDbSpline
 62
7
  6
CONTINUOUS
 70
0
 71
3
 72
9
 73
5
 74
0
 42
0.0000001
 43
0.0000001
 44
0.0000000001
 40
0.0
 40
0.0
 40
0.0
 40
0.0
 40
0.4999832617
 40
1.0
 40
1.0
 40
1.0
 40
1.0
 10
3.3555293815
 20
2.2356909614
 30
0.0
 10
3.3560588607
 20
2.2347740432
 30
0.0
 10
3.3573399931
 20
2.2330653057
 30
0.0
 10
3.3588961031
 20
2.2316155551
 30
0.0
 10
3.359722691
 20
2.2309537471
 30
0.0
  0
SPLINE
  5
314
100
AcDbEntity
  8
0
100
AcDbSpline
 62
7
  6
CONTINUOUS
 70
0
 71
3
 72
12
 73
8
 74
0
 42
0.0000001
 43
0.0000001
 44
0.0000000001
 40
0.0
 40
0.0
 40
0.0
 40
0.0
 40
0.2498841114
 40
0.3751404098
 40
0.5004443899
 40
0.7501361424
 40
1.0
 40
1.0
 40
1.0
 40
1.0
 10
3.3606067424
 20
2.2458947461
 30
0.0
 10
3.359682217
 20
2.2453609711
 30
0.0
 10
3.358337567
 20
2.2444766524
 30
0.0
 10
3.3567240011
 20
2.2430630766
 30
0.0
 10
3.3553449013
 20
2.2414306543
 30
0.0
 10
3.3542818595
 20
2.2387932708
 30
0.0
 10
3.3549955771
 20
2.2366153699
 30
0.0
 10
3.3555293815
 20
2.2356909614
 30
0.0
  0
SPLINE
  5
315
100
AcDbEntity
  8
0
100
AcDbSpline
 62
7
  6
CONTINUOUS
 70
0
 71
3
 72
9
 73
5
 74
0
 42
0.0000001
 43
0.0000001
 44
0.0000000001
 40
0.0
 40
0.0
 40
0.0
 40
0.0
 40
0.4593133434
 40
1.0
 40
1.0
 40
1.0
 40
1.0
 10
3.3380618816
 20
2.3893080782
 30
0.0
 10
3.3409395523
 20
2.3888578995
 30
0.0
 10
3.3471846816
 20
2.3877498361
 30
0.0
 10
3.3533980663
 20
2.3864799827
 30
0.0
 10
3.3567510766
 20
2.3857635869
 30
0.0
  0
LINE
  5
316
100
AcDbEntity
  8
0
100
AcDbLine
 62
7
  6
CONTINUOUS
 10
3.3814064908
 20
2.3800539058
 11
3.3848213997
 21
2.3792106241
  0
LINE
  5
317
100
AcDbEntity
  8
0
100
AcDbLine
 62
7
  6
CONTINUOUS
 10
3.3848213997
 20
2.3792106241
 11
3.3864936411
 21
2.3787941672
  0
SPLINE
  5
318
100
AcDbEntity
  8
0
100
AcDbSpline
 62
7
  6
CONTINUOUS
 70
0
 71
3
 72
12
 73
8
 74
0
 42
0.0000001
 43
0.0000001
 44
0.0000000001
 40
0.0
 40
0.0
 40
0.0
 40
0.0
 40
0.1053894899
 40
0.2142836224
 40
0.4472126399
 40
0.7072303319
 40
1.0
 40
1.0
 40
1.0
 40
1.0
 10
3.2915619439
 20
2.3840446158
 30
0.0
 10
3.293011651
 20
2.3848816203
 30
0.0
 10
3.2960648756
 20
2.3864066047
 30
0.0
 10
3.3027481038
 20
2.3888496087
 30
0.0
 10
3.3121967851
 20
2.3906777896
 30
0.0
 10
3.3247144689
 20
2.3909693405
 30
0.0
 10
3.3334672565
 20
2.3900267013
 30
0.0
 10
3.3380616711
 20
2.3893079566
 30
0.0
  0
LINE
  5
319
100
AcDbEntity
  8
0
100
AcDbLine
 62
7
  6
CONTINUOUS
 10
3.3374188202
 20
2.3101721019
 11
3.3369616263
 21
2.3145926911
  0
SPLINE
  5
31A
100
AcDbEntity
  8
0
100
AcDbSpline
 62
7
  6
CONTINUOUS
 70
0
 71
3
 72
9
 73
5
 74
0
 42
0.0000001
 43
0.0000001
 44
0.0000000001
 40
0.0
 40
0.0
 40
0.0
 40
0.0
 40
0.2502045084
 40
1.0
 40
1.0
 40
1.0
 40
1.0
 10
3.3110466879
 20
2.3161559712
 30
0.0
 10
3.3118474595
 20
2.3158418872
 30
0.0
 10
3.3151100528
 20
2.3147439488
 30
0.0
 10
3.3185372415
 20
2.3141970315
 30
0.0
 10
3.3211062555
 20
2.3139858049
 30
0.0
  0
SPLINE
  5
31B
100
AcDbEntity
  8
0
100
AcDbSpline
 62
7
  6
CONTINUOUS
 70
0
 71
3
 72
9
 73
5
 74
0
 42
0.0000001
 43
0.0000001
 44
0.0000000001
 40
0.0
 40
0.0
 40
0.0
 40
0.0
 40
0.4999409979
 40
1.0
 40
1.0
 40
1.0
 40
1.0
 10
3.3211062555
 20
2.3139858049
 30
0.0
 10
3.3237450672
 20
2.3137688395
 30
0.0
 10
3.3290584988
 20
2.3137479872
 30
0.0
 10
3.3343351978
 20
2.3142527142
 30
0.0
 10
3.3369616263
 20
2.3145926911
 30
0.0
  0
SPLINE
  5
31C
100
AcDbEntity
  8
0
100
AcDbSpline
 62
7
  6
CONTINUOUS
 70
0
 71
3
 72
11
 73
7
 74
0
 42
0.0000001
 43
0.0000001
 44
0.0000000001
 40
0.0
 40
0.0
 40
0.0
 40
0.0
 40
0.2498651627
 40
0.4997947078
 40
0.7497753005
 40
1.0
 40
1.0
 40
1.0
 40
1.0
 10
3.2970468354
 20
2.3279197437
 30
0.0
 10
3.2977826973
 20
2.3267962589
 30
0.0
 10
3.2993745801
 20
2.3246240656
 30
0.0
 10
3.3021406783
 20
2.3216782793
 30
0.0
 10
3.3052814082
 20
2.3191291407
 30
0.0
 10
3.3076041012
 20
2.317752465
 30
0.0
 10
3.3088075113
 20
2.317151874
 30
0.0
  0
SPLINE
  5
31D
100
AcDbEntity
  8
0
100
AcDbSpline
 62
7
  6
CONTINUOUS
 70
0
 71
3
 72
14
 73
10
 74
0
 42
0.0000001
 43
0.0000001
 44
0.0000000001
 40
0.0
 40
0.0
 40
0.0
 40
0.0
 40
0.1249023451
 40
0.2500970728
 40
0.375181888
 40
0.5002646133
 40
0.6254100112
 40
0.7504459383
 40
1.0
 40
1.0
 40
1.0
 40
1.0
 10
3.2942639654
 20
2.352290471
 30
0.0
 10
3.2938605668
 20
2.3514016649
 30
0.0
 10
3.2931535935
 20
2.3495740741
 30
0.0
 10
3.2924287137
 20
2.3467255273
 30
0.0
 10
3.2920855921
 20
2.3438028546
 30
0.0
 10
3.2921484078
 20
2.3408619659
 30
0.0
 10
3.292584919
 20
2.3379539582
 30
0.0
 10
3.2936412934
 20
2.3341861677
 30
0.0
 10
3.2948990283
 20
2.3315154516
 30
0.0
 10
3.2958741485
 20
2.3298265691
 30
0.0
  0
SPLINE
  5
31E
100
AcDbEntity
  8
0
100
AcDbSpline
 62
7
  6
CONTINUOUS
 70
0
 71
3
 72
11
 73
7
 74
0
 42
0.0000001
 43
0.0000001
 44
0.0000000001
 40
0.0
 40
0.0
 40
0.0
 40
0.0
 40
0.2446398548
 40
0.4888051005
 40
0.7387574311
 40
1.0
 40
1.0
 40
1.0
 40
1.0
 10
3.308961759
 20
2.3690650541
 30
0.0
 10
3.3073618291
 20
2.3681413521
 30
0.0
 10
3.3043099369
 20
2.3660290932
 30
0.0
 10
3.3003014934
 20
2.3621137109
 30
0.0
 10
3.2968993651
 20
2.3575074211
 30
0.0
 10
3.295079274
 20
2.3540868919
 30
0.0
 10
3.2942639262
 20
2.3522904562
 30
0.0
  0
SPLINE
  5
31F
100
AcDbEntity
  8
0
100
AcDbSpline
 62
7
  6
CONTINUOUS
 70
0
 71
3
 72
11
 73
7
 74
0
 42
0.0000001
 43
0.0000001
 44
0.0000000001
 40
0.0
 40
0.0
 40
0.0
 40
0.0
 40
0.2499802671
 40
0.4999790311
 40
0.7499838916
 40
1.0
 40
1.0
 40
1.0
 40
1.0
 10
3.346416963
 20
2.4485154503
 30
0.0
 10
3.3442710582
 20
2.4456310865
 30
0.0
 10
3.3395754627
 20
2.4401538966
 30
0.0
 10
3.3316137239
 20
2.4328478958
 30
0.0
 10
3.322963424
 20
2.4263794646
 30
0.0
 10
3.3168580368
 20
2.4225651904
 30
0.0
 10
3.3137441765
 20
2.4207674023
 30
0.0
  0
SPLINE
  5
320
100
AcDbEntity
  8
0
100
AcDbSpline
 62
7
  6
CONTINUOUS
 70
0
 71
3
 72
11
 73
7
 74
0
 42
0.0000001
 43
0.0000001
 44
0.0000000001
 40
0.0
 40
0.0
 40
0.0
 40
0.0
 40
0.2497732972
 40
0.4997996763
 40
0.7501385065
 40
1.0
 40
1.0
 40
1.0
 40
1.0
 10
3.2619247968
 20
2.5056209556
 30
0.0
 10
3.2658712589
 20
2.5078994466
 30
0.0
 10
3.2739733297
 20
2.5121173628
 30
0.0
 10
3.2867325698
 20
2.5171492606
 30
0.0
 10
3.3000232929
 20
2.5205705313
 30
0.0
 10
3.3091255361
 20
2.5216281969
 30
0.0
 10
3.3136805265
 20
2.5218093432
 30
0.0
  0
LINE
  5
321
100
AcDbEntity
  8
0
100
AcDbLine
 62
7
  6
CONTINUOUS
 10
4.1725814803
 20
1.9456457646
 11
4.1661565695
 21
1.9456453188
  0
SPLINE
  5
322
100
AcDbEntity
  8
0
100
AcDbSpline
 62
7
  6
CONTINUOUS
 70
0
 71
3
 72
9
 73
5
 74
0
 42
0.0000001
 43
0.0000001
 44
0.0000000001
 40
0.0
 40
0.0
 40
0.0
 40
0.0
 40
0.749848428
 40
1.0
 40
1.0
 40
1.0
 40
1.0
 10
4.1815259684
 20
2.0223496417
 30
0.0
 10
4.1811848536
 20
2.0250021059
 30
0.0
 10
4.1805233271
 20
2.0285240582
 30
0.0
 10
4.1794704016
 20
2.0319336152
 30
0.0
 10
4.1791792903
 20
2.0327769409
 30
0.0
  0
LINE
  5
323
100
AcDbEntity
  8
0
100
AcDbLine
 62
7
  6
CONTINUOUS
 10
4.1879508791
 20
2.022350188
 11
4.1815259684
 21
2.0223496417
  0
SPLINE
  5
324
100
AcDbEntity
  8
0
100
AcDbSpline
 62
7
  6
CONTINUOUS
 70
0
 71
3
 72
15
 73
11
 74
0
 42
0.0000001
 43
0.0000001
 44
0.0000000001
 40
0.0
 40
0.0
 40
0.0
 40
0.0
 40
0.1249883258
 40
0.2507159164
 40
0.3757025867
 40
0.4382558694
 40
0.5007496961
 40
0.6255972283
 40
0.7504579793
 40
1.0
 40
1.0
 40
1.0
 40
1.0
 10
4.8596371588
 20
3.1216998209
 30
0.0
 10
4.857887102
 20
3.1212308946
 30
0.0
 10
4.8545156169
 20
3.1197338978
 30
0.0
 10
4.8501632028
 20
3.1164026565
 30
0.0
 10
4.8471162165
 20
3.1130074468
 30
0.0
 10
4.8449741056
 20
3.1100826288
 30
0.0
 10
4.8429871025
 20
3.107052018
 30
0.0
 10
4.8407686838
 20
3.1031009742
 30
0.0
 10
4.8376836555
 20
3.0965502793
 30
0.0
 10
4.8357747939
 20
3.0914592627
 30
0.0
 10
4.8346258342
 20
3.0880293013
 30
0.0
  0
SPLINE
  5
325
100
AcDbEntity
  8
0
100
AcDbSpline
 62
7
  6
CONTINUOUS
 70
0
 71
3
 72
9
 73
5
 74
0
 42
0.0000001
 43
0.0000001
 44
0.0000000001
 40
0.0
 40
0.0
 40
0.0
 40
0.0
 40
0.5000004082
 40
1.0
 40
1.0
 40
1.0
 40
1.0
 10
4.8546299012
 20
3.0760133576
 30
0.0
 10
4.8571984865
 20
3.0754001786
 30
0.0
 10
4.8625251911
 20
3.0748667131
 30
0.0
 10
4.8677954149
 20
3.0756957575
 30
0.0
 10
4.87034619
 20
3.0763792356
 30
0.0
  0
SPLINE
  5
326
100
AcDbEntity
  8
0
100
AcDbSpline
 62
7
  6
CONTINUOUS
 70
0
 71
3
 72
9
 73
5
 74
0
 42
0.0000001
 43
0.0000001
 44
0.0000000001
 40
0.0
 40
0.0
 40
0.0
 40
0.0
 40
0.5000448209
 40
1.0
 40
1.0
 40
1.0
 40
1.0
 10
4.8387927544
 20
3.0847113215
 30
0.0
 10
4.8402729562
 20
3.0835875023
 30
0.0
 10
4.8432926696
 20
3.0814175181
 30
0.0
 10
4.8464720257
 20
3.0794785792
 30
0.0
 10
4.8481146687
 20
3.0786099869
 30
0.0
  0
SPLINE
  5
327
100
AcDbEntity
  8
0
100
AcDbSpline
 62
7
  6
CONTINUOUS
 70
0
 71
3
 72
9
 73
5
 74
0
 42
0.0000001
 43
0.0000001
 44
0.0000000001
 40
0.0
 40
0.0
 40
0.0
 40
0.0
 40
0.5000901633
 40
1.0
 40
1.0
 40
1.0
 40
1.0
 10
4.8481146687
 20
3.0786099869
 30
0.0
 10
4.8491501692
 20
3.0780624379
 30
0.0
 10
4.8512647187
 20
3.0770487058
 30
0.0
 10
4.8534909724
 20
3.0762852455
 30
0.0
 10
4.8546299012
 20
3.0760133576
 30
0.0
  0
SPLINE
  5
328
100
AcDbEntity
  8
0
100
AcDbSpline
 62
7
  6
CONTINUOUS
 70
0
 71
3
 72
9
 73
5
 74
0
 42
0.0000001
 43
0.0000001
 44
0.0000000001
 40
0.0
 40
0.0
 40
0.0
 40
0.0
 40
0.4994805966
 40
1.0
 40
1.0
 40
1.0
 40
1.0
 10
4.7766578599
 20
3.1031130066
 30
0.0
 10
4.7749026605
 20
3.1026427024
 30
0.0
 10
4.7714571447
 20
3.1014204742
 30
0.0
 10
4.7682705478
 20
3.0996144585
 30
0.0
 10
4.7667844295
 20
3.0985622645
 30
0.0
  0
SPLINE
  5
329
100
AcDbEntity
  8
0
100
AcDbSpline
 62
7
  6
CONTINUOUS
 70
0
 71
3
 72
13
 73
9
 74
0
 42
0.0000001
 43
0.0000001
 44
0.0000000001
 40
0.0
 40
0.0
 40
0.0
 40
0.0
 40
0.0944648557
 40
0.1971874876
 40
0.3084724932
 40
0.4285564609
 40
0.6957860013
 40
1.0
 40
1.0
 40
1.0
 40
1.0
 10
4.1564044798
 20
3.5761004909
 30
0.0
 10
4.1569457039
 20
3.5776474567
 30
0.0
 10
4.157953726
 20
3.5809198849
 30
0.0
 10
4.1592142315
 20
3.5861237787
 30
0.0
 10
4.1602840556
 20
3.5918228636
 30
0.0
 10
4.1614971368
 20
3.6003901702
 30
0.0
 10
4.162467835
 20
3.6123588965
 30
0.0
 10
4.1626868238
 20
3.6222753469
 30
0.0
 10
4.1626868232
 20
3.6275532827
 30
0.0
  0
SPLINE
  5
32A
100
AcDbEntity
  8
0
100
AcDbSpline
 62
7
  6
CONTINUOUS
 70
0
 71
3
 72
13
 73
9
 74
0
 42
0.0000001
 43
0.0000001
 44
0.0000000001
 40
0.0
 40
0.0
 40
0.0
 40
0.0
 40
0.308814944
 40
0.5777081272
 40
0.6974681337
 40
0.8076261642
 40
0.9083828827
 40
1.0
 40
1.0
 40
1.0
 40
1.0
 10
4.1066370054
 20
3.6302244868
 30
0.0
 10
4.1066370053
 20
3.6251454914
 30
0.0
 10
4.106800914
 20
3.6156427572
 30
0.0
 10
4.1075435352
 20
3.6041889053
 30
0.0
 10
4.1084840216
 20
3.5960375544
 30
0.0
 10
4.1093145341
 20
3.590661167
 30
0.0
 10
4.1102972608
 20
3.5857816516
 30
0.0
 10
4.1110911815
 20
3.5827165238
 30
0.0
 10
4.1115197767
 20
3.5812719624
 30
0.0
  0
SPLINE
  5
32B
100
AcDbEntity
  8
0
100
AcDbSpline
 62
7
  6
CONTINUOUS
 70
0
 71
3
 72
11
 73
7
 74
0
 42
0.0000001
 43
0.0000001
 44
0.0000000001
 40
0.0
 40
0.0
 40
0.0
 40
0.0
 40
0.3047613071
 40
0.5724385446
 40
0.8037929815
 40
1.0
 40
1.0
 40
1.0
 40
1.0
 10
3.9977401956
 20
3.6302251831
 30
0.0
 10
3.9977401956
 20
3.6254143416
 30
0.0
 10
3.9978878257
 20
3.6163767413
 30
0.0
 10
3.9986583582
 20
3.6037060554
 30
0.0
 10
3.9999625406
 20
3.5928024181
 30
0.0
 10
4.0012933016
 20
3.5861724775
 30
0.0
 10
4.0020879676
 20
3.5831789109
 30
0.0
  0
SPLINE
  5
32C
100
AcDbEntity
  8
0
100
AcDbSpline
 62
7
  6
CONTINUOUS
 70
0
 71
3
 72
11
 73
7
 74
0
 42
0.0000001
 43
0.0000001
 44
0.0000000001
 40
0.0
 40
0.0
 40
0.0
 40
0.0
 40
0.2096342807
 40
0.445700052
 40
0.7089743047
 40
1.0
 40
1.0
 40
1.0
 40
1.0
 10
4.0498457707
 20
3.584245599
 30
0.0
 10
4.050540525
 20
3.5872102465
 30
0.0
 10
4.0517292249
 20
3.5935819467
 30
0.0
 10
4.0529303045
 20
3.6038151364
 30
0.0
 10
4.0536468824
 20
3.6152776118
 30
0.0
 10
4.0537900134
 20
3.6233301431
 30
0.0
 10
4.0537900134
 20
3.6275573303
 30
0.0
  0
SPLINE
  5
32D
100
AcDbEntity
  8
0
100
AcDbSpline
 62
7
  6
CONTINUOUS
 70
0
 71
3
 72
11
 73
7
 74
0
 42
0.0000001
 43
0.0000001
 44
0.0000000001
 40
0.0
 40
0.0
 40
0.0
 40
0.0
 40
0.1987096154
 40
0.4306724922
 40
0.69744104
 40
1.0
 40
1.0
 40
1.0
 40
1.0
 10
3.3196743034
 20
2.5070522849
 30
0.0
 10
3.3163614981
 20
2.5063740132
 30
0.0
 10
3.3092872268
 20
2.5043831424
 30
0.0
 10
3.2982177051
 20
2.5000699612
 30
0.0
 10
3.2859004273
 20
2.4941970971
 30
0.0
 10
3.2774035796
 20
2.4895322747
 30
0.0
 10
3.2729446077
 20
2.4869578856
 30
0.0
  0
SPLINE
  5
32E
100
AcDbEntity
  8
0
100
AcDbSpline
 62
7
  6
CONTINUOUS
 70
0
 71
3
 72
13
 73
9
 74
0
 42
0.0000001
 43
0.0000001
 44
0.0000000001
 40
0.0
 40
0.0
 40
0.0
 40
0.0
 40
0.3072770159
 40
0.5757045872
 40
0.6956167375
 40
0.8061706208
 40
0.9075517062
 40
1.0
 40
1.0
 40
1.0
 40
1.0
 10
3.2986563786
 20
2.4370818286
 30
0.0
 10
3.3029683033
 20
2.4395713195
 30
0.0
 10
3.3109691373
 20
2.4443728966
 30
0.0
 10
3.32036031
 20
2.4506174169
 30
0.0
 10
3.3268684974
 20
2.4554149249
 30
0.0
 10
3.3310771133
 20
2.4587640818
 30
0.0
 10
3.3348002369
 20
2.4620014085
 30
0.0
 10
3.3370612662
 20
2.4641843317
 30
0.0
 10
3.3381039687
 20
2.4652598549
 30
0.0
  0
SPLINE
  5
32F
100
AcDbEntity
  8
0
100
AcDbSpline
 62
7
  6
CONTINUOUS
 70
0
 71
3
 72
11
 73
7
 74
0
 42
0.0000001
 43
0.0000001
 44
0.0000000001
 40
0.0
 40
0.0
 40
0.0
 40
0.0
 40
0.228905807
 40
0.468622721
 40
0.724226223
 40
1.0
 40
1.0
 40
1.0
 40
1.0
 10
4.0621856485
 20
3.6812212746
 30
0.0
 10
4.0644159122
 20
3.6775996208
 30
0.0
 10
4.0683629314
 20
3.6697878515
 30
0.0
 10
4.0725058312
 20
3.6569355748
 30
0.0
 10
4.0749665761
 20
3.6427799519
 30
0.0
 10
4.0754626226
 20
3.6328946522
 30
0.0
 10
4.0754626198
 20
3.6277705135
 30
0.0
  0
SPLINE
  5
330
100
AcDbEntity
  8
0
100
AcDbSpline
 62
7
  6
CONTINUOUS
 70
0
 71
3
 72
9
 73
5
 74
0
 42
0.0000001
 43
0.0000001
 44
0.0000000001
 40
0.0
 40
0.0
 40
0.0
 40
0.0
 40
0.4962006493
 40
1.0
 40
1.0
 40
1.0
 40
1.0
 10
4.0433273883
 20
3.6990386094
 30
0.0
 10
4.0446009806
 20
3.6984400923
 30
0.0
 10
4.0471006068
 20
3.6970859152
 30
0.0
 10
4.049432199
 20
3.6954602624
 30
0.0
 10
4.0505591849
 20
3.6945820384
 30
0.0
  0
SPLINE
  5
331
100
AcDbEntity
  8
0
100
AcDbSpline
 62
7
  6
CONTINUOUS
 70
0
 71
3
 72
9
 73
5
 74
0
 42
0.0000001
 43
0.0000001
 44
0.0000000001
 40
0.0
 40
0.0
 40
0.0
 40
0.0
 40
0.4856533288
 40
1.0
 40
1.0
 40
1.0
 40
1.0
 10
4.0505591849
 20
3.6945820384
 30
0.0
 10
4.0522383055
 20
3.6932735535
 30
0.0
 10
4.0554853873
 20
3.6903014942
 30
0.0
 10
4.0582785431
 20
3.6869054009
 30
0.0
 10
4.0596042866
 20
3.6850818686
 30
0.0
  0
SPLINE
  5
332
100
AcDbEntity
  8
0
100
AcDbSpline
 62
7
  6
CONTINUOUS
 70
0
 71
3
 72
11
 73
7
 74
0
 42
0.0000001
 43
0.0000001
 44
0.0000000001
 40
0.0
 40
0.0
 40
0.0
 40
0.0
 40
0.249725691
 40
0.5002794463
 40
0.7502860937
 40
1.0
 40
1.0
 40
1.0
 40
1.0
 10
4.1710821883
 20
3.6812176118
 30
0.0
 10
4.1735151908
 20
3.6772665819
 30
0.0
 10
4.1776480687
 20
3.6688775509
 30
0.0
 10
4.1817475816
 20
3.6555025553
 30
0.0
 10
4.1839462228
 20
3.6416984677
 30
0.0
 10
4.1843594214
 20
3.6324049468
 30
0.0
 10
4.1843594214
 20
3.6277651077
 30
0.0
  0
LINE
  5
333
100
AcDbEntity
  8
0
100
AcDbLine
 62
7
  6
CONTINUOUS
 10
3.888202834
 20
3.6812391369
 11
3.901731406
 21
3.6883944507
  0
LINE
  5
334
100
AcDbEntity
  8
0
100
AcDbLine
 62
7
  6
CONTINUOUS
 10
3.901731406
 20
3.6883944507
 11
3.9287722288
 21
3.7026961135
  0
SPLINE
  5
335
100
AcDbEntity
  8
0
100
AcDbSpline
 62
7
  6
CONTINUOUS
 70
0
 71
3
 72
9
 73
5
 74
0
 42
0.0000001
 43
0.0000001
 44
0.0000000001
 40
0.0
 40
0.0
 40
0.0
 40
0.0
 40
0.2503664362
 40
1.0
 40
1.0
 40
1.0
 40
1.0
 10
4.1400631544
 20
3.7024173696
 30
0.0
 10
4.1408636946
 20
3.7023269487
 30
0.0
 10
4.1440499691
 20
3.701876814
 30
0.0
 10
4.1471875424
 20
3.701052434
 30
0.0
 10
4.1494461851
 20
3.7002056031
 30
0.0
  0
SPLINE
  5
336
100
AcDbEntity
  8
0
100
AcDbSpline
 62
7
  6
CONTINUOUS
 70
0
 71
3
 72
9
 73
5
 74
0
 42
0.0000001
 43
0.0000001
 44
0.0000000001
 40
0.0
 40
0.0
 40
0.0
 40
0.0
 40
0.4997645593
 40
1.0
 40
1.0
 40
1.0
 40
1.0
 10
4.1494461851
 20
3.7002056031
 30
0.0
 10
4.1516985054
 20
3.6993611427
 30
0.0
 10
4.1560418068
 20
3.6972081062
 30
0.0
 10
4.1599115469
 20
3.6942997677
 30
0.0
 10
4.1617049367
 20
3.6926933054
 30
0.0
  0
SPLINE
  5
337
100
AcDbEntity
  8
0
100
AcDbSpline
 62
7
  6
CONTINUOUS
 70
0
 71
3
 72
9
 73
5
 74
0
 42
0.0000001
 43
0.0000001
 44
0.0000000001
 40
0.0
 40
0.0
 40
0.0
 40
0.0
 40
0.2502573402
 40
1.0
 40
1.0
 40
1.0
 40
1.0
 10
4.1617049367
 20
3.6926933054
 30
0.0
 10
4.1623383132
 20
3.6921259466
 30
0.0
 10
4.1647998499
 20
3.6897816224
 30
0.0
 10
4.1669898426
 20
3.6871597352
 30
0.0
 10
4.1684875735
 20
3.6850990251
 30
0.0
  0
LINE
  5
338
100
AcDbEntity
  8
0
100
AcDbLine
 62
7
  6
CONTINUOUS
 10
4.1684875735
 20
3.6850990251
 11
4.1710821883
 21
3.6812176118
  0
SPLINE
  5
339
100
AcDbEntity
  8
0
100
AcDbSpline
 62
7
  6
CONTINUOUS
 70
0
 71
3
 72
9
 73
5
 74
0
 42
0.0000001
 43
0.0000001
 44
0.0000000001
 40
0.0
 40
0.0
 40
0.0
 40
0.0
 40
0.7498235562
 40
1.0
 40
1.0
 40
1.0
 40
1.0
 10
4.0977757719
 20
3.679323526
 30
0.0
 10
4.0988052438
 20
3.6812018363
 30
0.0
 10
4.1003007467
 20
3.6836445557
 30
0.0
 10
4.1019799264
 20
3.6859561648
 30
0.0
 10
4.1024120096
 20
3.6865253982
 30
0.0
  0
SPLINE
  5
33A
100
AcDbEntity
  8
0
100
AcDbSpline
 62
7
  6
CONTINUOUS
 70
0
 71
3
 72
9
 73
5
 74
0
 42
0.0000001
 43
0.0000001
 44
0.0000000001
 40
0.0
 40
0.0
 40
0.0
 40
0.0
 40
0.5000219499
 40
1.0
 40
1.0
 40
1.0
 40
1.0
 10
4.1024120096
 20
3.6865253982
 30
0.0
 10
4.1037512846
 20
3.688289781
 30
0.0
 10
4.1066631128
 20
3.6916499319
 30
0.0
 10
4.1100704779
 20
3.694518843
 30
0.0
 10
4.1118841159
 20
3.695790283
 30
0.0
  0
SPLINE
  5
33B
100
AcDbEntity
  8
0
100
AcDbSpline
 62
7
  6
CONTINUOUS
 70
0
 71
3
 72
9
 73
5
 74
0
 42
0.0000001
 43
0.0000001
 44
0.0000000001
 40
0.0
 40
0.0
 40
0.0
 40
0.0
 40
0.5000004371
 40
1.0
 40
1.0
 40
1.0
 40
1.0
 10
4.1171902544
 20
3.6988948493
 30
0.0
 10
4.1199517697
 20
3.7002135555
 30
0.0
 10
4.1258332259
 20
3.7021493922
 30
0.0
 10
4.1319750311
 20
3.7026974932
 30
0.0
 10
4.1350352468
 20
3.7026973453
 30
0.0
  0
SPLINE
  5
33C
100
AcDbEntity
  8
0
100
AcDbSpline
 62
7
  6
CONTINUOUS
 70
0
 71
3
 72
11
 73
7
 74
0
 42
0.0000001
 43
0.0000001
 44
0.0000000001
 40
0.0
 40
0.0
 40
0.0
 40
0.0
 40
0.2498091251
 40
0.4998803236
 40
0.7501987802
 40
1.0
 40
1.0
 40
1.0
 40
1.0
 10
4.0849643989
 20
3.6253153931
 30
0.0
 10
4.0849643989
 20
3.6299840485
 30
0.0
 10
4.0854081655
 20
3.6393343802
 30
0.0
 10
4.0876323133
 20
3.6532121302
 30
0.0
 10
4.0916446944
 20
3.6666881713
 30
0.0
 10
4.0955319549
 20
3.6752295977
 30
0.0
 10
4.0977757719
 20
3.679323526
 30
0.0
  0
SPLINE
  5
33D
100
AcDbEntity
  8
0
100
AcDbSpline
 62
7
  6
CONTINUOUS
 70
0
 71
3
 72
9
 73
5
 74
0
 42
0.0000001
 43
0.0000001
 44
0.0000000001
 40
0.0
 40
0.0
 40
0.0
 40
0.0
 40
0.2548385014
 40
1.0
 40
1.0
 40
1.0
 40
1.0
 10
4.0261388453
 20
3.7026995576
 30
0.0
 10
4.0266623904
 20
3.7026995569
 30
0.0
 10
4.0287166076
 20
3.7026661407
 30
0.0
 10
4.0307691075
 20
3.7024954058
 30
0.0
 10
4.0322853607
 20
3.7022843342
 30
0.0
  0
SPLINE
  5
33E
100
AcDbEntity
  8
0
100
AcDbSpline
 62
7
  6
CONTINUOUS
 70
0
 71
3
 72
9
 73
5
 74
0
 42
0.0000001
 43
0.0000001
 44
0.0000000001
 40
0.0
 40
0.0
 40
0.0
 40
0.0
 40
0.5046467771
 40
1.0
 40
1.0
 40
1.0
 40
1.0
 10
4.0322853607
 20
3.7022843342
 30
0.0
 10
4.0337383773
 20
3.7020820656
 30
0.0
 10
4.0365988354
 20
3.7015280002
 30
0.0
 10
4.0393788934
 20
3.7006536595
 30
0.0
 10
4.0407250677
 20
3.7001423418
 30
0.0
  0
SPLINE
  5
33F
100
AcDbEntity
  8
0
100
AcDbSpline
 62
7
  6
CONTINUOUS
 70
0
 71
3
 72
9
 73
5
 74
0
 42
0.0000001
 43
0.0000001
 44
0.0000000001
 40
0.0
 40
0.0
 40
0.0
 40
0.0
 40
0.7498231494
 40
1.0
 40
1.0
 40
1.0
 40
1.0
 10
3.9888789949
 20
3.6793235694
 30
0.0
 10
3.9899088133
 20
3.6812025725
 30
0.0
 10
3.9914048621
 20
3.6836461789
 30
0.0
 10
3.9930847165
 20
3.6859585766
 30
0.0
 10
3.9935169776
 20
3.6865280011
 30
0.0
  0
SPLINE
  5
340
100
AcDbEntity
  8
0
100
AcDbSpline
 62
7
  6
CONTINUOUS
 70
0
 71
3
 72
9
 73
5
 74
0
 42
0.0000001
 43
0.0000001
 44
0.0000000001
 40
0.0
 40
0.0
 40
0.0
 40
0.0
 40
0.5000224594
 40
1.0
 40
1.0
 40
1.0
 40
1.0
 10
3.9935169776
 20
3.6865280011
 30
0.0
 10
3.9948568039
 20
3.6882929761
 30
0.0
 10
3.9977699
 20
3.6916541771
 30
0.0
 10
4.0011788659
 20
3.6945237228
 30
0.0
 10
4.0029933591
 20
3.6957953373
 30
0.0
  0
SPLINE
  5
341
100
AcDbEntity
  8
0
100
AcDbSpline
 62
7
  6
CONTINUOUS
 70
0
 71
3
 72
9
 73
5
 74
0
 42
0.0000001
 43
0.0000001
 44
0.0000000001
 40
0.0
 40
0.0
 40
0.0
 40
0.0
 40
0.5000015903
 40
1.0
 40
1.0
 40
1.0
 40
1.0
 10
4.00829842
 20
3.6988983398
 30
0.0
 10
4.0110593447
 20
3.7002164205
 30
0.0
 10
4.0169393133
 20
3.702151382
 30
0.0
 10
4.0230794462
 20
3.7026994764
 30
0.0
 10
4.0261388453
 20
3.7026995042
 30
0.0
  0
SPLINE
  5
342
100
AcDbEntity
  8
0
100
AcDbSpline
 62
7
  6
CONTINUOUS
 70
0
 71
3
 72
11
 73
7
 74
0
 42
0.0000001
 43
0.0000001
 44
0.0000000001
 40
0.0
 40
0.0
 40
0.0
 40
0.0
 40
0.2498060442
 40
0.4998760526
 40
0.7501962027
 40
1.0
 40
1.0
 40
1.0
 40
1.0
 10
3.976067598
 20
3.6253145884
 30
0.0
 10
3.976067598
 20
3.6299832534
 30
0.0
 10
3.9765113432
 20
3.639333641
 30
0.0
 10
3.9787355237
 20
3.653211543
 30
0.0
 10
3.9827479428
 20
3.6666878388
 30
0.0
 10
3.9866351784
 20
3.6752295092
 30
0.0
 10
3.9888789949
 20
3.6793235694
 30
0.0
  0
LINE
  5
343
100
AcDbEntity
  8
0
100
AcDbLine
 62
7
  6
CONTINUOUS
 10
4.5906362008
 20
3.4694165961
 11
4.6049995341
 21
3.4573643284
  0
LINE
  5
344
100
AcDbEntity
  8
0
100
AcDbLine
 62
7
  6
CONTINUOUS
 10
3.5166940496
 20
3.4858626105
 11
3.5316684654
 21
3.4971466422
  0
SPLINE
  5
345
100
AcDbEntity
  8
0
100
AcDbSpline
 62
7
  6
CONTINUOUS
 70
0
 71
3
 72
11
 73
7
 74
0
 42
0.0000001
 43
0.0000001
 44
0.0000000001
 40
0.0
 40
0.0
 40
0.0
 40
0.0
 40
0.2499466025
 40
0.4999324391
 40
0.7499596544
 40
1.0
 40
1.0
 40
1.0
 40
1.0
 10
4.7934629084
 20
3.1183369759
 30
0.0
 10
4.7957451886
 20
3.1173542949
 30
0.0
 10
4.8001243779
 20
3.1149518707
 30
0.0
 10
4.8061786539
 20
3.1105840708
 30
0.0
 10
4.8118400878
 20
3.1057207545
 30
0.0
 10
4.8154051516
 20
3.1022522026
 30
0.0
 10
4.8171454413
 20
3.1004772409
 30
0.0
  0
SPLINE
  5
346
100
AcDbEntity
  8
0
100
AcDbSpline
 62
7
  6
CONTINUOUS
 70
0
 71
3
 72
9
 73
5
 74
0
 42
0.0000001
 43
0.0000001
 44
0.0000000001
 40
0.0
 40
0.0
 40
0.0
 40
0.0
 40
0.499958157
 40
1.0
 40
1.0
 40
1.0
 40
1.0
 10
4.7706819326
 20
3.1196382824
 30
0.0
 10
4.7744095773
 20
3.1206371018
 30
0.0
 10
4.782205536
 20
3.1216645897
 30
0.0
 10
4.7899177738
 20
3.1198634038
 30
0.0
 10
4.7934629084
 20
3.1183369759
 30
0.0
  0
LINE
  5
347
100
AcDbEntity
  8
0
100
AcDbLine
 62
7
  6
CONTINUOUS
 10
3.2683938732
 20
2.9060468411
 11
3.2646735236
 21
2.9075932712
  0
SPLINE
  5
348
100
AcDbEntity
  8
0
100
AcDbSpline
 62
7
  6
CONTINUOUS
 70
0
 71
3
 72
9
 73
5
 74
0
 42
0.0000001
 43
0.0000001
 44
0.0000000001
 40
0.0
 40
0.0
 40
0.0
 40
0.0
 40
0.5000741224
 40
1.0
 40
1.0
 40
1.0
 40
1.0
 10
4.8147692744
 20
3.046165108
 30
0.0
 10
4.8120511584
 20
3.0434071043
 30
0.0
 10
4.8060666226
 20
3.0383812456
 30
0.0
 10
4.7988855433
 20
3.035125855
 30
0.0
 10
4.7951462936
 20
3.0341239261
 30
0.0
  0
SPLINE
  5
349
100
AcDbEntity
  8
0
100
AcDbSpline
 62
7
  6
CONTINUOUS
 70
0
 71
3
 72
12
 73
8
 74
0
 42
0.0000001
 43
0.0000001
 44
0.0000000001
 40
0.0
 40
0.0
 40
0.0
 40
0.0
 40
0.249942288
 40
0.4998926132
 40
0.7497887417
 40
0.8750094136
 40
1.0
 40
1.0
 40
1.0
 40
1.0
 10
4.8311938761
 20
3.0781569704
 30
0.0
 10
4.8302585416
 20
3.0752865221
 30
0.0
 10
4.8282626121
 20
3.069584341
 30
0.0
 10
4.8247562477
 20
3.0612279297
 30
0.0
 10
4.8212105269
 20
3.0545387182
 30
0.0
 10
4.8177961454
 20
3.0495475268
 30
0.0
 10
4.815829012
 20
3.0472403969
 30
0.0
 10
4.8147692744
 20
3.046165108
 30
0.0
  0
LINE
  5
34A
100
AcDbEntity
  8
0
100
AcDbLine
 62
7
  6
CONTINUOUS
 10
3.1574144584
 20
2.9194314261
 11
3.1547896178
 21
2.9345103554
  0
LINE
  5
34B
100
AcDbEntity
  8
0
100
AcDbLine
 62
7
  6
CONTINUOUS
 10
3.1547896178
 20
2.9345103554
 11
3.1534777222
 21
2.9420470228
  0
LINE
  5
34C
100
AcDbEntity
  8
0
100
AcDbLine
 62
7
  6
CONTINUOUS
 10
3.1534777222
 20
2.9420470228
 11
3.1495441316
 21
2.9646458365
  0
SPLINE
  5
34D
100
AcDbEntity
  8
0
100
AcDbSpline
 62
7
  6
CONTINUOUS
 70
0
 71
3
 72
9
 73
5
 74
0
 42
0.0000001
 43
0.0000001
 44
0.0000000001
 40
0.0
 40
0.0
 40
0.0
 40
0.0
 40
0.4999163709
 40
1.0
 40
1.0
 40
1.0
 40
1.0
 10
4.8929475124
 20
3.0755205514
 30
0.0
 10
4.8922231481
 20
3.0738867166
 30
0.0
 10
4.8905243139
 20
3.070720557
 30
0.0
 10
4.8882704119
 20
3.0679119497
 30
0.0
 10
4.8870171767
 20
3.0666369364
 30
0.0
  0
SPLINE
  5
34E
100
AcDbEntity
  8
0
100
AcDbSpline
 62
7
  6
CONTINUOUS
 70
0
 71
3
 72
11
 73
7
 74
0
 42
0.0000001
 43
0.0000001
 44
0.0000000001
 40
0.0
 40
0.0
 40
0.0
 40
0.0
 40
0.2499545289
 40
0.500039875
 40
0.7501160751
 40
1.0
 40
1.0
 40
1.0
 40
1.0
 10
4.8870171767
 20
3.0666369364
 30
0.0
 10
4.8861234537
 20
3.0657276827
 30
0.0
 10
4.8841999066
 20
3.0640365517
 30
0.0
 10
4.8809814676
 20
3.0619447276
 30
0.0
 10
4.8775087959
 20
3.0603138899
 30
0.0
 10
4.875078289
 20
3.0595206364
 30
0.0
 10
4.8738471352
 20
3.0591907497
 30
0.0
  0
SPLINE
  5
34F
100
AcDbEntity
  8
0
100
AcDbSpline
 62
7
  6
CONTINUOUS
 70
0
 71
3
 72
9
 73
5
 74
0
 42
0.0000001
 43
0.0000001
 44
0.0000000001
 40
0.0
 40
0.0
 40
0.0
 40
0.0
 40
0.7495936488
 40
1.0
 40
1.0
 40
1.0
 40
1.0
 10
4.8937878494
 20
3.1064237424
 30
0.0
 10
4.8949549721
 20
3.1020686559
 30
0.0
 10
4.8960349201
 20
3.0960839903
 30
0.0
 10
4.896037925
 20
3.0900600424
 30
0.0
 10
4.8959592485
 20
3.0885559184
 30
0.0
  0
SPLINE
  5
350
100
AcDbEntity
  8
0
100
AcDbSpline
 62
7
  6
CONTINUOUS
 70
0
 71
3
 72
9
 73
5
 74
0
 42
0.0000001
 43
0.0000001
 44
0.0000000001
 40
0.0
 40
0.0
 40
0.0
 40
0.0
 40
0.5002491918
 40
1.0
 40
1.0
 40
1.0
 40
1.0
 10
4.8959592485
 20
3.0885559184
 30
0.0
 10
4.8958422293
 20
3.0863187648
 30
0.0
 10
4.8952497477
 20
3.081856279
 30
0.0
 10
4.8938545759
 20
3.077566472
 30
0.0
 10
4.8929475124
 20
3.0755205514
 30
0.0
  0
SPLINE
  5
351
100
AcDbEntity
  8
0
100
AcDbSpline
 62
7
  6
CONTINUOUS
 70
0
 71
3
 72
9
 73
5
 74
0
 42
0.0000001
 43
0.0000001
 44
0.0000000001
 40
0.0
 40
0.0
 40
0.0
 40
0.0
 40
0.4999482309
 40
1.0
 40
1.0
 40
1.0
 40
1.0
 10
4.8755827471
 20
3.1330182118
 30
0.0
 10
4.8770999216
 20
3.1321344952
 30
0.0
 10
4.8799972662
 20
3.1301193603
 30
0.0
 10
4.8825360819
 20
3.1276702415
 30
0.0
 10
4.8837061017
 20
3.1263606216
 30
0.0
  0
SPLINE
  5
352
100
AcDbEntity
  8
0
100
AcDbSpline
 62
7
  6
CONTINUOUS
 70
0
 71
3
 72
9
 73
5
 74
0
 42
0.0000001
 43
0.0000001
 44
0.0000000001
 40
0.0
 40
0.0
 40
0.0
 40
0.0
 40
0.4999353872
 40
1.0
 40
1.0
 40
1.0
 40
1.0
 10
4.8866544668
 20
3.1225959985
 30
0.0
 10
4.8881119229
 20
3.1204743992
 30
0.0
 10
4.8906196327
 20
3.1159429048
 30
0.0
 10
4.8924065503
 20
3.1110979521
 30
0.0
 10
4.8931559648
 20
3.1086347905
 30
0.0
  0
SPLINE
  5
353
100
AcDbEntity
  8
0
100
AcDbSpline
 62
7
  6
CONTINUOUS
 70
0
 71
3
 72
13
 73
9
 74
0
 42
0.0000001
 43
0.0000001
 44
0.0000000001
 40
0.0
 40
0.0
 40
0.0
 40
0.0
 40
0.2497729633
 40
0.374863336
 40
0.4999598246
 40
0.6250627705
 40
0.7501694821
 40
1.0
 40
1.0
 40
1.0
 40
1.0
 10
4.8480938196
 20
3.1367333478
 30
0.0
 10
4.850385335
 20
3.1373473575
 30
0.0
 10
4.8539177766
 20
3.137976079
 30
0.0
 10
4.8586719209
 20
3.13809312
 30
0.0
 10
4.8622312493
 20
3.1377983856
 30
0.0
 10
4.8657402156
 20
3.1371322701
 30
0.0
 10
4.8702918773
 20
3.135752307
 30
0.0
 10
4.8735323226
 20
3.1342125333
 30
0.0
 10
4.8755827471
 20
3.1330182118
 30
0.0
  0
SPLINE
  5
354
100
AcDbEntity
  8
0
100
AcDbSpline
 62
7
  6
CONTINUOUS
 70
0
 71
3
 72
9
 73
5
 74
0
 42
0.0000001
 43
0.0000001
 44
0.0000000001
 40
0.0
 40
0.0
 40
0.0
 40
0.0
 40
0.5004024824
 40
1.0
 40
1.0
 40
1.0
 40
1.0
 10
4.8113142228
 20
2.950577633
 30
0.0
 10
4.8135554574
 20
2.9504488078
 30
0.0
 10
4.818064882
 20
2.950610446
 30
0.0
 10
4.8224833992
 20
2.9514793461
 30
0.0
 10
4.8246483507
 20
2.9520594431
 30
0.0
  0
LINE
  5
355
100
AcDbEntity
  8
0
100
AcDbLine
 62
7
  6
CONTINUOUS
 10
3.1910593965
 20
3.0230003909
 11
3.1884405124
 21
3.0380493533
  0
LINE
  5
356
100
AcDbEntity
  8
0
100
AcDbLine
 62
7
  6
CONTINUOUS
 10
3.1884405124
 20
3.0380493533
 11
3.1871296527
 21
3.0455821802
  0
LINE
  5
357
100
AcDbEntity
  8
0
100
AcDbLine
 62
7
  6
CONTINUOUS
 10
3.1871296527
 20
3.0455821802
 11
3.1831914005
 21
3.0682140438
  0
SPLINE
  5
358
100
AcDbEntity
  8
0
100
AcDbSpline
 62
7
  6
CONTINUOUS
 70
0
 71
3
 72
9
 73
5
 74
0
 42
0.0000001
 43
0.0000001
 44
0.0000000001
 40
0.0
 40
0.0
 40
0.0
 40
0.0
 40
0.5004012035
 40
1.0
 40
1.0
 40
1.0
 40
1.0
 10
3.3341419686
 20
3.144453765
 30
0.0
 10
3.3323324774
 20
3.1457824722
 30
0.0
 10
3.3284625092
 20
3.1481029177
 30
0.0
 10
3.3242835815
 20
3.1497806877
 30
0.0
 10
3.3221519476
 20
3.1504732976
 30
0.0
  0
SPLINE
  5
359
100
AcDbEntity
  8
0
100
AcDbSpline
 62
7
  6
CONTINUOUS
 70
0
 71
3
 72
13
 73
9
 74
0
 42
0.0000001
 43
0.0000001
 44
0.0000000001
 40
0.0
 40
0.0
 40
0.0
 40
0.0
 40
0.2498326308
 40
0.3749318684
 40
0.5000228562
 40
0.6251116252
 40
0.7502002895
 40
1.0
 40
1.0
 40
1.0
 40
1.0
 10
3.2780341467
 20
3.1683999051
 30
0.0
 10
3.2811048759
 20
3.1697624358
 30
0.0
 10
3.2858949506
 20
3.1714398766
 30
0.0
 10
3.2924959985
 20
3.1727602499
 30
0.0
 10
3.2975257388
 20
3.1732613325
 30
0.0
 10
3.3025801774
 20
3.1732759498
 30
0.0
 10
3.3092810106
 20
3.1726377032
 30
0.0
 10
3.3142171791
 20
3.17146141
 30
0.0
 10
3.3174117797
 20
3.1704234213
 30
0.0
  0
SPLINE
  5
35A
100
AcDbEntity
  8
0
100
AcDbSpline
 62
7
  6
CONTINUOUS
 70
0
 71
3
 72
14
 73
10
 74
0
 42
0.0000001
 43
0.0000001
 44
0.0000000001
 40
0.0
 40
0.0
 40
0.0
 40
0.0
 40
0.249911315
 40
0.3748977022
 40
0.4998891768
 40
0.624896315
 40
0.7499008319
 40
0.8749739644
 40
1.0
 40
1.0
 40
1.0
 40
1.0
 10
3.243602016
 20
3.1280625191
 30
0.0
 10
3.2455290834
 20
3.1321357212
 30
0.0
 10
3.2486543327
 20
3.1381436083
 30
0.0
 10
3.2534386935
 20
3.1457874126
 30
0.0
 10
3.2573897616
 20
3.1512811767
 30
0.0
 10
3.2617607266
 20
3.156450739
 30
0.0
 10
3.2666144682
 20
3.1611795896
 30
0.0
 10
3.2720061485
 20
3.1652931372
 30
0.0
 10
3.275973586
 20
3.167485602
 30
0.0
 10
3.2780341467
 20
3.1683999051
 30
0.0
  0
LINE
  5
35B
100
AcDbEntity
  8
0
100
AcDbLine
 62
7
  6
CONTINUOUS
 10
3.2109939771
 20
3.1461786459
 11
3.2291090249
 21
3.201921134
  0
LINE
  5
35C
100
AcDbEntity
  8
0
100
AcDbLine
 62
7
  6
CONTINUOUS
 10
3.256041835
 20
3.1031410132
 11
3.2370903897
 21
3.1212467433
  0
LINE
  5
35D
100
AcDbEntity
  8
0
100
AcDbLine
 62
7
  6
CONTINUOUS
 10
3.2370903897
 20
3.1212467433
 11
3.2337851654
 21
3.1244044741
  0
LINE
  5
35E
100
AcDbEntity
  8
0
100
AcDbLine
 62
7
  6
CONTINUOUS
 10
3.2337851654
 20
3.1244044741
 11
3.2262474937
 21
3.1316057857
  0
LINE
  5
35F
100
AcDbEntity
  8
0
100
AcDbLine
 62
7
  6
CONTINUOUS
 10
3.2262474937
 20
3.1316057857
 11
3.2230798272
 21
3.1346321
  0
LINE
  5
360
100
AcDbEntity
  8
0
100
AcDbLine
 62
7
  6
CONTINUOUS
 10
3.2230798272
 20
3.1346321
 11
3.2109939771
 21
3.1461786459
  0
SPLINE
  5
361
100
AcDbEntity
  8
0
100
AcDbSpline
 62
7
  6
CONTINUOUS
 70
0
 71
3
 72
13
 73
9
 74
0
 42
0.0000001
 43
0.0000001
 44
0.0000000001
 40
0.0
 40
0.0
 40
0.0
 40
0.0
 40
0.2498316808
 40
0.3749305595
 40
0.5000213142
 40
0.6251100237
 40
0.7501989211
 40
1.0
 40
1.0
 40
1.0
 40
1.0
 10
4.8714120834
 20
2.9610529852
 30
0.0
 10
4.8695789173
 20
2.958237864
 30
0.0
 10
4.8664753092
 20
2.9542222394
 30
0.0
 10
4.8616584377
 20
2.9495197748
 30
0.0
 10
4.8577131342
 20
2.9463601845
 30
0.0
 10
4.853482162
 20
2.9435951196
 30
0.0
 10
4.8475148332
 20
2.9404809127
 30
0.0
 10
4.8427344166
 20
2.9387790319
 30
0.0
 10
4.8394899063
 20
2.937909668
 30
0.0
  0
SPLINE
  5
362
100
AcDbEntity
  8
0
100
AcDbSpline
 62
7
  6
CONTINUOUS
 70
0
 71
3
 72
14
 73
10
 74
0
 42
0.0000001
 43
0.0000001
 44
0.0000000001
 40
0.0
 40
0.0
 40
0.0
 40
0.0
 40
0.2499124255
 40
0.3748991551
 40
0.4998907899
 40
0.6248978707
 40
0.7499021171
 40
0.8749746858
 40
1.0
 40
1.0
 40
1.0
 40
1.0
 10
4.878318764
 20
3.0136357085
 30
0.0
 10
4.8789211362
 20
3.0091700944
 30
0.0
 10
4.8795723934
 20
3.0024293452
 30
0.0
 10
4.8797232382
 20
2.9934129773
 30
0.0
 10
4.879401881
 20
2.9866536272
 30
0.0
 10
4.878551782
 20
2.9799374832
 30
0.0
 10
4.8770567603
 20
2.9733280112
 30
0.0
 10
4.8747754302
 20
2.9669415984
 30
0.0
 10
4.8726422109
 20
2.9629420438
 30
0.0
 10
4.8714120834
 20
2.9610529852
 30
0.0
  0
LINE
  5
363
100
AcDbEntity
  8
0
100
AcDbLine
 62
7
  6
CONTINUOUS
 10
3.1847930063
 20
2.718051605
 11
3.1831588361
 21
2.7367302556
  0
LINE
  5
364
100
AcDbEntity
  8
0
100
AcDbLine
 62
7
  6
CONTINUOUS
 10
4.9155330614
 20
3.0162018866
 11
4.9307015268
 21
2.9595865575
  0
LINE
  5
365
100
AcDbEntity
  8
0
100
AcDbLine
 62
7
  6
CONTINUOUS
 10
4.854312108
 20
3.0277612913
 11
4.8845328605
 21
3.022055196
  0
LINE
  5
366
100
AcDbEntity
  8
0
100
AcDbLine
 62
7
  6
CONTINUOUS
 10
4.8845328605
 20
3.022055196
 11
4.8947796554
 21
3.02012045
  0
LINE
  5
367
100
AcDbEntity
  8
0
100
AcDbLine
 62
7
  6
CONTINUOUS
 10
4.8947796554
 20
3.02012045
 11
4.9051130556
 21
3.0181693468
  0
LINE
  5
368
100
AcDbEntity
  8
0
100
AcDbLine
 62
7
  6
CONTINUOUS
 10
4.9051130556
 20
3.0181693468
 11
4.9155330614
 21
3.0162018866
  0
LINE
  5
369
100
AcDbEntity
  8
0
100
AcDbLine
 62
7
  6
CONTINUOUS
 10
3.4480356757
 20
2.295979516
 11
3.4442620559
 21
2.2941931644
  0
LINE
  5
36A
100
AcDbEntity
  8
0
100
AcDbLine
 62
7
  6
CONTINUOUS
 10
4.8944840406
 20
2.6620121836
 11
4.8912281373
 21
2.6435470382
  0
LINE
  5
36B
100
AcDbEntity
  8
0
100
AcDbLine
 62
7
  6
CONTINUOUS
 10
3.363694269
 20
2.2224054169
 11
3.3569960158
 21
2.2266113271
  0
LINE
  5
36C
100
AcDbEntity
  8
0
100
AcDbLine
 62
7
  6
CONTINUOUS
 10
3.3569960158
 20
2.2266113271
 11
3.3507320796
 21
2.2305445533
  0
LINE
  5
36D
100
AcDbEntity
  8
0
100
AcDbLine
 62
7
  6
CONTINUOUS
 10
3.3507320796
 20
2.2305445533
 11
3.3248271374
 21
2.24681097
  0
SPLINE
  5
36E
100
AcDbEntity
  8
0
100
AcDbSpline
 62
7
  6
CONTINUOUS
 70
0
 71
3
 72
11
 73
7
 74
0
 42
0.0000001
 43
0.0000001
 44
0.0000000001
 40
0.0
 40
0.0
 40
0.0
 40
0.0
 40
0.2454638173
 40
0.4870763551
 40
0.735241856
 40
1.0
 40
1.0
 40
1.0
 40
1.0
 10
3.2724475314
 20
2.3599408991
 30
0.0
 10
3.2731157122
 20
2.3624359455
 30
0.0
 10
3.2749104847
 20
2.3672798638
 30
0.0
 10
3.2790812651
 20
2.3738632046
 30
0.0
 10
3.2846748247
 20
2.3795734694
 30
0.0
 10
3.2891492172
 20
2.3826516069
 30
0.0
 10
3.2915619534
 20
2.3840446213
 30
0.0
  0
SPLINE
  5
36F
100
AcDbEntity
  8
0
100
AcDbSpline
 62
7
  6
CONTINUOUS
 70
0
 71
3
 72
9
 73
5
 74
0
 42
0.0000001
 43
0.0000001
 44
0.0000000001
 40
0.0
 40
0.0
 40
0.0
 40
0.0
 40
0.4999898865
 40
1.0
 40
1.0
 40
1.0
 40
1.0
 10
3.2764075691
 20
2.3306685586
 30
0.0
 10
3.2738941136
 20
2.335021857
 30
0.0
 10
3.27029385
 20
2.344738585
 30
0.0
 10
3.2711470115
 20
2.355085019
 30
0.0
 10
3.2724475167
 20
2.3599408811
 30
0.0
  0
SPLINE
  5
370
100
AcDbEntity
  8
0
100
AcDbSpline
 62
7
  6
CONTINUOUS
 70
0
 71
3
 72
12
 73
8
 74
0
 42
0.0000001
 43
0.0000001
 44
0.0000000001
 40
0.0
 40
0.0
 40
0.0
 40
0.0
 40
0.2500617845
 40
0.3751922382
 40
0.5003380131
 40
0.750516527
 40
1.0
 40
1.0
 40
1.0
 40
1.0
 10
3.2959968833
 20
2.3122434296
 30
0.0
 10
3.2939573602
 20
2.3132487279
 30
0.0
 10
3.2909952974
 20
2.3149727296
 30
0.0
 10
3.2873428262
 20
2.3176913067
 30
0.0
 10
3.2839166652
 20
2.3206931307
 30
0.0
 10
3.2800891112
 20
2.3249213082
 30
0.0
 10
3.2775418784
 20
2.3287039379
 30
0.0
 10
3.2764075691
 20
2.3306685586
 30
0.0
  0
SPLINE
  5
371
100
AcDbEntity
  8
0
100
AcDbSpline
 62
7
  6
CONTINUOUS
 70
0
 71
3
 72
9
 73
5
 74
0
 42
0.0000001
 43
0.0000001
 44
0.0000000001
 40
0.0
 40
0.0
 40
0.0
 40
0.0
 40
0.7497907891
 40
1.0
 40
1.0
 40
1.0
 40
1.0
 10
3.3374188202
 20
2.3101721019
 30
0.0
 10
3.3343687845
 20
2.3092566834
 30
0.0
 10
3.3302239461
 20
2.3082605217
 30
0.0
 10
3.3260179942
 20
2.3076617269
 30
0.0
 10
3.3249624681
 20
2.3075387363
 30
0.0
  0
SPLINE
  5
372
100
AcDbEntity
  8
0
100
AcDbSpline
 62
7
  6
CONTINUOUS
 70
0
 71
3
 72
9
 73
5
 74
0
 42
0.0000001
 43
0.0000001
 44
0.0000000001
 40
0.0
 40
0.0
 40
0.0
 40
0.0
 40
0.4997912432
 40
1.0
 40
1.0
 40
1.0
 40
1.0
 10
3.3208138068
 20
2.3071981456
 30
0.0
 10
3.3181377811
 20
2.3070724609
 30
0.0
 10
3.3127565187
 20
2.3071923414
 30
0.0
 10
3.3074586969
 20
2.3081739229
 30
0.0
 10
3.3048713868
 20
2.3088772953
 30
0.0
  0
LINE
  5
373
100
AcDbEntity
  8
0
100
AcDbLine
 62
7
  6
CONTINUOUS
 10
4.7190847776
 20
2.4096757512
 11
4.7815792236
 21
2.3253635615
  0
SPLINE
  5
374
100
AcDbEntity
  8
0
100
AcDbSpline
 62
7
  6
CONTINUOUS
 70
0
 71
3
 72
9
 73
5
 74
0
 42
0.0000001
 43
0.0000001
 44
0.0000000001
 40
0.0
 40
0.0
 40
0.0
 40
0.0
 40
0.4934259694
 40
1.0
 40
1.0
 40
1.0
 40
1.0
 10
3.3245245064
 20
2.3751762725
 30
0.0
 10
3.3218330903
 20
2.3745742258
 30
0.0
 10
3.316466225
 20
2.3729259685
 30
0.0
 10
3.311413842
 20
2.3704807487
 30
0.0
 10
3.3089617537
 20
2.369065051
 30
0.0
  0
SPLINE
  5
375
100
AcDbEntity
  8
0
100
AcDbSpline
 62
7
  6
CONTINUOUS
 70
0
 71
3
 72
9
 73
5
 74
0
 42
0.0000001
 43
0.0000001
 44
0.0000000001
 40
0.0
 40
0.0
 40
0.0
 40
0.0
 40
0.4864083843
 40
1.0
 40
1.0
 40
1.0
 40
1.0
 10
3.3402523442
 20
2.376783706
 30
0.0
 10
3.3376852711
 20
2.3768695075
 30
0.0
 10
3.3323899094
 20
2.3766549613
 30
0.0
 10
3.3271711739
 20
2.3757683204
 30
0.0
 10
3.324524533
 20
2.3751762879
 30
0.0
  0
SPLINE
  5
376
100
AcDbEntity
  8
0
100
AcDbSpline
 62
7
  6
CONTINUOUS
 70
0
 71
3
 72
9
 73
5
 74
0
 42
0.0000001
 43
0.0000001
 44
0.0000000001
 40
0.0
 40
0.0
 40
0.0
 40
0.0
 40
0.2524030866
 40
1.0
 40
1.0
 40
1.0
 40
1.0
 10
3.3653130904
 20
2.3743551094
 30
0.0
 10
3.3632195021
 20
2.374682627
 30
0.0
 10
3.3549079039
 20
2.3758667635
 30
0.0
 10
3.3465253972
 20
2.3765741032
 30
0.0
 10
3.3402524455
 20
2.3767837645
 30
0.0
  0
SPLINE
  5
377
100
AcDbEntity
  8
0
100
AcDbSpline
 62
7
  6
CONTINUOUS
 70
0
 71
3
 72
9
 73
5
 74
0
 42
0.0000001
 43
0.0000001
 44
0.0000000001
 40
0.0
 40
0.0
 40
0.0
 40
0.0
 40
0.5490455043
 40
1.0
 40
1.0
 40
1.0
 40
1.0
 10
3.3843231546
 20
2.3707817337
 30
0.0
 10
3.3808544806
 20
2.371489835
 30
0.0
 10
3.3745327069
 20
2.3727586969
 30
0.0
 10
3.3681862375
 20
2.3739059024
 30
0.0
 10
3.3653134501
 20
2.374355317
 30
0.0
  0
LINE
  5
378
100
AcDbEntity
  8
0
100
AcDbLine
 62
7
  6
CONTINUOUS
 10
4.8333483658
 20
2.365619187
 11
4.7974048106
 21
2.3142827757
  0
LINE
  5
379
100
AcDbEntity
  8
0
100
AcDbLine
 62
7
  6
CONTINUOUS
 10
4.7974048106
 20
2.3142827757
 11
4.7855250463
 21
2.2973162889
  0
LINE
  5
37A
100
AcDbEntity
  8
0
100
AcDbLine
 62
7
  6
CONTINUOUS
 10
4.8122979041
 20
2.3967806861
 11
4.8157604107
 21
2.3916550624
  0
LINE
  5
37B
100
AcDbEntity
  8
0
100
AcDbLine
 62
7
  6
CONTINUOUS
 10
4.8157604107
 20
2.3916550624
 11
4.8192412788
 21
2.386502255
  0
LINE
  5
37C
100
AcDbEntity
  8
0
100
AcDbLine
 62
7
  6
CONTINUOUS
 10
4.8192412788
 20
2.386502255
 11
4.8218585047
 21
2.3826279146
  0
LINE
  5
37D
100
AcDbEntity
  8
0
100
AcDbLine
 62
7
  6
CONTINUOUS
 10
4.8218585047
 20
2.3826279146
 11
4.8333483658
 21
2.365619187
  0
LINE
  5
37E
100
AcDbEntity
  8
0
100
AcDbLine
 62
7
  6
CONTINUOUS
 10
3.3551478664
 20
2.4288922975
 11
3.3545059928
 21
2.4332062515
  0
SPLINE
  5
37F
100
AcDbEntity
  8
0
100
AcDbSpline
 62
7
  6
CONTINUOUS
 70
0
 71
3
 72
10
 73
6
 74
0
 42
0.0000001
 43
0.0000001
 44
0.0000000001
 40
0.0
 40
0.0
 40
0.0
 40
0.0
 40
0.2504617206
 40
0.5007108523
 40
1.0
 40
1.0
 40
1.0
 40
1.0
 10
4.6399440429
 20
2.2975658694
 30
0.0
 10
4.6406551126
 20
2.2965034282
 30
0.0
 10
4.6421914502
 20
2.2944535962
 30
0.0
 10
4.6456569628
 20
2.2906979743
 30
0.0
 10
4.648631339
 20
2.2882532063
 30
0.0
 10
4.6507189746
 20
2.2867914282
 30
0.0
  0
SPLINE
  5
380
100
AcDbEntity
  8
0
100
AcDbSpline
 62
7
  6
CONTINUOUS
 70
0
 71
3
 72
11
 73
7
 74
0
 42
0.0000001
 43
0.0000001
 44
0.0000000001
 40
0.0
 40
0.0
 40
0.0
 40
0.0
 40
0.2497255536
 40
0.5002791967
 40
0.7502859063
 40
1.0
 40
1.0
 40
1.0
 40
1.0
 10
3.2222722809
 20
2.4673963773
 30
0.0
 10
3.2244774601
 20
2.4714789251
 30
0.0
 10
3.2296761169
 20
2.4792525986
 30
0.0
 10
3.2392094263
 20
2.4894903471
 30
0.0
 10
3.2500647743
 20
2.4982964477
 30
0.0
 10
3.2579065849
 20
2.5033010399
 30
0.0
 10
3.2619247968
 20
2.5056209556
 30
0.0
  0
SPLINE
  5
381
100
AcDbEntity
  8
0
100
AcDbSpline
 62
7
  6
CONTINUOUS
 70
0
 71
3
 72
11
 73
7
 74
0
 42
0.0000001
 43
0.0000001
 44
0.0000000001
 40
0.0
 40
0.0
 40
0.0
 40
0.0
 40
0.2496342264
 40
0.4999848378
 40
0.750069663
 40
1.0
 40
1.0
 40
1.0
 40
1.0
 10
3.2216938316
 20
2.4254390042
 30
0.0
 10
3.2208832811
 20
2.4268430628
 30
0.0
 10
3.2194061196
 20
2.4297430198
 30
0.0
 10
3.2176911682
 20
2.4343138793
 30
0.0
 10
3.21654965
 20
2.4390655555
 30
0.0
 10
3.2162292072
 20
2.4423086731
 30
0.0
 10
3.216173437
 20
2.4439308634
 30
0.0
  0
SPLINE
  5
382
100
AcDbEntity
  8
0
100
AcDbSpline
 62
7
  6
CONTINUOUS
 70
0
 71
3
 72
11
 73
7
 74
0
 42
0.0000001
 43
0.0000001
 44
0.0000000001
 40
0.0
 40
0.0
 40
0.0
 40
0.0
 40
0.2503636823
 40
0.500521606
 40
0.7504098646
 40
1.0
 40
1.0
 40
1.0
 40
1.0
 10
3.216173437
 20
2.4439308634
 30
0.0
 10
3.2161031264
 20
2.4459759896
 30
0.0
 10
3.2162917186
 20
2.4500825432
 30
0.0
 10
3.2175014007
 20
2.4561168393
 30
0.0
 10
3.2195276904
 20
2.4619162818
 30
0.0
 10
3.2213027661
 20
2.4656014706
 30
0.0
 10
3.2222722809
 20
2.4673963773
 30
0.0
  0
SPLINE
  5
383
100
AcDbEntity
  8
0
100
AcDbSpline
 62
7
  6
CONTINUOUS
 70
0
 71
3
 72
11
 73
7
 74
0
 42
0.0000001
 43
0.0000001
 44
0.0000000001
 40
0.0
 40
0.0
 40
0.0
 40
0.0
 40
0.249867484
 40
0.4998897899
 40
0.7498709177
 40
1.0
 40
1.0
 40
1.0
 40
1.0
 10
3.2605660299
 20
2.4048582889
 30
0.0
 10
3.2584890842
 20
2.4048121139
 30
0.0
 10
3.25432565
 20
2.4049130696
 30
0.0
 10
3.2481349667
 20
2.4057759982
 30
0.0
 10
3.2421104936
 20
2.4074717032
 30
0.0
 10
3.2383171969
 20
2.4092289582
 30
0.0
 10
3.2365099521
 20
2.4102579109
 30
0.0
  0
SPLINE
  5
384
100
AcDbEntity
  8
0
100
AcDbSpline
 62
7
  6
CONTINUOUS
 70
0
 71
3
 72
9
 73
5
 74
0
 42
0.0000001
 43
0.0000001
 44
0.0000000001
 40
0.0
 40
0.0
 40
0.0
 40
0.0
 40
0.5000003139
 40
1.0
 40
1.0
 40
1.0
 40
1.0
 10
3.2339106154
 20
2.4118852403
 30
0.0
 10
3.2313875558
 20
2.4136174618
 30
0.0
 10
3.2267698425
 20
2.4177432226
 30
0.0
 10
3.2232239424
 20
2.4227885028
 30
0.0
 10
3.2216938316
 20
2.4254390042
 30
0.0
  0
SPLINE
  5
385
100
AcDbEntity
  8
0
100
AcDbSpline
 62
7
  6
CONTINUOUS
 70
0
 71
3
 72
11
 73
7
 74
0
 42
0.0000001
 43
0.0000001
 44
0.0000000001
 40
0.0
 40
0.0
 40
0.0
 40
0.0
 40
0.2498089075
 40
0.499880021
 40
0.7501985905
 40
1.0
 40
1.0
 40
1.0
 40
1.0
 10
3.3137441765
 20
2.4207674023
 30
0.0
 10
3.3097010024
 20
2.4184330747
 30
0.0
 10
3.3013814929
 20
2.4141422197
 30
0.0
 10
3.2882509266
 20
2.4091295111
 30
0.0
 10
3.274574127
 20
2.4058663099
 30
0.0
 10
3.2652333918
 20
2.4049620547
 30
0.0
 10
3.2605660299
 20
2.4048582889
 30
0.0
  0
SPLINE
  5
386
100
AcDbEntity
  8
0
100
AcDbSpline
 62
7
  6
CONTINUOUS
 70
0
 71
3
 72
11
 73
7
 74
0
 42
0.0000001
 43
0.0000001
 44
0.0000000001
 40
0.0
 40
0.0
 40
0.0
 40
0.0
 40
0.2501087843
 40
0.4972730997
 40
0.7442914491
 40
1.0
 40
1.0
 40
1.0
 40
1.0
 10
3.3174116395
 20
3.1704229841
 30
0.0
 10
3.3142297538
 20
3.1714433297
 30
0.0
 10
3.3077247165
 20
3.172971257
 30
0.0
 10
3.2977329603
 20
3.1734303153
 30
0.0
 10
3.2877662542
 20
3.1719388156
 30
0.0
 10
3.2813871016
 20
3.1697107779
 30
0.0
 10
3.2782648506
 20
3.168325274
 30
0.0
  0
SPLINE
  5
387
100
AcDbEntity
  8
0
100
AcDbSpline
 62
7
  6
CONTINUOUS
 70
0
 71
3
 72
11
 73
7
 74
0
 42
0.0000001
 43
0.0000001
 44
0.0000000001
 40
0.0
 40
0.0
 40
0.0
 40
0.0
 40
0.2383414606
 40
0.4814886008
 40
0.7339949944
 40
1.0
 40
1.0
 40
1.0
 40
1.0
 10
3.9888789925
 20
3.679160601
 30
0.0
 10
3.9867380625
 20
3.6752543342
 30
0.0
 10
3.982954388
 20
3.6670528466
 30
0.0
 10
3.9789399601
 20
3.6538949688
 30
0.0
 10
3.9765577251
 20
3.6398249368
 30
0.0
 10
3.976067598
 20
3.6301236364
 30
0.0
 10
3.976067598
 20
3.6251521252
 30
0.0
  0
SPLINE
  5
388
100
AcDbEntity
  8
0
100
AcDbSpline
 62
7
  6
CONTINUOUS
 70
0
 71
3
 72
11
 73
7
 74
0
 42
0.0000001
 43
0.0000001
 44
0.0000000001
 40
0.0
 40
0.0
 40
0.0
 40
0.0
 40
0.2757738182
 40
0.531377301
 40
0.7710941824
 40
1.0
 40
1.0
 40
1.0
 40
1.0
 10
4.0754626198
 20
3.6276070618
 30
0.0
 10
4.0754626198
 20
3.6327312183
 30
0.0
 10
4.0749665639
 20
3.6426165513
 30
0.0
 10
4.0725057902
 20
3.6567722182
 30
0.0
 10
4.0683628477
 20
3.6696245282
 30
0.0
 10
4.0644157908
 20
3.6774363112
 30
0.0
 10
4.0621855067
 20
3.6810579694
 30
0.0
  0
SPLINE
  5
389
100
AcDbEntity
  8
0
100
AcDbSpline
 62
7
  6
CONTINUOUS
 70
0
 71
3
 72
15
 73
11
 74
0
 42
0.0000001
 43
0.0000001
 44
0.0000000001
 40
0.0
 40
0.0
 40
0.0
 40
0.0
 40
0.0993513598
 40
0.203695277
 40
0.3144602651
 40
0.4328500972
 40
0.5598589394
 40
0.6962992572
 40
0.8428328871
 40
1.0
 40
1.0
 40
1.0
 40
1.0
 10
3.2782648506
 20
3.168325274
 30
0.0
 10
3.2766272569
 20
3.1675985891
 30
0.0
 10
3.2733694547
 20
3.1658751139
 30
0.0
 10
3.2687160593
 20
3.1626128332
 30
0.0
 10
3.2641989881
 20
3.1586254668
 30
0.0
 10
3.2598196105
 20
3.1539151565
 30
0.0
 10
3.255577587
 20
3.1484820183
 30
0.0
 10
3.2514734526
 20
3.1423254064
 30
0.0
 10
3.2475082292
 20
3.1354444377
 30
0.0
 10
3.2450465969
 20
3.1305488989
 30
0.0
 10
3.2438346195
 20
3.1279869416
 30
0.0
  0
SPLINE
  5
38A
100
AcDbEntity
  8
0
100
AcDbSpline
 62
7
  6
CONTINUOUS
 70
0
 71
3
 72
11
 73
7
 74
0
 42
0.0000001
 43
0.0000001
 44
0.0000000001
 40
0.0
 40
0.0
 40
0.0
 40
0.0
 40
0.2383414606
 40
0.4814886008
 40
0.7339949944
 40
1.0
 40
1.0
 40
1.0
 40
1.0
 10
4.0977757933
 20
3.679160601
 30
0.0
 10
4.0956348634
 20
3.6752543342
 30
0.0
 10
4.0918511888
 20
3.6670528466
 30
0.0
 10
4.087836761
 20
3.6538949688
 30
0.0
 10
4.085454526
 20
3.6398249368
 30
0.0
 10
4.0849643989
 20
3.6301236364
 30
0.0
 10
4.0849643989
 20
3.6251521252
 30
0.0
  0
SPLINE
  5
38B
100
AcDbEntity
  8
0
100
AcDbSpline
 62
7
  6
CONTINUOUS
 70
0
 71
3
 72
11
 73
7
 74
0
 42
0.0000001
 43
0.0000001
 44
0.0000000001
 40
0.0
 40
0.0
 40
0.0
 40
0.0
 40
0.2757738373
 40
0.5313773209
 40
0.771094187
 40
1.0
 40
1.0
 40
1.0
 40
1.0
 10
4.1843594118
 20
3.6276070618
 30
0.0
 10
4.1843594118
 20
3.6327312183
 30
0.0
 10
4.1838633579
 20
3.6426165508
 30
0.0
 10
4.181402591
 20
3.6567722177
 30
0.0
 10
4.1772596551
 20
3.6696245284
 30
0.0
 10
4.1733126004
 20
3.6774363116
 30
0.0
 10
4.1710823165
 20
3.6810579694
 30
0.0
  0
SPLINE
  5
38C
100
AcDbEntity
  8
0
100
AcDbSpline
 62
7
  6
CONTINUOUS
 70
0
 71
3
 72
13
 73
9
 74
0
 42
0.0000001
 43
0.0000001
 44
0.0000000001
 40
0.0
 40
0.0
 40
0.0
 40
0.0
 40
0.24983201
 40
0.374931015
 40
0.500021848
 40
0.6251105717
 40
0.7501993845
 40
1.0
 40
1.0
 40
1.0
 40
1.0
 10
4.6876676158
 20
2.2567492885
 30
0.0
 10
4.6843327494
 20
2.2563440625
 30
0.0
 10
4.6792616121
 20
2.2561403833
 30
0.0
 10
4.6725630521
 20
2.2568076475
 30
0.0
 10
4.6676066484
 20
2.2577989916
 30
0.0
 10
4.6627688478
 20
2.2592627656
 30
0.0
 10
4.6565474789
 20
2.2618322392
 30
0.0
 10
4.6521709553
 20
2.2644003106
 30
0.0
 10
4.649419445
 20
2.2663269389
 30
0.0
  0
SPLINE
  5
38D
100
AcDbEntity
  8
0
100
AcDbSpline
 62
7
  6
CONTINUOUS
 70
0
 71
3
 72
14
 73
10
 74
0
 42
0.0000001
 43
0.0000001
 44
0.0000000001
 40
0.0
 40
0.0
 40
0.0
 40
0.0
 40
0.2499120731
 40
0.3748986951
 40
0.4998902806
 40
0.6248973807
 40
0.7499017166
 40
0.8749744604
 40
1.0
 40
1.0
 40
1.0
 40
1.0
 10
4.7323881656
 20
2.2852577198
 30
0.0
 10
4.7293544726
 20
2.2819258593
 30
0.0
 10
4.7246093328
 20
2.2770941353
 30
0.0
 10
4.7177992984
 20
2.2711830235
 30
0.0
 10
4.7124147291
 20
2.267084408
 30
0.0
 10
4.7067233913
 20
2.2634186021
 30
0.0
 10
4.700699222
 20
2.2603154023
 30
0.0
 10
4.694340502
 20
2.2579579221
 30
0.0
 10
4.6899054392
 20
2.2570212107
 30
0.0
 10
4.6876676158
 20
2.2567492885
 30
0.0
  0
SPLINE
  5
38E
100
AcDbEntity
  8
0
100
AcDbSpline
 62
7
  6
CONTINUOUS
 70
0
 71
3
 72
13
 73
9
 74
0
 42
0.0000001
 43
0.0000001
 44
0.0000000001
 40
0.0
 40
0.0
 40
0.0
 40
0.0
 40
0.249974249
 40
0.3749730931
 40
0.4999763749
 40
0.6249766436
 40
0.7500086791
 40
1.0
 40
1.0
 40
1.0
 40
1.0
 10
3.273083338
 20
2.4870379815
 30
0.0
 10
3.2767557724
 20
2.4891582625
 30
0.0
 10
3.2823210383
 20
2.4922440254
 30
0.0
 10
3.2898839433
 20
2.4960851765
 30
0.0
 10
3.2956327314
 20
2.4988109662
 30
0.0
 10
3.3014708309
 20
2.5013451119
 30
0.0
 10
3.3093863291
 20
2.50439139
 30
0.0
 10
3.3155013581
 20
2.506241707
 30
0.0
 10
3.3196544398
 20
2.5071000397
 30
0.0
  0
SPLINE
  5
38F
100
AcDbEntity
  8
0
100
AcDbSpline
 62
7
  6
CONTINUOUS
 70
0
 71
3
 72
11
 73
7
 74
0
 42
0.0000001
 43
0.0000001
 44
0.0000000001
 40
0.0
 40
0.0
 40
0.0
 40
0.0
 40
0.2545979562
 40
0.5002825748
 40
0.745822157
 40
1.0
 40
1.0
 40
1.0
 40
1.0
 10
4.6492870567
 20
2.2664196307
 30
0.0
 10
4.6520897889
 20
2.2644571365
 30
0.0
 10
4.657927419
 20
2.2610396486
 30
0.0
 10
4.6674246004
 20
2.2576521517
 30
0.0
 10
4.6773918852
 20
2.2561644977
 30
0.0
 10
4.6841437177
 20
2.2564300978
 30
0.0
 10
4.6875346257
 20
2.2568422042
 30
0.0
  0
SPLINE
  5
390
100
AcDbEntity
  8
0
100
AcDbSpline
 62
7
  6
CONTINUOUS
 70
0
 71
3
 72
15
 73
11
 74
0
 42
0.0000001
 43
0.0000001
 44
0.0000000001
 40
0.0
 40
0.0
 40
0.0
 40
0.0
 40
0.0993513041
 40
0.2036952031
 40
0.3144602019
 40
0.4328500624
 40
0.5598589382
 40
0.6962992815
 40
0.842832916
 40
1.0
 40
1.0
 40
1.0
 40
1.0
 10
4.6875346257
 20
2.2568422042
 30
0.0
 10
4.6893131252
 20
2.2570583501
 30
0.0
 10
4.6929324707
 20
2.2577540289
 30
0.0
 10
4.6983363314
 20
2.2595132436
 30
0.0
 10
4.7038218203
 20
2.2620057191
 30
0.0
 10
4.7093870012
 20
2.265229807
 30
0.0
 10
4.7150321646
 20
2.2691852969
 30
0.0
 10
4.720756987
 20
2.2738729622
 30
0.0
 10
4.7265607492
 20
2.2792939457
 30
0.0
 10
4.7303461365
 20
2.2832558604
 30
0.0
 10
4.7322541997
 20
2.2853515237
 30
0.0
  0
LINE
  5
391
100
AcDbEntity
  8
0
100
AcDbLine
 62
7
  6
CONTINUOUS
 10
4.7582748169
 20
2.2583994527
 11
4.7246546476
 21
2.2103883909
  0
LINE
  5
392
100
AcDbEntity
  8
0
100
AcDbLine
 62
7
  6
CONTINUOUS
 10
4.7277779554
 20
2.3127275322
 11
4.7406079265
 21
2.2898718523
  0
LINE
  5
393
100
AcDbEntity
  8
0
100
AcDbLine
 62
7
  6
CONTINUOUS
 10
4.7406079265
 20
2.2898718523
 11
4.7428362274
 21
2.285902287
  0
LINE
  5
394
100
AcDbEntity
  8
0
100
AcDbLine
 62
7
  6
CONTINUOUS
 10
4.7428362274
 20
2.285902287
 11
4.7479401664
 21
2.2768099633
  0
LINE
  5
395
100
AcDbEntity
  8
0
100
AcDbLine
 62
7
  6
CONTINUOUS
 10
4.7479401664
 20
2.2768099633
 11
4.7500929104
 21
2.272974992
  0
LINE
  5
396
100
AcDbEntity
  8
0
100
AcDbLine
 62
7
  6
CONTINUOUS
 10
4.7500929104
 20
2.272974992
 11
4.7582748169
 21
2.2583994527
  0
SPLINE
  5
397
100
AcDbEntity
  8
0
100
AcDbSpline
 62
7
  6
CONTINUOUS
 70
0
 71
3
 72
11
 73
7
 74
0
 42
0.0000001
 43
0.0000001
 44
0.0000000001
 40
0.0
 40
0.0
 40
0.0
 40
0.0
 40
0.2951082434
 40
0.5587973162
 40
0.7928918167
 40
1.0
 40
1.0
 40
1.0
 40
1.0
 10
4.8169893849
 20
3.1004354257
 30
0.0
 10
4.8149354245
 20
3.1025304721
 30
0.0
 10
4.8109345659
 20
3.1063912966
 30
0.0
 10
4.8048721783
 20
3.1114436452
 30
0.0
 10
4.7990917368
 20
3.1154249937
 30
0.0
 10
4.7951992058
 20
3.117481253
 30
0.0
 10
4.7933080358
 20
3.1182955945
 30
0.0
  0
SPLINE
  5
398
100
AcDbEntity
  8
0
100
AcDbSpline
 62
7
  6
CONTINUOUS
 70
0
 71
3
 72
11
 73
7
 74
0
 42
0.0000001
 43
0.0000001
 44
0.0000000001
 40
0.0
 40
0.0
 40
0.0
 40
0.0
 40
0.2570045643
 40
0.50239768
 40
0.7466221646
 40
1.0
 40
1.0
 40
1.0
 40
1.0
 10
4.8754269945
 20
3.1329767911
 30
0.0
 10
4.8733191933
 20
3.1342046163
 30
0.0
 10
4.8689784514
 20
3.1362582702
 30
0.0
 10
4.8620450638
 20
3.1379510461
 30
0.0
 10
4.8549452424
 20
3.1381449534
 30
0.0
 10
4.850261972
 20
3.1373142972
 30
0.0
 10
4.8479390003
 20
3.1366918588
 30
0.0
  0
SPLINE
  5
399
100
AcDbEntity
  8
0
100
AcDbSpline
 62
7
  6
CONTINUOUS
 70
0
 71
3
 72
12
 73
8
 74
0
 42
0.0000001
 43
0.0000001
 44
0.0000000001
 40
0.0
 40
0.0
 40
0.0
 40
0.0
 40
0.192900145
 40
0.3024599368
 40
0.4214960277
 40
0.6896216386
 40
1.0
 40
1.0
 40
1.0
 40
1.0
 10
4.8146114632
 20
3.0461228354
 30
0.0
 10
4.8162468616
 20
3.0477822157
 30
0.0
 10
4.8185224959
 20
3.0506717894
 30
0.0
 10
4.8212353232
 20
3.0549798674
 30
0.0
 10
4.8241094622
 20
3.0602508151
 30
0.0
 10
4.827531849
 20
3.0679627825
 30
0.0
 10
4.8298752613
 20
3.0745506417
 30
0.0
 10
4.8310367604
 20
3.0781148713
 30
0.0
  0
SPLINE
  5
39A
100
AcDbEntity
  8
0
100
AcDbSpline
 62
7
  6
CONTINUOUS
 70
0
 71
3
 72
11
 73
7
 74
0
 42
0.0000001
 43
0.0000001
 44
0.0000000001
 40
0.0
 40
0.0
 40
0.0
 40
0.0
 40
0.2378967205
 40
0.4809488548
 40
0.733719591
 40
1.0
 40
1.0
 40
1.0
 40
1.0
 10
4.794988349
 20
3.0340816081
 30
0.0
 10
4.7967717691
 20
3.034559474
 30
0.0
 10
4.8003083062
 20
3.0358047726
 30
0.0
 10
4.8053598636
 20
3.0384722813
 30
0.0
 10
4.810183119
 20
3.0419231251
 30
0.0
 10
4.8131608171
 20
3.0446509168
 30
0.0
 10
4.8146114632
 20
3.0461228354
 30
0.0
  0
LINE
  5
39B
100
AcDbEntity
  8
0
100
AcDbLine
 62
7
  6
CONTINUOUS
 10
4.1224419779
 20
1.8874545122
 11
4.1104008739
 21
1.8874540551
  0
LINE
  5
39C
100
AcDbEntity
  8
0
100
AcDbLine
 62
7
  6
CONTINUOUS
 10
4.1104008739
 20
1.8874540551
 11
4.0621930454
 21
1.8874529773
  0
LINE
  5
39D
100
AcDbEntity
  8
0
100
AcDbLine
 62
7
  6
CONTINUOUS
 10
4.0621930454
 20
1.8874529773
 11
4.0501302351
 21
1.8874528967
  0
SPLINE
  5
39E
100
AcDbEntity
  8
0
100
AcDbSpline
 62
7
  6
CONTINUOUS
 70
0
 71
3
 72
15
 73
11
 74
0
 42
0.0000001
 43
0.0000001
 44
0.0000000001
 40
0.0
 40
0.0
 40
0.0
 40
0.0
 40
0.0627310395
 40
0.1253780319
 40
0.2503984409
 40
0.3753127608
 40
0.5002313592
 40
0.6251609061
 40
0.750112597
 40
1.0
 40
1.0
 40
1.0
 40
1.0
 10
3.3381277186
 20
2.4652097835
 30
0.0
 10
3.3374192591
 20
2.4644859464
 30
0.0
 10
3.3359697322
 20
2.4630719429
 30
0.0
 10
3.3329832376
 20
2.4603461977
 30
0.0
 10
3.3291083127
 20
2.457108388
 30
0.0
 10
3.3242846346
 20
2.4534503282
 30
0.0
 10
3.3193393729
 20
2.4499621311
 30
0.0
 10
3.3143065497
 20
2.4466009133
 30
0.0
 10
3.3074943155
 20
2.4422749376
 30
0.0
 10
3.3022914473
 20
2.4391805365
 30
0.0
 10
3.2987973459
 20
2.4371632161
 30
0.0
  0
SPLINE
  5
39F
100
AcDbEntity
  8
0
100
AcDbSpline
 62
7
  6
CONTINUOUS
 70
0
 71
3
 72
11
 73
7
 74
0
 42
0.0000001
 43
0.0000001
 44
0.0000000001
 40
0.0
 40
0.0
 40
0.0
 40
0.0
 40
0.24625692
 40
0.4902530182
 40
0.7392990093
 40
1.0
 40
1.0
 40
1.0
 40
1.0
 10
4.7933080358
 20
3.1182955945
 30
0.0
 10
4.7915559812
 20
3.1190500326
 30
0.0
 10
4.7879312155
 20
3.1202582768
 30
0.0
 10
4.7822330047
 20
3.1210734246
 30
0.0
 10
4.776370347
 20
3.1208818561
 30
0.0
 10
4.7724782256
 20
3.1201196196
 30
0.0
 10
4.7705275664
 20
3.119596942
 30
0.0
  0
SPLINE
  5
3A0
100
AcDbEntity
  8
0
100
AcDbSpline
 62
7
  6
CONTINUOUS
 70
0
 71
3
 72
11
 73
7
 74
0
 42
0.0000001
 43
0.0000001
 44
0.0000000001
 40
0.0
 40
0.0
 40
0.0
 40
0.0
 40
0.2757738373
 40
0.5313773209
 40
0.771094187
 40
1.0
 40
1.0
 40
1.0
 40
1.0
 10
3.2620621686
 20
2.5057002561
 30
0.0
 10
3.257624519
 20
2.5031381779
 30
0.0
 10
3.2493115968
 20
2.4977659164
 30
0.0
 10
3.2382828131
 20
2.4885569962
 30
0.0
 10
3.2292238535
 20
2.4785429532
 30
0.0
 10
3.2244321782
 20
2.471218812
 30
0.0
 10
3.2224108724
 20
2.4674765006
 30
0.0
  0
SPLINE
  5
3A1
100
AcDbEntity
  8
0
100
AcDbSpline
 62
7
  6
CONTINUOUS
 70
0
 71
3
 72
10
 73
6
 74
0
 42
0.0000001
 43
0.0000001
 44
0.0000000001
 40
0.0
 40
0.0
 40
0.0
 40
0.0
 40
0.2501336946
 40
0.5003271715
 40
1.0
 40
1.0
 40
1.0
 40
1.0
 10
4.7667733346
 20
3.0986207251
 30
0.0
 10
4.7675070522
 20
3.0991349845
 30
0.0
 10
4.7690247812
 20
3.1000945984
 30
0.0
 10
4.772224108
 20
3.101713783
 30
0.0
 10
4.7747737205
 20
3.1026081514
 30
0.0
 10
4.7765025898
 20
3.1030714006
 30
0.0
  0
SPLINE
  5
3A2
100
AcDbEntity
  8
0
100
AcDbSpline
 62
7
  6
CONTINUOUS
 70
0
 71
3
 72
12
 73
8
 74
0
 42
0.0000001
 43
0.0000001
 44
0.0000000001
 40
0.0
 40
0.0
 40
0.0
 40
0.0
 40
0.2500175778
 40
0.3751386656
 40
0.5005366191
 40
0.7506798934
 40
1.0
 40
1.0
 40
1.0
 40
1.0
 10
4.8344690264
 20
3.0879872848
 30
0.0
 10
4.8356175958
 20
3.0914157718
 30
0.0
 10
4.8375119045
 20
3.096510183
 30
0.0
 10
4.8406134084
 20
3.1030566513
 30
0.0
 10
4.8441568433
 20
3.1093750137
 30
0.0
 10
4.8496000768
 20
3.116675251
 30
0.0
 10
4.85599857
 20
3.1207248709
 30
0.0
 10
4.8594813848
 20
3.1216580883
 30
0.0
  0
SPLINE
  5
3A3
100
AcDbEntity
  8
0
100
AcDbSpline
 62
7
  6
CONTINUOUS
 70
0
 71
3
 72
10
 73
6
 74
0
 42
0.0000001
 43
0.0000001
 44
0.0000000001
 40
0.0
 40
0.0
 40
0.0
 40
0.0
 40
0.4995915402
 40
0.7498147711
 40
1.0
 40
1.0
 40
1.0
 40
1.0
 10
4.8701886073
 20
3.0763369996
 30
0.0
 10
4.8676371802
 20
3.0756533468
 30
0.0
 10
4.8636724382
 20
3.0750336825
 30
0.0
 10
4.8583774845
 20
3.0752214236
 30
0.0
 10
4.8557590967
 20
3.0756640295
 30
0.0
 10
4.8544724772
 20
3.0759711843
 30
0.0
  0
LINE
  5
3A4
100
AcDbEntity
  8
0
100
AcDbLine
 62
7
  6
CONTINUOUS
 10
4.1380633271
 20
1.9699517837
 11
4.0998918014
 21
1.9699501373
  0
SPLINE
  5
3A5
100
AcDbEntity
  8
0
100
AcDbSpline
 62
7
  6
CONTINUOUS
 70
0
 71
3
 72
15
 73
11
 74
0
 42
0.0000001
 43
0.0000001
 44
0.0000000001
 40
0.0
 40
0.0
 40
0.0
 40
0.0
 40
0.0993513041
 40
0.2036952031
 40
0.3144602019
 40
0.4328500624
 40
0.5598589382
 40
0.6962992815
 40
0.842832916
 40
1.0
 40
1.0
 40
1.0
 40
1.0
 10
4.8712548345
 20
2.9610107145
 30
0.0
 10
4.8722324546
 20
2.9625120602
 30
0.0
 10
4.8740260042
 20
2.9657318134
 30
0.0
 10
4.8761519022
 20
2.9710022123
 30
0.0
 10
4.8777685595
 20
2.9768064729
 30
0.0
 10
4.8788759942
 20
2.9831420526
 30
0.0
 10
4.8794745543
 20
2.9900090385
 30
0.0
 10
4.8795634392
 20
2.9974076801
 30
0.0
 10
4.8791413113
 20
3.0053381609
 30
0.0
 10
4.8785395086
 20
3.0107846054
 30
0.0
 10
4.8781606168
 20
3.0135933331
 30
0.0
  0
SPLINE
  5
3A6
100
AcDbEntity
  8
0
100
AcDbSpline
 62
7
  6
CONTINUOUS
 70
0
 71
3
 72
11
 73
7
 74
0
 42
0.0000001
 43
0.0000001
 44
0.0000000001
 40
0.0
 40
0.0
 40
0.0
 40
0.0
 40
0.2545979562
 40
0.5002825748
 40
0.745822157
 40
1.0
 40
1.0
 40
1.0
 40
1.0
 10
4.8393330367
 20
2.937867628
 30
0.0
 10
4.842637956
 20
2.9387531784
 30
0.0
 10
4.84900826
 20
2.9410283436
 30
0.0
 10
4.8577079037
 20
2.9461261657
 30
0.0
 10
4.8652543599
 20
2.9528053032
 30
0.0
 10
4.8693908927
 20
2.9581482315
 30
0.0
 10
4.8712548345
 20
2.9610107145
 30
0.0
  0
SPLINE
  5
3A7
100
AcDbEntity
  8
0
100
AcDbSpline
 62
7
  6
CONTINUOUS
 70
0
 71
3
 72
14
 73
10
 74
0
 42
0.0000001
 43
0.0000001
 44
0.0000000001
 40
0.0
 40
0.0
 40
0.0
 40
0.0
 40
0.1249415724
 40
0.2499505495
 40
0.3749764357
 40
0.5000033064
 40
0.6250254159
 40
0.7500404806
 40
1.0
 40
1.0
 40
1.0
 40
1.0
 10
4.1610430418
 20
1.962603802
 30
0.0
 10
4.1604996175
 20
1.9634938483
 30
0.0
 10
4.1590918675
 20
1.9650895205
 30
0.0
 10
4.1564445396
 20
1.9668026172
 30
0.0
 10
4.1535412691
 20
1.9680043421
 30
0.0
 10
4.1505164137
 20
1.9688321729
 30
0.0
 10
4.1474321635
 20
1.9693859862
 30
0.0
 10
4.1432824033
 20
1.9698471581
 30
0.0
 10
4.1401493329
 20
1.9699518961
 30
0.0
 10
4.1380630372
 20
1.9699517837
 30
0.0
  0
SPLINE
  5
3A8
100
AcDbEntity
  8
0
100
AcDbSpline
 62
7
  6
CONTINUOUS
 70
0
 71
3
 72
9
 73
5
 74
0
 42
0.0000001
 43
0.0000001
 44
0.0000000001
 40
0.0
 40
0.0
 40
0.0
 40
0.0
 40
0.7498406726
 40
1.0
 40
1.0
 40
1.0
 40
1.0
 10
4.1661565695
 20
1.9456453188
 30
0.0
 10
4.1660054164
 20
1.9475720739
 30
0.0
 10
4.1656609486
 20
1.9501357574
 30
0.0
 10
4.1650829576
 20
1.9526482865
 30
0.0
 10
4.1649229177
 20
1.9532728815
 30
0.0
  0
SPLINE
  5
3A9
100
AcDbEntity
  8
0
100
AcDbSpline
 62
7
  6
CONTINUOUS
 70
0
 71
3
 72
9
 73
5
 74
0
 42
0.0000001
 43
0.0000001
 44
0.0000000001
 40
0.0
 40
0.0
 40
0.0
 40
0.0
 40
0.5000044
 40
1.0
 40
1.0
 40
1.0
 40
1.0
 10
4.1649229177
 20
1.9532728815
 30
0.0
 10
4.1645037015
 20
1.9549089765
 30
0.0
 10
4.1634499196
 20
1.9581310447
 30
0.0
 10
4.1619231477
 20
1.9611623227
 30
0.0
 10
4.1610430418
 20
1.962603802
 30
0.0
  0
LINE
  5
3AA
100
AcDbEntity
  8
0
100
AcDbLine
 62
7
  6
CONTINUOUS
 10
3.3176413403
 20
3.1703488375
 11
3.3174116395
 21
3.1704229841
  0
ENDSEC
  0
SECTION
  2
OBJECTS
  0
DICTIONARY
  5
C
100
AcDbDictionary
280
0
281
1
  3
ACAD_GROUP
350
D
  3
ACAD_MLINESTYLE
350
17
  3
ACAD_LAYOUT
350
1A
  3
ACAD_PLOTSETTINGS
350
19
  3
ACAD_PLOTSTYLENAME
350
E
  0
DICTIONARY
  5
D
102
{ACAD_REACTORS
330
C
102
}
100
AcDbDictionary
280
0
281
1
  0
ACDBDICTIONARYWDFLT
  5
E
102
{ACAD_REACTORS
330
C
102
}
100
AcDbDictionary
281
1
  3
Normal
350
F
100
AcDbDictionaryWithDefault
340
F
  0
DICTIONARY
  5
17
102
{ACAD_REACTORS
330
C
102
}
100
AcDbDictionary
280
0
281
1
  3
Standard
350
18
  0
DICTIONARY
  5
19
102
{ACAD_REACTORS
330
C
102
}
100
AcDbDictionary
281
1
  0
DICTIONARY
  5
1A
102
{ACAD_REACTORS
330
C
102
}
100
AcDbDictionary
281
1
  3
Model
350
3AB
  3
Layout1
350
3AC
  0
ACDBPLACEHOLDER
  5
F
102
{ACAD_REACTORS
330
E
102
}
  0
MLINESTYLE
  5
18
102
{ACAD_REACTORS
330
17
102
}
100
AcDbMlineStyle
  2
STANDARD
 70
0
  3

 62
256
 51
90.0
 52
90.0
 71
2
 49
0.5
 62
256
  6
BYLAYER
 49
-0.5
 62
256
  6
BYLAYER
  0
LAYOUT
  5
3AB
102
{ACAD_REACTORS
330
1A
102
}
100
AcDbPlotSettings
  1

  2
none_device
  4
ANSI_A_(11.00_x_8.50_Inches)
  6

 40
0.0
 41
0.0
 42
0.0
 43
0.0
 44
279.4
 45
215.9
 46
0.0
 47
0.0
 48
0.0
 49
0.0
140
0.0
141
0.0
142
1.0
143
1.0
 70
1024
 72
0
 73
0
 74
0
  7

 75
0
147
1.0
148
0.0
149
0.0
100
AcDbLayout
  1
Model
 70
0
 71
0
 10
0.0
 20
0.0
 11
11.0
 21
8.5
 12
0.0
 22
0.0
 32
0.0
 14
0.0
 24
0.0
 34
0.0
 15
0.0
 25
0.0
 35
0.0
146
0.0
 13
0.0
 23
0.0
 33
0.0
 16
1.0
 26
0.0
 36
0.0
 17
0.0
 27
1.0
 37
0.0
 76
0
330
21C
345
0
346
0
  0
LAYOUT
  5
3AC
102
{ACAD_REACTORS
330
1A
102
}
100
AcDbPlotSettings
  1

  2
none_device
  4
ANSI_A_(11.00_x_8.50_Inches)
  6

 40
0.0
 41
0.0
 42
0.0
 43
0.0
 44
279.4
 45
215.9
 46
0.0
 47
0.0
 48
0.0
 49
0.0
140
0.0
141
0.0
142
1.0
143
1.0
 70
0
 72
0
 73
0
 74
0
  7

 75
0
147
1.0
148
0.0
149
0.0
100
AcDbLayout
  1
Layout1
 70
0
 71
1
 10
0.0
 20
0.0
 11
11.0
 21
8.5
 12
0.0
 22
0.0
 32
0.0
 14
0.0
 24
0.0
 34
0.0
 15
0.0
 25
0.0
 35
0.0
146
0.0
 13
0.0
 23
0.0
 33
0.0
 16
1.0
 26
0.0
 36
0.0
 17
0.0
 27
1.0
 37
0.0
 76
0
330
21D
345
0
346
0
  0
ENDSEC
  0
EOF
