999
DXF file: 3-803ts_RIGHT.dxf
999
Pro/ENGINEER 2013150 by Parametric Technology Corporation
  0
SECTION
  2
HEADER
  9
$ACADVER
  1
AC1021
  9
$DWGCODEPAGE
  3
ANSI_1252
  9
$EXTMAX
 10
11.0
 20
8.5
 30
0.0
  9
$EXTMIN
 10
0.0
 20
0.0
 30
0.0
  9
$LIMMIN
 10
0.0
 20
0.0
  9
$LIMMAX
 10
11.0
 20
8.5
  9
$VIEWCTR
 10
5.5
 20
4.25
  9
$VIEWSIZE
 40
8.5
  9
$CLAYER
  8
0
  9
$LTSCALE
 40
0.605
  9
$CELTYPE
  6
BYLAYER
  9
$DIMSCALE
 40
1.0
  9
$DIMASZ
 40
0.1
  9
$DIMEXO
 40
0.0625
  9
$DIMDLI
 40
0.418
  9
$DIMEXE
 40
0.125
  9
$DIMCEN
 40
0.099
  9
$DIMLFAC
 40
1.0
  9
$DIMBLK
  1
_FILLED
  9
$DIMTXT
 40
0.08
  9
$DIMTOL
 70
1
  9
$DIMLIM
 70
0
  9
$DIMTFAC
 40
1.0
  9
$DIMTP
 40
0.001
  9
$DIMTM
 40
0.001
  9
$DIMGAP
 40
0.09
  9
$DIMDSEP
 70
46
  9
$PDMODE
 70
3
  9
$PDSIZE
 40
0.06
  9
$HANDSEED
  5
48B
  9
$TILEMODE
 70
1
  9
$MEASUREMENT
 70
0
  9
$INSUNITS
 70
1
  0
ENDSEC
  0
SECTION
  2
CLASSES
  0
CLASS
  1
ACDBDICTIONARYWDFLT
  2
AcDbDictionaryWithDefault
  3
AutoCAD 2000
 90
0
 91
1
280
0
281
0
  0
CLASS
  1
ACDBPLACEHOLDER
  2
AcDbPlaceHolder
  3
AutoCAD 2000
 90
0
 91
1
280
0
281
0
  0
CLASS
  1
LAYOUT
  2
AcDbLayout
  3
AutoCAD 2000
 90
0
 91
0
280
0
281
0
  0
ENDSEC
  0
SECTION
  2
TABLES
  0
TABLE
  2
VPORT
  5
8
100
AcDbSymbolTable
 70
2
  0
VPORT
  5
1F4
100
AcDbSymbolTableRecord
100
AcDbViewportTableRecord
  2
*ACTIVE
 70
0
 10
0.0
 20
0.0
 11
1.0
 21
1.0
 12
5.5
 22
4.25
 13
0.0
 23
0.0
 14
1.0
 24
1.0
 15
0.0
 25
0.0
 16
0.0
 26
0.0
 36
1.0
 17
0.0
 27
0.0
 37
0.0
 40
8.5
 41
1.2941176471
 42
50.0
 43
0.0
 44
0.0
 50
0.0
 51
0.0
 71
0
 72
100
 73
1
 74
1
 75
0
 76
0
 77
0
 78
0
  0
ENDTAB
  0
TABLE
  2
LTYPE
  5
5
100
AcDbSymbolTable
 70
6
  0
LTYPE
  5
14
100
AcDbSymbolTableRecord
100
AcDbLinetypeTableRecord
  2
BYBLOCK
 70
0
  3

 72
65
 73
0
 40
0.0
  0
LTYPE
  5
15
100
AcDbSymbolTableRecord
100
AcDbLinetypeTableRecord
  2
BYLAYER
 70
0
  3

 72
65
 73
0
 40
0.0
  0
LTYPE
  5
16
100
AcDbSymbolTableRecord
100
AcDbLinetypeTableRecord
  2
CONTINUOUS
 70
64
  3
Solid line
 72
65
 73
0
 40
0.0
  0
LTYPE
  5
1F5
100
AcDbSymbolTableRecord
100
AcDbLinetypeTableRecord
  2
CENTER
 70
64
  3
____ _ ____ _ ____ _ ____ _ ____ _ ____ _ ____
 72
65
 73
4
 40
0.6
 49
0.375
 74
0
 49
-0.075
 74
0
 49
0.075
 74
0
 49
-0.075
 74
0
  0
LTYPE
  5
1F6
100
AcDbSymbolTableRecord
100
AcDbLinetypeTableRecord
  2
HIDDEN
 70
64
  3
- - - - - - - - - - - - - - - - - - - -
 72
65
 73
2
 40
0.2
 49
0.1
 74
0
 49
-0.1
 74
0
  0
LTYPE
  5
1F7
100
AcDbSymbolTableRecord
100
AcDbLinetypeTableRecord
  2
PHANTOM
 70
64
  3
_____ _ _ _____ _ _ _____ _ _ _____
 72
65
 73
6
 40
0.8
 49
0.45
 74
0
 49
-0.05
 74
0
 49
0.1
 74
0
 49
-0.05
 74
0
 49
0.1
 74
0
 49
-0.05
 74
0
  0
LTYPE
  5
1F8
100
AcDbSymbolTableRecord
100
AcDbLinetypeTableRecord
  2
DOT
 70
64
  3
. . . . . . . . . . . . . . . . . . . .
 72
65
 73
2
 40
0.2
 49
0.1
 74
0
 49
-0.1
 74
0
  0
LTYPE
  5
1F9
100
AcDbSymbolTableRecord
100
AcDbLinetypeTableRecord
  2
DASHED
 70
64
  3
- - - - - - - - - - - - - - - - - - - -
 72
65
 73
2
 40
0.2
 49
0.1
 74
0
 49
-0.1
 74
0
  0
ENDTAB
  0
TABLE
  2
LAYER
  5
2
100
AcDbSymbolTable
 70
36
  0
LAYER
  5
10
100
AcDbSymbolTableRecord
100
AcDbLayerTableRecord
  2
0
 70
0
 62
7
  6
CONTINUOUS
370
-3
390
F
  0
LAYER
  5
1FA
100
AcDbSymbolTableRecord
100
AcDbLayerTableRecord
  2
DEFAULT_1
 70
0
 62
7
  6
CENTER
370
-3
390
F
  0
LAYER
  5
1FB
100
AcDbSymbolTableRecord
100
AcDbLayerTableRecord
  2
DEFAULT_2
 70
0
 62
8
  6
HIDDEN
370
-3
390
F
  0
LAYER
  5
1FC
100
AcDbSymbolTableRecord
100
AcDbLayerTableRecord
  2
DEFAULT_3
 70
0
 62
7
  6
PHANTOM
370
-3
390
F
  0
LAYER
  5
1FD
100
AcDbSymbolTableRecord
100
AcDbLayerTableRecord
  2
ALL_ASSEMBLY_MEMBERS
 70
0
 62
7
  6
CONTINUOUS
370
-3
390
F
  0
LAYER
  5
1FE
100
AcDbSymbolTableRecord
100
AcDbLayerTableRecord
  2
ALL_FEATURES
 70
0
 62
7
  6
CONTINUOUS
370
-3
390
F
  0
LAYER
  5
1FF
100
AcDbSymbolTableRecord
100
AcDbLayerTableRecord
  2
AXES_FEATURES
 70
0
 62
7
  6
CONTINUOUS
370
-3
390
F
  0
LAYER
  5
200
100
AcDbSymbolTableRecord
100
AcDbLayerTableRecord
  2
CHAMFER_FEATURES
 70
0
 62
7
  6
CONTINUOUS
370
-3
390
F
  0
LAYER
  5
201
100
AcDbSymbolTableRecord
100
AcDbLayerTableRecord
  2
COSMETIC_SKETCHES
 70
0
 62
7
  6
CONTINUOUS
370
-3
390
F
  0
LAYER
  5
202
100
AcDbSymbolTableRecord
100
AcDbLayerTableRecord
  2
CUT_FEATURES
 70
0
 62
7
  6
CONTINUOUS
370
-3
390
F
  0
LAYER
  5
203
100
AcDbSymbolTableRecord
100
AcDbLayerTableRecord
  2
DATUM_CURVES
 70
0
 62
7
  6
CONTINUOUS
370
-3
390
F
  0
LAYER
  5
204
100
AcDbSymbolTableRecord
100
AcDbLayerTableRecord
  2
DATUM_PLANES
 70
0
 62
7
  6
CONTINUOUS
370
-3
390
F
  0
LAYER
  5
205
100
AcDbSymbolTableRecord
100
AcDbLayerTableRecord
  2
DATUM_POINTS
 70
0
 62
7
  6
CONTINUOUS
370
-3
390
F
  0
LAYER
  5
206
100
AcDbSymbolTableRecord
100
AcDbLayerTableRecord
  2
DEFAULT_COORDINATE_SYSTEM
 70
0
 62
7
  6
CONTINUOUS
370
-3
390
F
  0
LAYER
  5
207
100
AcDbSymbolTableRecord
100
AcDbLayerTableRecord
  2
DEFAULT_DATUM_AXES
 70
0
 62
7
  6
CONTINUOUS
370
-3
390
F
  0
LAYER
  5
208
100
AcDbSymbolTableRecord
100
AcDbLayerTableRecord
  2
DEFAULT_DATUM_CURVES
 70
0
 62
7
  6
CONTINUOUS
370
-3
390
F
  0
LAYER
  5
209
100
AcDbSymbolTableRecord
100
AcDbLayerTableRecord
  2
DEFAULT_DATUM_PLANES
 70
0
 62
7
  6
CONTINUOUS
370
-3
390
F
  0
LAYER
  5
20A
100
AcDbSymbolTableRecord
100
AcDbLayerTableRecord
  2
DEFAULT_SURFACES
 70
0
 62
7
  6
CONTINUOUS
370
-3
390
F
  0
LAYER
  5
20B
100
AcDbSymbolTableRecord
100
AcDbLayerTableRecord
  2
DIMENSIONS
 70
0
 62
7
  6
CONTINUOUS
370
-3
390
F
  0
LAYER
  5
20C
100
AcDbSymbolTableRecord
100
AcDbLayerTableRecord
  2
HOLE_FEATURES
 70
0
 62
7
  6
CONTINUOUS
370
-3
390
F
  0
LAYER
  5
20D
100
AcDbSymbolTableRecord
100
AcDbLayerTableRecord
  2
HOLE_PATTERN
 70
0
 62
7
  6
CONTINUOUS
370
-3
390
F
  0
LAYER
  5
20E
100
AcDbSymbolTableRecord
100
AcDbLayerTableRecord
  2
INTFCLR_1
 70
0
 62
7
  6
CONTINUOUS
370
-3
390
F
  0
LAYER
  5
20F
100
AcDbSymbolTableRecord
100
AcDbLayerTableRecord
  2
NOTES
 70
0
 62
7
  6
CONTINUOUS
370
-3
390
F
  0
LAYER
  5
210
100
AcDbSymbolTableRecord
100
AcDbLayerTableRecord
  2
PART_REFERENCE_DIMENSIONS
 70
0
 62
7
  6
CONTINUOUS
370
-3
390
F
  0
LAYER
  5
211
100
AcDbSymbolTableRecord
100
AcDbLayerTableRecord
  2
PLATED_SURFACE_AREA
 70
0
 62
7
  6
CONTINUOUS
370
-3
390
F
  0
LAYER
  5
212
100
AcDbSymbolTableRecord
100
AcDbLayerTableRecord
  2
POINTS
 70
0
 62
7
  6
CONTINUOUS
370
-3
390
F
  0
LAYER
  5
213
100
AcDbSymbolTableRecord
100
AcDbLayerTableRecord
  2
PROTRUSION
 70
0
 62
7
  6
CONTINUOUS
370
-3
390
F
  0
LAYER
  5
214
100
AcDbSymbolTableRecord
100
AcDbLayerTableRecord
  2
PROTRUSION_FEATURES
 70
0
 62
7
  6
CONTINUOUS
370
-3
390
F
  0
LAYER
  5
215
100
AcDbSymbolTableRecord
100
AcDbLayerTableRecord
  2
REFERENCE_DIMENSIONS
 70
0
 62
7
  6
CONTINUOUS
370
-3
390
F
  0
LAYER
  5
216
100
AcDbSymbolTableRecord
100
AcDbLayerTableRecord
  2
ROUND_FEATURES
 70
0
 62
7
  6
CONTINUOUS
370
-3
390
F
  0
LAYER
  5
217
100
AcDbSymbolTableRecord
100
AcDbLayerTableRecord
  2
SATIN_DIRECTION
 70
0
 62
7
  6
CONTINUOUS
370
-3
390
F
  0
LAYER
  5
218
100
AcDbSymbolTableRecord
100
AcDbLayerTableRecord
  2
SHELL_FEATURES
 70
0
 62
7
  6
CONTINUOUS
370
-3
390
F
  0
LAYER
  5
219
100
AcDbSymbolTableRecord
100
AcDbLayerTableRecord
  2
SIZE_REF
 70
0
 62
7
  6
CONTINUOUS
370
-3
390
F
  0
ENDTAB
  0
TABLE
  2
STYLE
  5
3
100
AcDbSymbolTable
 70
1
  0
STYLE
  5
11
100
AcDbSymbolTableRecord
100
AcDbTextStyleTableRecord
  2
STANDARD
 70
0
 40
0.0
 41
0.8
 50
0.0
 71
0
 42
0.2
  3
txt
  4

  0
STYLE
  5
21A
100
AcDbSymbolTableRecord
100
AcDbTextStyleTableRecord
  2
TEXTSTYLE_1
 70
0
 40
0.0
 41
0.8
 50
0.0
 71
0
 42
0.2
  3
gdt
  4

  0
ENDTAB
  0
TABLE
  2
VIEW
  5
6
100
AcDbSymbolTable
 70
0
  0
ENDTAB
  0
TABLE
  2
UCS
  5
7
100
AcDbSymbolTable
 70
0
  0
ENDTAB
  0
TABLE
  2
APPID
  5
9
100
AcDbSymbolTable
 70
1
  0
APPID
  5
21B
100
AcDbSymbolTableRecord
100
AcDbRegAppTableRecord
  2
ACAD
 70
0
  0
ENDTAB
  0
TABLE
  2
BLOCK_RECORD
  5
1
100
AcDbSymbolTable
 70
0
  0
BLOCK_RECORD
  5
21C
100
AcDbSymbolTableRecord
100
AcDbBlockTableRecord
  2
*Model_Space
  0
BLOCK_RECORD
  5
21D
100
AcDbSymbolTableRecord
100
AcDbBlockTableRecord
  2
*Paper_Space
  0
ENDTAB
  0
TABLE
  2
DIMSTYLE
  5
A
100
AcDbSymbolTable
 70
1
100
AcDbDimStyleTable
 71
0
  0
DIMSTYLE
105
21E
100
AcDbSymbolTableRecord
100
AcDbDimStyleTableRecord
  2
STANDARD
 70
0
  3

  4

 40
1.0
 41
0.1
 42
0.0625
 43
0.38
 44
0.125
 45
0.0
 46
0.0
 47
0.001
 48
0.001
140
0.08
141
0.09
142
0.0
143
25.4
144
1.0
145
0.0
146
1.0
147
0.09
 71
1.0
 72
0.0
 73
1
 74
1
 75
0
 76
0
 77
0
 78
4
170
0
171
2
172
0
173
0
174
0
175
0
176
0
177
0
178
0
270
2
271
3
272
3
273
2
274
2
275
0
280
0
281
0
282
0
283
1
284
4
285
0
286
0
287
3
288
0
340
11
278
46
  0
ENDTAB
  0
ENDSEC
  0
SECTION
  2
BLOCKS
  0
BLOCK
  5
20
100
AcDbEntity
  8
0
100
AcDbBlockBegin
  2
*Model_Space
 70
0
 10
0.0
 20
0.0
 30
0.0
  3
*Model_Space
  1

  0
ENDBLK
  5
21
100
AcDbEntity
  8
0
100
AcDbBlockEnd
  0
BLOCK
  5
1C
100
AcDbEntity
  8
0
100
AcDbBlockBegin
  2
*Paper_Space
 70
0
 10
0.0
 20
0.0
 30
0.0
  3
*Paper_Space
  1

  0
ENDBLK
  5
1D
100
AcDbEntity
  8
0
100
AcDbBlockEnd
  0
ENDSEC
  0
SECTION
  2
ENTITIES
  0
LINE
  5
21F
100
AcDbEntity
  8
0
100
AcDbLine
 62
7
  6
CONTINUOUS
 10
0.0
 20
0.0
 11
0.0
 21
8.5
  0
LINE
  5
220
100
AcDbEntity
  8
0
100
AcDbLine
 62
7
  6
CONTINUOUS
 10
0.0
 20
0.0
 11
11.0
 21
0.0
  0
LINE
  5
221
100
AcDbEntity
  8
0
100
AcDbLine
 62
7
  6
CONTINUOUS
 10
0.0
 20
8.5
 11
11.0
 21
8.5
  0
LINE
  5
222
100
AcDbEntity
  8
0
100
AcDbLine
 62
7
  6
CONTINUOUS
 10
11.0
 20
0.0
 11
11.0
 21
8.5
  0
LINE
  5
223
100
AcDbEntity
  8
0
100
AcDbLine
 62
7
  6
CONTINUOUS
 10
5.074181719
 20
0.8338244417
 11
5.261681719
 21
0.8338244417
  0
LINE
  5
224
100
AcDbEntity
  8
ALL_FEATURES
100
AcDbLine
 62
7
  6
CONTINUOUS
 10
5.074181719
 20
0.9275744417
 11
5.026931719
 21
0.9275744417
  0
LINE
  5
225
100
AcDbEntity
  8
0
100
AcDbLine
 62
9
  6
CONTINUOUS
 10
5.261681719
 20
1.1488244417
 11
5.074181719
 21
1.1488244417
  0
LINE
  5
226
100
AcDbEntity
  8
ALL_FEATURES
100
AcDbLine
 62
9
  6
CONTINUOUS
 10
5.074181719
 20
1.1488244417
 11
5.026931719
 21
1.1488244417
  0
LINE
  5
227
100
AcDbEntity
  8
ALL_FEATURES
100
AcDbLine
 62
9
  6
CONTINUOUS
 10
5.074181719
 20
1.1788244417
 11
5.026931719
 21
1.1788244417
  0
LINE
  5
228
100
AcDbEntity
  8
0
100
AcDbLine
 62
9
  6
CONTINUOUS
 10
5.074181719
 20
1.1788244417
 11
5.261681719
 21
1.1788244417
  0
LINE
  5
229
100
AcDbEntity
  8
0
100
AcDbLine
 62
7
  6
CONTINUOUS
 10
5.074181719
 20
1.2088244417
 11
5.261681719
 21
1.2088244417
  0
LINE
  5
22A
100
AcDbEntity
  8
ALL_FEATURES
100
AcDbLine
 62
7
  6
CONTINUOUS
 10
5.074181719
 20
1.3025744417
 11
5.026931719
 21
1.3025744417
  0
LINE
  5
22B
100
AcDbEntity
  8
ALL_FEATURES
100
AcDbLine
 62
9
  6
CONTINUOUS
 10
5.074181719
 20
1.5238244417
 11
5.026931719
 21
1.5238244417
  0
LINE
  5
22C
100
AcDbEntity
  8
0
100
AcDbLine
 62
9
  6
CONTINUOUS
 10
5.074181719
 20
1.5238244417
 11
5.261681719
 21
1.5238244417
  0
LINE
  5
22D
100
AcDbEntity
  8
0
100
AcDbLine
 62
7
  6
CONTINUOUS
 10
5.026931719
 20
1.7896994417
 11
4.966931719
 21
1.7896994417
  0
LINE
  5
22E
100
AcDbEntity
  8
0
100
AcDbLine
 62
7
  6
CONTINUOUS
 10
4.937611411
 20
1.8874529777
 11
4.9376077029
 21
1.8874528967
  0
LINE
  5
22F
100
AcDbEntity
  8
0
100
AcDbLine
 62
7
  6
CONTINUOUS
 10
4.9365478742
 20
1.9456457646
 11
4.9365274639
 21
1.9456453188
  0
LINE
  5
230
100
AcDbEntity
  8
0
100
AcDbLine
 62
7
  6
CONTINUOUS
 10
4.9352541998
 20
2.0055976457
 11
4.9352322903
 21
2.0055971671
  0
LINE
  5
231
100
AcDbEntity
  8
0
100
AcDbLine
 62
7
  6
CONTINUOUS
 10
4.9349511545
 20
2.022350188
 11
4.9349261409
 21
2.0223496417
  0
LINE
  5
232
100
AcDbEntity
  8
0
100
AcDbLine
 62
7
  6
CONTINUOUS
 10
4.9341006734
 20
2.0616463177
 11
4.933803438
 21
2.0616398258
  0
LINE
  5
233
100
AcDbEntity
  8
0
100
AcDbLine
 62
7
  6
CONTINUOUS
 10
4.966931719
 20
1.8496994417
 11
4.938431719
 21
1.8496994417
  0
LINE
  5
234
100
AcDbEntity
  8
ALL_ASSEMBLY_MEMBERS
100
AcDbLine
 62
7
  6
CONTINUOUS
 10
2.3715301442
 20
2.6630744417
 11
2.3715301442
 21
2.9420744417
  0
LINE
  5
235
100
AcDbEntity
  8
ALL_ASSEMBLY_MEMBERS
100
AcDbLine
 62
7
  6
CONTINUOUS
 10
2.4165301442
 20
2.5963244417
 11
2.4165301442
 21
3.0088244417
  0
LINE
  5
236
100
AcDbEntity
  8
0
100
AcDbLine
 62
9
  6
CONTINUOUS
 10
4.9352951324
 20
2.2663271207
 11
4.9363262036
 21
2.2663400373
  0
LINE
  5
237
100
AcDbEntity
  8
0
100
AcDbLine
 62
7
  6
CONTINUOUS
 10
4.8285301442
 20
2.1823244417
 11
3.7837008
 21
2.1823244417
  0
LINE
  5
238
100
AcDbEntity
  8
ALL_FEATURES
100
AcDbLine
 62
7
  6
CONTINUOUS
 10
3.7837008
 20
2.1823244417
 11
4.8285301442
 21
2.1823244417
  0
LINE
  5
239
100
AcDbEntity
  8
0
100
AcDbLine
 62
7
  6
CONTINUOUS
 10
4.8285301442
 20
2.1824957015
 11
4.933181719
 21
2.1824957015
  0
LINE
  5
23A
100
AcDbEntity
  8
0
100
AcDbLine
 62
7
  6
CONTINUOUS
 10
3.692922203
 20
2.2345157988
 11
3.6824745973
 21
2.2367545714
  0
LINE
  5
23B
100
AcDbEntity
  8
ALL_ASSEMBLY_MEMBERS
100
AcDbLine
 62
7
  6
CONTINUOUS
 10
2.4352801442
 20
3.0159494417
 11
2.4352801442
 21
2.5891994417
  0
LINE
  5
23C
100
AcDbEntity
  8
ALL_ASSEMBLY_MEMBERS
100
AcDbLine
 62
7
  6
CONTINUOUS
 10
2.4705301442
 20
2.3488281378
 11
2.4705301442
 21
3.2563244417
  0
LINE
  5
23D
100
AcDbEntity
  8
ALL_ASSEMBLY_MEMBERS
100
AcDbLine
 62
7
  6
CONTINUOUS
 10
2.5065447637
 20
3.4555828805
 11
2.5065447637
 21
2.15030564
  0
LINE
  5
23E
100
AcDbEntity
  8
ALL_ASSEMBLY_MEMBERS
100
AcDbLine
 62
7
  6
CONTINUOUS
 10
2.5788667584
 20
5.0255744417
 11
2.5788667584
 21
5.3045744417
  0
LINE
  5
23F
100
AcDbEntity
  8
ALL_ASSEMBLY_MEMBERS
100
AcDbLine
 62
7
  6
CONTINUOUS
 10
2.5890301442
 20
3.4857018599
 11
2.5890301442
 21
2.1194470234
  0
LINE
  5
240
100
AcDbEntity
  8
ALL_ASSEMBLY_MEMBERS
100
AcDbLine
 62
7
  6
CONTINUOUS
 10
2.6238667584
 20
4.9588244417
 11
2.6238667584
 21
5.3713244417
  0
LINE
  5
241
100
AcDbEntity
  8
ALL_ASSEMBLY_MEMBERS
100
AcDbLine
 62
7
  6
CONTINUOUS
 10
2.6426167584
 20
5.3784494417
 11
2.6426167584
 21
4.9516994417
  0
LINE
  5
242
100
AcDbEntity
  8
ALL_ASSEMBLY_MEMBERS
100
AcDbLine
 62
7
  6
CONTINUOUS
 10
3.0330301442
 20
2.5438244417
 11
3.1005301442
 21
2.5438244417
  0
LINE
  5
243
100
AcDbEntity
  8
ALL_ASSEMBLY_MEMBERS
100
AcDbLine
 62
7
  6
CONTINUOUS
 10
3.2475301442
 20
2.5438244417
 11
3.3240301442
 21
2.5438244417
  0
LINE
  5
244
100
AcDbEntity
  8
ALL_ASSEMBLY_MEMBERS
100
AcDbLine
 62
7
  6
CONTINUOUS
 10
2.6778667584
 20
4.7113281378
 11
2.6778667584
 21
5.6188244417
  0
LINE
  5
245
100
AcDbEntity
  8
ALL_ASSEMBLY_MEMBERS
100
AcDbLine
 62
7
  6
CONTINUOUS
 10
2.7138813779
 20
5.8180828805
 11
2.7138813779
 21
4.51280564
  0
LINE
  5
246
100
AcDbEntity
  8
ALL_ASSEMBLY_MEMBERS
100
AcDbLine
 62
7
  6
CONTINUOUS
 10
2.7142801442
 20
3.5469494417
 11
2.7142801442
 21
2.0581994417
  0
LINE
  5
247
100
AcDbEntity
  8
ALL_ASSEMBLY_MEMBERS
100
AcDbLine
 62
7
  6
CONTINUOUS
 10
2.7892801442
 20
3.5469494417
 11
2.7892801442
 21
2.0581994417
  0
LINE
  5
248
100
AcDbEntity
  8
ALL_ASSEMBLY_MEMBERS
100
AcDbLine
 62
7
  6
CONTINUOUS
 10
2.7963667584
 20
5.8482018599
 11
2.7963667584
 21
4.4819470234
  0
LINE
  5
249
100
AcDbEntity
  8
ALL_ASSEMBLY_MEMBERS
100
AcDbLine
 62
7
  6
CONTINUOUS
 10
3.3644521997
 20
5.1943713167
 11
3.3475376411
 21
5.1650744417
  0
LINE
  5
24A
100
AcDbEntity
  8
ALL_ASSEMBLY_MEMBERS
100
AcDbLine
 62
7
  6
CONTINUOUS
 10
3.3982813171
 20
5.1357775667
 11
3.4151958758
 21
5.1650744417
  0
LINE
  5
24B
100
AcDbEntity
  8
0
100
AcDbLine
 62
7
  6
CONTINUOUS
 10
4.9340055448
 20
2.6630778011
 11
4.9364578137
 21
2.6630871016
  0
LINE
  5
24C
100
AcDbEntity
  8
ALL_ASSEMBLY_MEMBERS
100
AcDbLine
 62
7
  6
CONTINUOUS
 10
2.4165301442
 20
2.5963244417
 11
2.4352801442
 21
2.5963244417
  0
LINE
  5
24D
100
AcDbEntity
  8
0
100
AcDbLine
 62
7
  6
CONTINUOUS
 10
3.3615301442
 20
2.6638244417
 11
3.3240301442
 21
2.6638244417
  0
LINE
  5
24E
100
AcDbEntity
  8
ALL_ASSEMBLY_MEMBERS
100
AcDbLine
 62
7
  6
CONTINUOUS
 10
3.1571155856
 20
2.7732775667
 11
3.1909447029
 21
2.7732775667
  0
LINE
  5
24F
100
AcDbEntity
  8
0
100
AcDbLine
 62
7
  6
CONTINUOUS
 10
3.1985594798
 20
2.7864667472
 11
3.1495008086
 21
2.7864667472
  0
LINE
  5
250
100
AcDbEntity
  8
0
100
AcDbLine
 62
7
  6
CONTINUOUS
 10
3.7250657358
 20
2.2105598264
 11
3.7186744321
 21
2.2185734602
  0
LINE
  5
251
100
AcDbEntity
  8
ALL_ASSEMBLY_MEMBERS
100
AcDbLine
 62
7
  6
CONTINUOUS
 10
3.1402010269
 20
2.8025744417
 11
3.1571155856
 21
2.7732775667
  0
LINE
  5
252
100
AcDbEntity
  8
ALL_ASSEMBLY_MEMBERS
100
AcDbLine
 62
7
  6
CONTINUOUS
 10
3.2078592616
 20
2.8025744417
 11
3.1909447029
 21
2.8318713167
  0
LINE
  5
253
100
AcDbEntity
  8
ALL_ASSEMBLY_MEMBERS
100
AcDbLine
 62
7
  6
CONTINUOUS
 10
2.9152801442
 20
3.4851678652
 11
2.9152801442
 21
2.1199810181
  0
LINE
  5
254
100
AcDbEntity
  8
ALL_ASSEMBLY_MEMBERS
100
AcDbLine
 62
7
  6
CONTINUOUS
 10
2.9216167584
 20
5.9094494417
 11
2.9216167584
 21
4.4206994417
  0
LINE
  5
255
100
AcDbEntity
  8
ALL_ASSEMBLY_MEMBERS
100
AcDbLine
 62
7
  6
CONTINUOUS
 10
2.9966167584
 20
5.9094494417
 11
2.9966167584
 21
4.4206994417
  0
LINE
  5
256
100
AcDbEntity
  8
ALL_ASSEMBLY_MEMBERS
100
AcDbLine
 62
7
  6
CONTINUOUS
 10
2.9979808568
 20
3.4547973769
 11
2.9979808568
 21
2.1510902539
  0
LINE
  5
257
100
AcDbEntity
  8
ALL_ASSEMBLY_MEMBERS
100
AcDbLine
 62
7
  6
CONTINUOUS
 10
3.0330301442
 20
2.3488281378
 11
3.0330301442
 21
3.2563244417
  0
LINE
  5
258
100
AcDbEntity
  8
ALL_ASSEMBLY_MEMBERS
100
AcDbLine
 62
7
  6
CONTINUOUS
 10
3.1226167584
 20
5.8476678652
 11
3.1226167584
 21
4.4824810181
  0
LINE
  5
259
100
AcDbEntity
  8
0
100
AcDbLine
 62
7
  6
CONTINUOUS
 10
3.1985594798
 20
2.8186821362
 11
3.1495008086
 21
2.8186821362
  0
LINE
  5
25A
100
AcDbEntity
  8
ALL_ASSEMBLY_MEMBERS
100
AcDbLine
 62
7
  6
CONTINUOUS
 10
3.1909447029
 20
2.8318713167
 11
3.1571155856
 21
2.8318713167
  0
LINE
  5
25B
100
AcDbEntity
  8
0
100
AcDbLine
 62
7
  6
CONTINUOUS
 10
3.3615301442
 20
2.9413244417
 11
3.3240301442
 21
2.9413244417
  0
LINE
  5
25C
100
AcDbEntity
  8
ALL_ASSEMBLY_MEMBERS
100
AcDbLine
 62
7
  6
CONTINUOUS
 10
2.4165301442
 20
3.0088244417
 11
2.4352801442
 21
3.0088244417
  0
LINE
  5
25D
100
AcDbEntity
  8
0
100
AcDbLine
 62
9
  6
CONTINUOUS
 10
4.9343575324
 20
2.944387045
 11
4.9352950015
 21
2.9443817456
  0
LINE
  5
25E
100
AcDbEntity
  8
0
100
AcDbLine
 62
7
  6
CONTINUOUS
 10
4.9347475269
 20
2.9505182814
 11
4.9358033504
 21
2.950512313
  0
LINE
  5
25F
100
AcDbEntity
  8
ALL_ASSEMBLY_MEMBERS
100
AcDbLine
 62
7
  6
CONTINUOUS
 10
3.205317471
 20
5.8172973769
 11
3.205317471
 21
4.5135902539
  0
LINE
  5
260
100
AcDbEntity
  8
ALL_ASSEMBLY_MEMBERS
100
AcDbLine
 62
7
  6
CONTINUOUS
 10
3.2403667584
 20
4.7113281378
 11
3.2403667584
 21
5.6188244417
  0
LINE
  5
261
100
AcDbEntity
  8
ALL_ASSEMBLY_MEMBERS
100
AcDbLine
 62
7
  6
CONTINUOUS
 10
3.3240301442
 20
2.5438244417
 11
3.3240301442
 21
3.0613244417
  0
LINE
  5
262
100
AcDbEntity
  8
ALL_FEATURES
100
AcDbLine
 62
7
  6
CONTINUOUS
 10
3.3615301442
 20
3.0650744417
 11
3.3615301442
 21
2.5400744417
  0
LINE
  5
263
100
AcDbEntity
  8
0
100
AcDbLine
 62
9
  6
CONTINUOUS
 10
3.3710740638
 20
2.5087318692
 11
3.3710740638
 21
3.0964170142
  0
LINE
  5
264
100
AcDbEntity
  8
ALL_ASSEMBLY_MEMBERS
100
AcDbLine
 62
7
  6
CONTINUOUS
 10
3.0330301442
 20
3.0613244417
 11
3.3240301442
 21
3.0613244417
  0
LINE
  5
265
100
AcDbEntity
  8
0
100
AcDbLine
 62
9
  6
CONTINUOUS
 10
4.9342193363
 20
3.0384212154
 11
4.9352452586
 21
3.0384154161
  0
LINE
  5
266
100
AcDbEntity
  8
0
100
AcDbLine
 62
9
  6
CONTINUOUS
 10
4.9362623998
 20
3.1278992387
 11
4.9372720798
 21
3.1278935311
  0
LINE
  5
267
100
AcDbEntity
  8
0
100
AcDbLine
 62
9
  6
CONTINUOUS
 10
3.3868867334
 20
2.4954053161
 11
3.3868867334
 21
3.1097435673
  0
LINE
  5
268
100
AcDbEntity
  8
ALL_ASSEMBLY_MEMBERS
100
AcDbLine
 62
7
  6
CONTINUOUS
 10
3.5313667584
 20
4.9063244417
 11
3.5313667584
 21
5.4238244417
  0
LINE
  5
269
100
AcDbEntity
  8
0
100
AcDbLine
 62
7
  6
CONTINUOUS
 10
3.5688667584
 20
4.9227162885
 11
3.5688667584
 21
5.4074325949
  0
LINE
  5
26A
100
AcDbEntity
  8
0
100
AcDbLine
 62
9
  6
CONTINUOUS
 10
3.5870336358
 20
4.8951486043
 11
3.5870336358
 21
5.435000279
  0
LINE
  5
26B
100
AcDbEntity
  8
0
100
AcDbLine
 62
7
  6
CONTINUOUS
 10
3.692922203
 20
3.3706330846
 11
3.6824745973
 21
3.368394312
  0
LINE
  5
26C
100
AcDbEntity
  8
0
100
AcDbLine
 62
7
  6
CONTINUOUS
 10
4.933181719
 20
3.4222575973
 11
4.8355460608
 21
3.4222575973
  0
LINE
  5
26D
100
AcDbEntity
  8
0
100
AcDbLine
 62
7
  6
CONTINUOUS
 10
3.8962801442
 20
3.4228244417
 11
3.7837008
 21
3.4228244417
  0
LINE
  5
26E
100
AcDbEntity
  8
ALL_FEATURES
100
AcDbLine
 62
7
  6
CONTINUOUS
 10
3.7837008
 20
3.4228244417
 11
3.8962801442
 21
3.4228244417
  0
LINE
  5
26F
100
AcDbEntity
  8
0
100
AcDbLine
 62
7
  6
CONTINUOUS
 10
4.2007801442
 20
3.4228244417
 11
4.8285301442
 21
3.4228244417
  0
LINE
  5
270
100
AcDbEntity
  8
ALL_FEATURES
100
AcDbLine
 62
7
  6
CONTINUOUS
 10
4.2007801442
 20
3.4228244417
 11
4.8285301442
 21
3.4228244417
  0
LINE
  5
271
100
AcDbEntity
  8
0
100
AcDbLine
 62
9
  6
CONTINUOUS
 10
3.6432230153
 20
3.3399642675
 11
3.6432230153
 21
2.2651846158
  0
LINE
  5
272
100
AcDbEntity
  8
0
100
AcDbLine
 62
9
  6
CONTINUOUS
 10
3.6824745973
 20
3.3683943119
 11
3.6824745973
 21
2.2367545715
  0
LINE
  5
273
100
AcDbEntity
  8
0
100
AcDbLine
 62
9
  6
CONTINUOUS
 10
3.6929222031
 20
2.2345157988
 11
3.6929222031
 21
3.3706330846
  0
LINE
  5
274
100
AcDbEntity
  8
0
100
AcDbLine
 62
9
  6
CONTINUOUS
 10
3.7186744322
 20
2.2185734602
 11
3.7186744322
 21
3.3865754232
  0
LINE
  5
275
100
AcDbEntity
  8
0
100
AcDbLine
 62
9
  6
CONTINUOUS
 10
3.7250657358
 20
2.2105598264
 11
3.7250657358
 21
3.394589057
  0
LINE
  5
276
100
AcDbEntity
  8
0
100
AcDbLine
 62
9
  6
CONTINUOUS
 10
3.7837008
 20
3.4228244417
 11
3.7837008
 21
2.1823244417
  0
LINE
  5
277
100
AcDbEntity
  8
0
100
AcDbLine
 62
9
  6
CONTINUOUS
 10
3.8194323342
 20
5.6199866458
 11
3.8194323342
 21
4.7101622376
  0
LINE
  5
278
100
AcDbEntity
  8
ALL_ASSEMBLY_MEMBERS
100
AcDbLine
 62
7
  6
CONTINUOUS
 10
3.1571155856
 20
2.8318713167
 11
3.1402010269
 21
2.8025744417
  0
LINE
  5
279
100
AcDbEntity
  8
0
100
AcDbLine
 62
9
  6
CONTINUOUS
 10
3.9041551442
 20
3.5203244417
 11
4.1929051442
 21
3.5203244417
  0
LINE
  5
27A
100
AcDbEntity
  8
0
100
AcDbLine
 62
7
  6
CONTINUOUS
 10
3.9116567484
 20
3.5278244417
 11
4.1854035401
 21
3.5278244417
  0
LINE
  5
27B
100
AcDbEntity
  8
0
100
AcDbLine
 62
9
  6
CONTINUOUS
 10
3.8799603735
 20
5.6506994417
 11
3.8799603735
 21
4.6794494417
  0
LINE
  5
27C
100
AcDbEntity
  8
0
100
AcDbLine
 62
7
  6
CONTINUOUS
 10
3.9041551442
 20
3.4209424734
 11
3.9041551442
 21
3.5203244417
  0
LINE
  5
27D
100
AcDbEntity
  8
0
100
AcDbLine
 62
7
  6
CONTINUOUS
 10
4.042931719
 20
4.6574969417
 11
4.042931719
 21
5.6726459846
  0
LINE
  5
27E
100
AcDbEntity
  8
ALL_ASSEMBLY_MEMBERS
100
AcDbLine
 62
7
  6
CONTINUOUS
 10
3.1909447029
 20
2.7732775667
 11
3.2078592616
 21
2.8025744417
  0
LINE
  5
27F
100
AcDbEntity
  8
0
100
AcDbLine
 62
7
  6
CONTINUOUS
 10
4.966931719
 20
3.7554494417
 11
4.938431719
 21
3.7554494417
  0
LINE
  5
280
100
AcDbEntity
  8
0
100
AcDbLine
 62
7
  6
CONTINUOUS
 10
5.026931719
 20
3.8154494417
 11
4.966931719
 21
3.8154494417
  0
LINE
  5
281
100
AcDbEntity
  8
ALL_ASSEMBLY_MEMBERS
100
AcDbLine
 62
7
  6
CONTINUOUS
 10
3.3475376411
 20
5.1650744417
 11
3.3644521997
 21
5.1357775667
  0
LINE
  5
282
100
AcDbEntity
  8
0
100
AcDbLine
 62
9
  6
CONTINUOUS
 10
4.155431719
 20
4.5449969417
 11
4.155431719
 21
5.7851519417
  0
LINE
  5
283
100
AcDbEntity
  8
0
100
AcDbLine
 62
7
  6
CONTINUOUS
 10
4.1929051442
 20
3.4209425076
 11
4.1929051442
 21
3.5203244417
  0
LINE
  5
284
100
AcDbEntity
  8
0
100
AcDbLine
 62
7
  6
CONTINUOUS
 10
3.7250657358
 20
3.394589057
 11
3.7186744321
 21
3.3865754232
  0
LINE
  5
285
100
AcDbEntity
  8
ALL_ASSEMBLY_MEMBERS
100
AcDbLine
 62
7
  6
CONTINUOUS
 10
3.4151958758
 20
5.1650744417
 11
3.3982813171
 21
5.1943713167
  0
LINE
  5
286
100
AcDbEntity
  8
0
100
AcDbLine
 62
7
  6
CONTINUOUS
 10
5.026931719
 20
4.5449969417
 11
4.155431719
 21
4.5449969417
  0
LINE
  5
287
100
AcDbEntity
  8
0
100
AcDbLine
 62
7
  6
CONTINUOUS
 10
4.9340729553
 20
2.0496441367
 11
4.933946475
 21
2.0550904991
  0
LINE
  5
288
100
AcDbEntity
  8
0
100
AcDbLine
 62
7
  6
CONTINUOUS
 10
4.9368902965
 20
1.9220896168
 11
4.9373773438
 21
1.9000490805
  0
LINE
  5
289
100
AcDbEntity
  8
0
100
AcDbLine
 62
7
  6
CONTINUOUS
 10
4.933181719
 20
2.0900744417
 11
4.9338027562
 21
2.0616398109
  0
LINE
  5
28A
100
AcDbEntity
  8
0
100
AcDbLine
 62
7
  6
CONTINUOUS
 10
4.9373162472
 20
1.9011440522
 11
4.9368613514
 21
1.9220889861
  0
LINE
  5
28B
100
AcDbEntity
  8
0
100
AcDbLine
 62
7
  6
CONTINUOUS
 10
4.9374646638
 20
1.8940022247
 11
4.9373162472
 21
1.9011440522
  0
LINE
  5
28C
100
AcDbEntity
  8
0
100
AcDbLine
 62
9
  6
CONTINUOUS
 10
4.7894356561
 20
2.1824957169
 11
4.7894356561
 21
3.4226531818
  0
LINE
  5
28D
100
AcDbEntity
  8
0
100
AcDbLine
 62
7
  6
CONTINUOUS
 10
4.8285301442
 20
3.4228244417
 11
4.8285301442
 21
2.1823244417
  0
LINE
  5
28E
100
AcDbEntity
  8
0
100
AcDbLine
 62
7
  6
CONTINUOUS
 10
4.933181719
 20
3.5150744417
 11
4.933181719
 21
2.9946864209
  0
LINE
  5
28F
100
AcDbEntity
  8
0
100
AcDbLine
 62
7
  6
CONTINUOUS
 10
4.933181719
 20
2.9701679218
 11
4.933181719
 21
2.3573141054
  0
LINE
  5
290
100
AcDbEntity
  8
0
100
AcDbLine
 62
7
  6
CONTINUOUS
 10
4.933181719
 20
2.3383981913
 11
4.933181719
 21
2.0900744417
  0
LINE
  5
291
100
AcDbEntity
  8
0
100
AcDbLine
 62
7
  6
CONTINUOUS
 10
4.938431719
 20
3.7554494417
 11
4.938431719
 21
1.8496994417
  0
LINE
  5
292
100
AcDbEntity
  8
0
100
AcDbLine
 62
7
  6
CONTINUOUS
 10
4.966931719
 20
3.8154494417
 11
4.966931719
 21
1.7896994417
  0
LINE
  5
293
100
AcDbEntity
  8
0
100
AcDbLine
 62
7
  6
CONTINUOUS
 10
4.9358259654
 20
3.6275533004
 11
4.9368731989
 21
3.6768661642
  0
LINE
  5
294
100
AcDbEntity
  8
0
100
AcDbLine
 62
7
  6
CONTINUOUS
 10
4.9339529805
 20
3.5503871984
 11
4.933181719
 21
3.5150744417
  0
LINE
  5
295
100
AcDbEntity
  8
0
100
AcDbLine
 62
7
  6
CONTINUOUS
 10
4.9346941467
 20
3.5761006837
 11
4.9358259654
 21
3.6275533004
  0
LINE
  5
296
100
AcDbEntity
  8
ALL_FEATURES
100
AcDbLine
 62
7
  6
CONTINUOUS
 10
3.8799603735
 20
4.6794494417
 11
4.042931719
 21
4.6794494417
  0
LINE
  5
297
100
AcDbEntity
  8
ALL_FEATURES
100
AcDbLine
 62
7
  6
CONTINUOUS
 10
5.026931719
 20
0.9275744417
 11
5.026931719
 21
6.9275744417
  0
LINE
  5
298
100
AcDbEntity
  8
ALL_FEATURES
100
AcDbLine
 62
7
  6
CONTINUOUS
 10
5.074181719
 20
0.8338244417
 11
5.074181719
 21
7.0213244417
  0
LINE
  5
299
100
AcDbEntity
  8
ALL_ASSEMBLY_MEMBERS
100
AcDbLine
 62
7
  6
CONTINUOUS
 10
3.2403667584
 20
4.9063244417
 11
3.3078667584
 21
4.9063244417
  0
LINE
  5
29A
100
AcDbEntity
  8
ALL_ASSEMBLY_MEMBERS
100
AcDbLine
 62
7
  6
CONTINUOUS
 10
3.4548667584
 20
4.9063244417
 11
3.5313667584
 21
4.9063244417
  0
LINE
  5
29B
100
AcDbEntity
  8
ALL_ASSEMBLY_MEMBERS
100
AcDbLine
 62
7
  6
CONTINUOUS
 10
2.6238667584
 20
4.9588244417
 11
2.6426167584
 21
4.9588244417
  0
LINE
  5
29C
100
AcDbEntity
  8
0
100
AcDbLine
 62
7
  6
CONTINUOUS
 10
3.5688667584
 20
5.0263244417
 11
3.5313667584
 21
5.0263244417
  0
LINE
  5
29D
100
AcDbEntity
  8
0
100
AcDbLine
 62
7
  6
CONTINUOUS
 10
5.261681719
 20
7.0213244417
 11
5.261681719
 21
0.8338244417
  0
LINE
  5
29E
100
AcDbEntity
  8
ALL_ASSEMBLY_MEMBERS
100
AcDbLine
 62
7
  6
CONTINUOUS
 10
3.3644521997
 20
5.1357775667
 11
3.3982813171
 21
5.1357775667
  0
LINE
  5
29F
100
AcDbEntity
  8
0
100
AcDbLine
 62
7
  6
CONTINUOUS
 10
3.405896094
 20
5.1489667472
 11
3.3568374228
 21
5.1489667472
  0
LINE
  5
2A0
100
AcDbEntity
  8
0
100
AcDbLine
 62
7
  6
CONTINUOUS
 10
3.405896094
 20
5.1811821362
 11
3.3568374228
 21
5.1811821362
  0
LINE
  5
2A1
100
AcDbEntity
  8
ALL_ASSEMBLY_MEMBERS
100
AcDbLine
 62
7
  6
CONTINUOUS
 10
3.3982813171
 20
5.1943713167
 11
3.3644521997
 21
5.1943713167
  0
LINE
  5
2A2
100
AcDbEntity
  8
0
100
AcDbLine
 62
7
  6
CONTINUOUS
 10
3.5688667584
 20
5.3038244417
 11
3.5313667584
 21
5.3038244417
  0
LINE
  5
2A3
100
AcDbEntity
  8
ALL_ASSEMBLY_MEMBERS
100
AcDbLine
 62
7
  6
CONTINUOUS
 10
2.6238667584
 20
5.3713244417
 11
2.6426167584
 21
5.3713244417
  0
LINE
  5
2A4
100
AcDbEntity
  8
ALL_ASSEMBLY_MEMBERS
100
AcDbLine
 62
7
  6
CONTINUOUS
 10
3.2403667584
 20
5.4238244417
 11
3.5313667584
 21
5.4238244417
  0
LINE
  5
2A5
100
AcDbEntity
  8
ALL_FEATURES
100
AcDbLine
 62
7
  6
CONTINUOUS
 10
3.8799603735
 20
5.6506994417
 11
4.042931719
 21
5.6506994417
  0
LINE
  5
2A6
100
AcDbEntity
  8
0
100
AcDbLine
 62
7
  6
CONTINUOUS
 10
5.026931719
 20
5.7851519417
 11
4.155431719
 21
5.7851519417
  0
LINE
  5
2A7
100
AcDbEntity
  8
ALL_FEATURES
100
AcDbLine
 62
9
  6
CONTINUOUS
 10
5.074181719
 20
6.3313244417
 11
5.026931719
 21
6.3313244417
  0
LINE
  5
2A8
100
AcDbEntity
  8
0
100
AcDbLine
 62
9
  6
CONTINUOUS
 10
5.074181719
 20
6.3313244417
 11
5.261681719
 21
6.3313244417
  0
LINE
  5
2A9
100
AcDbEntity
  8
ALL_FEATURES
100
AcDbLine
 62
7
  6
CONTINUOUS
 10
5.074181719
 20
6.5525744417
 11
5.026931719
 21
6.5525744417
  0
LINE
  5
2AA
100
AcDbEntity
  8
0
100
AcDbLine
 62
7
  6
CONTINUOUS
 10
5.074181719
 20
6.6463244417
 11
5.261681719
 21
6.6463244417
  0
LINE
  5
2AB
100
AcDbEntity
  8
ALL_FEATURES
100
AcDbLine
 62
7
  6
CONTINUOUS
 10
5.074181719
 20
6.6463244417
 11
5.261681719
 21
6.6463244417
  0
LINE
  5
2AC
100
AcDbEntity
  8
ALL_FEATURES
100
AcDbLine
 62
9
  6
CONTINUOUS
 10
5.074181719
 20
6.6763244417
 11
5.026931719
 21
6.6763244417
  0
LINE
  5
2AD
100
AcDbEntity
  8
0
100
AcDbLine
 62
9
  6
CONTINUOUS
 10
5.074181719
 20
6.6763244417
 11
5.261681719
 21
6.6763244417
  0
LINE
  5
2AE
100
AcDbEntity
  8
ALL_FEATURES
100
AcDbLine
 62
9
  6
CONTINUOUS
 10
5.074181719
 20
6.7063244417
 11
5.026931719
 21
6.7063244417
  0
LINE
  5
2AF
100
AcDbEntity
  8
0
100
AcDbLine
 62
9
  6
CONTINUOUS
 10
5.074181719
 20
6.7063244417
 11
5.261681719
 21
6.7063244417
  0
LINE
  5
2B0
100
AcDbEntity
  8
ALL_FEATURES
100
AcDbLine
 62
7
  6
CONTINUOUS
 10
5.074181719
 20
6.9275744417
 11
5.026931719
 21
6.9275744417
  0
LINE
  5
2B1
100
AcDbEntity
  8
0
100
AcDbLine
 62
7
  6
CONTINUOUS
 10
5.074181719
 20
7.0213244417
 11
5.261681719
 21
7.0213244417
  0
LINE
  5
2B2
100
AcDbEntity
  8
ALL_FEATURES
100
AcDbLine
 62
7
  6
CONTINUOUS
 10
5.074181719
 20
7.0213244417
 11
5.261681719
 21
7.0213244417
  0
ARC
  5
2B3
100
AcDbEntity
  8
0
100
AcDbCircle
 62
7
  6
CONTINUOUS
 10
-4.4616906032
 20
1.8167779348
 40
9.3988651423
100
AcDbArc
 50
1.2532715723
 51
1.3788682335
  0
ARC
  5
2B4
100
AcDbEntity
  8
0
100
AcDbCircle
 62
7
  6
CONTINUOUS
 10
-4.223788639
 20
3.0505038681
 40
9.1598165472
100
AcDbArc
 50
359.6792284557
 51
359.8058810402
  0
ARC
  5
2B5
100
AcDbEntity
  8
0
100
AcDbCircle
 62
7
  6
CONTINUOUS
 10
-4.086389189
 20
1.8108354018
 40
9.0237235253
100
AcDbArc
 50
1.1175562249
 51
1.2367282421
  0
ARC
  5
2B6
100
AcDbEntity
  8
0
100
AcDbCircle
 62
7
  6
CONTINUOUS
 10
1.4844211038
 20
2.3210194188
 40
3.4515891349
100
AcDbArc
 50
359.5348625366
 51
359.8114947649
  0
ARC
  5
2B7
100
AcDbEntity
  8
0
100
AcDbCircle
 62
7
  6
CONTINUOUS
 10
2.1418090486
 20
2.3405025244
 40
2.7952735927
100
AcDbArc
 50
0.7924229274
 51
1.105580717
  0
ARC
  5
2B8
100
AcDbEntity
  8
0
100
AcDbCircle
 62
7
  6
CONTINUOUS
 10
2.9486518764
 20
2.3658517462
 40
1.9882321551
100
AcDbArc
 50
359.8564526287
 51
0.2047522319
  0
ARC
  5
2B9
100
AcDbEntity
  8
0
100
AcDbCircle
 62
7
  6
CONTINUOUS
 10
3.1567315313
 20
1.9813244417
 40
0.56325
100
AcDbArc
 50
30.2628931686
 51
65.8818266345
  0
ARC
  5
2BA
100
AcDbEntity
  8
ALL_ASSEMBLY_MEMBERS
100
AcDbCircle
 62
7
  6
CONTINUOUS
 10
2.7517801442
 20
2.3488244417
 40
0.28125
100
AcDbArc
 50
180.0
 51
209.284895722
  0
ARC
  5
2BB
100
AcDbEntity
  8
ALL_ASSEMBLY_MEMBERS
100
AcDbCircle
 62
7
  6
CONTINUOUS
 10
2.7517801442
 20
2.3488244417
 40
0.28125
100
AcDbArc
 50
234.6431823804
 51
262.3377443392
  0
ARC
  5
2BC
100
AcDbEntity
  8
ALL_ASSEMBLY_MEMBERS
100
AcDbCircle
 62
7
  6
CONTINUOUS
 10
2.7517801442
 20
2.3488244417
 40
0.28125
100
AcDbArc
 50
277.6622556608
 51
305.5443769462
  0
ARC
  5
2BD
100
AcDbEntity
  8
ALL_ASSEMBLY_MEMBERS
100
AcDbCircle
 62
7
  6
CONTINUOUS
 10
2.7517801442
 20
2.3488244417
 40
0.28125
100
AcDbArc
 50
331.1295236019
 51
360.0
  0
ARC
  5
2BE
100
AcDbEntity
  8
ALL_ASSEMBLY_MEMBERS
100
AcDbCircle
 62
7
  6
CONTINUOUS
 10
2.9510539672
 20
2.1503515065
 40
0.0469268896
100
AcDbArc
 50
220.3298726976
 51
360.0
  0
ARC
  5
2BF
100
AcDbEntity
  8
ALL_ASSEMBLY_MEMBERS
100
AcDbCircle
 62
7
  6
CONTINUOUS
 10
2.5532863249
 20
2.1495660029
 40
0.0467415612
100
AcDbArc
 50
180.0
 51
319.8813515488
  0
ARC
  5
2C0
100
AcDbEntity
  8
ALL_ASSEMBLY_MEMBERS
100
AcDbCircle
 62
7
  6
CONTINUOUS
 10
2.7517801442
 20
2.0581994417
 40
0.0375
100
AcDbArc
 50
180.0
 51
360.0
  0
ARC
  5
2C1
100
AcDbEntity
  8
ALL_ASSEMBLY_MEMBERS
100
AcDbCircle
 62
7
  6
CONTINUOUS
 10
3.17381929
 20
2.7870060235
 40
0.0807118614
100
AcDbArc
 50
99.6998953345
 51
106.1903827713
  0
ARC
  5
2C2
100
AcDbEntity
  8
ALL_ASSEMBLY_MEMBERS
100
AcDbCircle
 62
7
  6
CONTINUOUS
 10
3.1740331573
 20
2.8025737424
 40
0.0636793413
100
AcDbArc
 50
1.3053402109
 51
19.4943559793
  0
ARC
  5
2C3
100
AcDbEntity
  8
ALL_ASSEMBLY_MEMBERS
100
AcDbCircle
 62
7
  6
CONTINUOUS
 10
3.1740835495
 20
2.8024641752
 40
0.0635605797
100
AcDbArc
 50
287.0873973059
 51
289.4832791988
  0
ARC
  5
2C4
100
AcDbEntity
  8
ALL_ASSEMBLY_MEMBERS
100
AcDbCircle
 62
7
  6
CONTINUOUS
 10
3.1742109608
 20
2.8021009973
 40
0.0631757021
100
AcDbArc
 50
289.4842004071
 51
290.8293348722
  0
ARC
  5
2C5
100
AcDbEntity
  8
ALL_ASSEMBLY_MEMBERS
100
AcDbCircle
 62
7
  6
CONTINUOUS
 10
3.1748725002
 20
2.8003655464
 40
0.0600161236
100
AcDbArc
 50
196.4348676421
 51
201.1616244727
  0
ARC
  5
2C6
100
AcDbEntity
  8
ALL_ASSEMBLY_MEMBERS
100
AcDbCircle
 62
7
  6
CONTINUOUS
 10
3.1744043379
 20
2.8002289086
 40
0.0595284953
100
AcDbArc
 50
177.7418551635
 51
196.4362150667
  0
ARC
  5
2C7
100
AcDbEntity
  8
0
100
AcDbCircle
 62
7
  6
CONTINUOUS
 10
3.4177671673
 20
2.5400744417
 40
0.0562370231
100
AcDbArc
 50
180.0
 51
213.871340548
  0
ARC
  5
2C8
100
AcDbEntity
  8
ALL_FEATURES
100
AcDbCircle
 62
7
  6
CONTINUOUS
 10
3.4177671673
 20
2.5400744417
 40
0.0562370231
100
AcDbArc
 50
180.0
 51
213.871340548
  0
ARC
  5
2C9
100
AcDbEntity
  8
ALL_ASSEMBLY_MEMBERS
100
AcDbCircle
 62
7
  6
CONTINUOUS
 10
3.1716930659
 20
2.8020933074
 40
0.0559228268
100
AcDbArc
 50
85.9738470108
 51
117.0568609566
  0
ARC
  5
2CA
100
AcDbEntity
  8
ALL_ASSEMBLY_MEMBERS
100
AcDbCircle
 62
7
  6
CONTINUOUS
 10
3.1740246411
 20
2.802539369
 40
0.0488529617
100
AcDbArc
 50
79.8983300044
 51
82.3929804588
  0
ARC
  5
2CB
100
AcDbEntity
  8
ALL_ASSEMBLY_MEMBERS
100
AcDbCircle
 62
7
  6
CONTINUOUS
 10
3.1740296526
 20
2.8025659262
 40
0.0488259437
100
AcDbArc
 50
79.1413602751
 51
79.8982975363
  0
ARC
  5
2CC
100
AcDbEntity
  8
ALL_ASSEMBLY_MEMBERS
100
AcDbCircle
 62
7
  6
CONTINUOUS
 10
3.1740994332
 20
2.8025677592
 40
0.0487478896
100
AcDbArc
 50
354.614458482
 51
355.6997990045
  0
ARC
  5
2CD
100
AcDbEntity
  8
ALL_ASSEMBLY_MEMBERS
100
AcDbCircle
 62
7
  6
CONTINUOUS
 10
3.1741774089
 20
2.802560619
 40
0.048669588
100
AcDbArc
 50
354.0092067169
 51
354.6142113048
  0
ARC
  5
2CE
100
AcDbEntity
  8
ALL_ASSEMBLY_MEMBERS
100
AcDbCircle
 62
7
  6
CONTINUOUS
 10
2.3692801442
 20
2.6158780435
 40
0.04725
100
AcDbArc
 50
0.0
 51
87.2705973632
  0
ARC
  5
2CF
100
AcDbEntity
  8
0
100
AcDbCircle
 62
7
  6
CONTINUOUS
 10
3.4022099826
 20
2.5296317391
 40
0.0375
100
AcDbArc
 50
213.8713405478
 51
245.8818266345
  0
ARC
  5
2D0
100
AcDbEntity
  8
ALL_ASSEMBLY_MEMBERS
100
AcDbCircle
 62
7
  6
CONTINUOUS
 10
2.4705301442
 20
2.5891994417
 40
0.03525
100
AcDbArc
 50
180.0
 51
270.0
  0
ARC
  5
2D1
100
AcDbEntity
  8
0
100
AcDbCircle
 62
7
  6
CONTINUOUS
 10
3.8704088033
 20
2.3013374641
 40
1.0655203247
100
AcDbArc
 50
359.2053071542
 51
359.5516202649
  0
ARC
  5
2D2
100
AcDbEntity
  8
0
100
AcDbCircle
 62
7
  6
CONTINUOUS
 10
4.0270464191
 20
2.3670266609
 40
0.9098498063
100
AcDbArc
 50
0.6334716161
 51
0.7641566714
  0
ARC
  5
2D3
100
AcDbEntity
  8
0
100
AcDbCircle
 62
7
  6
CONTINUOUS
 10
4.1578459096
 20
2.3693576748
 40
0.7790337408
100
AcDbArc
 50
0.2647124432
 51
0.4942649569
  0
ARC
  5
2D4
100
AcDbEntity
  8
0
100
AcDbCircle
 62
7
  6
CONTINUOUS
 10
4.3720930765
 20
2.3488854714
 40
0.562382304
100
AcDbArc
 50
0.0247287521
 51
0.1566274591
  0
ARC
  5
2D5
100
AcDbEntity
  8
0
100
AcDbCircle
 62
7
  6
CONTINUOUS
 10
4.404525569
 20
2.3484561991
 40
0.5299561952
100
AcDbArc
 50
0.9577100567
 51
1.0891536396
  0
ARC
  5
2D6
100
AcDbEntity
  8
0
100
AcDbCircle
 62
7
  6
CONTINUOUS
 10
4.4236220346
 20
2.3490632134
 40
0.5108530539
100
AcDbArc
 50
0.152491255
 51
0.7634284561
  0
ARC
  5
2D7
100
AcDbEntity
  8
0
100
AcDbCircle
 62
7
  6
CONTINUOUS
 10
4.4431664826
 20
2.3716608791
 40
0.4937039411
100
AcDbArc
 50
0.5126225989
 51
0.629602833
  0
ARC
  5
2D8
100
AcDbEntity
  8
0
100
AcDbCircle
 62
7
  6
CONTINUOUS
 10
4.5259558218
 20
2.35043533
 40
0.4085100686
100
AcDbArc
 50
0.762235599
 51
0.9648316111
  0
ARC
  5
2D9
100
AcDbEntity
  8
0
100
AcDbCircle
 62
7
  6
CONTINUOUS
 10
4.6433263669
 20
2.3503031184
 40
0.2911852237
100
AcDbArc
 50
358.1773134323
 51
358.5153001961
  0
ARC
  5
2DA
100
AcDbEntity
  8
0
100
AcDbCircle
 62
7
  6
CONTINUOUS
 10
5.1604877349
 20
2.358737135
 40
0.226490039
100
AcDbArc
 50
178.9439085583
 51
179.177541731
  0
ARC
  5
2DB
100
AcDbEntity
  8
0
100
AcDbCircle
 62
7
  6
CONTINUOUS
 10
4.7511602435
 20
2.3472235412
 40
0.1833044583
100
AcDbArc
 50
358.6042055089
 51
358.8640871701
  0
ARC
  5
2DC
100
AcDbEntity
  8
0
100
AcDbCircle
 62
7
  6
CONTINUOUS
 10
4.8361265261
 20
2.3595539763
 40
0.0982046105
100
AcDbArc
 50
2.1684460175
 51
2.428678525
  0
ARC
  5
2DD
100
AcDbEntity
  8
0
100
AcDbCircle
 62
7
  6
CONTINUOUS
 10
3.7837008
 20
2.2573244417
 40
0.075
100
AcDbArc
 50
218.574242923
 51
270.0
  0
ARC
  5
2DE
100
AcDbEntity
  8
0
100
AcDbCircle
 62
7
  6
CONTINUOUS
 10
3.6950463429
 20
2.2954227162
 40
0.06
100
AcDbArc
 50
210.2628924365
 51
257.9052426455
  0
ARC
  5
2DF
100
AcDbEntity
  8
0
100
AcDbCircle
 62
7
  6
CONTINUOUS
 10
3.6834933943
 20
2.1905146901
 40
0.045
100
AcDbArc
 50
38.5742443677
 51
77.9052432775
  0
ARC
  5
2E0
100
AcDbEntity
  8
0
100
AcDbCircle
 62
7
  6
CONTINUOUS
 10
2.109289144
 20
3.1102571509
 40
2.8280567182
100
AcDbArc
 50
359.6301724881
 51
359.7737342044
  0
ARC
  5
2E1
100
AcDbEntity
  8
ALL_ASSEMBLY_MEMBERS
100
AcDbCircle
 62
7
  6
CONTINUOUS
 10
2.3692801442
 20
2.9892708399
 40
0.04725
100
AcDbArc
 50
272.7294026368
 51
360.0
  0
ARC
  5
2E2
100
AcDbEntity
  8
ALL_ASSEMBLY_MEMBERS
100
AcDbCircle
 62
7
  6
CONTINUOUS
 10
2.4705301442
 20
3.0159494417
 40
0.03525
100
AcDbArc
 50
90.0
 51
180.0
  0
ARC
  5
2E3
100
AcDbEntity
  8
ALL_ASSEMBLY_MEMBERS
100
AcDbCircle
 62
7
  6
CONTINUOUS
 10
3.1676064474
 20
2.8029244756
 40
0.0494951466
100
AcDbArc
 50
77.1231324968
 51
96.4415526763
  0
ARC
  5
2E4
100
AcDbEntity
  8
ALL_ASSEMBLY_MEMBERS
100
AcDbCircle
 62
7
  6
CONTINUOUS
 10
3.1739521368
 20
2.8029085178
 40
0.0640240264
100
AcDbArc
 50
282.1902580594
 51
284.4916885126
  0
ARC
  5
2E5
100
AcDbEntity
  8
ALL_ASSEMBLY_MEMBERS
100
AcDbCircle
 62
7
  6
CONTINUOUS
 10
3.173968719
 20
2.8028294467
 40
0.0639432367
100
AcDbArc
 50
279.5898686982
 51
282.1906956229
  0
ARC
  5
2E6
100
AcDbEntity
  8
ALL_ASSEMBLY_MEMBERS
100
AcDbCircle
 62
7
  6
CONTINUOUS
 10
3.1739842112
 20
2.8027865387
 40
0.0638979019
100
AcDbArc
 50
284.4912134144
 51
287.0876063954
  0
ARC
  5
2E7
100
AcDbEntity
  8
ALL_ASSEMBLY_MEMBERS
100
AcDbCircle
 62
7
  6
CONTINUOUS
 10
3.1740301442
 20
2.8025744417
 40
0.0636824996
100
AcDbArc
 50
290.8299188525
 51
20.8011183191
  0
ARC
  5
2E8
100
AcDbEntity
  8
ALL_ASSEMBLY_MEMBERS
100
AcDbCircle
 62
7
  6
CONTINUOUS
 10
3.174518743
 20
2.8027607242
 40
0.0631595947
100
AcDbArc
 50
19.4814596283
 51
20.8005498219
  0
ARC
  5
2E9
100
AcDbEntity
  8
ALL_ASSEMBLY_MEMBERS
100
AcDbCircle
 62
7
  6
CONTINUOUS
 10
3.1764359444
 20
2.8028382941
 40
0.0631170959
100
AcDbArc
 50
287.990382367
 51
288.703087383
  0
ARC
  5
2EA
100
AcDbEntity
  8
ALL_ASSEMBLY_MEMBERS
100
AcDbCircle
 62
7
  6
CONTINUOUS
 10
3.1740301442
 20
2.8025744417
 40
0.051
100
AcDbArc
 50
349.9900108197
 51
343.5567821116
  0
ARC
  5
2EB
100
AcDbEntity
  8
ALL_ASSEMBLY_MEMBERS
100
AcDbCircle
 62
7
  6
CONTINUOUS
 10
3.1740301812
 20
2.8025744733
 40
0.0488174502
100
AcDbArc
 50
355.6980355473
 51
79.1400797562
  0
ARC
  5
2EC
100
AcDbEntity
  8
ALL_ASSEMBLY_MEMBERS
100
AcDbCircle
 62
7
  6
CONTINUOUS
 10
3.174030559
 20
2.8025852261
 40
0.0488067246
100
AcDbArc
 50
82.4642864652
 51
84.5847721018
  0
ARC
  5
2ED
100
AcDbEntity
  8
ALL_ASSEMBLY_MEMBERS
100
AcDbCircle
 62
7
  6
CONTINUOUS
 10
3.1740423299
 20
2.8027040161
 40
0.0486873539
100
AcDbArc
 50
83.4883074271
 51
84.5853697254
  0
ARC
  5
2EE
100
AcDbEntity
  8
ALL_ASSEMBLY_MEMBERS
100
AcDbCircle
 62
7
  6
CONTINUOUS
 10
3.1744400418
 20
2.8174048023
 40
0.079947818
100
AcDbArc
 50
282.9110938579
 51
289.4630898174
  0
ARC
  5
2EF
100
AcDbEntity
  8
ALL_ASSEMBLY_MEMBERS
100
AcDbCircle
 62
7
  6
CONTINUOUS
 10
3.172606573
 20
2.8112170524
 40
0.0625361269
100
AcDbArc
 50
12.5941050726
 51
12.9107648965
  0
ARC
  5
2F0
100
AcDbEntity
  8
0
100
AcDbCircle
 62
7
  6
CONTINUOUS
 10
2.99986075
 20
3.0918982566
 40
1.9359752322
100
AcDbArc
 50
358.7662186566
 51
358.9811243094
  0
ARC
  5
2F1
100
AcDbEntity
  8
0
100
AcDbCircle
 62
7
  6
CONTINUOUS
 10
3.0896942454
 20
3.1032459535
 40
1.8476260652
100
AcDbArc
 50
359.2373892607
 51
359.5444500937
  0
ARC
  5
2F2
100
AcDbEntity
  8
0
100
AcDbCircle
 62
7
  6
CONTINUOUS
 10
3.4356659345
 20
3.1134223353
 40
1.5016828029
100
AcDbArc
 50
0.058530814
 51
0.3434289853
  0
ARC
  5
2F3
100
AcDbEntity
  8
0
100
AcDbCircle
 62
7
  6
CONTINUOUS
 10
3.4765863653
 20
2.9872993141
 40
1.4596840426
100
AcDbArc
 50
358.6878113153
 51
358.9697188762
  0
ARC
  5
2F4
100
AcDbEntity
  8
0
100
AcDbCircle
 62
7
  6
CONTINUOUS
 10
3.5713070321
 20
3.0971566931
 40
1.3659749304
100
AcDbArc
 50
359.092434703
 51
359.2239086159
  0
ARC
  5
2F5
100
AcDbEntity
  8
0
100
AcDbCircle
 62
7
  6
CONTINUOUS
 10
3.6052249137
 20
2.9938261969
 40
1.3305808737
100
AcDbArc
 50
358.8802824694
 51
359.0974671761
  0
ARC
  5
2F6
100
AcDbEntity
  8
0
100
AcDbCircle
 62
7
  6
CONTINUOUS
 10
3.4177671673
 20
3.0650744417
 40
0.0562370231
100
AcDbArc
 50
146.128659452
 51
180.0
  0
ARC
  5
2F7
100
AcDbEntity
  8
ALL_FEATURES
100
AcDbCircle
 62
7
  6
CONTINUOUS
 10
3.4177671673
 20
3.0650744417
 40
0.0562370231
100
AcDbArc
 50
146.128659452
 51
180.0
  0
ARC
  5
2F8
100
AcDbEntity
  8
0
100
AcDbCircle
 62
7
  6
CONTINUOUS
 10
3.4022099826
 20
3.0755171442
 40
0.0375
100
AcDbArc
 50
114.1181733657
 51
146.1286594522
  0
ARC
  5
2F9
100
AcDbEntity
  8
0
100
AcDbCircle
 62
7
  6
CONTINUOUS
 10
3.1567315313
 20
3.6238244417
 40
0.56325
100
AcDbArc
 50
294.1181733655
 51
329.7371068314
  0
ARC
  5
2FA
100
AcDbEntity
  8
ALL_ASSEMBLY_MEMBERS
100
AcDbCircle
 62
7
  6
CONTINUOUS
 10
2.7517801442
 20
3.2563244417
 40
0.28125
100
AcDbArc
 50
150.715104278
 51
180.0
  0
ARC
  5
2FB
100
AcDbEntity
  8
ALL_ASSEMBLY_MEMBERS
100
AcDbCircle
 62
7
  6
CONTINUOUS
 10
2.7517801442
 20
3.2563244417
 40
0.28125
100
AcDbArc
 50
97.6622556608
 51
125.3568176196
  0
ARC
  5
2FC
100
AcDbEntity
  8
ALL_ASSEMBLY_MEMBERS
100
AcDbCircle
 62
7
  6
CONTINUOUS
 10
2.7517801442
 20
3.2563244417
 40
0.28125
100
AcDbArc
 50
54.4556230538
 51
82.3377443392
  0
ARC
  5
2FD
100
AcDbEntity
  8
ALL_ASSEMBLY_MEMBERS
100
AcDbCircle
 62
7
  6
CONTINUOUS
 10
2.7517801442
 20
3.2563244417
 40
0.28125
100
AcDbArc
 50
0.0
 51
28.8704763981
  0
ARC
  5
2FE
100
AcDbEntity
  8
ALL_ASSEMBLY_MEMBERS
100
AcDbCircle
 62
7
  6
CONTINUOUS
 10
2.9510539672
 20
3.4547973769
 40
0.0469268896
100
AcDbArc
 50
0.0
 51
139.6701273024
  0
ARC
  5
2FF
100
AcDbEntity
  8
ALL_ASSEMBLY_MEMBERS
100
AcDbCircle
 62
7
  6
CONTINUOUS
 10
2.5532863249
 20
3.4555828805
 40
0.0467415612
100
AcDbArc
 50
40.1186484512
 51
180.0
  0
ARC
  5
300
100
AcDbEntity
  8
ALL_ASSEMBLY_MEMBERS
100
AcDbCircle
 62
7
  6
CONTINUOUS
 10
2.7517801442
 20
3.5469494417
 40
0.0375
100
AcDbArc
 50
0.0
 51
180.0
  0
ARC
  5
301
100
AcDbEntity
  8
0
100
AcDbCircle
 62
7
  6
CONTINUOUS
 10
3.75571449
 20
3.0854767973
 40
1.179614131
100
AcDbArc
 50
358.781632819
 51
358.9505486231
  0
ARC
  5
302
100
AcDbEntity
  8
0
100
AcDbCircle
 62
7
  6
CONTINUOUS
 10
3.8550035039
 20
3.1056587953
 40
1.0821705938
100
AcDbArc
 50
359.1021050954
 51
359.9595559291
  0
ARC
  5
303
100
AcDbEntity
  8
0
100
AcDbCircle
 62
7
  6
CONTINUOUS
 10
3.9468484759
 20
3.0719103796
 40
0.9887767612
100
AcDbArc
 50
358.6202509472
 51
358.7426238395
  0
ARC
  5
304
100
AcDbEntity
  8
0
100
AcDbCircle
 62
7
  6
CONTINUOUS
 10
3.9528156876
 20
3.1069300397
 40
0.9843602442
100
AcDbArc
 50
359.8815429615
 51
0.3452843308
  0
ARC
  5
305
100
AcDbEntity
  8
0
100
AcDbCircle
 62
7
  6
CONTINUOUS
 10
3.9563256765
 20
3.0762265869
 40
0.9793767654
100
AcDbArc
 50
0.8938818151
 51
1.0995535687
  0
ARC
  5
306
100
AcDbEntity
  8
0
100
AcDbCircle
 62
7
  6
CONTINUOUS
 10
3.9626870665
 20
3.0907968232
 40
0.9745432717
100
AcDbArc
 50
358.6722731138
 51
359.1018338827
  0
ARC
  5
307
100
AcDbEntity
  8
0
100
AcDbCircle
 62
7
  6
CONTINUOUS
 10
3.9857629912
 20
2.9759090835
 40
0.9503801457
100
AcDbArc
 50
358.4792521838
 51
358.6713585289
  0
ARC
  5
308
100
AcDbEntity
  8
0
100
AcDbCircle
 62
7
  6
CONTINUOUS
 10
4.010894871
 20
3.0711773194
 40
0.924732523
100
AcDbArc
 50
358.2751954922
 51
358.4500718731
  0
ARC
  5
309
100
AcDbEntity
  8
0
100
AcDbCircle
 62
7
  6
CONTINUOUS
 10
4.1255006452
 20
3.0055756913
 40
0.8089723398
100
AcDbArc
 50
359.3570894206
 51
359.9737259379
  0
ARC
  5
30A
100
AcDbEntity
  8
0
100
AcDbCircle
 62
7
  6
CONTINUOUS
 10
4.1772389371
 20
3.0763822691
 40
0.7579916177
100
AcDbArc
 50
358.5581137519
 51
358.7914316422
  0
ARC
  5
30B
100
AcDbEntity
  8
0
100
AcDbCircle
 62
7
  6
CONTINUOUS
 10
4.1986061354
 20
3.1005827975
 40
0.7385306744
100
AcDbArc
 50
358.9359906756
 51
359.0781265635
  0
ARC
  5
30C
100
AcDbEntity
  8
0
100
AcDbCircle
 62
7
  6
CONTINUOUS
 10
4.2476689382
 20
3.0647047036
 40
0.6878700147
100
AcDbArc
 50
358.4555668837
 51
358.616934168
  0
ARC
  5
30D
100
AcDbEntity
  8
0
100
AcDbCircle
 62
7
  6
CONTINUOUS
 10
4.2556432182
 20
2.9802703991
 40
0.6800223907
100
AcDbArc
 50
358.2597576187
 51
358.9513143706
  0
ARC
  5
30E
100
AcDbEntity
  8
0
100
AcDbCircle
 62
7
  6
CONTINUOUS
 10
4.2704890416
 20
3.0053257979
 40
0.663983938
100
AcDbArc
 50
359.9895521066
 51
0.1157108684
  0
ARC
  5
30F
100
AcDbEntity
  8
0
100
AcDbCircle
 62
7
  6
CONTINUOUS
 10
4.292593916
 20
3.098806669
 40
0.6445261188
100
AcDbArc
 50
358.7824268245
 51
358.9387042821
  0
ARC
  5
310
100
AcDbEntity
  8
0
100
AcDbCircle
 62
7
  6
CONTINUOUS
 10
4.3092253225
 20
3.0622458769
 40
0.626268413
100
AcDbArc
 50
358.0411235409
 51
358.2704341321
  0
ARC
  5
311
100
AcDbEntity
  8
0
100
AcDbCircle
 62
7
  6
CONTINUOUS
 10
4.3227731691
 20
2.9669106296
 40
0.6132498622
100
AcDbArc
 50
357.9648414256
 51
358.4840536751
  0
ARC
  5
312
100
AcDbEntity
  8
0
100
AcDbCircle
 62
7
  6
CONTINUOUS
 10
4.42531843
 20
3.0959493285
 40
0.5117708578
100
AcDbArc
 50
358.6067462734
 51
358.7865047057
  0
ARC
  5
313
100
AcDbEntity
  8
0
100
AcDbCircle
 62
7
  6
CONTINUOUS
 10
4.4585799732
 20
3.109636951
 40
0.4785889513
100
AcDbArc
 50
0.3861119595
 51
0.9075604876
  0
ARC
  5
314
100
AcDbEntity
  8
0
100
AcDbCircle
 62
7
  6
CONTINUOUS
 10
4.4917839269
 20
3.0683231086
 40
0.4433434549
100
AcDbArc
 50
358.2290963152
 51
358.5764278844
  0
ARC
  5
315
100
AcDbEntity
  8
0
100
AcDbCircle
 62
7
  6
CONTINUOUS
 10
4.5548836871
 20
3.0927564909
 40
0.3821662755
100
AcDbArc
 50
358.3947600445
 51
358.612980597
  0
ARC
  5
316
100
AcDbEntity
  8
0
100
AcDbCircle
 62
7
  6
CONTINUOUS
 10
4.565718137
 20
3.0061292894
 40
0.3687538802
100
AcDbArc
 50
0.0835067676
 51
0.4816116508
  0
ARC
  5
317
100
AcDbEntity
  8
0
100
AcDbCircle
 62
7
  6
CONTINUOUS
 10
4.5928895718
 20
2.9575561794
 40
0.3429717272
100
AcDbArc
 50
357.5402136304
 51
357.9240751348
  0
ARC
  5
318
100
AcDbEntity
  8
0
100
AcDbCircle
 62
7
  6
CONTINUOUS
 10
4.6243784488
 20
2.9690594538
 40
0.3111167721
100
AcDbArc
 50
357.6811283137
 51
358.2612154859
  0
ARC
  5
319
100
AcDbEntity
  8
0
100
AcDbCircle
 62
7
  6
CONTINUOUS
 10
4.6683817801
 20
3.1127917994
 40
0.2687635463
100
AcDbArc
 50
0.943514194
 51
1.3386924342
  0
ARC
  5
31A
100
AcDbEntity
  8
0
100
AcDbCircle
 62
7
  6
CONTINUOUS
 10
4.6827640209
 20
3.0623143542
 40
0.2522689081
100
AcDbArc
 50
357.739175447
 51
358.2527152782
  0
ARC
  5
31B
100
AcDbEntity
  8
0
100
AcDbCircle
 62
7
  6
CONTINUOUS
 10
5.1748542628
 20
3.0448468785
 40
0.2407207034
100
AcDbArc
 50
181.5296041244
 51
181.8509558081
  0
ARC
  5
31C
100
AcDbEntity
  8
0
100
AcDbCircle
 62
7
  6
CONTINUOUS
 10
5.149093608
 20
3.0906879032
 40
0.2145460074
100
AcDbArc
 50
177.4698913985
 51
178.0335214588
  0
ARC
  5
31D
100
AcDbEntity
  8
0
100
AcDbCircle
 62
7
  6
CONTINUOUS
 10
4.7379352981
 20
3.1277766234
 40
0.1993112822
100
AcDbArc
 50
1.5069669803
 51
1.954485564
  0
ARC
  5
31E
100
AcDbEntity
  8
0
100
AcDbCircle
 62
7
  6
CONTINUOUS
 10
5.0903864574
 20
3.0420691719
 40
0.1562072591
100
AcDbArc
 50
181.8333583944
 51
182.2602625456
  0
ARC
  5
31F
100
AcDbEntity
  8
0
100
AcDbCircle
 62
7
  6
CONTINUOUS
 10
5.0464538218
 20
3.1117003031
 40
0.111791754
100
AcDbArc
 50
176.484444764
 51
177.1832900558
  0
ARC
  5
320
100
AcDbEntity
  8
0
100
AcDbCircle
 62
7
  6
CONTINUOUS
 10
3.7837008
 20
3.3478244417
 40
0.075
100
AcDbArc
 50
90.0
 51
141.425757077
  0
ARC
  5
321
100
AcDbEntity
  8
0
100
AcDbCircle
 62
7
  6
CONTINUOUS
 10
3.6950463429
 20
3.3097261672
 40
0.06
100
AcDbArc
 50
102.0947573545
 51
149.7371075635
  0
ARC
  5
322
100
AcDbEntity
  8
0
100
AcDbCircle
 62
7
  6
CONTINUOUS
 10
3.6834933943
 20
3.4146341933
 40
0.045
100
AcDbArc
 50
282.0947567225
 51
321.4257556323
  0
ARC
  5
323
100
AcDbEntity
  8
0
100
AcDbCircle
 62
7
  6
CONTINUOUS
 10
3.9116551442
 20
3.5203244417
 40
0.0075
100
AcDbArc
 50
90.0
 51
180.0
  0
ARC
  5
324
100
AcDbEntity
  8
0
100
AcDbCircle
 62
7
  6
CONTINUOUS
 10
4.1854051442
 20
3.5203244417
 40
0.0075
100
AcDbArc
 50
0.0
 51
90.0
  0
ARC
  5
325
100
AcDbEntity
  8
0
100
AcDbCircle
 62
7
  6
CONTINUOUS
 10
8.3622668548
 20
2.3605141519
 40
3.4283531558
100
AcDbArc
 50
180.7751214644
 51
180.9532452379
  0
ARC
  5
326
100
AcDbEntity
  8
0
100
AcDbCircle
 62
7
  6
CONTINUOUS
 10
7.6221807019
 20
2.3522067625
 40
2.6882184717
100
AcDbArc
 50
180.2801934578
 51
180.4843617418
  0
ARC
  5
327
100
AcDbEntity
  8
0
100
AcDbCircle
 62
7
  6
CONTINUOUS
 10
7.1745754723
 20
2.3368508247
 40
2.2404255794
100
AcDbArc
 50
181.2210653429
 51
181.3351028445
  0
ARC
  5
328
100
AcDbEntity
  8
0
100
AcDbCircle
 62
7
  6
CONTINUOUS
 10
6.5955521563
 20
2.3505679697
 40
1.6615864709
100
AcDbArc
 50
179.8012562921
 51
180.0349539029
  0
ARC
  5
329
100
AcDbEntity
  8
0
100
AcDbCircle
 62
7
  6
CONTINUOUS
 10
6.572236569
 20
2.3385908878
 40
1.6380576784
100
AcDbArc
 50
181.0691526834
 51
181.4880361511
  0
ARC
  5
32A
100
AcDbEntity
  8
0
100
AcDbCircle
 62
7
  6
CONTINUOUS
 10
6.5207424084
 20
2.3385589106
 40
1.5865713655
100
AcDbArc
 50
180.7314885105
 51
181.0086580105
  0
ARC
  5
32B
100
AcDbEntity
  8
0
100
AcDbCircle
 62
7
  6
CONTINUOUS
 10
5.9684767997
 20
2.3046130766
 40
1.0338917856
100
AcDbArc
 50
181.7643761861
 51
181.9506557129
  0
ARC
  5
32C
100
AcDbEntity
  8
0
100
AcDbCircle
 62
7
  6
CONTINUOUS
 10
5.906913659
 20
2.3318760071
 40
0.9727058582
100
AcDbArc
 50
180.1057047958
 51
180.6503780738
  0
ARC
  5
32D
100
AcDbEntity
  8
0
100
AcDbCircle
 62
7
  6
CONTINUOUS
 10
5.8903329608
 20
2.3213167606
 40
0.9559355521
100
AcDbArc
 50
181.5143792869
 51
181.9009599032
  0
ARC
  5
32E
100
AcDbEntity
  8
0
100
AcDbCircle
 62
7
  6
CONTINUOUS
 10
5.7457693354
 20
2.2969544023
 40
0.8110526888
100
AcDbArc
 50
181.9454602917
 51
182.1641525274
  0
ARC
  5
32F
100
AcDbEntity
  8
0
100
AcDbCircle
 62
7
  6
CONTINUOUS
 10
5.5987188339
 20
2.3118516324
 40
0.6641679698
100
AcDbArc
 50
181.919376365
 51
182.1623819801
  0
ARC
  5
330
100
AcDbEntity
  8
0
100
AcDbCircle
 62
7
  6
CONTINUOUS
 10
5.5090171923
 20
2.2879158769
 40
0.5741281009
100
AcDbArc
 50
182.1550011623
 51
182.4008977504
  0
ARC
  5
331
100
AcDbEntity
  8
0
100
AcDbCircle
 62
7
  6
CONTINUOUS
 10
5.3921403986
 20
2.3313601411
 40
0.4579327276
100
AcDbArc
 50
179.5321606532
 51
180.159985879
  0
ARC
  5
332
100
AcDbEntity
  8
0
100
AcDbCircle
 62
7
  6
CONTINUOUS
 10
8.3262448097
 20
2.9818042313
 40
3.3922912939
100
AcDbArc
 50
179.883905063
 51
180.0014351997
  0
ARC
  5
333
100
AcDbEntity
  8
0
100
AcDbCircle
 62
7
  6
CONTINUOUS
 10
7.3408733898
 20
3.062484407
 40
2.4068458461
100
AcDbArc
 50
179.5268810611
 51
179.7921141034
  0
ARC
  5
334
100
AcDbEntity
  8
0
100
AcDbCircle
 62
7
  6
CONTINUOUS
 10
7.2998269819
 20
3.0715640798
 40
2.3642443472
100
AcDbArc
 50
178.7243442077
 51
178.9252218303
  0
ARC
  5
335
100
AcDbEntity
  8
0
100
AcDbCircle
 62
7
  6
CONTINUOUS
 10
7.1320009197
 20
2.9811295556
 40
2.1980425917
100
AcDbArc
 50
180.1172249841
 51
180.365713467
  0
ARC
  5
336
100
AcDbEntity
  8
0
100
AcDbCircle
 62
7
  6
CONTINUOUS
 10
6.9640247639
 20
2.9851061775
 40
2.0300670214
100
AcDbArc
 50
179.5533258115
 51
179.8503255205
  0
ARC
  5
337
100
AcDbEntity
  8
0
100
AcDbCircle
 62
7
  6
CONTINUOUS
 10
6.4610357946
 20
2.9765658017
 40
1.5270620307
100
AcDbArc
 50
180.3551708743
 51
180.6833990849
  0
ARC
  5
338
100
AcDbEntity
  8
0
100
AcDbCircle
 62
7
  6
CONTINUOUS
 10
6.4400349463
 20
3.0740327355
 40
1.5059266946
100
AcDbArc
 50
178.8814680796
 51
178.9979935684
  0
ARC
  5
339
100
AcDbEntity
  8
0
100
AcDbCircle
 62
7
  6
CONTINUOUS
 10
6.2994049327
 20
3.0633461383
 40
1.3652101681
100
AcDbArc
 50
179.4488707915
 51
179.6718860292
  0
ARC
  5
33A
100
AcDbEntity
  8
0
100
AcDbCircle
 62
7
  6
CONTINUOUS
 10
6.2174160022
 20
3.0641645775
 40
1.2832171585
100
AcDbArc
 50
179.2183943959
 51
179.4501995978
  0
ARC
  5
33B
100
AcDbEntity
  8
0
100
AcDbCircle
 62
7
  6
CONTINUOUS
 10
6.1479570581
 20
3.0650861928
 40
1.2137521056
100
AcDbArc
 50
179.0993788286
 51
179.2171683928
  0
ARC
  5
33C
100
AcDbEntity
  8
0
100
AcDbCircle
 62
7
  6
CONTINUOUS
 10
6.119294878
 20
3.0802555293
 40
1.1851262697
100
AcDbArc
 50
178.7412678705
 51
178.8795583001
  0
ARC
  5
33D
100
AcDbEntity
  8
0
100
AcDbCircle
 62
7
  6
CONTINUOUS
 10
6.1084470322
 20
3.0657440711
 40
1.1742366207
100
AcDbArc
 50
178.8651426288
 51
179.1011730977
  0
ARC
  5
33E
100
AcDbEntity
  8
0
100
AcDbCircle
 62
7
  6
CONTINUOUS
 10
6.03386808
 20
2.9714564264
 40
1.0998637608
100
AcDbArc
 50
180.6826665291
 51
180.8890384251
  0
ARC
  5
33F
100
AcDbEntity
  8
0
100
AcDbCircle
 62
7
  6
CONTINUOUS
 10
5.9721398529
 20
2.9710761132
 40
1.037948496
100
AcDbArc
 50
179.9226441101
 51
180.0501330688
  0
ARC
  5
340
100
AcDbEntity
  8
0
100
AcDbCircle
 62
7
  6
CONTINUOUS
 10
5.9705610409
 20
2.9710847677
 40
1.0363696738
100
AcDbArc
 50
179.7967240999
 51
179.9230047318
  0
ARC
  5
341
100
AcDbEntity
  8
0
100
AcDbCircle
 62
7
  6
CONTINUOUS
 10
5.9645507603
 20
3.0631381977
 40
1.0303575678
100
AcDbArc
 50
179.9645731615
 51
180.170839781
  0
ARC
  5
342
100
AcDbEntity
  8
0
100
AcDbCircle
 62
7
  6
CONTINUOUS
 10
5.9314998801
 20
2.9712114818
 40
0.9973083093
100
AcDbArc
 50
179.2843252021
 51
179.7960422223
  0
ARC
  5
343
100
AcDbEntity
  8
0
100
AcDbCircle
 62
7
  6
CONTINUOUS
 10
5.8682224711
 20
3.0705579603
 40
0.9339638393
100
AcDbArc
 50
178.7036130309
 51
178.8685246058
  0
ARC
  5
344
100
AcDbEntity
  8
0
100
AcDbCircle
 62
7
  6
CONTINUOUS
 10
5.8226589431
 20
3.0867318648
 40
0.8884196495
100
AcDbArc
 50
178.5673967722
 51
178.7385912047
  0
ARC
  5
345
100
AcDbEntity
  8
0
100
AcDbCircle
 62
7
  6
CONTINUOUS
 10
5.7401246955
 20
3.1058552055
 40
0.804165332
100
AcDbArc
 50
178.488859121
 51
178.6929712467
  0
ARC
  5
346
100
AcDbEntity
  8
0
100
AcDbCircle
 62
7
  6
CONTINUOUS
 10
5.6160394515
 20
3.0532174461
 40
0.6819884003
100
AcDbArc
 50
180.3991702011
 51
180.9437155504
  0
ARC
  5
347
100
AcDbEntity
  8
0
100
AcDbCircle
 62
7
  6
CONTINUOUS
 10
5.5891040067
 20
3.0925177921
 40
0.6547930646
100
AcDbArc
 50
178.3481235127
 51
178.562584418
  0
ARC
  5
348
100
AcDbEntity
  8
0
100
AcDbCircle
 62
7
  6
CONTINUOUS
 10
5.4626304222
 20
3.1126317766
 40
0.5265893947
100
AcDbArc
 50
178.1178816442
 51
178.3385946062
  0
ARC
  5
349
100
AcDbEntity
  8
0
100
AcDbCircle
 62
7
  6
CONTINUOUS
 10
5.4076770919
 20
3.0977151286
 40
0.4732917256
100
AcDbArc
 50
178.0751267615
 51
178.3439154406
  0
ARC
  5
34A
100
AcDbEntity
  8
0
100
AcDbCircle
 62
7
  6
CONTINUOUS
 10
5.4003221306
 20
3.082057611
 40
0.4659227217
100
AcDbArc
 50
178.0329857575
 51
178.7198480087
  0
ARC
  5
34B
100
AcDbEntity
  8
0
100
AcDbCircle
 62
7
  6
CONTINUOUS
 10
5.3343247488
 20
3.1163722603
 40
0.3982292118
100
AcDbArc
 50
178.3413215936
 51
178.4617980353
  0
ARC
  5
34C
100
AcDbEntity
  8
0
100
AcDbCircle
 62
7
  6
CONTINUOUS
 10
5.2683779237
 20
3.0473093224
 40
0.3342767716
100
AcDbArc
 50
180.9126458418
 51
181.5236216064
  0
ARC
  5
34D
100
AcDbEntity
  8
0
100
AcDbCircle
 62
7
  6
CONTINUOUS
 10
5.2667195943
 20
2.9544767732
 40
0.3325151788
100
AcDbArc
 50
181.7388519879
 51
182.1668745761
  0
ARC
  5
34E
100
AcDbEntity
  8
0
100
AcDbCircle
 62
7
  6
CONTINUOUS
 10
3.3648667584
 20
4.3775653346
 40
0.56325
100
AcDbArc
 50
36.1922176694
 51
66.7691079294
  0
ARC
  5
34F
100
AcDbEntity
  8
ALL_ASSEMBLY_MEMBERS
100
AcDbCircle
 62
7
  6
CONTINUOUS
 10
2.9591167584
 20
4.7113244417
 40
0.28125
100
AcDbArc
 50
180.0
 51
209.284895722
  0
ARC
  5
350
100
AcDbEntity
  8
ALL_ASSEMBLY_MEMBERS
100
AcDbCircle
 62
7
  6
CONTINUOUS
 10
2.9591167584
 20
4.7113244417
 40
0.28125
100
AcDbArc
 50
234.6431823804
 51
262.3377443392
  0
ARC
  5
351
100
AcDbEntity
  8
ALL_ASSEMBLY_MEMBERS
100
AcDbCircle
 62
7
  6
CONTINUOUS
 10
2.9591167584
 20
4.7113244417
 40
0.28125
100
AcDbArc
 50
277.6622556608
 51
305.5443769462
  0
ARC
  5
352
100
AcDbEntity
  8
ALL_ASSEMBLY_MEMBERS
100
AcDbCircle
 62
7
  6
CONTINUOUS
 10
2.9591167584
 20
4.7113244417
 40
0.28125
100
AcDbArc
 50
331.1295236019
 51
360.0
  0
ARC
  5
353
100
AcDbEntity
  8
ALL_ASSEMBLY_MEMBERS
100
AcDbCircle
 62
7
  6
CONTINUOUS
 10
2.5766167584
 20
4.9783780435
 40
0.04725
100
AcDbArc
 50
0.0
 51
87.2705973632
  0
ARC
  5
354
100
AcDbEntity
  8
ALL_ASSEMBLY_MEMBERS
100
AcDbCircle
 62
7
  6
CONTINUOUS
 10
3.1583905813
 20
4.5128515065
 40
0.0469268896
100
AcDbArc
 50
220.3298726976
 51
360.0
  0
ARC
  5
355
100
AcDbEntity
  8
ALL_ASSEMBLY_MEMBERS
100
AcDbCircle
 62
7
  6
CONTINUOUS
 10
2.7606229391
 20
4.5120660029
 40
0.0467415612
100
AcDbArc
 50
180.0
 51
319.8813515488
  0
ARC
  5
356
100
AcDbEntity
  8
ALL_ASSEMBLY_MEMBERS
100
AcDbCircle
 62
7
  6
CONTINUOUS
 10
2.9591167584
 20
4.4206994417
 40
0.0375
100
AcDbArc
 50
180.0
 51
360.0
  0
ARC
  5
357
100
AcDbEntity
  8
ALL_ASSEMBLY_MEMBERS
100
AcDbCircle
 62
7
  6
CONTINUOUS
 10
2.6778667584
 20
4.9516994417
 40
0.03525
100
AcDbArc
 50
180.0
 51
270.0
  0
ARC
  5
358
100
AcDbEntity
  8
0
100
AcDbCircle
 62
7
  6
CONTINUOUS
 10
3.5988667584
 20
4.9227162885
 40
0.03
100
AcDbArc
 50
180.0
 51
246.7691079294
  0
ARC
  5
359
100
AcDbEntity
  8
ALL_ASSEMBLY_MEMBERS
100
AcDbCircle
 62
7
  6
CONTINUOUS
 10
2.5766167584
 20
5.3517708399
 40
0.04725
100
AcDbArc
 50
272.7294026368
 51
360.0
  0
ARC
  5
35A
100
AcDbEntity
  8
ALL_ASSEMBLY_MEMBERS
100
AcDbCircle
 62
7
  6
CONTINUOUS
 10
2.6778667584
 20
5.3784494417
 40
0.03525
100
AcDbArc
 50
90.0
 51
180.0
  0
ARC
  5
35B
100
AcDbEntity
  8
ALL_ASSEMBLY_MEMBERS
100
AcDbCircle
 62
7
  6
CONTINUOUS
 10
2.9591167584
 20
5.6188244417
 40
0.28125
100
AcDbArc
 50
150.715104278
 51
180.0
  0
ARC
  5
35C
100
AcDbEntity
  8
ALL_ASSEMBLY_MEMBERS
100
AcDbCircle
 62
7
  6
CONTINUOUS
 10
2.9591167584
 20
5.6188244417
 40
0.28125
100
AcDbArc
 50
97.6622556608
 51
125.3568176196
  0
ARC
  5
35D
100
AcDbEntity
  8
ALL_ASSEMBLY_MEMBERS
100
AcDbCircle
 62
7
  6
CONTINUOUS
 10
2.9591167584
 20
5.6188244417
 40
0.28125
100
AcDbArc
 50
54.4556230538
 51
82.3377443392
  0
ARC
  5
35E
100
AcDbEntity
  8
ALL_ASSEMBLY_MEMBERS
100
AcDbCircle
 62
7
  6
CONTINUOUS
 10
2.9591167584
 20
5.6188244417
 40
0.28125
100
AcDbArc
 50
0.0
 51
28.8704763981
  0
ARC
  5
35F
100
AcDbEntity
  8
ALL_ASSEMBLY_MEMBERS
100
AcDbCircle
 62
7
  6
CONTINUOUS
 10
2.7606229391
 20
5.8180828805
 40
0.0467415612
100
AcDbArc
 50
40.1186484512
 51
180.0
  0
ARC
  5
360
100
AcDbEntity
  8
ALL_ASSEMBLY_MEMBERS
100
AcDbCircle
 62
7
  6
CONTINUOUS
 10
2.9591167584
 20
5.9094494417
 40
0.0375
100
AcDbArc
 50
0.0
 51
180.0
  0
ARC
  5
361
100
AcDbEntity
  8
ALL_ASSEMBLY_MEMBERS
100
AcDbCircle
 62
7
  6
CONTINUOUS
 10
3.3790296801
 20
5.1645933074
 40
0.0559228269
100
AcDbArc
 50
85.9738470251
 51
117.0568609347
  0
ARC
  5
362
100
AcDbEntity
  8
ALL_ASSEMBLY_MEMBERS
100
AcDbCircle
 62
7
  6
CONTINUOUS
 10
3.3749430616
 20
5.1654244756
 40
0.0494951466
100
AcDbArc
 50
77.1231324968
 51
96.4415526763
  0
ARC
  5
363
100
AcDbEntity
  8
ALL_ASSEMBLY_MEMBERS
100
AcDbCircle
 62
7
  6
CONTINUOUS
 10
3.3811559041
 20
5.1495060235
 40
0.0807118614
100
AcDbArc
 50
99.6998953345
 51
106.1903827713
  0
ARC
  5
364
100
AcDbEntity
  8
ALL_ASSEMBLY_MEMBERS
100
AcDbCircle
 62
7
  6
CONTINUOUS
 10
3.381547575
 20
5.1646009973
 40
0.0631757021
100
AcDbArc
 50
289.484200407
 51
290.8293348723
  0
ARC
  5
365
100
AcDbEntity
  8
ALL_ASSEMBLY_MEMBERS
100
AcDbCircle
 62
7
  6
CONTINUOUS
 10
3.3822091144
 20
5.1628655464
 40
0.0600161236
100
AcDbArc
 50
196.4348676421
 51
201.1616244727
  0
ARC
  5
366
100
AcDbEntity
  8
ALL_ASSEMBLY_MEMBERS
100
AcDbCircle
 62
7
  6
CONTINUOUS
 10
3.3817409521
 20
5.1627289086
 40
0.0595284953
100
AcDbArc
 50
177.7418551635
 51
196.4362150667
  0
ARC
  5
367
100
AcDbEntity
  8
ALL_ASSEMBLY_MEMBERS
100
AcDbCircle
 62
7
  6
CONTINUOUS
 10
3.381288751
 20
5.1654085178
 40
0.0640240264
100
AcDbArc
 50
282.1902580593
 51
284.4916885127
  0
ARC
  5
368
100
AcDbEntity
  8
ALL_ASSEMBLY_MEMBERS
100
AcDbCircle
 62
7
  6
CONTINUOUS
 10
3.3813053331
 20
5.1653294467
 40
0.0639432367
100
AcDbArc
 50
279.5898686982
 51
282.1906956229
  0
ARC
  5
369
100
AcDbEntity
  8
ALL_ASSEMBLY_MEMBERS
100
AcDbCircle
 62
7
  6
CONTINUOUS
 10
3.3813208253
 20
5.1652865387
 40
0.0638979019
100
AcDbArc
 50
284.4912134144
 51
287.0876063954
  0
ARC
  5
36A
100
AcDbEntity
  8
ALL_ASSEMBLY_MEMBERS
100
AcDbCircle
 62
7
  6
CONTINUOUS
 10
3.3813667584
 20
5.1650744417
 40
0.0636824996
100
AcDbArc
 50
290.8299188525
 51
20.8011183191
  0
ARC
  5
36B
100
AcDbEntity
  8
ALL_ASSEMBLY_MEMBERS
100
AcDbCircle
 62
7
  6
CONTINUOUS
 10
3.3814201636
 20
5.1649641752
 40
0.0635605797
100
AcDbArc
 50
287.0873973059
 51
289.4832791988
  0
ARC
  5
36C
100
AcDbEntity
  8
ALL_ASSEMBLY_MEMBERS
100
AcDbCircle
 62
7
  6
CONTINUOUS
 10
3.3818553572
 20
5.1652607242
 40
0.0631595947
100
AcDbArc
 50
19.4814596282
 51
20.8005498219
  0
ARC
  5
36D
100
AcDbEntity
  8
ALL_ASSEMBLY_MEMBERS
100
AcDbCircle
 62
7
  6
CONTINUOUS
 10
3.3813667584
 20
5.1650744417
 40
0.051
100
AcDbArc
 50
349.9900108197
 51
343.5567821116
  0
ARC
  5
36E
100
AcDbEntity
  8
ALL_ASSEMBLY_MEMBERS
100
AcDbCircle
 62
7
  6
CONTINUOUS
 10
3.3813612553
 20
5.1650393692
 40
0.0488529615
100
AcDbArc
 50
79.8983300044
 51
82.3929804593
  0
ARC
  5
36F
100
AcDbEntity
  8
ALL_ASSEMBLY_MEMBERS
100
AcDbCircle
 62
7
  6
CONTINUOUS
 10
3.3813662668
 20
5.1650659262
 40
0.0488259437
100
AcDbArc
 50
79.1413602751
 51
79.8982975363
  0
ARC
  5
370
100
AcDbEntity
  8
ALL_ASSEMBLY_MEMBERS
100
AcDbCircle
 62
7
  6
CONTINUOUS
 10
3.3813667953
 20
5.1650744733
 40
0.0488174502
100
AcDbArc
 50
355.6980355473
 51
79.1400797562
  0
ARC
  5
371
100
AcDbEntity
  8
ALL_ASSEMBLY_MEMBERS
100
AcDbCircle
 62
7
  6
CONTINUOUS
 10
3.3813671732
 20
5.165085226
 40
0.0488067246
100
AcDbArc
 50
82.4642864653
 51
84.5847721017
  0
ARC
  5
372
100
AcDbEntity
  8
ALL_ASSEMBLY_MEMBERS
100
AcDbCircle
 62
7
  6
CONTINUOUS
 10
3.3814360474
 20
5.1650677592
 40
0.0487478896
100
AcDbArc
 50
354.614458482
 51
355.6997990046
  0
ARC
  5
373
100
AcDbEntity
  8
ALL_ASSEMBLY_MEMBERS
100
AcDbCircle
 62
7
  6
CONTINUOUS
 10
3.3813789441
 20
5.1652040161
 40
0.0486873539
100
AcDbArc
 50
83.4883074269
 51
84.5853697255
  0
ARC
  5
374
100
AcDbEntity
  8
ALL_ASSEMBLY_MEMBERS
100
AcDbCircle
 62
7
  6
CONTINUOUS
 10
3.3815140231
 20
5.165060619
 40
0.0486695879
100
AcDbArc
 50
354.0092067168
 51
354.614211305
  0
ARC
  5
375
100
AcDbEntity
  8
ALL_ASSEMBLY_MEMBERS
100
AcDbCircle
 62
7
  6
CONTINUOUS
 10
3.381776656
 20
5.1799048023
 40
0.079947818
100
AcDbArc
 50
282.9110938579
 51
289.4630898174
  0
ARC
  5
376
100
AcDbEntity
  8
ALL_ASSEMBLY_MEMBERS
100
AcDbCircle
 62
7
  6
CONTINUOUS
 10
3.3799431872
 20
5.1737170524
 40
0.0625361269
100
AcDbArc
 50
12.5941050726
 51
12.9107648965
  0
ARC
  5
377
100
AcDbEntity
  8
ALL_ASSEMBLY_MEMBERS
100
AcDbCircle
 62
7
  6
CONTINUOUS
 10
3.3837725586
 20
5.165338294
 40
0.0631170959
100
AcDbArc
 50
287.9903823669
 51
288.7030873831
  0
ARC
  5
378
100
AcDbEntity
  8
0
100
AcDbCircle
 62
7
  6
CONTINUOUS
 10
3.5988667584
 20
5.4074325949
 40
0.03
100
AcDbArc
 50
113.2308920706
 51
180.0
  0
ARC
  5
379
100
AcDbEntity
  8
0
100
AcDbCircle
 62
7
  6
CONTINUOUS
 10
3.3648667584
 20
5.9525835488
 40
0.56325
100
AcDbArc
 50
293.2308920706
 51
323.8077823306
  0
ARC
  5
37A
100
AcDbEntity
  8
ALL_ASSEMBLY_MEMBERS
100
AcDbCircle
 62
7
  6
CONTINUOUS
 10
3.1583905813
 20
5.8172973769
 40
0.0469268896
100
AcDbArc
 50
0.0
 51
139.6701273024
  0
ARC
  5
37B
100
AcDbEntity
  8
0
100
AcDbCircle
 62
7
  6
CONTINUOUS
 10
4.835561885
 20
4.0640790678
 40
0.6418214707
100
AcDbArc
 50
269.372196716
 51
269.9985873419
  0
ARC
  5
37C
100
AcDbEntity
  8
0
100
AcDbCircle
 62
7
  6
CONTINUOUS
 10
3.8799603735
 20
4.7544494417
 40
0.075
100
AcDbArc
 50
216.1922176693
 51
270.0
  0
ARC
  5
37D
100
AcDbEntity
  8
0
100
AcDbCircle
 62
7
  6
CONTINUOUS
 10
3.8799603735
 20
5.5756994417
 40
0.075
100
AcDbArc
 50
90.0
 51
143.8077823307
  0
SPLINE
  5
37E
100
AcDbEntity
  8
ALL_ASSEMBLY_MEMBERS
100
AcDbSpline
 62
7
  6
CONTINUOUS
 70
0
 71
3
 72
8
 73
4
 74
0
 42
0.0000001
 43
0.0000001
 44
0.0000000001
 40
0.0
 40
0.0
 40
0.0
 40
0.0
 40
1.0
 40
1.0
 40
1.0
 40
1.0
 10
3.1804916901
 20
2.8509623919
 30
0.0
 10
3.1804715519
 20
2.8509650686
 30
0.0
 10
3.1804514137
 20
2.8509677453
 30
0.0
 10
3.1804312755
 20
2.8509704221
 30
0.0
  0
SPLINE
  5
37F
100
AcDbEntity
  8
ALL_ASSEMBLY_MEMBERS
100
AcDbSpline
 62
7
  6
CONTINUOUS
 70
0
 71
3
 72
12
 73
8
 74
0
 42
0.0000001
 43
0.0000001
 44
0.0000000001
 40
0.0
 40
0.0
 40
0.0
 40
0.0
 40
0.249987771
 40
0.4999648603
 40
0.6249912741
 40
0.7500360317
 40
1.0
 40
1.0
 40
1.0
 40
1.0
 10
3.2204369428
 20
2.7815119323
 30
0.0
 10
3.2208481427
 20
2.7828414969
 30
0.0
 10
3.2215611282
 20
2.7855357811
 30
0.0
 10
3.2221683285
 20
2.7889660536
 30
0.0
 10
3.2224794013
 20
2.7917332089
 30
0.0
 10
3.2226727283
 20
2.7945108024
 30
0.0
 10
3.2226844232
 20
2.7966018403
 30
0.0
 10
3.2226321341
 20
2.7979924245
 30
0.0
  0
SPLINE
  5
380
100
AcDbEntity
  8
ALL_ASSEMBLY_MEMBERS
100
AcDbSpline
 62
7
  6
CONTINUOUS
 70
0
 71
3
 72
8
 73
4
 74
0
 42
0.0000001
 43
0.0000001
 44
0.0000000001
 40
0.0
 40
0.0
 40
0.0
 40
0.0
 40
1.0
 40
1.0
 40
1.0
 40
1.0
 10
3.2225811966
 20
2.7974810396
 30
0.0
 10
3.2225800603
 20
2.7974702461
 30
0.0
 10
3.222578924
 20
2.7974594526
 30
0.0
 10
3.2225777877
 20
2.7974486591
 30
0.0
  0
SPLINE
  5
381
100
AcDbEntity
  8
ALL_ASSEMBLY_MEMBERS
100
AcDbSpline
 62
7
  6
CONTINUOUS
 70
0
 71
3
 72
8
 73
4
 74
0
 42
0.0000001
 43
0.0000001
 44
0.0000000001
 40
0.0
 40
0.0
 40
0.0
 40
0.0
 40
1.0
 40
1.0
 40
1.0
 40
1.0
 10
3.3878283042
 20
5.2134623919
 30
0.0
 10
3.3878081661
 20
5.2134650686
 30
0.0
 10
3.3877880279
 20
5.2134677453
 30
0.0
 10
3.3877678897
 20
5.2134704221
 30
0.0
  0
SPLINE
  5
382
100
AcDbEntity
  8
ALL_ASSEMBLY_MEMBERS
100
AcDbSpline
 62
7
  6
CONTINUOUS
 70
0
 71
3
 72
12
 73
8
 74
0
 42
0.0000001
 43
0.0000001
 44
0.0000000001
 40
0.0
 40
0.0
 40
0.0
 40
0.0
 40
0.249987771
 40
0.4999648603
 40
0.6249912741
 40
0.7500360317
 40
1.0
 40
1.0
 40
1.0
 40
1.0
 10
3.4277735569
 20
5.1440119323
 30
0.0
 10
3.4281847569
 20
5.1453414969
 30
0.0
 10
3.4288977423
 20
5.1480357811
 30
0.0
 10
3.4295049427
 20
5.1514660536
 30
0.0
 10
3.4298160155
 20
5.1542332089
 30
0.0
 10
3.4300093425
 20
5.1570108024
 30
0.0
 10
3.4300210374
 20
5.1591018403
 30
0.0
 10
3.4299687483
 20
5.1604924245
 30
0.0
  0
SPLINE
  5
383
100
AcDbEntity
  8
ALL_ASSEMBLY_MEMBERS
100
AcDbSpline
 62
7
  6
CONTINUOUS
 70
0
 71
3
 72
8
 73
4
 74
0
 42
0.0000001
 43
0.0000001
 44
0.0000000001
 40
0.0
 40
0.0
 40
0.0
 40
0.0
 40
1.0
 40
1.0
 40
1.0
 40
1.0
 10
3.4299178108
 20
5.1599810396
 30
0.0
 10
3.4299166745
 20
5.1599702461
 30
0.0
 10
3.4299155382
 20
5.1599594526
 30
0.0
 10
3.4299144018
 20
5.1599486591
 30
0.0
  0
SPLINE
  5
384
100
AcDbEntity
  8
0
100
AcDbSpline
 62
7
  6
CONTINUOUS
 70
0
 71
3
 72
35
 73
31
 74
0
 42
0.0000001
 43
0.0000001
 44
0.0000000001
 40
0.0
 40
0.0
 40
0.0
 40
0.0
 40
0.0198798482
 40
0.0389061
 40
0.0572349263
 40
0.0750085906
 40
0.1093037191
 40
0.1423092093
 40
0.1743589853
 40
0.2056530689
 40
0.2363464043
 40
0.2665723801
 40
0.3259971954
 40
0.3844687642
 40
0.4423690724
 40
0.5
 40
0.5576309276
 40
0.6155312358
 40
0.6740028046
 40
0.7334276199
 40
0.7636535957
 40
0.7943469311
 40
0.8256410147
 40
0.8576907907
 40
0.8906962809
 40
0.9249914094
 40
0.9427650737
 40
0.9610939
 40
0.9801201518
 40
1.0
 40
1.0
 40
1.0
 40
1.0
 10
4.155431719
 20
4.5449969417
 30
0.0
 10
4.1542877111
 20
4.5449969417
 30
0.0
 10
4.1520483967
 20
4.5450519475
 30
0.0
 10
4.1487624313
 20
4.5452930693
 30
0.0
 10
4.145611311
 20
4.5456692664
 30
0.0
 10
4.1416110471
 20
4.5463141476
 30
0.0
 10
4.1368209053
 20
4.5473448496
 30
0.0
 10
4.1313172542
 20
4.5489048235
 30
0.0
 10
4.1260717979
 20
4.5507093044
 30
0.0
 10
4.121051797
 20
4.5527363264
 30
0.0
 10
4.1162327709
 20
4.5549629114
 30
0.0
 10
4.1100809404
 20
4.5581470706
 30
0.0
 10
4.1027497664
 20
4.5625141744
 30
0.0
 10
4.0944690446
 20
4.5683405734
 30
0.0
 10
4.0866982949
 20
4.5746683348
 30
0.0
 10
4.0794161592
 20
4.5814813819
 30
0.0
 10
4.0726031122
 20
4.5887635175
 30
0.0
 10
4.0662753507
 20
4.5965342672
 30
0.0
 10
4.0604489518
 20
4.604814989
 30
0.0
 10
4.056081848
 20
4.6121461631
 30
0.0
 10
4.0528976888
 20
4.6182979936
 30
0.0
 10
4.0506711038
 20
4.6231170197
 30
0.0
 10
4.0486440818
 20
4.6281370205
 30
0.0
 10
4.0468396009
 20
4.6333824768
 30
0.0
 10
4.0452796269
 20
4.638886128
 30
0.0
 10
4.0442489249
 20
4.6436762697
 30
0.0
 10
4.0436040437
 20
4.6476765337
 30
0.0
 10
4.0432278467
 20
4.6508276539
 30
0.0
 10
4.0429867249
 20
4.6541136193
 30
0.0
 10
4.042931719
 20
4.6563529338
 30
0.0
 10
4.042931719
 20
4.6574969417
 30
0.0
  0
SPLINE
  5
385
100
AcDbEntity
  8
0
100
AcDbSpline
 62
7
  6
CONTINUOUS
 70
0
 71
3
 72
35
 73
31
 74
0
 42
0.0000001
 43
0.0000001
 44
0.0000000001
 40
0.0
 40
0.0
 40
0.0
 40
0.0
 40
0.0198798482
 40
0.0389061
 40
0.0572349263
 40
0.0750085906
 40
0.1093037191
 40
0.1423092093
 40
0.1743589853
 40
0.2056530689
 40
0.2363464043
 40
0.2665723801
 40
0.3259971954
 40
0.3844687642
 40
0.4423690724
 40
0.5
 40
0.5576309276
 40
0.6155312358
 40
0.6740028046
 40
0.7334276199
 40
0.7636535957
 40
0.7943469311
 40
0.8256410147
 40
0.8576907907
 40
0.8906962809
 40
0.9249914094
 40
0.9427650737
 40
0.9610939
 40
0.9801201518
 40
1.0
 40
1.0
 40
1.0
 40
1.0
 10
4.155431719
 20
5.7851519417
 30
0.0
 10
4.1542877111
 20
5.7851519417
 30
0.0
 10
4.1520483967
 20
5.7850969359
 30
0.0
 10
4.1487624313
 20
5.7848558141
 30
0.0
 10
4.145611311
 20
5.784479617
 30
0.0
 10
4.1416110471
 20
5.7838347358
 30
0.0
 10
4.1368209053
 20
5.7828040338
 30
0.0
 10
4.1313172542
 20
5.7812440599
 30
0.0
 10
4.1260717979
 20
5.779439579
 30
0.0
 10
4.121051797
 20
5.777412557
 30
0.0
 10
4.1162327709
 20
5.775185972
 30
0.0
 10
4.1100809404
 20
5.7720018128
 30
0.0
 10
4.1027497664
 20
5.767634709
 30
0.0
 10
4.0944690446
 20
5.76180831
 30
0.0
 10
4.0866982949
 20
5.7554805485
 30
0.0
 10
4.0794161592
 20
5.7486675015
 30
0.0
 10
4.0726031122
 20
5.7413853659
 30
0.0
 10
4.0662753507
 20
5.7336146161
 30
0.0
 10
4.0604489518
 20
5.7253338943
 30
0.0
 10
4.056081848
 20
5.7180027203
 30
0.0
 10
4.0528976888
 20
5.7118508898
 30
0.0
 10
4.0506711038
 20
5.7070318637
 30
0.0
 10
4.0486440818
 20
5.7020118628
 30
0.0
 10
4.0468396009
 20
5.6967664066
 30
0.0
 10
4.0452796269
 20
5.6912627554
 30
0.0
 10
4.0442489249
 20
5.6864726136
 30
0.0
 10
4.0436040437
 20
5.6824723497
 30
0.0
 10
4.0432278467
 20
5.6793212294
 30
0.0
 10
4.0429867249
 20
5.6760352641
 30
0.0
 10
4.042931719
 20
5.6737959496
 30
0.0
 10
4.042931719
 20
5.6726519417
 30
0.0
  0
SPLINE
  5
386
100
AcDbEntity
  8
ALL_ASSEMBLY_MEMBERS
100
AcDbSpline
 62
7
  6
CONTINUOUS
 70
0
 71
3
 72
13
 73
9
 74
0
 42
0.0000001
 43
0.0000001
 44
0.0000000001
 40
0.0
 40
0.0
 40
0.0
 40
0.0
 40
0.0960346461
 40
0.3403821811
 40
0.4952841657
 40
0.6615348709
 40
0.8320816973
 40
1.0
 40
1.0
 40
1.0
 40
1.0
 10
3.3078667584
 20
4.9063244417
 30
0.0
 10
3.3108858494
 20
4.9069925501
 30
0.0
 10
3.3216167244
 20
4.9092344778
 30
0.0
 10
3.3373695921
 20
4.9118132491
 30
0.0
 10
3.355484399
 20
4.9137295548
 30
0.0
 10
3.371298844
 20
4.9146423464
 30
0.0
 10
3.3875586107
 20
4.9147439482
 30
0.0
 10
3.398452167
 20
4.9142468619
 30
0.0
 10
3.4038460009
 20
4.9138647935
 30
0.0
  0
SPLINE
  5
387
100
AcDbEntity
  8
ALL_ASSEMBLY_MEMBERS
100
AcDbSpline
 62
7
  6
CONTINUOUS
 70
0
 71
3
 72
11
 73
7
 74
0
 42
0.0000001
 43
0.0000001
 44
0.0000000001
 40
0.0
 40
0.0
 40
0.0
 40
0.0
 40
0.3821990314
 40
0.7015964365
 40
0.9206473904
 40
1.0
 40
1.0
 40
1.0
 40
1.0
 10
3.4038460009
 20
4.9138647935
 30
0.0
 10
3.4104055249
 20
4.9134001544
 30
0.0
 10
3.4224236308
 20
4.9121771689
 30
0.0
 10
3.4380802233
 20
4.9097374574
 30
0.0
 10
3.4485149616
 20
4.9077026377
 30
0.0
 10
3.4535337152
 20
4.9066194334
 30
0.0
 10
3.4548667584
 20
4.9063244417
 30
0.0
  0
SPLINE
  5
388
100
AcDbEntity
  8
ALL_ASSEMBLY_MEMBERS
100
AcDbSpline
 62
7
  6
CONTINUOUS
 70
0
 71
3
 72
22
 73
18
 74
0
 42
0.0000001
 43
0.0000001
 44
0.0000000001
 40
0.0
 40
0.0
 40
0.0
 40
0.0
 40
0.1248754092
 40
0.1874116087
 40
0.2499147089
 40
0.3124082252
 40
0.3749149311
 40
0.4374299683
 40
0.4999454671
 40
0.5624609462
 40
0.6249714368
 40
0.6874779405
 40
0.7499826843
 40
0.8124877564
 40
0.8749970046
 40
0.9375016205
 40
1.0
 40
1.0
 40
1.0
 40
1.0
 10
3.4032667373
 20
5.1053070956
 30
0.0
 10
3.3995595069
 20
5.1041032225
 30
0.0
 10
3.3938103739
 20
5.102806098
 30
0.0
 10
3.3860289573
 20
5.1021580671
 30
0.0
 10
3.3801665048
 20
5.1022172018
 30
0.0
 10
3.3743367317
 20
5.1028214893
 30
0.0
 10
3.3685887463
 20
5.1039702546
 30
0.0
 10
3.3629726804
 20
5.1056513975
 30
0.0
 10
3.3575397626
 20
5.107854915
 30
0.0
 10
3.3523403073
 20
5.1105633228
 30
0.0
 10
3.3474202059
 20
5.1137508504
 30
0.0
 10
3.3428275555
 20
5.1173939951
 30
0.0
 10
3.3386033857
 20
5.1214583805
 30
0.0
 10
3.3347885358
 20
5.1259094931
 30
0.0
 10
3.3314211956
 20
5.130708231
 30
0.0
 10
3.3285313889
 20
5.1358080017
 30
0.0
 10
3.326944349
 20
5.1393804714
 30
0.0
 10
3.32624013
 20
5.1411997235
 30
0.0
  0
SPLINE
  5
389
100
AcDbEntity
  8
ALL_ASSEMBLY_MEMBERS
100
AcDbSpline
 62
7
  6
CONTINUOUS
 70
0
 71
3
 72
22
 73
18
 74
0
 42
0.0000001
 43
0.0000001
 44
0.0000000001
 40
0.0
 40
0.0
 40
0.0
 40
0.0
 40
0.0624398908
 40
0.12500213
 40
0.1875389167
 40
0.2500400109
 40
0.3125389817
 40
0.3750514345
 40
0.4375651182
 40
0.5000764791
 40
0.5625898248
 40
0.6251045419
 40
0.6876186031
 40
0.7501193028
 40
0.8126285138
 40
0.8751778365
 40
1.0
 40
1.0
 40
1.0
 40
1.0
 10
3.4302808958
 20
5.1506381276
 30
0.0
 10
3.4309432286
 20
5.1525510362
 30
0.0
 10
3.4320393958
 20
5.15646431
 30
0.0
 10
3.4329820944
 20
5.1624844845
 30
0.0
 10
3.4332062897
 20
5.1685768097
 30
0.0
 10
3.4327150029
 20
5.1746508648
 30
0.0
 10
3.431518272
 20
5.1806252444
 30
0.0
 10
3.4296371966
 20
5.1864207969
 30
0.0
 10
3.4271016154
 20
5.1919618044
 30
0.0
 10
3.4239443718
 20
5.1971734697
 30
0.0
 10
3.4202150084
 20
5.2019922641
 30
0.0
 10
3.4159597101
 20
5.2063535266
 30
0.0
 10
3.4112411666
 20
5.2102079729
 30
0.0
 10
3.4061188416
 20
5.213505967
 30
0.0
 10
3.4006573868
 20
5.2162107054
 30
0.0
 10
3.3930314058
 20
5.2189783956
 30
0.0
 10
3.3869925102
 20
5.220088151
 30
0.0
 10
3.3829560469
 20
5.2203770416
 30
0.0
  0
SPLINE
  5
38A
100
AcDbEntity
  8
ALL_ASSEMBLY_MEMBERS
100
AcDbSpline
 62
7
  6
CONTINUOUS
 70
0
 71
3
 72
15
 73
11
 74
0
 42
0.0000001
 43
0.0000001
 44
0.0000000001
 40
0.0
 40
0.0
 40
0.0
 40
0.0
 40
0.1249401117
 40
0.2500186114
 40
0.3750193786
 40
0.5000015013
 40
0.6249979375
 40
0.7499916609
 40
0.8749890269
 40
1.0
 40
1.0
 40
1.0
 40
1.0
 10
3.3222586935
 20
5.1650744417
 30
0.0
 10
3.3223606095
 20
5.1676217773
 30
0.0
 10
3.3228974281
 20
5.1727120454
 30
0.0
 10
3.3246829253
 20
5.1801743241
 30
0.0
 10
3.3274314802
 20
5.187340806
 30
0.0
 10
3.33109681
 20
5.1940823127
 30
0.0
 10
3.3356187888
 20
5.2002821066
 30
0.0
 10
3.3409256836
 20
5.2058261041
 30
0.0
 10
3.3469233203
 20
5.2106130736
 30
0.0
 10
3.3513183058
 20
5.2132390298
 30
0.0
 10
3.3535911205
 20
5.2143970426
 30
0.0
  0
SPLINE
  5
38B
100
AcDbEntity
  8
ALL_ASSEMBLY_MEMBERS
100
AcDbSpline
 62
7
  6
CONTINUOUS
 70
0
 71
3
 72
21
 73
17
 74
0
 42
0.0000001
 43
0.0000001
 44
0.0000000001
 40
0.0
 40
0.0
 40
0.0
 40
0.0
 40
0.0627492381
 40
0.1255785875
 40
0.1883477677
 40
0.2510072732
 40
0.3135805737
 40
0.3760713268
 40
0.4385046399
 40
0.5008816869
 40
0.6254498292
 40
0.7500513786
 40
0.8124521054
 40
0.8749054211
 40
0.937421663
 40
1.0
 40
1.0
 40
1.0
 40
1.0
 10
3.3078667584
 20
5.1650744417
 30
0.0
 10
3.3078667584
 20
5.1668707668
 30
0.0
 10
3.3080385433
 20
5.1704679035
 30
0.0
 10
3.3087967743
 20
5.1758136035
 30
0.0
 10
3.3100474652
 20
5.1810638255
 30
0.0
 10
3.3117730108
 20
5.1861693913
 30
0.0
 10
3.3139429207
 20
5.1910934583
 30
0.0
 10
3.3165315611
 20
5.1958029911
 30
0.0
 10
3.3195056718
 20
5.2002721391
 30
0.0
 10
3.323939632
 20
5.2058758095
 30
0.0
 10
3.3302972279
 20
5.2121857307
 30
0.0
 10
3.3375270065
 20
5.2174664681
 30
0.0
 10
3.3437162884
 20
5.2210384077
 30
0.0
 10
3.3485428771
 20
5.2233888106
 30
0.0
 10
3.3535240486
 20
5.2254027008
 30
0.0
 10
3.3569306776
 20
5.226517249
 30
0.0
 10
3.3586510227
 20
5.2270168929
 30
0.0
  0
SPLINE
  5
38C
100
AcDbEntity
  8
ALL_ASSEMBLY_MEMBERS
100
AcDbSpline
 62
7
  6
CONTINUOUS
 70
0
 71
3
 72
24
 73
20
 74
0
 42
0.0000001
 43
0.0000001
 44
0.0000000001
 40
0.0
 40
0.0
 40
0.0
 40
0.0
 40
0.0626519738
 40
0.1253328171
 40
0.1880065988
 40
0.25063802
 40
0.3131990499
 40
0.3756742396
 40
0.4380594109
 40
0.5003702411
 40
0.562629356
 40
0.6248809326
 40
0.687164714
 40
0.7183486276
 40
0.7495508627
 40
0.8120036587
 40
0.8745809072
 40
0.9373075712
 40
1.0
 40
1.0
 40
1.0
 40
1.0
 10
3.367556958
 20
5.2290640101
 30
0.0
 10
3.3700838751
 20
5.229496433
 30
0.0
 10
3.3751829973
 20
5.2301227514
 30
0.0
 10
3.3828836149
 20
5.2303416632
 30
0.0
 10
3.3905708063
 20
5.2298388459
 30
0.0
 10
3.3981719683
 20
5.2286175739
 30
0.0
 10
3.4056157424
 20
5.2266839093
 30
0.0
 10
3.4128303327
 20
5.2240478019
 30
0.0
 10
3.4197435161
 20
5.2207223551
 30
0.0
 10
3.4262807913
 20
5.2167236573
 30
0.0
 10
3.4323652989
 20
5.2120721388
 30
0.0
 10
3.437914766
 20
5.2067944527
 30
0.0
 10
3.442021341
 20
5.2019024705
 30
0.0
 10
3.4449475051
 20
5.197720575
 30
0.0
 10
3.4476233802
 20
5.1933661634
 30
0.0
 10
3.4504648073
 20
5.1876196977
 30
0.0
 10
3.4529798084
 20
5.1803375029
 30
0.0
 10
3.454516775
 20
5.1727780168
 30
0.0
 10
3.4548667584
 20
5.1676397467
 30
0.0
 10
3.4548667584
 20
5.1650744417
 30
0.0
  0
SPLINE
  5
38D
100
AcDbEntity
  8
ALL_ASSEMBLY_MEMBERS
100
AcDbSpline
 62
7
  6
CONTINUOUS
 70
0
 71
3
 72
20
 73
16
 74
0
 42
0.0000001
 43
0.0000001
 44
0.0000000001
 40
0.0
 40
0.0
 40
0.0
 40
0.0
 40
0.062753964
 40
0.1255912493
 40
0.188384125
 40
0.2510693492
 40
0.3136703843
 40
0.376190509
 40
0.4386487051
 40
0.5010566659
 40
0.6256614347
 40
0.7502588732
 40
0.8126368672
 40
0.8750578216
 40
1.0
 40
1.0
 40
1.0
 40
1.0
 10
3.4548667584
 20
5.1650744417
 30
0.0
 10
3.4548667584
 20
5.1633732046
 30
0.0
 10
3.4547126874
 20
5.1599665952
 30
0.0
 10
3.4540318078
 20
5.1548988574
 30
0.0
 10
3.4529087965
 20
5.1499118771
 30
0.0
 10
3.4513558226
 20
5.1450487525
 30
0.0
 10
3.4493991223
 20
5.140341894
 30
0.0
 10
3.4470603401
 20
5.1358200083
 30
0.0
 10
3.4443659277
 20
5.1315068955
 30
0.0
 10
3.4403402067
 20
5.1260652425
 30
0.0
 10
3.4345469432
 20
5.1198705661
 30
0.0
 10
3.4279243038
 20
5.1145805358
 30
0.0
 10
3.4222308246
 20
5.1109255555
 30
0.0
 10
3.4162966507
 20
5.1076583728
 30
0.0
 10
3.4116086865
 20
5.1056544528
 30
0.0
 10
3.4084152319
 20
5.1045254956
 30
0.0
  0
SPLINE
  5
38E
100
AcDbEntity
  8
ALL_ASSEMBLY_MEMBERS
100
AcDbSpline
 62
7
  6
CONTINUOUS
 70
0
 71
3
 72
26
 73
22
 74
0
 42
0.0000001
 43
0.0000001
 44
0.0000000001
 40
0.0
 40
0.0
 40
0.0
 40
0.0
 40
0.0626128327
 40
0.1252746556
 40
0.1879485839
 40
0.2505957358
 40
0.3131816628
 40
0.3756832176
 40
0.438091702
 40
0.5004157552
 40
0.5626770245
 40
0.6249193648
 40
0.6871825625
 40
0.718356504
 40
0.7495493188
 40
0.7807643367
 40
0.8120105625
 40
0.8745663976
 40
0.9059238067
 40
0.9373143825
 40
1.0
 40
1.0
 40
1.0
 40
1.0
 10
3.3996401045
 20
5.1019782291
 30
0.0
 10
3.3970503336
 20
5.1013837655
 30
0.0
 10
3.391806483
 20
5.1004495533
 30
0.0
 10
3.3838432032
 20
5.0998214662
 30
0.0
 10
3.3758543542
 20
5.0999692046
 30
0.0
 10
3.3679208886
 20
5.1008913453
 30
0.0
 10
3.3601225191
 20
5.1025834798
 30
0.0
 10
3.3525389828
 20
5.1050353792
 30
0.0
 10
3.3452506667
 20
5.1082345154
 30
0.0
 10
3.3383395414
 20
5.1121637959
 30
0.0
 10
3.3318902033
 20
5.1168022591
 30
0.0
 10
3.3259931545
 20
5.1221223355
 30
0.0
 10
3.3216176231
 20
5.1270947086
 30
0.0
 10
3.318494721
 20
5.1313666941
 30
0.0
 10
3.3163506202
 20
5.1347126124
 30
0.0
 10
3.3144192701
 20
5.1381895057
 30
0.0
 10
3.3121458278
 20
5.1429861119
 30
0.0
 10
3.3103456058
 20
5.1480031217
 30
0.0
 10
3.3090690478
 20
5.153168909
 30
0.0
 10
3.3081496291
 20
5.1584149732
 30
0.0
 10
3.3078667584
 20
5.1624142303
 30
0.0
 10
3.3078667584
 20
5.1650744417
 30
0.0
  0
SPLINE
  5
38F
100
AcDbEntity
  8
ALL_ASSEMBLY_MEMBERS
100
AcDbSpline
 62
7
  6
CONTINUOUS
 70
0
 71
3
 72
21
 73
17
 74
0
 42
0.0000001
 43
0.0000001
 44
0.0000000001
 40
0.0
 40
0.0
 40
0.0
 40
0.0
 40
0.125132158
 40
0.1877887829
 40
0.2504015125
 40
0.3129757702
 40
0.3755343475
 40
0.4380883115
 40
0.5006249038
 40
0.5631473804
 40
0.6256487557
 40
0.6881182032
 40
0.7505639641
 40
0.8129970185
 40
0.8754461268
 40
1.0
 40
1.0
 40
1.0
 40
1.0
 10
3.4409746449
 20
5.1873526066
 30
0.0
 10
3.4417292864
 20
5.1839749056
 30
0.0
 10
3.4424435585
 20
5.1787982334
 30
0.0
 10
3.442520528
 20
5.1718671777
 30
0.0
 10
3.4421324415
 20
5.1666792487
 30
0.0
 10
3.4412992999
 20
5.1615472771
 30
0.0
 10
3.440020595
 20
5.1565090801
 30
0.0
 10
3.4383008663
 20
5.1516049248
 30
0.0
 10
3.4361502962
 20
5.1468746681
 30
0.0
 10
3.4335775628
 20
5.1423614881
 30
0.0
 10
3.430601144
 20
5.1381058836
 30
0.0
 10
3.4272422705
 20
5.1341474891
 30
0.0
 10
3.4235234825
 20
5.1305279029
 30
0.0
 10
3.4194735928
 20
5.1272819158
 30
0.0
 10
3.4136870246
 20
5.1235120093
 30
0.0
 10
3.4089405998
 20
5.1213426509
 30
0.0
 10
3.4056765086
 20
5.1202410161
 30
0.0
  0
SPLINE
  5
390
100
AcDbEntity
  8
ALL_ASSEMBLY_MEMBERS
100
AcDbSpline
 62
7
  6
CONTINUOUS
 70
0
 71
3
 72
13
 73
9
 74
0
 42
0.0000001
 43
0.0000001
 44
0.0000000001
 40
0.0
 40
0.0
 40
0.0
 40
0.0
 40
0.0960346461
 40
0.3403821811
 40
0.4952841657
 40
0.6615348709
 40
0.8320816973
 40
1.0
 40
1.0
 40
1.0
 40
1.0
 10
3.1005301442
 20
2.5438244417
 30
0.0
 10
3.1035492352
 20
2.5444925501
 30
0.0
 10
3.1142801102
 20
2.5467344778
 30
0.0
 10
3.1300329779
 20
2.5493132491
 30
0.0
 10
3.1481477848
 20
2.5512295548
 30
0.0
 10
3.1639622298
 20
2.5521423464
 30
0.0
 10
3.1802219965
 20
2.5522439482
 30
0.0
 10
3.1911155528
 20
2.5517468619
 30
0.0
 10
3.1965093867
 20
2.5513647935
 30
0.0
  0
SPLINE
  5
391
100
AcDbEntity
  8
ALL_ASSEMBLY_MEMBERS
100
AcDbSpline
 62
7
  6
CONTINUOUS
 70
0
 71
3
 72
11
 73
7
 74
0
 42
0.0000001
 43
0.0000001
 44
0.0000000001
 40
0.0
 40
0.0
 40
0.0
 40
0.0
 40
0.3821990314
 40
0.7015964365
 40
0.9206473904
 40
1.0
 40
1.0
 40
1.0
 40
1.0
 10
3.1965093867
 20
2.5513647935
 30
0.0
 10
3.2030689107
 20
2.5509001544
 30
0.0
 10
3.2150870166
 20
2.5496771689
 30
0.0
 10
3.2307436092
 20
2.5472374574
 30
0.0
 10
3.2411783474
 20
2.5452026377
 30
0.0
 10
3.246197101
 20
2.5441194334
 30
0.0
 10
3.2475301442
 20
2.5438244417
 30
0.0
  0
SPLINE
  5
392
100
AcDbEntity
  8
ALL_ASSEMBLY_MEMBERS
100
AcDbSpline
 62
7
  6
CONTINUOUS
 70
0
 71
3
 72
22
 73
18
 74
0
 42
0.0000001
 43
0.0000001
 44
0.0000000001
 40
0.0
 40
0.0
 40
0.0
 40
0.0
 40
0.1248754092
 40
0.1874116087
 40
0.2499147089
 40
0.3124082252
 40
0.3749149311
 40
0.4374299683
 40
0.4999454671
 40
0.5624609462
 40
0.6249714368
 40
0.6874779405
 40
0.7499826843
 40
0.8124877564
 40
0.8749970046
 40
0.9375016205
 40
1.0
 40
1.0
 40
1.0
 40
1.0
 10
3.1959301231
 20
2.7428070956
 30
0.0
 10
3.1922228928
 20
2.7416032225
 30
0.0
 10
3.1864737597
 20
2.740306098
 30
0.0
 10
3.1786923431
 20
2.7396580671
 30
0.0
 10
3.1728298906
 20
2.7397172018
 30
0.0
 10
3.1670001175
 20
2.7403214893
 30
0.0
 10
3.1612521322
 20
2.7414702546
 30
0.0
 10
3.1556360662
 20
2.7431513975
 30
0.0
 10
3.1502031484
 20
2.745354915
 30
0.0
 10
3.1450036932
 20
2.7480633228
 30
0.0
 10
3.1400835917
 20
2.7512508504
 30
0.0
 10
3.1354909413
 20
2.7548939951
 30
0.0
 10
3.1312667715
 20
2.7589583805
 30
0.0
 10
3.1274519216
 20
2.7634094931
 30
0.0
 10
3.1240845814
 20
2.768208231
 30
0.0
 10
3.1211947747
 20
2.7733080017
 30
0.0
 10
3.1196077348
 20
2.7768804714
 30
0.0
 10
3.1189035159
 20
2.7786997235
 30
0.0
  0
SPLINE
  5
393
100
AcDbEntity
  8
ALL_ASSEMBLY_MEMBERS
100
AcDbSpline
 62
7
  6
CONTINUOUS
 70
0
 71
3
 72
22
 73
18
 74
0
 42
0.0000001
 43
0.0000001
 44
0.0000000001
 40
0.0
 40
0.0
 40
0.0
 40
0.0
 40
0.0624398908
 40
0.12500213
 40
0.1875389167
 40
0.2500400109
 40
0.3125389817
 40
0.3750514345
 40
0.4375651182
 40
0.5000764791
 40
0.5625898248
 40
0.6251045419
 40
0.6876186031
 40
0.7501193028
 40
0.8126285138
 40
0.8751778365
 40
1.0
 40
1.0
 40
1.0
 40
1.0
 10
3.2229442816
 20
2.7881381276
 30
0.0
 10
3.2236066144
 20
2.7900510362
 30
0.0
 10
3.2247027816
 20
2.79396431
 30
0.0
 10
3.2256454802
 20
2.7999844845
 30
0.0
 10
3.2258696756
 20
2.8060768097
 30
0.0
 10
3.2253783887
 20
2.8121508648
 30
0.0
 10
3.2241816579
 20
2.8181252444
 30
0.0
 10
3.2223005825
 20
2.8239207969
 30
0.0
 10
3.2197650012
 20
2.8294618044
 30
0.0
 10
3.2166077577
 20
2.8346734697
 30
0.0
 10
3.2128783943
 20
2.8394922641
 30
0.0
 10
3.2086230959
 20
2.8438535266
 30
0.0
 10
3.2039045524
 20
2.8477079729
 30
0.0
 10
3.1987822274
 20
2.851005967
 30
0.0
 10
3.1933207726
 20
2.8537107054
 30
0.0
 10
3.1856947917
 20
2.8564783956
 30
0.0
 10
3.1796558961
 20
2.857588151
 30
0.0
 10
3.1756194327
 20
2.8578770416
 30
0.0
  0
SPLINE
  5
394
100
AcDbEntity
  8
ALL_ASSEMBLY_MEMBERS
100
AcDbSpline
 62
7
  6
CONTINUOUS
 70
0
 71
3
 72
15
 73
11
 74
0
 42
0.0000001
 43
0.0000001
 44
0.0000000001
 40
0.0
 40
0.0
 40
0.0
 40
0.0
 40
0.1249401117
 40
0.2500186114
 40
0.3750193786
 40
0.5000015013
 40
0.6249979375
 40
0.7499916609
 40
0.8749890269
 40
1.0
 40
1.0
 40
1.0
 40
1.0
 10
3.1149220794
 20
2.8025744417
 30
0.0
 10
3.1150239954
 20
2.8051217773
 30
0.0
 10
3.1155608139
 20
2.8102120454
 30
0.0
 10
3.1173463111
 20
2.8176743241
 30
0.0
 10
3.120094866
 20
2.824840806
 30
0.0
 10
3.1237601958
 20
2.8315823127
 30
0.0
 10
3.1282821746
 20
2.8377821066
 30
0.0
 10
3.1335890694
 20
2.8433261041
 30
0.0
 10
3.1395867062
 20
2.8481130736
 30
0.0
 10
3.1439816916
 20
2.8507390298
 30
0.0
 10
3.1462545063
 20
2.8518970426
 30
0.0
  0
SPLINE
  5
395
100
AcDbEntity
  8
ALL_ASSEMBLY_MEMBERS
100
AcDbSpline
 62
7
  6
CONTINUOUS
 70
0
 71
3
 72
21
 73
17
 74
0
 42
0.0000001
 43
0.0000001
 44
0.0000000001
 40
0.0
 40
0.0
 40
0.0
 40
0.0
 40
0.0627492381
 40
0.1255785875
 40
0.1883477677
 40
0.2510072732
 40
0.3135805737
 40
0.3760713268
 40
0.4385046399
 40
0.5008816869
 40
0.6254498292
 40
0.7500513786
 40
0.8124521054
 40
0.8749054211
 40
0.937421663
 40
1.0
 40
1.0
 40
1.0
 40
1.0
 10
3.1005301442
 20
2.8025744417
 30
0.0
 10
3.1005301442
 20
2.8043707668
 30
0.0
 10
3.1007019291
 20
2.8079679035
 30
0.0
 10
3.1014601601
 20
2.8133136035
 30
0.0
 10
3.102710851
 20
2.8185638255
 30
0.0
 10
3.1044363967
 20
2.8236693913
 30
0.0
 10
3.1066063065
 20
2.8285934583
 30
0.0
 10
3.1091949469
 20
2.8333029911
 30
0.0
 10
3.1121690577
 20
2.8377721391
 30
0.0
 10
3.1166030178
 20
2.8433758095
 30
0.0
 10
3.1229606137
 20
2.8496857307
 30
0.0
 10
3.1301903923
 20
2.8549664681
 30
0.0
 10
3.1363796742
 20
2.8585384077
 30
0.0
 10
3.1412062629
 20
2.8608888106
 30
0.0
 10
3.1461874344
 20
2.8629027008
 30
0.0
 10
3.1495940634
 20
2.864017249
 30
0.0
 10
3.1513144085
 20
2.8645168929
 30
0.0
  0
SPLINE
  5
396
100
AcDbEntity
  8
ALL_ASSEMBLY_MEMBERS
100
AcDbSpline
 62
7
  6
CONTINUOUS
 70
0
 71
3
 72
24
 73
20
 74
0
 42
0.0000001
 43
0.0000001
 44
0.0000000001
 40
0.0
 40
0.0
 40
0.0
 40
0.0
 40
0.0626519738
 40
0.1253328171
 40
0.1880065988
 40
0.25063802
 40
0.3131990499
 40
0.3756742396
 40
0.4380594109
 40
0.5003702411
 40
0.562629356
 40
0.6248809326
 40
0.687164714
 40
0.7183486276
 40
0.7495508627
 40
0.8120036587
 40
0.8745809072
 40
0.9373075712
 40
1.0
 40
1.0
 40
1.0
 40
1.0
 10
3.1602203439
 20
2.8665640101
 30
0.0
 10
3.1627472609
 20
2.866996433
 30
0.0
 10
3.1678463831
 20
2.8676227514
 30
0.0
 10
3.1755470007
 20
2.8678416632
 30
0.0
 10
3.1832341922
 20
2.8673388459
 30
0.0
 10
3.1908353541
 20
2.8661175739
 30
0.0
 10
3.1982791282
 20
2.8641839093
 30
0.0
 10
3.2054937185
 20
2.8615478019
 30
0.0
 10
3.2124069019
 20
2.8582223551
 30
0.0
 10
3.2189441771
 20
2.8542236573
 30
0.0
 10
3.2250286847
 20
2.8495721388
 30
0.0
 10
3.2305781518
 20
2.8442944527
 30
0.0
 10
3.2346847268
 20
2.8394024705
 30
0.0
 10
3.2376108909
 20
2.835220575
 30
0.0
 10
3.240286766
 20
2.8308661634
 30
0.0
 10
3.2431281931
 20
2.8251196977
 30
0.0
 10
3.2456431942
 20
2.8178375029
 30
0.0
 10
3.2471801608
 20
2.8102780168
 30
0.0
 10
3.2475301442
 20
2.8051397467
 30
0.0
 10
3.2475301442
 20
2.8025744417
 30
0.0
  0
SPLINE
  5
397
100
AcDbEntity
  8
ALL_ASSEMBLY_MEMBERS
100
AcDbSpline
 62
7
  6
CONTINUOUS
 70
0
 71
3
 72
20
 73
16
 74
0
 42
0.0000001
 43
0.0000001
 44
0.0000000001
 40
0.0
 40
0.0
 40
0.0
 40
0.0
 40
0.062753964
 40
0.1255912493
 40
0.188384125
 40
0.2510693492
 40
0.3136703843
 40
0.376190509
 40
0.4386487051
 40
0.5010566659
 40
0.6256614347
 40
0.7502588732
 40
0.8126368672
 40
0.8750578216
 40
1.0
 40
1.0
 40
1.0
 40
1.0
 10
3.2475301442
 20
2.8025744417
 30
0.0
 10
3.2475301442
 20
2.8008732046
 30
0.0
 10
3.2473760732
 20
2.7974665952
 30
0.0
 10
3.2466951936
 20
2.7923988574
 30
0.0
 10
3.2455721824
 20
2.7874118771
 30
0.0
 10
3.2440192085
 20
2.7825487525
 30
0.0
 10
3.2420625081
 20
2.777841894
 30
0.0
 10
3.2397237259
 20
2.7733200083
 30
0.0
 10
3.2370293135
 20
2.7690068955
 30
0.0
 10
3.2330035925
 20
2.7635652425
 30
0.0
 10
3.227210329
 20
2.7573705661
 30
0.0
 10
3.2205876896
 20
2.7520805358
 30
0.0
 10
3.2148942105
 20
2.7484255555
 30
0.0
 10
3.2089600365
 20
2.7451583728
 30
0.0
 10
3.2042720723
 20
2.7431544528
 30
0.0
 10
3.2010786177
 20
2.7420254956
 30
0.0
  0
SPLINE
  5
398
100
AcDbEntity
  8
ALL_ASSEMBLY_MEMBERS
100
AcDbSpline
 62
7
  6
CONTINUOUS
 70
0
 71
3
 72
26
 73
22
 74
0
 42
0.0000001
 43
0.0000001
 44
0.0000000001
 40
0.0
 40
0.0
 40
0.0
 40
0.0
 40
0.0626128327
 40
0.1252746556
 40
0.1879485839
 40
0.2505957358
 40
0.3131816628
 40
0.3756832176
 40
0.438091702
 40
0.5004157552
 40
0.5626770245
 40
0.6249193648
 40
0.6871825625
 40
0.718356504
 40
0.7495493188
 40
0.7807643367
 40
0.8120105625
 40
0.8745663976
 40
0.9059238067
 40
0.9373143825
 40
1.0
 40
1.0
 40
1.0
 40
1.0
 10
3.1923034903
 20
2.7394782291
 30
0.0
 10
3.1897137194
 20
2.7388837655
 30
0.0
 10
3.1844698688
 20
2.7379495533
 30
0.0
 10
3.176506589
 20
2.7373214662
 30
0.0
 10
3.16851774
 20
2.7374692046
 30
0.0
 10
3.1605842745
 20
2.7383913453
 30
0.0
 10
3.152785905
 20
2.7400834798
 30
0.0
 10
3.1452023687
 20
2.7425353792
 30
0.0
 10
3.1379140525
 20
2.7457345154
 30
0.0
 10
3.1310029272
 20
2.7496637959
 30
0.0
 10
3.1245535891
 20
2.7543022591
 30
0.0
 10
3.1186565403
 20
2.7596223355
 30
0.0
 10
3.1142810089
 20
2.7645947086
 30
0.0
 10
3.1111581069
 20
2.7688666941
 30
0.0
 10
3.109014006
 20
2.7722126124
 30
0.0
 10
3.107082656
 20
2.7756895057
 30
0.0
 10
3.1048092137
 20
2.7804861119
 30
0.0
 10
3.1030089916
 20
2.7855031217
 30
0.0
 10
3.1017324336
 20
2.790668909
 30
0.0
 10
3.1008130149
 20
2.7959149732
 30
0.0
 10
3.1005301442
 20
2.7999142303
 30
0.0
 10
3.1005301442
 20
2.8025744417
 30
0.0
  0
SPLINE
  5
399
100
AcDbEntity
  8
ALL_ASSEMBLY_MEMBERS
100
AcDbSpline
 62
7
  6
CONTINUOUS
 70
0
 71
3
 72
21
 73
17
 74
0
 42
0.0000001
 43
0.0000001
 44
0.0000000001
 40
0.0
 40
0.0
 40
0.0
 40
0.0
 40
0.125132158
 40
0.1877887829
 40
0.2504015125
 40
0.3129757702
 40
0.3755343475
 40
0.4380883115
 40
0.5006249038
 40
0.5631473804
 40
0.6256487557
 40
0.6881182032
 40
0.7505639641
 40
0.8129970185
 40
0.8754461268
 40
1.0
 40
1.0
 40
1.0
 40
1.0
 10
3.2336380307
 20
2.8248526066
 30
0.0
 10
3.2343926722
 20
2.8214749056
 30
0.0
 10
3.2351069443
 20
2.8162982334
 30
0.0
 10
3.2351839138
 20
2.8093671777
 30
0.0
 10
3.2347958273
 20
2.8041792487
 30
0.0
 10
3.2339626857
 20
2.7990472771
 30
0.0
 10
3.2326839808
 20
2.7940090801
 30
0.0
 10
3.2309642522
 20
2.7891049248
 30
0.0
 10
3.2288136821
 20
2.7843746681
 30
0.0
 10
3.2262409487
 20
2.7798614881
 30
0.0
 10
3.2232645298
 20
2.7756058836
 30
0.0
 10
3.2199056563
 20
2.7716474891
 30
0.0
 10
3.2161868683
 20
2.7680279029
 30
0.0
 10
3.2121369786
 20
2.7647819158
 30
0.0
 10
3.2063504104
 20
2.7610120093
 30
0.0
 10
3.2016039856
 20
2.7588426509
 30
0.0
 10
3.1983398944
 20
2.7577410161
 30
0.0
  0
SPLINE
  5
39A
100
AcDbEntity
  8
ALL_FEATURES
100
AcDbSpline
 62
7
  6
CONTINUOUS
 70
0
 71
3
 72
25
 73
21
 74
0
 42
0.0000001
 43
0.0000001
 44
0.0000000001
 40
0.0
 40
0.0
 40
0.0
 40
0.0
 40
0.0389120089
 40
0.1481991367
 40
0.2238432499
 40
0.2657404955
 40
0.3098480104
 40
0.3557669529
 40
0.4030644469
 40
0.4512969485
 40
0.4999994102
 40
0.5487020364
 40
0.596934802
 40
0.6442324729
 40
0.6901514933
 40
0.7342590259
 40
0.7761562088
 40
0.8518001232
 40
0.9610879005
 40
1.0
 40
1.0
 40
1.0
 40
1.0
 10
4.2007801442
 20
3.4228244417
 30
0.0
 10
4.1969057079
 20
3.4218733137
 30
0.0
 10
4.1821182974
 20
3.4183735962
 30
0.0
 10
4.1596143195
 20
3.4138133025
 30
0.0
 10
4.1366379355
 20
3.4101802318
 30
0.0
 10
4.120199296
 20
3.4080581185
 30
0.0
 10
4.1067499154
 20
3.4066077844
 30
0.0
 10
4.0927193841
 20
3.4054146054
 30
0.0
 10
4.0782426206
 20
3.4045216717
 30
0.0
 10
4.0634630227
 20
3.4039732511
 30
0.0
 10
4.0485303088
 20
3.4037852049
 30
0.0
 10
4.0335975682
 20
3.4039732552
 30
0.0
 10
4.0188179074
 20
3.4045216555
 30
0.0
 10
4.0043410908
 20
3.4054145942
 30
0.0
 10
3.9903105309
 20
3.4066077666
 30
0.0
 10
3.976861147
 20
3.408058102
 30
0.0
 10
3.9604225313
 20
3.4101802037
 30
0.0
 10
3.9374461072
 20
3.4138132756
 30
0.0
 10
3.9149420739
 20
3.4183735765
 30
0.0
 10
3.9001545896
 20
3.4218733114
 30
0.0
 10
3.8962801442
 20
3.4228244417
 30
0.0
  0
LINE
  5
39B
100
AcDbEntity
  8
0
100
AcDbLine
 62
7
  6
CONTINUOUS
 10
4.934136561
 20
2.365105078
 11
4.9342429238
 21
2.3637154698
  0
LINE
  5
39C
100
AcDbEntity
  8
0
100
AcDbLine
 62
7
  6
CONTINUOUS
 10
4.9343215697
 20
3.0131601077
 11
4.9343882029
 21
3.0125660463
  0
LINE
  5
39D
100
AcDbEntity
  8
0
100
AcDbLine
 62
7
  6
CONTINUOUS
 10
4.9343882029
 20
3.0125660463
 11
4.9344099184
 21
3.0120624488
  0
LINE
  5
39E
100
AcDbEntity
  8
0
100
AcDbLine
 62
7
  6
CONTINUOUS
 10
4.9368772068
 20
3.122424447
 11
4.9368049978
 21
3.1221203636
  0
LINE
  5
39F
100
AcDbEntity
  8
0
100
AcDbLine
 62
7
  6
CONTINUOUS
 10
4.9368049978
 20
3.1221203636
 11
4.9367630043
 21
3.1216998209
  0
LINE
  5
3A0
100
AcDbEntity
  8
0
100
AcDbLine
 62
7
  6
CONTINUOUS
 10
4.9349873172
 20
3.1037003495
 11
4.9349295506
 21
3.1031130066
  0
LINE
  5
3A1
100
AcDbEntity
  8
0
100
AcDbLine
 62
7
  6
CONTINUOUS
 10
4.9368569554
 20
3.1380436934
 11
4.937130628
 21
3.1345742529
  0
LINE
  5
3A2
100
AcDbEntity
  8
0
100
AcDbLine
 62
7
  6
CONTINUOUS
 10
4.9351596715
 20
3.1209978635
 11
4.9353318821
 21
3.1196880037
  0
LINE
  5
3A3
100
AcDbEntity
  8
0
100
AcDbLine
 62
7
  6
CONTINUOUS
 10
4.9346856158
 20
3.5733176376
 11
4.9345576985
 21
3.5679345651
  0
LINE
  5
3A4
100
AcDbEntity
  8
0
100
AcDbLine
 62
7
  6
CONTINUOUS
 10
4.9345576985
 20
3.5679345651
 11
4.9343335557
 21
3.5588760039
  0
LINE
  5
3A5
100
AcDbEntity
  8
0
100
AcDbLine
 62
7
  6
CONTINUOUS
 10
4.9343335557
 20
3.5588760039
 11
4.9343175772
 21
3.5582574966
  0
LINE
  5
3A6
100
AcDbEntity
  8
0
100
AcDbLine
 62
7
  6
CONTINUOUS
 10
4.9343175772
 20
3.5582574966
 11
4.934083479
 21
3.5504749487
  0
SPLINE
  5
3A7
100
AcDbEntity
  8
0
100
AcDbSpline
 62
7
  6
CONTINUOUS
 70
0
 71
3
 72
11
 73
7
 74
0
 42
0.0000001
 43
0.0000001
 44
0.0000000001
 40
0.0
 40
0.0
 40
0.0
 40
0.0
 40
0.4392012657
 40
0.7499758187
 40
0.9353281903
 40
1.0
 40
1.0
 40
1.0
 40
1.0
 10
4.934083479
 20
3.5504749487
 30
0.0
 10
4.9340825849
 20
3.5504616283
 30
0.0
 10
4.9340806868
 20
3.55043962
 30
0.0
 10
4.9340789503
 20
3.550409099
 30
0.0
 10
4.9340754427
 20
3.5503959461
 30
0.0
 10
4.9340752707
 20
3.5503845275
 30
0.0
 10
4.9340733053
 20
3.5503845704
 30
0.0
  0
LINE
  5
3A8
100
AcDbEntity
  8
0
100
AcDbLine
 62
7
  6
CONTINUOUS
 10
4.9359043085
 20
3.6277651077
 11
4.9350549691
 21
3.5892960736
  0
LINE
  5
3A9
100
AcDbEntity
  8
0
100
AcDbLine
 62
7
  6
CONTINUOUS
 10
4.9350549691
 20
3.5892960736
 11
4.9347498455
 21
3.5760574177
  0
LINE
  5
3AA
100
AcDbEntity
  8
0
100
AcDbLine
 62
7
  6
CONTINUOUS
 10
4.9347498455
 20
3.5760574177
 11
4.9346856158
 21
3.5733176376
  0
LINE
  5
3AB
100
AcDbEntity
  8
0
100
AcDbLine
 62
7
  6
CONTINUOUS
 10
4.9370122233
 20
3.6812176118
 11
4.936862272
 21
3.6736717475
  0
LINE
  5
3AC
100
AcDbEntity
  8
0
100
AcDbLine
 62
7
  6
CONTINUOUS
 10
4.936862272
 20
3.6736717475
 11
4.9366984943
 21
3.6655729155
  0
LINE
  5
3AD
100
AcDbEntity
  8
0
100
AcDbLine
 62
7
  6
CONTINUOUS
 10
4.9366984943
 20
3.6655729155
 11
4.9359043085
 21
3.6277651077
  0
LINE
  5
3AE
100
AcDbEntity
  8
0
100
AcDbLine
 62
7
  6
CONTINUOUS
 10
4.9373813393
 20
3.7026973453
 11
4.9372866444
 21
3.6956988305
  0
LINE
  5
3AF
100
AcDbEntity
  8
0
100
AcDbLine
 62
7
  6
CONTINUOUS
 10
4.9372866444
 20
3.6956988305
 11
4.9372322384
 21
3.6926933054
  0
LINE
  5
3B0
100
AcDbEntity
  8
0
100
AcDbLine
 62
7
  6
CONTINUOUS
 10
4.9372322384
 20
3.6926933054
 11
4.9371681961
 21
3.6892728553
  0
LINE
  5
3B1
100
AcDbEntity
  8
0
100
AcDbLine
 62
7
  6
CONTINUOUS
 10
4.9371681961
 20
3.6892728553
 11
4.9370947399
 21
3.6854428302
  0
LINE
  5
3B2
100
AcDbEntity
  8
0
100
AcDbLine
 62
7
  6
CONTINUOUS
 10
4.9370947399
 20
3.6854428302
 11
4.9370122233
 21
3.6812176118
  0
LINE
  5
3B3
100
AcDbEntity
  8
0
100
AcDbLine
 62
7
  6
CONTINUOUS
 10
4.9364618905
 20
3.4573643284
 11
4.9348209225
 21
3.3998054725
  0
LINE
  5
3B4
100
AcDbEntity
  8
0
100
AcDbLine
 62
7
  6
CONTINUOUS
 10
4.9348209225
 20
3.3998054725
 11
4.934412808
 21
3.3854902705
  0
LINE
  5
3B5
100
AcDbEntity
  8
0
100
AcDbLine
 62
7
  6
CONTINUOUS
 10
4.934412808
 20
3.3854902705
 11
4.9343513798
 21
3.3833355805
  0
LINE
  5
3B6
100
AcDbEntity
  8
0
100
AcDbLine
 62
7
  6
CONTINUOUS
 10
4.9343513798
 20
3.3833355805
 11
4.9340055448
 21
3.3712048734
  0
LINE
  5
3B7
100
AcDbEntity
  8
0
100
AcDbLine
 62
7
  6
CONTINUOUS
 10
4.9364618905
 20
3.4694165961
 11
4.9364612727
 21
3.4593730502
  0
LINE
  5
3B8
100
AcDbEntity
  8
0
100
AcDbLine
 62
7
  6
CONTINUOUS
 10
4.9364612727
 20
3.4593730502
 11
4.9364618905
 21
3.4573643284
  0
LINE
  5
3B9
100
AcDbEntity
  8
0
100
AcDbLine
 62
7
  6
CONTINUOUS
 10
4.9357108808
 20
3.1020302667
 11
4.9357301251
 21
3.1004772409
  0
LINE
  5
3BA
100
AcDbEntity
  8
0
100
AcDbLine
 62
7
  6
CONTINUOUS
 10
4.934801617
 20
3.0341239261
 11
4.9346371717
 21
3.0328422843
  0
LINE
  5
3BB
100
AcDbEntity
  8
0
100
AcDbLine
 62
7
  6
CONTINUOUS
 10
4.9346371717
 20
3.0328422843
 11
4.934582471
 21
3.0327495862
  0
LINE
  5
3BC
100
AcDbEntity
  8
0
100
AcDbLine
 62
7
  6
CONTINUOUS
 10
4.9351277558
 20
3.0408386549
 11
4.9348837207
 21
3.035285775
  0
LINE
  5
3BD
100
AcDbEntity
  8
0
100
AcDbLine
 62
7
  6
CONTINUOUS
 10
4.9348837207
 20
3.035285775
 11
4.934801617
 21
3.0341239261
  0
LINE
  5
3BE
100
AcDbEntity
  8
0
100
AcDbLine
 62
7
  6
CONTINUOUS
 10
4.9358500882
 20
3.0781569704
 11
4.9358052458
 21
3.0749749216
  0
LINE
  5
3BF
100
AcDbEntity
  8
0
100
AcDbLine
 62
7
  6
CONTINUOUS
 10
4.935576651
 20
3.0601563575
 11
4.9355298878
 21
3.0574731356
  0
LINE
  5
3C0
100
AcDbEntity
  8
0
100
AcDbLine
 62
7
  6
CONTINUOUS
 10
4.9366055199
 20
3.0591907497
 11
4.9364334739
 21
3.0581383171
  0
LINE
  5
3C1
100
AcDbEntity
  8
0
100
AcDbLine
 62
7
  6
CONTINUOUS
 10
4.9369686863
 20
3.0682155526
 11
4.9367025338
 21
3.0606214536
  0
LINE
  5
3C2
100
AcDbEntity
  8
0
100
AcDbLine
 62
7
  6
CONTINUOUS
 10
4.9367025338
 20
3.0606214536
 11
4.9366055199
 21
3.0591907497
  0
LINE
  5
3C3
100
AcDbEntity
  8
0
100
AcDbLine
 62
7
  6
CONTINUOUS
 10
4.9373448046
 20
3.1064237424
 11
4.9373361716
 21
3.102724063
  0
LINE
  5
3C4
100
AcDbEntity
  8
0
100
AcDbLine
 62
7
  6
CONTINUOUS
 10
4.9373361716
 20
3.102724063
 11
4.9373238101
 21
3.0990889489
  0
LINE
  5
3C5
100
AcDbEntity
  8
0
100
AcDbLine
 62
7
  6
CONTINUOUS
 10
4.9372869493
 20
3.092002998
 11
4.9372619112
 21
3.0885559184
  0
LINE
  5
3C6
100
AcDbEntity
  8
0
100
AcDbLine
 62
7
  6
CONTINUOUS
 10
4.9371776455
 20
3.1330182118
 11
4.9373217615
 21
3.1224233178
  0
LINE
  5
3C7
100
AcDbEntity
  8
0
100
AcDbLine
 62
7
  6
CONTINUOUS
 10
4.9373479538
 20
3.1149563872
 11
4.9373497716
 21
3.11290265
  0
LINE
  5
3C8
100
AcDbEntity
  8
0
100
AcDbLine
 62
7
  6
CONTINUOUS
 10
4.9373497716
 20
3.11290265
 11
4.9373481195
 21
3.1086347905
  0
LINE
  5
3C9
100
AcDbEntity
  8
0
100
AcDbLine
 62
7
  6
CONTINUOUS
 10
4.9373481195
 20
3.1086347905
 11
4.9373448046
 21
3.1064237424
  0
LINE
  5
3CA
100
AcDbEntity
  8
0
100
AcDbLine
 62
7
  6
CONTINUOUS
 10
4.9345222505
 20
2.952141089
 11
4.9347022392
 21
2.950577633
  0
SPLINE
  5
3CB
100
AcDbEntity
  8
0
100
AcDbSpline
 62
7
  6
CONTINUOUS
 70
0
 71
3
 72
9
 73
5
 74
0
 42
0.0000001
 43
0.0000001
 44
0.0000000001
 40
0.0
 40
0.0
 40
0.0
 40
0.0
 40
0.6510360885
 40
1.0
 40
1.0
 40
1.0
 40
1.0
 10
4.9347022392
 20
2.950577633
 30
0.0
 10
4.9347080965
 20
2.9505617581
 30
0.0
 10
4.9347165672
 20
2.9505382119
 30
0.0
 10
4.934738446
 20
2.9505171762
 30
0.0
 10
4.9347475159
 20
2.9505171712
 30
0.0
  0
LINE
  5
3CC
100
AcDbEntity
  8
0
100
AcDbLine
 62
7
  6
CONTINUOUS
 10
4.9341917542
 20
2.9701679218
 11
4.9343910751
 21
2.9549243049
  0
LINE
  5
3CD
100
AcDbEntity
  8
0
100
AcDbLine
 62
7
  6
CONTINUOUS
 10
4.934404622
 20
2.9946864136
 11
4.934288193
 21
2.9852800361
  0
LINE
  5
3CE
100
AcDbEntity
  8
0
100
AcDbLine
 62
7
  6
CONTINUOUS
 10
4.934288193
 20
2.9852800361
 11
4.9342673801
 21
2.9836684292
  0
LINE
  5
3CF
100
AcDbEntity
  8
0
100
AcDbLine
 62
7
  6
CONTINUOUS
 10
4.9344220573
 20
2.9964984788
 11
4.9344026672
 21
2.9946864247
  0
LINE
  5
3D0
100
AcDbEntity
  8
0
100
AcDbLine
 62
7
  6
CONTINUOUS
 10
4.9344092578
 20
3.0120624343
 11
4.9344589899
 21
3.0092288907
  0
LINE
  5
3D1
100
AcDbEntity
  8
0
100
AcDbLine
 62
7
  6
CONTINUOUS
 10
4.9352584159
 20
2.937909668
 11
4.9350383713
 21
2.9361309552
  0
LINE
  5
3D2
100
AcDbEntity
  8
0
100
AcDbLine
 62
7
  6
CONTINUOUS
 10
4.9350383713
 20
2.9361309552
 11
4.9349371805
 21
2.9359215258
  0
LINE
  5
3D3
100
AcDbEntity
  8
0
100
AcDbLine
 62
7
  6
CONTINUOUS
 10
4.9355452815
 20
2.9428364556
 11
4.9353566346
 21
2.9392447936
  0
LINE
  5
3D4
100
AcDbEntity
  8
0
100
AcDbLine
 62
7
  6
CONTINUOUS
 10
4.9353566346
 20
2.9392447936
 11
4.9352584159
 21
2.937909668
  0
LINE
  5
3D5
100
AcDbEntity
  8
0
100
AcDbLine
 62
7
  6
CONTINUOUS
 10
4.9372329022
 20
3.0162018866
 11
4.9372467579
 21
2.9973212734
  0
LINE
  5
3D6
100
AcDbEntity
  8
0
100
AcDbLine
 62
7
  6
CONTINUOUS
 10
4.9372467579
 20
2.9973212734
 11
4.9372698636
 21
2.9784494969
  0
LINE
  5
3D7
100
AcDbEntity
  8
0
100
AcDbLine
 62
7
  6
CONTINUOUS
 10
4.9372698636
 20
2.9784494969
 11
4.9372848715
 21
2.9690169226
  0
LINE
  5
3D8
100
AcDbEntity
  8
0
100
AcDbLine
 62
7
  6
CONTINUOUS
 10
4.9372848715
 20
2.9690169226
 11
4.9372940332
 21
2.9638683971
  0
LINE
  5
3D9
100
AcDbEntity
  8
0
100
AcDbLine
 62
7
  6
CONTINUOUS
 10
4.9372940332
 20
2.9638683971
 11
4.9373021737
 21
2.9595865575
  0
LINE
  5
3DA
100
AcDbEntity
  8
0
100
AcDbLine
 62
7
  6
CONTINUOUS
 10
4.936002865
 20
3.0277612913
 11
4.9370223134
 21
3.0181693468
  0
LINE
  5
3DB
100
AcDbEntity
  8
0
100
AcDbLine
 62
7
  6
CONTINUOUS
 10
4.9370223134
 20
3.0181693468
 11
4.9372329022
 21
3.0162018866
  0
LINE
  5
3DC
100
AcDbEntity
  8
0
100
AcDbLine
 62
7
  6
CONTINUOUS
 10
4.9364618905
 20
2.6620121836
 11
4.9364612727
 21
2.6589346573
  0
LINE
  5
3DD
100
AcDbEntity
  8
0
100
AcDbLine
 62
7
  6
CONTINUOUS
 10
4.9364612727
 20
2.6589346573
 11
4.9364612727
 21
2.6466245603
  0
LINE
  5
3DE
100
AcDbEntity
  8
0
100
AcDbLine
 62
7
  6
CONTINUOUS
 10
4.9364612727
 20
2.6466245603
 11
4.9364618905
 21
2.6435470382
  0
LINE
  5
3DF
100
AcDbEntity
  8
0
100
AcDbLine
 62
7
  6
CONTINUOUS
 10
4.9340055448
 20
2.6815429464
 11
4.9344127034
 21
2.6783055421
  0
LINE
  5
3E0
100
AcDbEntity
  8
0
100
AcDbLine
 62
7
  6
CONTINUOUS
 10
4.9344127034
 20
2.6783055421
 11
4.9360502675
 21
2.6652850336
  0
LINE
  5
3E1
100
AcDbEntity
  8
0
100
AcDbLine
 62
7
  6
CONTINUOUS
 10
4.9360502675
 20
2.6652850336
 11
4.9362917066
 21
2.6633653294
  0
LINE
  5
3E2
100
AcDbEntity
  8
0
100
AcDbLine
 62
7
  6
CONTINUOUS
 10
4.9362917066
 20
2.6633653294
 11
4.9364049251
 21
2.6624651199
  0
LINE
  5
3E3
100
AcDbEntity
  8
0
100
AcDbLine
 62
7
  6
CONTINUOUS
 10
4.9364049251
 20
2.6624651199
 11
4.9364618905
 21
2.6620121836
  0
LINE
  5
3E4
100
AcDbEntity
  8
0
100
AcDbLine
 62
7
  6
CONTINUOUS
 10
4.9340866646
 20
2.4340214883
 11
4.934516468
 21
2.4167345928
  0
LINE
  5
3E5
100
AcDbEntity
  8
0
100
AcDbLine
 62
7
  6
CONTINUOUS
 10
4.934516468
 20
2.4167345928
 11
4.9349566008
 21
2.3991185944
  0
LINE
  5
3E6
100
AcDbEntity
  8
0
100
AcDbLine
 62
7
  6
CONTINUOUS
 10
4.9349566008
 20
2.3991185944
 11
4.9354070198
 21
2.3811734926
  0
LINE
  5
3E7
100
AcDbEntity
  8
0
100
AcDbLine
 62
7
  6
CONTINUOUS
 10
4.9354070198
 20
2.3811734926
 11
4.9358676729
 21
2.3628992868
  0
LINE
  5
3E8
100
AcDbEntity
  8
0
100
AcDbLine
 62
7
  6
CONTINUOUS
 10
4.9358676729
 20
2.3628992868
 11
4.9363385235
 21
2.3442959767
  0
LINE
  5
3E9
100
AcDbEntity
  8
0
100
AcDbLine
 62
7
  6
CONTINUOUS
 10
4.9373382212
 20
2.365619187
 11
4.9373085654
 21
2.3542448679
  0
LINE
  5
3EA
100
AcDbEntity
  8
0
100
AcDbLine
 62
7
  6
CONTINUOUS
 10
4.9373085654
 20
2.3542448679
 11
4.9372835322
 21
2.3428667496
  0
LINE
  5
3EB
100
AcDbEntity
  8
0
100
AcDbLine
 62
7
  6
CONTINUOUS
 10
4.9372835322
 20
2.3428667496
 11
4.9372541168
 21
2.3253690063
  0
LINE
  5
3EC
100
AcDbEntity
  8
0
100
AcDbLine
 62
7
  6
CONTINUOUS
 10
4.9372541168
 20
2.3253690063
 11
4.9372474212
 21
2.3200991164
  0
LINE
  5
3ED
100
AcDbEntity
  8
0
100
AcDbLine
 62
7
  6
CONTINUOUS
 10
4.9372474212
 20
2.3200991164
 11
4.9372363787
 21
2.3087096018
  0
LINE
  5
3EE
100
AcDbEntity
  8
0
100
AcDbLine
 62
7
  6
CONTINUOUS
 10
4.9372363787
 20
2.3087096018
 11
4.9372300289
 21
2.2973162889
  0
LINE
  5
3EF
100
AcDbEntity
  8
0
100
AcDbLine
 62
7
  6
CONTINUOUS
 10
4.9366101582
 20
2.3967806861
 11
4.9367293946
 21
2.3916550624
  0
LINE
  5
3F0
100
AcDbEntity
  8
0
100
AcDbLine
 62
7
  6
CONTINUOUS
 10
4.9367293946
 20
2.3916550624
 11
4.9368494749
 21
2.386502255
  0
LINE
  5
3F1
100
AcDbEntity
  8
0
100
AcDbLine
 62
7
  6
CONTINUOUS
 10
4.9368494749
 20
2.386502255
 11
4.9369703983
 21
2.3813222637
  0
LINE
  5
3F2
100
AcDbEntity
  8
0
100
AcDbLine
 62
7
  6
CONTINUOUS
 10
4.9369703983
 20
2.3813222637
 11
4.9370921642
 21
2.3761150886
  0
LINE
  5
3F3
100
AcDbEntity
  8
0
100
AcDbLine
 62
7
  6
CONTINUOUS
 10
4.9370921642
 20
2.3761150886
 11
4.9372147721
 21
2.3708807297
  0
LINE
  5
3F4
100
AcDbEntity
  8
0
100
AcDbLine
 62
7
  6
CONTINUOUS
 10
4.9372147721
 20
2.3708807297
 11
4.9373382212
 21
2.365619187
  0
SPLINE
  5
3F5
100
AcDbEntity
  8
0
100
AcDbSpline
 62
7
  6
CONTINUOUS
 70
0
 71
3
 72
9
 73
5
 74
0
 42
0.0000001
 43
0.0000001
 44
0.0000000001
 40
0.0
 40
0.0
 40
0.0
 40
0.0
 40
0.6716640808
 40
1.0
 40
1.0
 40
1.0
 40
1.0
 10
4.9354814532
 20
2.2793097387
 30
0.0
 10
4.9354865107
 20
2.2792943098
 30
0.0
 10
4.9354930513
 20
2.2792728504
 30
0.0
 10
4.9355120929
 20
2.2792505311
 30
0.0
 10
4.9355200233
 20
2.2792508583
 30
0.0
  0
LINE
  5
3F6
100
AcDbEntity
  8
0
100
AcDbLine
 62
7
  6
CONTINUOUS
 10
4.934270467
 20
2.3208348277
 11
4.9343003414
 21
2.3183038899
  0
LINE
  5
3F7
100
AcDbEntity
  8
0
100
AcDbLine
 62
7
  6
CONTINUOUS
 10
4.9344168877
 20
2.3106297111
 11
4.9344640717
 21
2.3080261212
  0
LINE
  5
3F8
100
AcDbEntity
  8
0
100
AcDbLine
 62
7
  6
CONTINUOUS
 10
4.9342809693
 20
2.3383981913
 11
4.9342229367
 21
2.3350992746
  0
LINE
  5
3F9
100
AcDbEntity
  8
0
100
AcDbLine
 62
7
  6
CONTINUOUS
 10
4.9343642639
 20
2.3410415308
 11
4.9343367433
 21
2.340185122
  0
LINE
  5
3FA
100
AcDbEntity
  8
0
100
AcDbLine
 62
7
  6
CONTINUOUS
 10
4.9343367433
 20
2.340185122
 11
4.934276592
 21
2.3383981366
  0
LINE
  5
3FB
100
AcDbEntity
  8
0
100
AcDbLine
 62
7
  6
CONTINUOUS
 10
4.9344753281
 20
2.3491281945
 11
4.9344286794
 21
2.3435896915
  0
LINE
  5
3FC
100
AcDbEntity
  8
0
100
AcDbLine
 62
7
  6
CONTINUOUS
 10
4.9342608689
 20
2.3632697855
 11
4.9343860161
 21
2.3585296978
  0
LINE
  5
3FD
100
AcDbEntity
  8
0
100
AcDbLine
 62
7
  6
CONTINUOUS
 10
4.9360636692
 20
2.2567492885
 11
4.9359934725
 21
2.2563691419
  0
SPLINE
  5
3FE
100
AcDbEntity
  8
0
100
AcDbSpline
 62
7
  6
CONTINUOUS
 70
0
 71
3
 72
9
 73
5
 74
0
 42
0.0000001
 43
0.0000001
 44
0.0000000001
 40
0.0
 40
0.0
 40
0.0
 40
0.0
 40
0.6522647535
 40
1.0
 40
1.0
 40
1.0
 40
1.0
 10
4.9359934725
 20
2.2563691419
 30
0.0
 10
4.9359880317
 20
2.2563536631
 30
0.0
 10
4.9359802222
 20
2.2563309936
 30
0.0
 10
4.9359599088
 20
2.256309524
 30
0.0
 10
4.9359511634
 20
2.256309359
 30
0.0
  0
LINE
  5
3FF
100
AcDbEntity
  8
0
100
AcDbLine
 62
7
  6
CONTINUOUS
 10
4.9372438055
 20
2.2583994527
 11
4.9372534407
 21
2.2503913702
  0
LINE
  5
400
100
AcDbEntity
  8
0
100
AcDbLine
 62
7
  6
CONTINUOUS
 10
4.9372534407
 20
2.2503913702
 11
4.9372653867
 21
2.2423857833
  0
LINE
  5
401
100
AcDbEntity
  8
0
100
AcDbLine
 62
7
  6
CONTINUOUS
 10
4.9372653867
 20
2.2423857833
 11
4.9372961856
 21
2.2263820963
  0
LINE
  5
402
100
AcDbEntity
  8
0
100
AcDbLine
 62
7
  6
CONTINUOUS
 10
4.9372961856
 20
2.2263820963
 11
4.9373150234
 21
2.218383996
  0
LINE
  5
403
100
AcDbEntity
  8
0
100
AcDbLine
 62
7
  6
CONTINUOUS
 10
4.9373150234
 20
2.218383996
 11
4.9373361419
 21
2.2103883909
  0
LINE
  5
404
100
AcDbEntity
  8
0
100
AcDbLine
 62
7
  6
CONTINUOUS
 10
4.9360030887
 20
2.3127275322
 11
4.9362044293
 21
2.3038610714
  0
LINE
  5
405
100
AcDbEntity
  8
0
100
AcDbLine
 62
7
  6
CONTINUOUS
 10
4.9362044293
 20
2.3038610714
 11
4.9364079528
 21
2.294919323
  0
LINE
  5
406
100
AcDbEntity
  8
0
100
AcDbLine
 62
7
  6
CONTINUOUS
 10
4.9364079528
 20
2.294919323
 11
4.9366282788
 21
2.2852620464
  0
LINE
  5
407
100
AcDbEntity
  8
0
100
AcDbLine
 62
7
  6
CONTINUOUS
 10
4.9366282788
 20
2.2852620464
 11
4.9370315855
 21
2.2676423518
  0
LINE
  5
408
100
AcDbEntity
  8
0
100
AcDbLine
 62
7
  6
CONTINUOUS
 10
4.9370315855
 20
2.2676423518
 11
4.9372438055
 21
2.2583994527
  0
LINE
  5
409
100
AcDbEntity
  8
0
100
AcDbLine
 62
7
  6
CONTINUOUS
 10
4.9375391606
 20
1.8940038518
 11
4.9376816685
 21
1.8874545122
  0
LINE
  5
40A
100
AcDbEntity
  8
0
100
AcDbLine
 62
7
  6
CONTINUOUS
 10
4.9373773438
 20
1.9000490805
 11
4.9375391606
 21
1.8940038518
  0
LINE
  5
40B
100
AcDbEntity
  8
0
100
AcDbLine
 62
7
  6
CONTINUOUS
 10
4.9365411544
 20
1.9381089021
 11
4.9368902965
 21
1.9220896183
  0
LINE
  5
40C
100
AcDbEntity
  8
0
100
AcDbLine
 62
7
  6
CONTINUOUS
 10
4.9352541998
 20
2.0055976457
 11
4.9354672014
 21
1.9957193424
  0
LINE
  5
40D
100
AcDbEntity
  8
0
100
AcDbLine
 62
7
  6
CONTINUOUS
 10
4.9354672014
 20
1.9957193424
 11
4.9356812491
 21
1.9857955684
  0
LINE
  5
40E
100
AcDbEntity
  8
0
100
AcDbLine
 62
7
  6
CONTINUOUS
 10
4.9356812491
 20
1.9857955684
 11
4.9358963417
 21
1.9758263237
  0
LINE
  5
40F
100
AcDbEntity
  8
0
100
AcDbLine
 62
7
  6
CONTINUOUS
 10
4.9358963417
 20
1.9758263237
 11
4.9363296555
 21
1.9557514218
  0
LINE
  5
410
100
AcDbEntity
  8
0
100
AcDbLine
 62
7
  6
CONTINUOUS
 10
4.9363296555
 20
1.9557514218
 11
4.9365478742
 21
1.9456457646
  0
LINE
  5
411
100
AcDbEntity
  8
0
100
AcDbLine
 62
7
  6
CONTINUOUS
 10
4.9341006734
 20
2.0616463177
 11
4.9342413346
 21
2.0551442879
  0
LINE
  5
412
100
AcDbEntity
  8
0
100
AcDbLine
 62
7
  6
CONTINUOUS
 10
4.9342413346
 20
2.0551442879
 11
4.9346659254
 21
2.0355246181
  0
LINE
  5
413
100
AcDbEntity
  8
0
100
AcDbLine
 62
7
  6
CONTINUOUS
 10
4.9346659254
 20
2.0355246181
 11
4.9348083233
 21
2.0289468681
  0
LINE
  5
414
100
AcDbEntity
  8
0
100
AcDbLine
 62
7
  6
CONTINUOUS
 10
4.9348083233
 20
2.0289468681
 11
4.9349511545
 21
2.022350188
  0
LINE
  5
415
100
AcDbEntity
  8
0
100
AcDbLine
 62
7
  6
CONTINUOUS
 10
4.9367630043
 20
3.1216998209
 11
4.9366960061
 21
3.1206596569
  0
LINE
  5
416
100
AcDbEntity
  8
0
100
AcDbLine
 62
7
  6
CONTINUOUS
 10
4.9362971084
 20
3.1064193151
 11
4.9362700065
 21
3.10502277
  0
LINE
  5
417
100
AcDbEntity
  8
0
100
AcDbLine
 62
7
  6
CONTINUOUS
 10
4.9362700065
 20
3.10502277
 11
4.9362327559
 21
3.10302324
  0
LINE
  5
418
100
AcDbEntity
  8
0
100
AcDbLine
 62
7
  6
CONTINUOUS
 10
4.9362327559
 20
3.10302324
 11
4.9361877102
 21
3.1004834628
  0
LINE
  5
419
100
AcDbEntity
  8
0
100
AcDbLine
 62
7
  6
CONTINUOUS
 10
4.9361877102
 20
3.1004834628
 11
4.9361703128
 21
3.0994677814
  0
LINE
  5
41A
100
AcDbEntity
  8
0
100
AcDbLine
 62
7
  6
CONTINUOUS
 10
4.9361703128
 20
3.0994677814
 11
4.936050852
 21
3.0919814827
  0
LINE
  5
41B
100
AcDbEntity
  8
0
100
AcDbLine
 62
7
  6
CONTINUOUS
 10
4.936050852
 20
3.0919814827
 11
4.9359929026
 21
3.0880293013
  0
LINE
  5
41C
100
AcDbEntity
  8
0
100
AcDbLine
 62
7
  6
CONTINUOUS
 10
4.9363190047
 20
3.0760133576
 11
4.9364220249
 21
3.0752471088
  0
SPLINE
  5
41D
100
AcDbEntity
  8
0
100
AcDbSpline
 62
7
  6
CONTINUOUS
 70
0
 71
3
 72
9
 73
5
 74
0
 42
0.0000001
 43
0.0000001
 44
0.0000000001
 40
0.0
 40
0.0
 40
0.0
 40
0.0
 40
0.6537462377
 40
1.0
 40
1.0
 40
1.0
 40
1.0
 10
4.9364220249
 20
3.0752471088
 30
0.0
 10
4.936426702
 20
3.0752337339
 30
0.0
 10
4.9364334551
 20
3.0752142114
 30
0.0
 10
4.9364506935
 20
3.0751955935
 30
0.0
 10
4.9364581929
 20
3.0751953149
 30
0.0
  0
LINE
  5
41E
100
AcDbEntity
  8
0
100
AcDbLine
 62
7
  6
CONTINUOUS
 10
4.9359929026
 20
3.0880293013
 11
4.9362177085
 21
3.0781523983
  0
LINE
  5
41F
100
AcDbEntity
  8
0
100
AcDbLine
 62
7
  6
CONTINUOUS
 10
4.9343319852
 20
3.0501354232
 11
4.9344839218
 21
3.0481719708
  0
SPLINE
  5
420
100
AcDbEntity
  8
0
100
AcDbSpline
 62
7
  6
CONTINUOUS
 70
0
 71
3
 72
9
 73
5
 74
0
 42
0.0000001
 43
0.0000001
 44
0.0000000001
 40
0.0
 40
0.0
 40
0.0
 40
0.0
 40
0.3461907752
 40
1.0
 40
1.0
 40
1.0
 40
1.0
 10
4.9344839218
 20
3.0481719708
 30
0.0
 10
4.9344853593
 20
3.0481691417
 30
0.0
 10
4.9344896327
 20
3.0481614382
 30
0.0
 10
4.9344971997
 20
3.0481532021
 30
0.0
 10
4.9345031917
 20
3.0481530846
 30
0.0
  0
LINE
  5
421
100
AcDbEntity
  8
0
100
AcDbLine
 62
7
  6
CONTINUOUS
 10
4.9341960397
 20
3.0657464472
 11
4.9341933894
 21
3.0637752831
  0
LINE
  5
422
100
AcDbEntity
  8
0
100
AcDbLine
 62
7
  6
CONTINUOUS
 10
4.9342171503
 20
3.0711642024
 11
4.9342041851
 21
3.0684714357
  0
LINE
  5
423
100
AcDbEntity
  8
0
100
AcDbLine
 62
7
  6
CONTINUOUS
 10
4.9342041851
 20
3.0684714357
 11
4.9342007546
 21
3.0675125353
  0
LINE
  5
424
100
AcDbEntity
  8
0
100
AcDbLine
 62
7
  6
CONTINUOUS
 10
4.9342007546
 20
3.0675125353
 11
4.9341960397
 21
3.0657464472
  0
LINE
  5
425
100
AcDbEntity
  8
0
100
AcDbLine
 62
7
  6
CONTINUOUS
 10
4.9349295506
 20
3.1031130066
 11
4.9347567482
 21
3.1001589027
  0
LINE
  5
426
100
AcDbEntity
  8
0
100
AcDbLine
 62
7
  6
CONTINUOUS
 10
4.9345156992
 20
3.0924667944
 11
4.9344976911
 21
3.0916882295
  0
LINE
  5
427
100
AcDbEntity
  8
0
100
AcDbLine
 62
7
  6
CONTINUOUS
 10
4.9348705689
 20
2.0147773195
 11
4.9351616746
 21
2.0014150927
  0
LINE
  5
428
100
AcDbEntity
  8
0
100
AcDbLine
 62
7
  6
CONTINUOUS
 10
4.9349943463
 20
2.9520594431
 11
4.9352404543
 21
2.9564713898
  0
LINE
  5
429
100
AcDbEntity
  8
0
100
AcDbLine
 62
7
  6
CONTINUOUS
 10
4.9347475159
 20
2.9505171712
 11
4.9349943463
 21
2.9520594431
  0
LINE
  5
42A
100
AcDbEntity
  8
0
100
AcDbLine
 62
7
  6
CONTINUOUS
 10
4.9342630556
 20
3.0127969818
 11
4.9343215697
 21
3.0131601077
  0
LINE
  5
42B
100
AcDbEntity
  8
0
100
AcDbLine
 62
7
  6
CONTINUOUS
 10
4.9340350605
 20
3.0026924175
 11
4.9342276005
 21
3.012258026
  0
LINE
  5
42C
100
AcDbEntity
  8
0
100
AcDbLine
 62
7
  6
CONTINUOUS
 10
4.9339604796
 20
2.9886778192
 11
4.9339646692
 21
2.9904093408
  0
LINE
  5
42D
100
AcDbEntity
  8
0
100
AcDbLine
 62
7
  6
CONTINUOUS
 10
4.9340194324
 20
3.0009322882
 11
4.9340351093
 21
3.0026924174
  0
LINE
  5
42E
100
AcDbEntity
  8
0
100
AcDbLine
 62
7
  6
CONTINUOUS
 10
4.9339629284
 20
2.9766324472
 11
4.9339562243
 21
2.9817192401
  0
LINE
  5
42F
100
AcDbEntity
  8
0
100
AcDbLine
 62
7
  6
CONTINUOUS
 10
4.9345031917
 20
3.0481530846
 11
4.9346187416
 21
3.0487123606
  0
LINE
  5
430
100
AcDbEntity
  8
0
100
AcDbLine
 62
7
  6
CONTINUOUS
 10
4.9346187416
 20
3.0487123606
 11
4.9346664064
 21
3.0492129025
  0
SPLINE
  5
431
100
AcDbEntity
  8
0
100
AcDbSpline
 62
7
  6
CONTINUOUS
 70
0
 71
3
 72
17
 73
13
 74
0
 42
0.0000001
 43
0.0000001
 44
0.0000000001
 40
0.0
 40
0.0
 40
0.0
 40
0.0
 40
0.0069590106
 40
0.0203920322
 40
0.041374483
 40
0.070096459
 40
0.1508221169
 40
0.2623955718
 40
0.4044243293
 40
0.5760384769
 40
0.7752764515
 40
1.0
 40
1.0
 40
1.0
 40
1.0
 10
4.9349371805
 20
2.9359215258
 30
0.0
 10
4.9349231999
 20
2.935921808
 30
0.0
 10
4.934891214
 20
2.9359580307
 30
0.0
 10
4.93486478
 20
2.9360333847
 30
0.0
 10
4.9348314494
 20
2.9361576955
 30
0.0
 10
4.9347847323
 20
2.9364147584
 30
0.0
 10
4.9347293138
 20
2.9368563065
 30
0.0
 10
4.9346685667
 20
2.9375250638
 30
0.0
 10
4.9346086338
 20
2.9383775617
 30
0.0
 10
4.9345503813
 20
2.939406467
 30
0.0
 10
4.9344937947
 20
2.9406019039
 30
0.0
 10
4.9344593312
 20
2.9414531146
 30
0.0
 10
4.9344421828
 20
2.9419043474
 30
0.0
  0
LINE
  5
432
100
AcDbEntity
  8
0
100
AcDbLine
 62
7
  6
CONTINUOUS
 10
4.9364306237
 20
3.0136357085
 11
4.9367477745
 21
3.0103227101
  0
LINE
  5
433
100
AcDbEntity
  8
0
100
AcDbLine
 62
7
  6
CONTINUOUS
 10
4.9367477745
 20
3.0103227101
 11
4.9368118573
 21
3.0096548413
  0
LINE
  5
434
100
AcDbEntity
  8
0
100
AcDbLine
 62
7
  6
CONTINUOUS
 10
4.9368118573
 20
3.0096548413
 11
4.9368167558
 21
3.0020201372
  0
LINE
  5
435
100
AcDbEntity
  8
0
100
AcDbLine
 62
7
  6
CONTINUOUS
 10
4.9368167558
 20
3.0020201372
 11
4.9368518098
 21
2.9714953141
  0
LINE
  5
436
100
AcDbEntity
  8
0
100
AcDbLine
 62
7
  6
CONTINUOUS
 10
4.9368518098
 20
2.9714953141
 11
4.9368644235
 21
2.9638676068
  0
LINE
  5
437
100
AcDbEntity
  8
0
100
AcDbLine
 62
7
  6
CONTINUOUS
 10
4.9368644235
 20
2.9638676068
 11
4.9373021737
 21
2.9595865575
  0
LINE
  5
438
100
AcDbEntity
  8
0
100
AcDbLine
 62
7
  6
CONTINUOUS
 10
4.9364581929
 20
3.0751953149
 11
4.9365885513
 21
3.0757787303
  0
LINE
  5
439
100
AcDbEntity
  8
0
100
AcDbLine
 62
7
  6
CONTINUOUS
 10
4.9365885513
 20
3.0757787303
 11
4.9366471101
 21
3.0763792356
  0
LINE
  5
43A
100
AcDbEntity
  8
0
100
AcDbLine
 62
7
  6
CONTINUOUS
 10
4.9364618905
 20
2.6435470382
 11
4.9341757251
 21
2.6617246594
  0
LINE
  5
43B
100
AcDbEntity
  8
0
100
AcDbLine
 62
7
  6
CONTINUOUS
 10
4.9341757251
 20
2.6617246594
 11
4.9340055448
 21
2.6630778011
  0
LINE
  5
43C
100
AcDbEntity
  8
0
100
AcDbLine
 62
7
  6
CONTINUOUS
 10
4.9340055448
 20
2.6815429464
 11
4.9340055448
 21
2.6630778011
  0
LINE
  5
43D
100
AcDbEntity
  8
0
100
AcDbLine
 62
7
  6
CONTINUOUS
 10
4.9366101582
 20
2.3967806861
 11
4.9365622661
 21
2.3944368426
  0
LINE
  5
43E
100
AcDbEntity
  8
0
100
AcDbLine
 62
7
  6
CONTINUOUS
 10
4.9368777918
 20
2.3608705965
 11
4.9368532247
 21
2.3490395118
  0
LINE
  5
43F
100
AcDbEntity
  8
0
100
AcDbLine
 62
7
  6
CONTINUOUS
 10
4.9368532247
 20
2.3490395118
 11
4.9368195289
 21
2.3253635615
  0
LINE
  5
440
100
AcDbEntity
  8
0
100
AcDbLine
 62
7
  6
CONTINUOUS
 10
4.9340866646
 20
2.4340214883
 11
4.9340568901
 21
2.4216026553
  0
LINE
  5
441
100
AcDbEntity
  8
0
100
AcDbLine
 62
7
  6
CONTINUOUS
 10
4.9340568901
 20
2.4216026553
 11
4.9345536095
 21
2.4019247279
  0
LINE
  5
442
100
AcDbEntity
  8
0
100
AcDbLine
 62
7
  6
CONTINUOUS
 10
4.9345536095
 20
2.4019247279
 11
4.9350632709
 21
2.3818322147
  0
LINE
  5
443
100
AcDbEntity
  8
0
100
AcDbLine
 62
7
  6
CONTINUOUS
 10
4.9350632709
 20
2.3818322147
 11
4.9355858106
 21
2.361325115
  0
LINE
  5
444
100
AcDbEntity
  8
0
100
AcDbLine
 62
7
  6
CONTINUOUS
 10
4.9355858106
 20
2.361325115
 11
4.9361211529
 21
2.3404034279
  0
LINE
  5
445
100
AcDbEntity
  8
0
100
AcDbLine
 62
7
  6
CONTINUOUS
 10
4.9366692455
 20
2.3190671528
 11
4.9372300289
 21
2.2973162889
  0
LINE
  5
446
100
AcDbEntity
  8
0
100
AcDbLine
 62
7
  6
CONTINUOUS
 10
4.9359915581
 20
2.3096635833
 11
4.9360030887
 21
2.3127275322
  0
SPLINE
  5
447
100
AcDbEntity
  8
0
100
AcDbSpline
 62
7
  6
CONTINUOUS
 70
0
 71
3
 72
23
 73
19
 74
0
 42
0.0000001
 43
0.0000001
 44
0.0000000001
 40
0.0
 40
0.0
 40
0.0
 40
0.0
 40
0.0018626202
 40
0.0059932292
 40
0.0127322459
 40
0.0221222594
 40
0.0340897643
 40
0.0485420687
 40
0.0845108423
 40
0.1292355464
 40
0.1819111225
 40
0.2417366316
 40
0.3080153105
 40
0.3801238753
 40
0.4574399858
 40
0.625204171
 40
0.8069295046
 40
1.0
 40
1.0
 40
1.0
 40
1.0
 10
4.9364334739
 20
3.0581383171
 30
0.0
 10
4.936422909
 20
3.0581373811
 30
0.0
 10
4.9363982191
 20
3.0581727359
 30
0.0
 10
4.9363817913
 20
3.0582375691
 30
0.0
 10
4.9363572371
 20
3.0583534694
 30
0.0
 10
4.9363362645
 20
3.0585108452
 30
0.0
 10
4.9363137913
 20
3.0587140083
 30
0.0
 10
4.9362826535
 20
3.0590676973
 30
0.0
 10
4.9362462443
 20
3.0596084414
 30
0.0
 10
4.9362064603
 20
3.0603667917
 30
0.0
 10
4.9361683333
 20
3.0612612979
 30
0.0
 10
4.9361320715
 20
3.0622786716
 30
0.0
 10
4.9360977456
 20
3.0634068333
 30
0.0
 10
4.9360653008
 20
3.0646346805
 30
0.0
 10
4.936023316
 20
3.0664403552
 30
0.0
 10
4.9359761751
 20
3.068870254
 30
0.0
 10
4.9359266669
 20
3.0719593461
 30
0.0
 10
4.9358980781
 20
3.074093347
 30
0.0
 10
4.9358844333
 20
3.0751926586
 30
0.0
  0
LINE
  5
448
100
AcDbEntity
  8
0
100
AcDbLine
 62
7
  6
CONTINUOUS
 10
4.9358745969
 20
3.0760007095
 11
4.9358500882
 21
3.0781569704
  0
LINE
  5
449
100
AcDbEntity
  8
0
100
AcDbLine
 62
7
  6
CONTINUOUS
 10
4.934582471
 20
3.0327495862
 11
4.9343007294
 21
3.0359085463
  0
LINE
  5
44A
100
AcDbEntity
  8
0
100
AcDbLine
 62
7
  6
CONTINUOUS
 10
4.9340361697
 20
2.3629116248
 11
4.934136561
 21
2.365105078
  0
LINE
  5
44B
100
AcDbEntity
  8
0
100
AcDbLine
 62
7
  6
CONTINUOUS
 10
4.9339671827
 20
2.3480882773
 11
4.9339659946
 21
2.3495543011
  0
LINE
  5
44C
100
AcDbEntity
  8
0
100
AcDbLine
 62
7
  6
CONTINUOUS
 10
4.9339756815
 20
2.3563315564
 11
4.9340210302
 21
2.3619881983
  0
LINE
  5
44D
100
AcDbEntity
  8
0
100
AcDbLine
 62
7
  6
CONTINUOUS
 10
4.9342274197
 20
2.3141353596
 11
4.9341616145
 21
2.3193186656
  0
LINE
  5
44E
100
AcDbEntity
  8
0
100
AcDbLine
 62
7
  6
CONTINUOUS
 10
4.9341616145
 20
2.3193186656
 11
4.9341051938
 21
2.3244403911
  0
LINE
  5
44F
100
AcDbEntity
  8
0
100
AcDbLine
 62
7
  6
CONTINUOUS
 10
4.9341051938
 20
2.3244403911
 11
4.9340582866
 21
2.3294816214
  0
LINE
  5
450
100
AcDbEntity
  8
0
100
AcDbLine
 62
7
  6
CONTINUOUS
 10
4.9339943745
 20
2.3390606244
 11
4.9339764094
 21
2.3436291702
  0
LINE
  5
451
100
AcDbEntity
  8
0
100
AcDbLine
 62
7
  6
CONTINUOUS
 10
4.9339764094
 20
2.3436291702
 11
4.9339671827
 21
2.3480882773
  0
LINE
  5
452
100
AcDbEntity
  8
0
100
AcDbLine
 62
7
  6
CONTINUOUS
 10
4.9346586572
 20
2.2891073613
 11
4.9345643761
 21
2.2937186621
  0
LINE
  5
453
100
AcDbEntity
  8
0
100
AcDbLine
 62
7
  6
CONTINUOUS
 10
4.9345643761
 20
2.2937186621
 11
4.9344742966
 21
2.2985087106
  0
LINE
  5
454
100
AcDbEntity
  8
0
100
AcDbLine
 62
7
  6
CONTINUOUS
 10
4.9344742966
 20
2.2985087106
 11
4.9343881699
 21
2.3034783531
  0
LINE
  5
455
100
AcDbEntity
  8
0
100
AcDbLine
 62
7
  6
CONTINUOUS
 10
4.9364390398
 20
2.2852577198
 11
4.9368236474
 21
2.2681687242
  0
LINE
  5
456
100
AcDbEntity
  8
0
100
AcDbLine
 62
7
  6
CONTINUOUS
 10
4.9368236474
 20
2.2681687242
 11
4.9368413767
 21
2.2552193741
  0
LINE
  5
457
100
AcDbEntity
  8
0
100
AcDbLine
 62
7
  6
CONTINUOUS
 10
4.9368413767
 20
2.2552193741
 11
4.9368525542
 21
2.2487471241
  0
LINE
  5
458
100
AcDbEntity
  8
0
100
AcDbLine
 62
7
  6
CONTINUOUS
 10
4.9368525542
 20
2.2487471241
 11
4.9368652688
 21
2.2422764907
  0
LINE
  5
459
100
AcDbEntity
  8
0
100
AcDbLine
 62
7
  6
CONTINUOUS
 10
4.9368652688
 20
2.2422764907
 11
4.9368952916
 21
2.2293400736
  0
LINE
  5
45A
100
AcDbEntity
  8
0
100
AcDbLine
 62
7
  6
CONTINUOUS
 10
4.9368952916
 20
2.2293400736
 11
4.9373361419
 21
2.2103883909
  0
LINE
  5
45B
100
AcDbEntity
  8
0
100
AcDbLine
 62
7
  6
CONTINUOUS
 10
4.9355200233
 20
2.2792508583
 11
4.9356633708
 21
2.2802488003
  0
LINE
  5
45C
100
AcDbEntity
  8
0
100
AcDbLine
 62
7
  6
CONTINUOUS
 10
4.9361450674
 20
1.962603802
 11
4.9359226358
 21
1.9699517837
  0
LINE
  5
45D
100
AcDbEntity
  8
0
100
AcDbLine
 62
7
  6
CONTINUOUS
 10
4.9365274639
 20
1.9456453188
 11
4.9361450674
 21
1.962603802
  0
SPLINE
  5
45E
100
AcDbEntity
  8
0
100
AcDbSpline
 62
7
  6
CONTINUOUS
 70
0
 71
3
 72
18
 73
14
 74
0
 42
0.0000001
 43
0.0000001
 44
0.0000000001
 40
0.0
 40
0.0
 40
0.0
 40
0.0
 40
0.0054148512
 40
0.0174643086
 40
0.0370991622
 40
0.0646507225
 40
0.1002367161
 40
0.143815536
 40
0.2547068164
 40
0.3968022197
 40
0.5695120031
 40
0.7713685202
 40
1.0
 40
1.0
 40
1.0
 40
1.0
 10
4.9359511634
 20
2.256309359
 30
0.0
 10
4.9359374581
 20
2.2563091005
 30
0.0
 10
4.9359081545
 20
2.256355873
 30
0.0
 10
4.9358851679
 20
2.2564392009
 30
0.0
 10
4.9358527554
 20
2.2565898738
 30
0.0
 10
4.9358226145
 20
2.2567955191
 30
0.0
 10
4.9357898261
 20
2.2570643738
 30
0.0
 10
4.9357417224
 20
2.2575427925
 30
0.0
 10
4.9356819147
 20
2.2582914325
 30
0.0
 10
4.9356116888
 20
2.2593667187
 30
0.0
 10
4.9355392629
 20
2.2606726933
 30
0.0
 10
4.9354650293
 20
2.2621978812
 30
0.0
 10
4.9354173665
 20
2.2632866277
 30
0.0
 10
4.9353930761
 20
2.2638648994
 30
0.0
  0
LINE
  5
45F
100
AcDbEntity
  8
0
100
AcDbLine
 62
7
  6
CONTINUOUS
 10
4.9356766692
 20
1.981287198
 11
4.9356178691
 21
1.9868322912
  0
LINE
  5
460
100
AcDbEntity
  8
0
100
AcDbLine
 62
7
  6
CONTINUOUS
 10
4.9344529364
 20
2.0429472225
 11
4.9342082098
 21
2.0503078854
  0
SPLINE
  5
461
100
AcDbEntity
  8
0
100
AcDbSpline
 62
7
  6
CONTINUOUS
 70
0
 71
3
 72
11
 73
7
 74
0
 42
0.0000001
 43
0.0000001
 44
0.0000000001
 40
0.0
 40
0.0
 40
0.0
 40
0.0
 40
0.4399052762
 40
0.7511467734
 40
0.9365270697
 40
1.0
 40
1.0
 40
1.0
 40
1.0
 10
4.9373726039
 20
3.7026027921
 30
0.0
 10
4.937373383
 20
3.7026167185
 30
0.0
 10
4.9373751846
 20
3.7026396774
 30
0.0
 10
4.9373762206
 20
3.7026717499
 30
0.0
 10
4.9373800135
 20
3.7026852286
 30
0.0
 10
4.9373793272
 20
3.7026973893
 30
0.0
 10
4.9373813393
 20
3.7026973453
 30
0.0
  0
LINE
  5
462
100
AcDbEntity
  8
0
100
AcDbLine
 62
7
  6
CONTINUOUS
 10
4.9340055448
 20
3.3832571411
 11
4.9356395372
 21
3.4405716835
  0
LINE
  5
463
100
AcDbEntity
  8
0
100
AcDbLine
 62
7
  6
CONTINUOUS
 10
4.9356395372
 20
3.4405716835
 11
4.9364618905
 21
3.4694165961
  0
LINE
  5
464
100
AcDbEntity
  8
0
100
AcDbLine
 62
7
  6
CONTINUOUS
 10
4.933803438
 20
2.0616398258
 11
4.933946475
 21
2.0550904991
  0
LINE
  5
465
100
AcDbEntity
  8
0
100
AcDbLine
 62
7
  6
CONTINUOUS
 10
4.9346730635
 20
2.0223441185
 11
4.9349496831
 21
2.0096700771
  0
LINE
  5
466
100
AcDbEntity
  8
0
100
AcDbLine
 62
7
  6
CONTINUOUS
 10
4.9364763489
 20
1.9397265911
 11
4.9368613514
 21
1.9220889861
  0
LINE
  5
467
100
AcDbEntity
  8
0
100
AcDbLine
 62
7
  6
CONTINUOUS
 10
4.9374646638
 20
1.8940022247
 11
4.9374884981
 21
1.8929109211
  0
LINE
  5
468
100
AcDbEntity
  8
0
100
AcDbLine
 62
7
  6
CONTINUOUS
 10
4.9374884981
 20
1.8929109211
 11
4.9375838575
 21
1.8885447024
  0
LINE
  5
469
100
AcDbEntity
  8
0
100
AcDbLine
 62
7
  6
CONTINUOUS
 10
4.9375838575
 20
1.8885447024
 11
4.9376077029
 21
1.8874528967
  0
LINE
  5
46A
100
AcDbEntity
  8
0
100
AcDbLine
 62
7
  6
CONTINUOUS
 10
4.9340055448
 20
3.3832571411
 11
4.9340055448
 21
3.3712048734
  0
LINE
  5
46B
100
AcDbEntity
  8
0
100
AcDbLine
 62
7
  6
CONTINUOUS
 10
4.934949892
 20
3.1196382824
 11
4.9351139821
 21
3.1209241008
  0
SPLINE
  5
46C
100
AcDbEntity
  8
0
100
AcDbSpline
 62
7
  6
CONTINUOUS
 70
0
 71
3
 72
9
 73
5
 74
0
 42
0.0000001
 43
0.0000001
 44
0.0000000001
 40
0.0
 40
0.0
 40
0.0
 40
0.0
 40
0.6713109121
 40
1.0
 40
1.0
 40
1.0
 40
1.0
 10
4.9351139821
 20
3.1209241008
 30
0.0
 10
4.935119989
 20
3.1209431201
 30
0.0
 10
4.9351279156
 20
3.1209691926
 30
0.0
 10
4.9351499064
 20
3.1209979707
 30
0.0
 10
4.9351596715
 20
3.1209978635
 30
0.0
  0
LINE
  5
46D
100
AcDbEntity
  8
0
100
AcDbLine
 62
7
  6
CONTINUOUS
 10
4.9346524313
 20
3.1136125511
 11
4.9347971292
 21
3.1171938687
  0
LINE
  5
46E
100
AcDbEntity
  8
0
100
AcDbLine
 62
7
  6
CONTINUOUS
 10
4.9340325295
 20
3.0675178642
 11
4.9340433861
 21
3.0712171306
  0
LINE
  5
46F
100
AcDbEntity
  8
0
100
AcDbLine
 62
7
  6
CONTINUOUS
 10
4.9341095999
 20
3.0823586703
 11
4.93414412
 21
3.0861182269
  0
LINE
  5
470
100
AcDbEntity
  8
0
100
AcDbLine
 62
7
  6
CONTINUOUS
 10
4.93414412
 20
3.0861182269
 11
4.9341844069
 21
3.0898042298
  0
LINE
  5
471
100
AcDbEntity
  8
0
100
AcDbLine
 62
7
  6
CONTINUOUS
 10
4.9341844069
 20
3.0898042298
 11
4.934230132
 21
3.0933913844
  0
LINE
  5
472
100
AcDbEntity
  8
0
100
AcDbLine
 62
7
  6
CONTINUOUS
 10
4.934230132
 20
3.0933913844
 11
4.934281497
 21
3.0969118741
  0
LINE
  5
473
100
AcDbEntity
  8
0
100
AcDbLine
 62
7
  6
CONTINUOUS
 10
4.934281497
 20
3.0969118741
 11
4.9343385329
 21
3.1003675079
  0
LINE
  5
474
100
AcDbEntity
  8
0
100
AcDbLine
 62
7
  6
CONTINUOUS
 10
4.9340390406
 20
3.0534543661
 11
4.9340307299
 21
3.0561346893
  0
LINE
  5
475
100
AcDbEntity
  8
0
100
AcDbLine
 62
7
  6
CONTINUOUS
 10
4.9340307299
 20
3.0561346893
 11
4.9340262115
 21
3.0588897377
  0
LINE
  5
476
100
AcDbEntity
  8
0
100
AcDbLine
 62
7
  6
CONTINUOUS
 10
4.9340262115
 20
3.0588897377
 11
4.9340251758
 21
3.0616985942
  0
LINE
  5
477
100
AcDbEntity
  8
0
100
AcDbLine
 62
7
  6
CONTINUOUS
 10
4.9340251758
 20
3.0616985942
 11
4.93402735
 21
3.064574368
  0
LINE
  5
478
100
AcDbEntity
  8
0
100
AcDbLine
 62
7
  6
CONTINUOUS
 10
4.93402735
 20
3.064574368
 11
4.9340290758
 21
3.0657459661
  0
LINE
  5
479
100
AcDbEntity
  8
0
100
AcDbLine
 62
7
  6
CONTINUOUS
 10
4.9340290758
 20
3.0657459661
 11
4.9340325295
 21
3.0675178642
  0
LINE
  5
47A
100
AcDbEntity
  8
0
100
AcDbLine
 62
7
  6
CONTINUOUS
 10
4.9370719701
 20
3.1190707783
 11
4.9368772068
 21
3.122424447
  0
LINE
  5
47B
100
AcDbEntity
  8
0
100
AcDbLine
 62
7
  6
CONTINUOUS
 10
4.9366471101
 20
3.0763792356
 11
4.9368999843
 21
3.0820508451
  0
LINE
  5
47C
100
AcDbEntity
  8
0
100
AcDbLine
 62
7
  6
CONTINUOUS
 10
4.9354343909
 20
3.0817596125
 11
4.9355089739
 21
3.0865671857
  0
LINE
  5
47D
100
AcDbEntity
  8
0
100
AcDbLine
 62
7
  6
CONTINUOUS
 10
4.9355089739
 20
3.0865671857
 11
4.9355312799
 21
3.0880346781
  0
LINE
  5
47E
100
AcDbEntity
  8
0
100
AcDbLine
 62
7
  6
CONTINUOUS
 10
4.9355312799
 20
3.0880346781
 11
4.9355832557
 21
3.0915054011
  0
LINE
  5
47F
100
AcDbEntity
  8
0
100
AcDbLine
 62
7
  6
CONTINUOUS
 10
4.9346664064
 20
3.0492129025
 11
4.9348365632
 21
3.0523627006
  0
LINE
  5
480
100
AcDbEntity
  8
0
100
AcDbLine
 62
7
  6
CONTINUOUS
 10
4.9366518983
 20
3.1367333478
 11
4.9367874695
 21
3.1378784467
  0
LINE
  5
481
100
AcDbEntity
  8
0
100
AcDbLine
 62
7
  6
CONTINUOUS
 10
4.9367874695
 20
3.1378784467
 11
4.9368569554
 21
3.1380436934
  0
LINE
  5
482
100
AcDbEntity
  8
0
100
AcDbLine
 62
7
  6
CONTINUOUS
 10
4.9355221011
 20
3.0950204864
 11
4.9351506996
 21
3.1041215346
  0
LINE
  5
483
100
AcDbEntity
  8
0
100
AcDbLine
 62
7
  6
CONTINUOUS
 10
4.9357301251
 20
3.1004772409
 11
4.9357871252
 21
3.1039334845
  0
LINE
  5
484
100
AcDbEntity
  8
0
100
AcDbLine
 62
7
  6
CONTINUOUS
 10
4.9357871252
 20
3.1039334845
 11
4.9359734161
 21
3.1145660582
  0
LINE
  5
485
100
AcDbEntity
  8
0
100
AcDbLine
 62
7
  6
CONTINUOUS
 10
4.9359734161
 20
3.1145660582
 11
4.9359985856
 21
3.1159109621
  0
LINE
  5
486
100
AcDbEntity
  8
0
100
AcDbLine
 62
7
  6
CONTINUOUS
 10
4.9346370869
 20
3.5735994736
 11
4.9346941467
 21
3.5761006837
  0
LINE
  5
487
100
AcDbEntity
  8
0
100
AcDbLine
 62
7
  6
CONTINUOUS
 10
4.9356407117
 20
2.9728675284
 11
4.9358843586
 21
2.9992227236
  0
LINE
  5
488
100
AcDbEntity
  8
0
100
AcDbLine
 62
7
  6
CONTINUOUS
 10
4.9359753371
 20
3.0194703317
 11
4.936002865
 21
3.0277612913
  0
ENDSEC
  0
SECTION
  2
OBJECTS
  0
DICTIONARY
  5
C
100
AcDbDictionary
280
0
281
1
  3
ACAD_GROUP
350
D
  3
ACAD_MLINESTYLE
350
17
  3
ACAD_LAYOUT
350
1A
  3
ACAD_PLOTSETTINGS
350
19
  3
ACAD_PLOTSTYLENAME
350
E
  0
DICTIONARY
  5
D
102
{ACAD_REACTORS
330
C
102
}
100
AcDbDictionary
280
0
281
1
  0
ACDBDICTIONARYWDFLT
  5
E
102
{ACAD_REACTORS
330
C
102
}
100
AcDbDictionary
281
1
  3
Normal
350
F
100
AcDbDictionaryWithDefault
340
F
  0
DICTIONARY
  5
17
102
{ACAD_REACTORS
330
C
102
}
100
AcDbDictionary
280
0
281
1
  3
Standard
350
18
  0
DICTIONARY
  5
19
102
{ACAD_REACTORS
330
C
102
}
100
AcDbDictionary
281
1
  0
DICTIONARY
  5
1A
102
{ACAD_REACTORS
330
C
102
}
100
AcDbDictionary
281
1
  3
Model
350
489
  3
Layout1
350
48A
  0
ACDBPLACEHOLDER
  5
F
102
{ACAD_REACTORS
330
E
102
}
  0
MLINESTYLE
  5
18
102
{ACAD_REACTORS
330
17
102
}
100
AcDbMlineStyle
  2
STANDARD
 70
0
  3

 62
256
 51
90.0
 52
90.0
 71
2
 49
0.5
 62
256
  6
BYLAYER
 49
-0.5
 62
256
  6
BYLAYER
  0
LAYOUT
  5
489
102
{ACAD_REACTORS
330
1A
102
}
100
AcDbPlotSettings
  1

  2
none_device
  4
ANSI_A_(11.00_x_8.50_Inches)
  6

 40
0.0
 41
0.0
 42
0.0
 43
0.0
 44
279.4
 45
215.9
 46
0.0
 47
0.0
 48
0.0
 49
0.0
140
0.0
141
0.0
142
1.0
143
1.0
 70
1024
 72
0
 73
0
 74
0
  7

 75
0
147
1.0
148
0.0
149
0.0
100
AcDbLayout
  1
Model
 70
0
 71
0
 10
0.0
 20
0.0
 11
11.0
 21
8.5
 12
0.0
 22
0.0
 32
0.0
 14
0.0
 24
0.0
 34
0.0
 15
0.0
 25
0.0
 35
0.0
146
0.0
 13
0.0
 23
0.0
 33
0.0
 16
1.0
 26
0.0
 36
0.0
 17
0.0
 27
1.0
 37
0.0
 76
0
330
21C
345
0
346
0
  0
LAYOUT
  5
48A
102
{ACAD_REACTORS
330
1A
102
}
100
AcDbPlotSettings
  1

  2
none_device
  4
ANSI_A_(11.00_x_8.50_Inches)
  6

 40
0.0
 41
0.0
 42
0.0
 43
0.0
 44
279.4
 45
215.9
 46
0.0
 47
0.0
 48
0.0
 49
0.0
140
0.0
141
0.0
142
1.0
143
1.0
 70
0
 72
0
 73
0
 74
0
  7

 75
0
147
1.0
148
0.0
149
0.0
100
AcDbLayout
  1
Layout1
 70
0
 71
1
 10
0.0
 20
0.0
 11
11.0
 21
8.5
 12
0.0
 22
0.0
 32
0.0
 14
0.0
 24
0.0
 34
0.0
 15
0.0
 25
0.0
 35
0.0
146
0.0
 13
0.0
 23
0.0
 33
0.0
 16
1.0
 26
0.0
 36
0.0
 17
0.0
 27
1.0
 37
0.0
 76
0
330
21D
345
0
346
0
  0
ENDSEC
  0
EOF
