999
DXF file: 3-803ts_TOP.dxf
999
Pro/ENGINEER 2013150 by Parametric Technology Corporation
  0
SECTION
  2
HEADER
  9
$ACADVER
  1
AC1021
  9
$DWGCODEPAGE
  3
ANSI_1252
  9
$EXTMAX
 10
11.0
 20
8.5
 30
0.0
  9
$EXTMIN
 10
0.0
 20
0.0
 30
0.0
  9
$LIMMIN
 10
0.0
 20
0.0
  9
$LIMMAX
 10
11.0
 20
8.5
  9
$VIEWCTR
 10
5.5
 20
4.25
  9
$VIEWSIZE
 40
8.5
  9
$CLAYER
  8
0
  9
$LTSCALE
 40
0.605
  9
$CELTYPE
  6
BYLAYER
  9
$DIMSCALE
 40
1.0
  9
$DIMASZ
 40
0.1
  9
$DIMEXO
 40
0.0625
  9
$DIMDLI
 40
0.418
  9
$DIMEXE
 40
0.125
  9
$DIMCEN
 40
0.099
  9
$DIMLFAC
 40
1.0
  9
$DIMBLK
  1
_FILLED
  9
$DIMTXT
 40
0.08
  9
$DIMTOL
 70
1
  9
$DIMLIM
 70
0
  9
$DIMTFAC
 40
1.0
  9
$DIMTP
 40
0.001
  9
$DIMTM
 40
0.001
  9
$DIMGAP
 40
0.09
  9
$DIMDSEP
 70
46
  9
$PDMODE
 70
3
  9
$PDSIZE
 40
0.06
  9
$HANDSEED
  5
366
  9
$TILEMODE
 70
1
  9
$MEASUREMENT
 70
0
  9
$INSUNITS
 70
1
  0
ENDSEC
  0
SECTION
  2
CLASSES
  0
CLASS
  1
ACDBDICTIONARYWDFLT
  2
AcDbDictionaryWithDefault
  3
AutoCAD 2000
 90
0
 91
1
280
0
281
0
  0
CLASS
  1
ACDBPLACEHOLDER
  2
AcDbPlaceHolder
  3
AutoCAD 2000
 90
0
 91
1
280
0
281
0
  0
CLASS
  1
LAYOUT
  2
AcDbLayout
  3
AutoCAD 2000
 90
0
 91
0
280
0
281
0
  0
ENDSEC
  0
SECTION
  2
TABLES
  0
TABLE
  2
VPORT
  5
8
100
AcDbSymbolTable
 70
2
  0
VPORT
  5
1F4
100
AcDbSymbolTableRecord
100
AcDbViewportTableRecord
  2
*ACTIVE
 70
0
 10
0.0
 20
0.0
 11
1.0
 21
1.0
 12
5.5
 22
4.25
 13
0.0
 23
0.0
 14
1.0
 24
1.0
 15
0.0
 25
0.0
 16
0.0
 26
0.0
 36
1.0
 17
0.0
 27
0.0
 37
0.0
 40
8.5
 41
1.2941176471
 42
50.0
 43
0.0
 44
0.0
 50
0.0
 51
0.0
 71
0
 72
100
 73
1
 74
1
 75
0
 76
0
 77
0
 78
0
  0
ENDTAB
  0
TABLE
  2
LTYPE
  5
5
100
AcDbSymbolTable
 70
6
  0
LTYPE
  5
14
100
AcDbSymbolTableRecord
100
AcDbLinetypeTableRecord
  2
BYBLOCK
 70
0
  3

 72
65
 73
0
 40
0.0
  0
LTYPE
  5
15
100
AcDbSymbolTableRecord
100
AcDbLinetypeTableRecord
  2
BYLAYER
 70
0
  3

 72
65
 73
0
 40
0.0
  0
LTYPE
  5
16
100
AcDbSymbolTableRecord
100
AcDbLinetypeTableRecord
  2
CONTINUOUS
 70
64
  3
Solid line
 72
65
 73
0
 40
0.0
  0
LTYPE
  5
1F5
100
AcDbSymbolTableRecord
100
AcDbLinetypeTableRecord
  2
CENTER
 70
64
  3
____ _ ____ _ ____ _ ____ _ ____ _ ____ _ ____
 72
65
 73
4
 40
0.6
 49
0.375
 74
0
 49
-0.075
 74
0
 49
0.075
 74
0
 49
-0.075
 74
0
  0
LTYPE
  5
1F6
100
AcDbSymbolTableRecord
100
AcDbLinetypeTableRecord
  2
HIDDEN
 70
64
  3
- - - - - - - - - - - - - - - - - - - -
 72
65
 73
2
 40
0.2
 49
0.1
 74
0
 49
-0.1
 74
0
  0
LTYPE
  5
1F7
100
AcDbSymbolTableRecord
100
AcDbLinetypeTableRecord
  2
PHANTOM
 70
64
  3
_____ _ _ _____ _ _ _____ _ _ _____
 72
65
 73
6
 40
0.8
 49
0.45
 74
0
 49
-0.05
 74
0
 49
0.1
 74
0
 49
-0.05
 74
0
 49
0.1
 74
0
 49
-0.05
 74
0
  0
LTYPE
  5
1F8
100
AcDbSymbolTableRecord
100
AcDbLinetypeTableRecord
  2
DOT
 70
64
  3
. . . . . . . . . . . . . . . . . . . .
 72
65
 73
2
 40
0.2
 49
0.1
 74
0
 49
-0.1
 74
0
  0
LTYPE
  5
1F9
100
AcDbSymbolTableRecord
100
AcDbLinetypeTableRecord
  2
DASHED
 70
64
  3
- - - - - - - - - - - - - - - - - - - -
 72
65
 73
2
 40
0.2
 49
0.1
 74
0
 49
-0.1
 74
0
  0
ENDTAB
  0
TABLE
  2
LAYER
  5
2
100
AcDbSymbolTable
 70
36
  0
LAYER
  5
10
100
AcDbSymbolTableRecord
100
AcDbLayerTableRecord
  2
0
 70
0
 62
7
  6
CONTINUOUS
370
-3
390
F
  0
LAYER
  5
1FA
100
AcDbSymbolTableRecord
100
AcDbLayerTableRecord
  2
DEFAULT_1
 70
0
 62
7
  6
CENTER
370
-3
390
F
  0
LAYER
  5
1FB
100
AcDbSymbolTableRecord
100
AcDbLayerTableRecord
  2
DEFAULT_2
 70
0
 62
8
  6
HIDDEN
370
-3
390
F
  0
LAYER
  5
1FC
100
AcDbSymbolTableRecord
100
AcDbLayerTableRecord
  2
DEFAULT_3
 70
0
 62
7
  6
PHANTOM
370
-3
390
F
  0
LAYER
  5
1FD
100
AcDbSymbolTableRecord
100
AcDbLayerTableRecord
  2
ALL_ASSEMBLY_MEMBERS
 70
0
 62
7
  6
CONTINUOUS
370
-3
390
F
  0
LAYER
  5
1FE
100
AcDbSymbolTableRecord
100
AcDbLayerTableRecord
  2
ALL_FEATURES
 70
0
 62
7
  6
CONTINUOUS
370
-3
390
F
  0
LAYER
  5
1FF
100
AcDbSymbolTableRecord
100
AcDbLayerTableRecord
  2
AXES_FEATURES
 70
0
 62
7
  6
CONTINUOUS
370
-3
390
F
  0
LAYER
  5
200
100
AcDbSymbolTableRecord
100
AcDbLayerTableRecord
  2
CHAMFER_FEATURES
 70
0
 62
7
  6
CONTINUOUS
370
-3
390
F
  0
LAYER
  5
201
100
AcDbSymbolTableRecord
100
AcDbLayerTableRecord
  2
COSMETIC_SKETCHES
 70
0
 62
7
  6
CONTINUOUS
370
-3
390
F
  0
LAYER
  5
202
100
AcDbSymbolTableRecord
100
AcDbLayerTableRecord
  2
CUT_FEATURES
 70
0
 62
7
  6
CONTINUOUS
370
-3
390
F
  0
LAYER
  5
203
100
AcDbSymbolTableRecord
100
AcDbLayerTableRecord
  2
DATUM_CURVES
 70
0
 62
7
  6
CONTINUOUS
370
-3
390
F
  0
LAYER
  5
204
100
AcDbSymbolTableRecord
100
AcDbLayerTableRecord
  2
DATUM_PLANES
 70
0
 62
7
  6
CONTINUOUS
370
-3
390
F
  0
LAYER
  5
205
100
AcDbSymbolTableRecord
100
AcDbLayerTableRecord
  2
DATUM_POINTS
 70
0
 62
7
  6
CONTINUOUS
370
-3
390
F
  0
LAYER
  5
206
100
AcDbSymbolTableRecord
100
AcDbLayerTableRecord
  2
DEFAULT_COORDINATE_SYSTEM
 70
0
 62
7
  6
CONTINUOUS
370
-3
390
F
  0
LAYER
  5
207
100
AcDbSymbolTableRecord
100
AcDbLayerTableRecord
  2
DEFAULT_DATUM_AXES
 70
0
 62
7
  6
CONTINUOUS
370
-3
390
F
  0
LAYER
  5
208
100
AcDbSymbolTableRecord
100
AcDbLayerTableRecord
  2
DEFAULT_DATUM_CURVES
 70
0
 62
7
  6
CONTINUOUS
370
-3
390
F
  0
LAYER
  5
209
100
AcDbSymbolTableRecord
100
AcDbLayerTableRecord
  2
DEFAULT_DATUM_PLANES
 70
0
 62
7
  6
CONTINUOUS
370
-3
390
F
  0
LAYER
  5
20A
100
AcDbSymbolTableRecord
100
AcDbLayerTableRecord
  2
DEFAULT_SURFACES
 70
0
 62
7
  6
CONTINUOUS
370
-3
390
F
  0
LAYER
  5
20B
100
AcDbSymbolTableRecord
100
AcDbLayerTableRecord
  2
DIMENSIONS
 70
0
 62
7
  6
CONTINUOUS
370
-3
390
F
  0
LAYER
  5
20C
100
AcDbSymbolTableRecord
100
AcDbLayerTableRecord
  2
HOLE_FEATURES
 70
0
 62
7
  6
CONTINUOUS
370
-3
390
F
  0
LAYER
  5
20D
100
AcDbSymbolTableRecord
100
AcDbLayerTableRecord
  2
HOLE_PATTERN
 70
0
 62
7
  6
CONTINUOUS
370
-3
390
F
  0
LAYER
  5
20E
100
AcDbSymbolTableRecord
100
AcDbLayerTableRecord
  2
INTFCLR_1
 70
0
 62
7
  6
CONTINUOUS
370
-3
390
F
  0
LAYER
  5
20F
100
AcDbSymbolTableRecord
100
AcDbLayerTableRecord
  2
NOTES
 70
0
 62
7
  6
CONTINUOUS
370
-3
390
F
  0
LAYER
  5
210
100
AcDbSymbolTableRecord
100
AcDbLayerTableRecord
  2
PART_REFERENCE_DIMENSIONS
 70
0
 62
7
  6
CONTINUOUS
370
-3
390
F
  0
LAYER
  5
211
100
AcDbSymbolTableRecord
100
AcDbLayerTableRecord
  2
PLATED_SURFACE_AREA
 70
0
 62
7
  6
CONTINUOUS
370
-3
390
F
  0
LAYER
  5
212
100
AcDbSymbolTableRecord
100
AcDbLayerTableRecord
  2
POINTS
 70
0
 62
7
  6
CONTINUOUS
370
-3
390
F
  0
LAYER
  5
213
100
AcDbSymbolTableRecord
100
AcDbLayerTableRecord
  2
PROTRUSION
 70
0
 62
7
  6
CONTINUOUS
370
-3
390
F
  0
LAYER
  5
214
100
AcDbSymbolTableRecord
100
AcDbLayerTableRecord
  2
PROTRUSION_FEATURES
 70
0
 62
7
  6
CONTINUOUS
370
-3
390
F
  0
LAYER
  5
215
100
AcDbSymbolTableRecord
100
AcDbLayerTableRecord
  2
REFERENCE_DIMENSIONS
 70
0
 62
7
  6
CONTINUOUS
370
-3
390
F
  0
LAYER
  5
216
100
AcDbSymbolTableRecord
100
AcDbLayerTableRecord
  2
ROUND_FEATURES
 70
0
 62
7
  6
CONTINUOUS
370
-3
390
F
  0
LAYER
  5
217
100
AcDbSymbolTableRecord
100
AcDbLayerTableRecord
  2
SATIN_DIRECTION
 70
0
 62
7
  6
CONTINUOUS
370
-3
390
F
  0
LAYER
  5
218
100
AcDbSymbolTableRecord
100
AcDbLayerTableRecord
  2
SHELL_FEATURES
 70
0
 62
7
  6
CONTINUOUS
370
-3
390
F
  0
LAYER
  5
219
100
AcDbSymbolTableRecord
100
AcDbLayerTableRecord
  2
SIZE_REF
 70
0
 62
7
  6
CONTINUOUS
370
-3
390
F
  0
ENDTAB
  0
TABLE
  2
STYLE
  5
3
100
AcDbSymbolTable
 70
1
  0
STYLE
  5
11
100
AcDbSymbolTableRecord
100
AcDbTextStyleTableRecord
  2
STANDARD
 70
0
 40
0.0
 41
0.8
 50
0.0
 71
0
 42
0.2
  3
txt
  4

  0
STYLE
  5
21A
100
AcDbSymbolTableRecord
100
AcDbTextStyleTableRecord
  2
TEXTSTYLE_1
 70
0
 40
0.0
 41
0.8
 50
0.0
 71
0
 42
0.2
  3
gdt
  4

  0
ENDTAB
  0
TABLE
  2
VIEW
  5
6
100
AcDbSymbolTable
 70
0
  0
ENDTAB
  0
TABLE
  2
UCS
  5
7
100
AcDbSymbolTable
 70
0
  0
ENDTAB
  0
TABLE
  2
APPID
  5
9
100
AcDbSymbolTable
 70
1
  0
APPID
  5
21B
100
AcDbSymbolTableRecord
100
AcDbRegAppTableRecord
  2
ACAD
 70
0
  0
ENDTAB
  0
TABLE
  2
BLOCK_RECORD
  5
1
100
AcDbSymbolTable
 70
0
  0
BLOCK_RECORD
  5
21C
100
AcDbSymbolTableRecord
100
AcDbBlockTableRecord
  2
*Model_Space
  0
BLOCK_RECORD
  5
21D
100
AcDbSymbolTableRecord
100
AcDbBlockTableRecord
  2
*Paper_Space
  0
ENDTAB
  0
TABLE
  2
DIMSTYLE
  5
A
100
AcDbSymbolTable
 70
1
100
AcDbDimStyleTable
 71
0
  0
DIMSTYLE
105
21E
100
AcDbSymbolTableRecord
100
AcDbDimStyleTableRecord
  2
STANDARD
 70
0
  3

  4

 40
1.0
 41
0.1
 42
0.0625
 43
0.38
 44
0.125
 45
0.0
 46
0.0
 47
0.001
 48
0.001
140
0.08
141
0.09
142
0.0
143
25.4
144
1.0
145
0.0
146
1.0
147
0.09
 71
1.0
 72
0.0
 73
1
 74
1
 75
0
 76
0
 77
0
 78
4
170
0
171
2
172
0
173
0
174
0
175
0
176
0
177
0
178
0
270
2
271
3
272
3
273
2
274
2
275
0
280
0
281
0
282
0
283
1
284
4
285
0
286
0
287
3
288
0
340
11
278
46
  0
ENDTAB
  0
ENDSEC
  0
SECTION
  2
BLOCKS
  0
BLOCK
  5
20
100
AcDbEntity
  8
0
100
AcDbBlockBegin
  2
*Model_Space
 70
0
 10
0.0
 20
0.0
 30
0.0
  3
*Model_Space
  1

  0
ENDBLK
  5
21
100
AcDbEntity
  8
0
100
AcDbBlockEnd
  0
BLOCK
  5
1C
100
AcDbEntity
  8
0
100
AcDbBlockBegin
  2
*Paper_Space
 70
0
 10
0.0
 20
0.0
 30
0.0
  3
*Paper_Space
  1

  0
ENDBLK
  5
1D
100
AcDbEntity
  8
0
100
AcDbBlockEnd
  0
ENDSEC
  0
SECTION
  2
ENTITIES
  0
LINE
  5
21F
100
AcDbEntity
  8
0
100
AcDbLine
 62
7
  6
CONTINUOUS
 10
0.0
 20
0.0
 11
0.0
 21
8.5
  0
LINE
  5
220
100
AcDbEntity
  8
0
100
AcDbLine
 62
7
  6
CONTINUOUS
 10
0.0
 20
0.0
 11
11.0
 21
0.0
  0
LINE
  5
221
100
AcDbEntity
  8
0
100
AcDbLine
 62
7
  6
CONTINUOUS
 10
0.0
 20
8.5
 11
11.0
 21
8.5
  0
LINE
  5
222
100
AcDbEntity
  8
0
100
AcDbLine
 62
7
  6
CONTINUOUS
 10
11.0
 20
0.0
 11
11.0
 21
8.5
  0
LINE
  5
223
100
AcDbEntity
  8
0
100
AcDbLine
 62
7
  6
CONTINUOUS
 10
1.9808273883
 20
4.9584287724
 11
1.9808273883
 21
5.1459287724
  0
LINE
  5
224
100
AcDbEntity
  8
ALL_FEATURES
100
AcDbLine
 62
7
  6
CONTINUOUS
 10
1.9808273883
 20
4.9584287724
 11
1.9808273883
 21
5.1459287724
  0
LINE
  5
225
100
AcDbEntity
  8
ALL_FEATURES
100
AcDbLine
 62
7
  6
CONTINUOUS
 10
2.0745773883
 20
4.9584287724
 11
2.0745773883
 21
4.9111787724
  0
LINE
  5
226
100
AcDbEntity
  8
ALL_FEATURES
100
AcDbLine
 62
9
  6
CONTINUOUS
 10
2.2958273883
 20
4.9584287724
 11
2.2958273883
 21
4.9111787724
  0
LINE
  5
227
100
AcDbEntity
  8
0
100
AcDbLine
 62
9
  6
CONTINUOUS
 10
2.2958273883
 20
4.9584287724
 11
2.2958273883
 21
5.1459287724
  0
LINE
  5
228
100
AcDbEntity
  8
ALL_FEATURES
100
AcDbLine
 62
9
  6
CONTINUOUS
 10
2.3258273883
 20
4.9584287724
 11
2.3258273883
 21
4.9111787724
  0
LINE
  5
229
100
AcDbEntity
  8
0
100
AcDbLine
 62
9
  6
CONTINUOUS
 10
2.3258273883
 20
4.9584287724
 11
2.3258273883
 21
5.1459287724
  0
LINE
  5
22A
100
AcDbEntity
  8
0
100
AcDbLine
 62
7
  6
CONTINUOUS
 10
2.3558273883
 20
4.9584287724
 11
2.3558273883
 21
5.1459287724
  0
LINE
  5
22B
100
AcDbEntity
  8
ALL_FEATURES
100
AcDbLine
 62
7
  6
CONTINUOUS
 10
2.3558273883
 20
4.9584287724
 11
2.3558273883
 21
5.1459287724
  0
LINE
  5
22C
100
AcDbEntity
  8
ALL_FEATURES
100
AcDbLine
 62
7
  6
CONTINUOUS
 10
2.4495773883
 20
4.9584287724
 11
2.4495773883
 21
4.9111787724
  0
LINE
  5
22D
100
AcDbEntity
  8
ALL_ASSEMBLY_MEMBERS
100
AcDbLine
 62
7
  6
CONTINUOUS
 10
3.9038273883
 20
2.2557771976
 11
4.1828273883
 21
2.2557771976
  0
LINE
  5
22E
100
AcDbEntity
  8
ALL_ASSEMBLY_MEMBERS
100
AcDbLine
 62
7
  6
CONTINUOUS
 10
3.8370773883
 20
2.3007771976
 11
4.2495773883
 21
2.3007771976
  0
LINE
  5
22F
100
AcDbEntity
  8
ALL_ASSEMBLY_MEMBERS
100
AcDbLine
 62
7
  6
CONTINUOUS
 10
3.8299523883
 20
2.3195271976
 11
4.2567023883
 21
2.3195271976
  0
LINE
  5
230
100
AcDbEntity
  8
ALL_ASSEMBLY_MEMBERS
100
AcDbLine
 62
7
  6
CONTINUOUS
 10
3.5895773883
 20
2.3547771976
 11
4.4970773883
 21
2.3547771976
  0
LINE
  5
231
100
AcDbEntity
  8
ALL_ASSEMBLY_MEMBERS
100
AcDbLine
 62
7
  6
CONTINUOUS
 10
3.3903189495
 20
2.3907918171
 11
4.6963358271
 21
2.3907918171
  0
LINE
  5
232
100
AcDbEntity
  8
ALL_ASSEMBLY_MEMBERS
100
AcDbLine
 62
7
  6
CONTINUOUS
 10
3.9038273883
 20
2.4631138118
 11
4.1828273883
 21
2.4631138118
  0
LINE
  5
233
100
AcDbEntity
  8
ALL_ASSEMBLY_MEMBERS
100
AcDbLine
 62
7
  6
CONTINUOUS
 10
3.3601999701
 20
2.4732771976
 11
3.9021889285
 21
2.4732771976
  0
LINE
  5
234
100
AcDbEntity
  8
ALL_ASSEMBLY_MEMBERS
100
AcDbLine
 62
7
  6
CONTINUOUS
 10
4.1844658482
 20
2.4732771976
 11
4.7264548066
 21
2.4732771976
  0
LINE
  5
235
100
AcDbEntity
  8
ALL_ASSEMBLY_MEMBERS
100
AcDbLine
 62
7
  6
CONTINUOUS
 10
3.8370773883
 20
2.5081138118
 11
4.2495773883
 21
2.5081138118
  0
LINE
  5
236
100
AcDbEntity
  8
ALL_ASSEMBLY_MEMBERS
100
AcDbLine
 62
7
  6
CONTINUOUS
 10
3.8299523883
 20
2.5268638118
 11
4.2567023883
 21
2.5268638118
  0
LINE
  5
237
100
AcDbEntity
  8
ALL_FEATURES
100
AcDbLine
 62
9
  6
CONTINUOUS
 10
2.6708273883
 20
4.9584287724
 11
2.6708273883
 21
4.9111787724
  0
LINE
  5
238
100
AcDbEntity
  8
0
100
AcDbLine
 62
9
  6
CONTINUOUS
 10
2.6708273883
 20
4.9584287724
 11
2.6708273883
 21
5.1459287724
  0
LINE
  5
239
100
AcDbEntity
  8
ALL_ASSEMBLY_MEMBERS
100
AcDbLine
 62
7
  6
CONTINUOUS
 10
3.5895773883
 20
2.5621138118
 11
4.4970773883
 21
2.5621138118
  0
LINE
  5
23A
100
AcDbEntity
  8
ALL_ASSEMBLY_MEMBERS
100
AcDbLine
 62
7
  6
CONTINUOUS
 10
3.3903189495
 20
2.5981284312
 11
4.6963358271
 21
2.5981284312
  0
LINE
  5
23B
100
AcDbEntity
  8
ALL_ASSEMBLY_MEMBERS
100
AcDbLine
 62
7
  6
CONTINUOUS
 10
3.2989523883
 20
2.5985271976
 11
3.3844765582
 21
2.5985271976
  0
LINE
  5
23C
100
AcDbEntity
  8
ALL_ASSEMBLY_MEMBERS
100
AcDbLine
 62
7
  6
CONTINUOUS
 10
4.7021782185
 20
2.5985271976
 11
4.7877023883
 21
2.5985271976
  0
LINE
  5
23D
100
AcDbEntity
  8
ALL_ASSEMBLY_MEMBERS
100
AcDbLine
 62
7
  6
CONTINUOUS
 10
3.2989523883
 20
2.6735271976
 11
3.3534437182
 21
2.6735271976
  0
LINE
  5
23E
100
AcDbEntity
  8
ALL_ASSEMBLY_MEMBERS
100
AcDbLine
 62
7
  6
CONTINUOUS
 10
4.7332110584
 20
2.6735271976
 11
4.7877023883
 21
2.6735271976
  0
LINE
  5
23F
100
AcDbEntity
  8
ALL_ASSEMBLY_MEMBERS
100
AcDbLine
 62
7
  6
CONTINUOUS
 10
3.3601999701
 20
2.6806138118
 11
4.7264548066
 21
2.6806138118
  0
LINE
  5
240
100
AcDbEntity
  8
ALL_ASSEMBLY_MEMBERS
100
AcDbLine
 62
7
  6
CONTINUOUS
 10
3.2989523883
 20
2.8058638118
 11
4.7877023883
 21
2.8058638118
  0
LINE
  5
241
100
AcDbEntity
  8
ALL_ASSEMBLY_MEMBERS
100
AcDbLine
 62
7
  6
CONTINUOUS
 10
3.2989523883
 20
2.8808638118
 11
4.7877023883
 21
2.8808638118
  0
LINE
  5
242
100
AcDbEntity
  8
0
100
AcDbLine
 62
7
  6
CONTINUOUS
 10
3.0304523883
 20
4.8511787724
 11
3.0304523883
 21
4.9111787724
  0
LINE
  5
243
100
AcDbEntity
  8
0
100
AcDbLine
 62
7
  6
CONTINUOUS
 10
3.0904523883
 20
4.8226787724
 11
3.0904523883
 21
4.8511787724
  0
LINE
  5
244
100
AcDbEntity
  8
ALL_ASSEMBLY_MEMBERS
100
AcDbLine
 62
7
  6
CONTINUOUS
 10
3.3607339648
 20
3.0068638118
 11
4.7259208119
 21
3.0068638118
  0
LINE
  5
245
100
AcDbEntity
  8
ALL_ASSEMBLY_MEMBERS
100
AcDbLine
 62
7
  6
CONTINUOUS
 10
3.3911044532
 20
3.0895645243
 11
4.6955503235
 21
3.0895645243
  0
LINE
  5
246
100
AcDbEntity
  8
ALL_ASSEMBLY_MEMBERS
100
AcDbLine
 62
7
  6
CONTINUOUS
 10
3.5895773883
 20
3.1246138118
 11
4.4970773883
 21
3.1246138118
  0
LINE
  5
247
100
AcDbEntity
  8
ALL_ASSEMBLY_MEMBERS
100
AcDbLine
 62
7
  6
CONTINUOUS
 10
4.2988643167
 20
3.2082771976
 11
4.3020773883
 21
3.2082771976
  0
LINE
  5
248
100
AcDbEntity
  8
ALL_FEATURES
100
AcDbLine
 62
7
  6
CONTINUOUS
 10
3.4230773883
 20
3.6679478534
 11
3.4230773883
 21
4.0396787724
  0
LINE
  5
249
100
AcDbEntity
  8
0
100
AcDbLine
 62
7
  6
CONTINUOUS
 10
3.4232498883
 20
4.9111787724
 11
3.4232498883
 21
4.0396787724
  0
LINE
  5
24A
100
AcDbEntity
  8
ALL_FEATURES
100
AcDbLine
 62
7
  6
CONTINUOUS
 10
3.7845773883
 20
3.2457771976
 11
3.7808319765
 21
3.2457771976
  0
LINE
  5
24B
100
AcDbEntity
  8
ALL_FEATURES
100
AcDbLine
 62
7
  6
CONTINUOUS
 10
4.294367736
 20
3.2457771976
 11
4.3058228002
 21
3.2457771976
  0
LINE
  5
24C
100
AcDbEntity
  8
0
100
AcDbLine
 62
9
  6
CONTINUOUS
 10
4.3371699608
 20
3.2553211172
 11
4.2939116149
 21
3.2553211172
  0
LINE
  5
24D
100
AcDbEntity
  8
0
100
AcDbLine
 62
9
  6
CONTINUOUS
 10
3.7845773883
 20
3.2553211234
 11
3.7494848158
 21
3.2553211172
  0
LINE
  5
24E
100
AcDbEntity
  8
0
100
AcDbLine
 62
9
  6
CONTINUOUS
 10
4.3504965139
 20
3.2711337868
 11
4.2937929928
 21
3.2711337869
  0
LINE
  5
24F
100
AcDbEntity
  8
0
100
AcDbLine
 62
9
  6
CONTINUOUS
 10
3.7845773883
 20
3.271133787
 11
3.7361582627
 21
3.2711337868
  0
LINE
  5
250
100
AcDbEntity
  8
ALL_ASSEMBLY_MEMBERS
100
AcDbLine
 62
7
  6
CONTINUOUS
 10
3.7845773883
 20
3.4156138118
 11
4.3020773883
 21
3.4156138118
  0
LINE
  5
251
100
AcDbEntity
  8
0
100
AcDbLine
 62
7
  6
CONTINUOUS
 10
3.4593264059
 20
3.6029214862
 11
3.451312773
 21
3.6093127892
  0
LINE
  5
252
100
AcDbEntity
  8
0
100
AcDbLine
 62
7
  6
CONTINUOUS
 10
3.4752687454
 20
3.5771692567
 11
3.477507518
 21
3.5667216509
  0
LINE
  5
253
100
AcDbEntity
  8
0
100
AcDbLine
 62
7
  6
CONTINUOUS
 10
3.5577023883
 20
3.9271787724
 11
3.5577023883
 21
3.7642074269
  0
LINE
  5
254
100
AcDbEntity
  8
ALL_FEATURES
100
AcDbLine
 62
7
  6
CONTINUOUS
 10
3.5577023883
 20
3.7642074269
 11
3.5577023883
 21
3.9271787724
  0
LINE
  5
255
100
AcDbEntity
  8
0
100
AcDbLine
 62
7
  6
CONTINUOUS
 10
4.2856855415
 20
3.4531138118
 11
3.8009692351
 21
3.4531138118
  0
LINE
  5
256
100
AcDbEntity
  8
0
100
AcDbLine
 62
9
  6
CONTINUOUS
 10
4.3132532257
 20
3.4712806891
 11
3.773401551
 21
3.4712806891
  0
LINE
  5
257
100
AcDbEntity
  8
0
100
AcDbLine
 62
9
  6
CONTINUOUS
 10
3.5059375618
 20
3.527470069
 11
3.7453196342
 21
3.5274700674
  0
LINE
  5
258
100
AcDbEntity
  8
0
100
AcDbLine
 62
9
  6
CONTINUOUS
 10
4.3413351407
 20
3.5274700642
 11
4.5807172149
 21
3.527470069
  0
LINE
  5
259
100
AcDbEntity
  8
0
100
AcDbLine
 62
9
  6
CONTINUOUS
 10
4.3658292365
 20
3.5667216467
 11
4.6091472587
 21
3.5667216509
  0
LINE
  5
25A
100
AcDbEntity
  8
0
100
AcDbLine
 62
9
  6
CONTINUOUS
 10
3.477507518
 20
3.5667216509
 11
3.7208255382
 21
3.5667216494
  0
LINE
  5
25B
100
AcDbEntity
  8
0
100
AcDbLine
 62
9
  6
CONTINUOUS
 10
4.6113860313
 20
3.5771692567
 11
4.3730627537
 21
3.5771692521
  0
LINE
  5
25C
100
AcDbEntity
  8
0
100
AcDbLine
 62
9
  6
CONTINUOUS
 10
3.7135920218
 20
3.5771692544
 11
3.4752687454
 21
3.5771692567
  0
LINE
  5
25D
100
AcDbEntity
  8
ALL_ASSEMBLY_MEMBERS
100
AcDbLine
 62
7
  6
CONTINUOUS
 10
3.7845773883
 20
3.4156138118
 11
3.7845773883
 21
3.1246138118
  0
LINE
  5
25E
100
AcDbEntity
  8
ALL_ASSEMBLY_MEMBERS
100
AcDbLine
 62
7
  6
CONTINUOUS
 10
3.8370773883
 20
2.5268638118
 11
3.8370773883
 21
2.5081138118
  0
LINE
  5
25F
100
AcDbEntity
  8
ALL_ASSEMBLY_MEMBERS
100
AcDbLine
 62
7
  6
CONTINUOUS
 10
3.8370773883
 20
2.3195271976
 11
3.8370773883
 21
2.3007771976
  0
LINE
  5
260
100
AcDbEntity
  8
0
100
AcDbLine
 62
9
  6
CONTINUOUS
 10
4.6273283708
 20
3.6029214862
 11
4.3926726709
 21
3.6029214711
  0
LINE
  5
261
100
AcDbEntity
  8
0
100
AcDbLine
 62
9
  6
CONTINUOUS
 10
3.6939820983
 20
3.6029214794
 11
3.4593264059
 21
3.6029214862
  0
LINE
  5
262
100
AcDbEntity
  8
0
100
AcDbLine
 62
9
  6
CONTINUOUS
 10
4.6353420037
 20
3.6093127892
 11
4.397996465
 21
3.6093127892
  0
LINE
  5
263
100
AcDbEntity
  8
0
100
AcDbLine
 62
9
  6
CONTINUOUS
 10
3.6886583118
 20
3.6093127892
 11
3.451312773
 21
3.6093127892
  0
LINE
  5
264
100
AcDbEntity
  8
0
100
AcDbLine
 62
9
  6
CONTINUOUS
 10
3.4230773883
 20
3.6679478534
 11
3.6322597145
 21
3.6679478534
  0
LINE
  5
265
100
AcDbEntity
  8
0
100
AcDbLine
 62
9
  6
CONTINUOUS
 10
4.454395063
 20
3.6679478534
 11
4.6635773883
 21
3.6679478534
  0
LINE
  5
266
100
AcDbEntity
  8
0
100
AcDbLine
 62
9
  6
CONTINUOUS
 10
3.5884151842
 20
3.7036793875
 11
4.4982395925
 21
3.7036793875
  0
LINE
  5
267
100
AcDbEntity
  8
0
100
AcDbLine
 62
9
  6
CONTINUOUS
 10
3.5577023883
 20
3.7642074269
 11
4.5289523883
 21
3.7642074269
  0
LINE
  5
268
100
AcDbEntity
  8
0
100
AcDbLine
 62
7
  6
CONTINUOUS
 10
3.9045773883
 20
3.4531138118
 11
3.9045773883
 21
3.4156138118
  0
LINE
  5
269
100
AcDbEntity
  8
0
100
AcDbLine
 62
7
  6
CONTINUOUS
 10
4.5509048883
 20
3.9271787724
 11
3.5357498883
 21
3.9271787724
  0
LINE
  5
26A
100
AcDbEntity
  8
0
100
AcDbLine
 62
7
  6
CONTINUOUS
 10
4.1820773883
 20
3.4531138118
 11
4.1820773883
 21
3.4156138118
  0
LINE
  5
26B
100
AcDbEntity
  8
0
100
AcDbLine
 62
9
  6
CONTINUOUS
 10
4.6634048883
 20
4.0396787724
 11
3.4232498883
 21
4.0396787724
  0
LINE
  5
26C
100
AcDbEntity
  8
ALL_ASSEMBLY_MEMBERS
100
AcDbLine
 62
7
  6
CONTINUOUS
 10
4.2495773883
 20
2.5268638118
 11
4.2495773883
 21
2.5081138118
  0
LINE
  5
26D
100
AcDbEntity
  8
ALL_ASSEMBLY_MEMBERS
100
AcDbLine
 62
7
  6
CONTINUOUS
 10
4.2495773883
 20
2.3195271976
 11
4.2495773883
 21
2.3007771976
  0
LINE
  5
26E
100
AcDbEntity
  8
ALL_ASSEMBLY_MEMBERS
100
AcDbLine
 62
7
  6
CONTINUOUS
 10
4.3020773883
 20
3.4156138118
 11
4.3020773883
 21
3.3391138118
  0
LINE
  5
26F
100
AcDbEntity
  8
ALL_ASSEMBLY_MEMBERS
100
AcDbLine
 62
7
  6
CONTINUOUS
 10
4.3020773883
 20
3.2082771976
 11
4.3020773883
 21
3.1246138118
  0
LINE
  5
270
100
AcDbEntity
  8
ALL_FEATURES
100
AcDbLine
 62
7
  6
CONTINUOUS
 10
4.5289523883
 20
3.7642074269
 11
4.5289523883
 21
3.9271787724
  0
LINE
  5
271
100
AcDbEntity
  8
0
100
AcDbLine
 62
7
  6
CONTINUOUS
 10
4.6634048883
 20
4.9111787724
 11
4.6634048883
 21
4.0396787724
  0
LINE
  5
272
100
AcDbEntity
  8
ALL_FEATURES
100
AcDbLine
 62
7
  6
CONTINUOUS
 10
4.6635773883
 20
3.6679478534
 11
4.6635773883
 21
4.0396787724
  0
LINE
  5
273
100
AcDbEntity
  8
0
100
AcDbLine
 62
7
  6
CONTINUOUS
 10
4.6113860313
 20
3.5771692567
 11
4.6091472587
 21
3.5667216509
  0
LINE
  5
274
100
AcDbEntity
  8
0
100
AcDbLine
 62
7
  6
CONTINUOUS
 10
4.6353420037
 20
3.6093127892
 11
4.6273283708
 21
3.6029214862
  0
LINE
  5
275
100
AcDbEntity
  8
0
100
AcDbLine
 62
7
  6
CONTINUOUS
 10
3.1947172179
 20
4.8210718367
 11
3.1947551096
 21
4.8210642711
  0
LINE
  5
276
100
AcDbEntity
  8
0
100
AcDbLine
 62
7
  6
CONTINUOUS
 10
4.7558273883
 20
4.8174287724
 11
4.7655156977
 21
4.8176403735
  0
LINE
  5
277
100
AcDbEntity
  8
0
100
AcDbLine
 62
7
  6
CONTINUOUS
 10
4.9307080989
 20
4.8212483199
 11
4.9962023883
 21
4.8226787724
  0
LINE
  5
278
100
AcDbEntity
  8
0
100
AcDbLine
 62
7
  6
CONTINUOUS
 10
3.4232498883
 20
4.8174287724
 11
3.3308273883
 21
4.8174287724
  0
LINE
  5
279
100
AcDbEntity
  8
0
100
AcDbLine
 62
7
  6
CONTINUOUS
 10
4.6634048883
 20
4.8174287724
 11
4.7558273883
 21
4.8174287724
  0
LINE
  5
27A
100
AcDbEntity
  8
0
100
AcDbLine
 62
7
  6
CONTINUOUS
 10
3.4232498883
 20
4.8226787724
 11
3.0904523883
 21
4.8226787724
  0
LINE
  5
27B
100
AcDbEntity
  8
0
100
AcDbLine
 62
7
  6
CONTINUOUS
 10
4.6634048883
 20
4.8226787724
 11
4.9962023883
 21
4.8226787724
  0
LINE
  5
27C
100
AcDbEntity
  8
0
100
AcDbLine
 62
7
  6
CONTINUOUS
 10
3.1610717068
 20
4.8213341122
 11
3.1611096014
 21
4.8213296307
  0
LINE
  5
27D
100
AcDbEntity
  8
0
100
AcDbLine
 62
7
  6
CONTINUOUS
 10
4.9962023883
 20
4.8226787724
 11
4.9962023883
 21
4.8511787724
  0
LINE
  5
27E
100
AcDbEntity
  8
0
100
AcDbLine
 62
7
  6
CONTINUOUS
 10
5.0562023883
 20
4.8511787724
 11
5.0562023883
 21
4.9111787724
  0
LINE
  5
27F
100
AcDbEntity
  8
0
100
AcDbLine
 62
7
  6
CONTINUOUS
 10
3.4232498883
 20
4.8511787724
 11
3.0304799963
 21
4.8511787724
  0
LINE
  5
280
100
AcDbEntity
  8
0
100
AcDbLine
 62
7
  6
CONTINUOUS
 10
4.6634048883
 20
4.8511787724
 11
5.0561747803
 21
4.8511787724
  0
LINE
  5
281
100
AcDbEntity
  8
ALL_FEATURES
100
AcDbLine
 62
7
  6
CONTINUOUS
 10
6.0120773883
 20
4.9111787724
 11
2.0745773883
 21
4.9111787724
  0
LINE
  5
282
100
AcDbEntity
  8
ALL_FEATURES
100
AcDbLine
 62
7
  6
CONTINUOUS
 10
6.1058273883
 20
4.9584287724
 11
1.9808273883
 21
4.9584287724
  0
LINE
  5
283
100
AcDbEntity
  8
0
100
AcDbLine
 62
7
  6
CONTINUOUS
 10
1.9808273883
 20
5.1459287724
 11
6.1058273883
 21
5.1459287724
  0
LINE
  5
284
100
AcDbEntity
  8
ALL_FEATURES
100
AcDbLine
 62
9
  6
CONTINUOUS
 10
5.4158273883
 20
4.9584287724
 11
5.4158273883
 21
4.9111787724
  0
LINE
  5
285
100
AcDbEntity
  8
0
100
AcDbLine
 62
9
  6
CONTINUOUS
 10
5.4158273883
 20
4.9584287724
 11
5.4158273883
 21
5.1459287724
  0
LINE
  5
286
100
AcDbEntity
  8
ALL_FEATURES
100
AcDbLine
 62
7
  6
CONTINUOUS
 10
5.6370773883
 20
4.9584287724
 11
5.6370773883
 21
4.9111787724
  0
LINE
  5
287
100
AcDbEntity
  8
0
100
AcDbLine
 62
7
  6
CONTINUOUS
 10
5.7308273883
 20
4.9584287724
 11
5.7308273883
 21
5.1459287724
  0
LINE
  5
288
100
AcDbEntity
  8
ALL_FEATURES
100
AcDbLine
 62
9
  6
CONTINUOUS
 10
5.7608273883
 20
4.9584287724
 11
5.7608273883
 21
4.9111787724
  0
LINE
  5
289
100
AcDbEntity
  8
0
100
AcDbLine
 62
9
  6
CONTINUOUS
 10
5.7608273883
 20
4.9584287724
 11
5.7608273883
 21
5.1459287724
  0
LINE
  5
28A
100
AcDbEntity
  8
ALL_FEATURES
100
AcDbLine
 62
9
  6
CONTINUOUS
 10
5.7908273883
 20
4.9584287724
 11
5.7908273883
 21
4.9111787724
  0
LINE
  5
28B
100
AcDbEntity
  8
0
100
AcDbLine
 62
9
  6
CONTINUOUS
 10
5.7908273883
 20
4.9584287724
 11
5.7908273883
 21
5.1459287724
  0
LINE
  5
28C
100
AcDbEntity
  8
ALL_FEATURES
100
AcDbLine
 62
7
  6
CONTINUOUS
 10
6.0120773883
 20
4.9584287724
 11
6.0120773883
 21
4.9111787724
  0
LINE
  5
28D
100
AcDbEntity
  8
0
100
AcDbLine
 62
7
  6
CONTINUOUS
 10
6.1058273883
 20
4.9584287724
 11
6.1058273883
 21
5.1459287724
  0
ARC
  5
28E
100
AcDbEntity
  8
0
100
AcDbCircle
 62
7
  6
CONTINUOUS
 10
3.1924970672
 20
-0.6911936244
 40
5.5122506665
100
AcDbArc
 50
88.8381976856
 51
89.1108694697
  0
ARC
  5
28F
100
AcDbEntity
  8
0
100
AcDbCircle
 62
7
  6
CONTINUOUS
 10
3.2237492195
 20
0.4919977536
 40
4.3284761599
100
AcDbArc
 50
88.697336761
 51
88.8466124559
  0
ARC
  5
290
100
AcDbEntity
  8
0
100
AcDbCircle
 62
7
  6
CONTINUOUS
 10
3.2270962498
 20
0.659143991
 40
4.1612965507
100
AcDbArc
 50
88.9985440706
 51
89.1474615936
  0
ARC
  5
291
100
AcDbEntity
  8
0
100
AcDbCircle
 62
7
  6
CONTINUOUS
 10
3.2277907061
 20
0.6987470174
 40
4.1216874361
100
AcDbArc
 50
88.8449304483
 51
88.9985743187
  0
ARC
  5
292
100
AcDbEntity
  8
0
100
AcDbCircle
 62
7
  6
CONTINUOUS
 10
3.2431138759
 20
1.3500353327
 40
3.470260307
100
AcDbArc
 50
89.5549315376
 51
89.6931911843
  0
ARC
  5
293
100
AcDbEntity
  8
0
100
AcDbCircle
 62
7
  6
CONTINUOUS
 10
3.231341148
 20
1.8522619612
 40
2.9684979975
100
AcDbArc
 50
89.1996615502
 51
89.3761360011
  0
ARC
  5
294
100
AcDbEntity
  8
0
100
AcDbCircle
 62
7
  6
CONTINUOUS
 10
3.2567012905
 20
1.9733097647
 40
2.8469725367
100
AcDbArc
 50
88.3502067698
 51
88.5911820287
  0
ARC
  5
295
100
AcDbEntity
  8
0
100
AcDbCircle
 62
7
  6
CONTINUOUS
 10
3.2502537383
 20
2.1914981519
 40
2.6287674828
100
AcDbArc
 50
89.1551978847
 51
89.5680809875
  0
ARC
  5
296
100
AcDbEntity
  8
0
100
AcDbCircle
 62
7
  6
CONTINUOUS
 10
3.2644863972
 20
2.1960237157
 40
2.6239632333
100
AcDbArc
 50
88.4788509668
 51
88.6468372081
  0
ARC
  5
297
100
AcDbEntity
  8
0
100
AcDbCircle
 62
7
  6
CONTINUOUS
 10
3.2352350307
 20
2.2312788015
 40
2.5894612377
100
AcDbArc
 50
89.370976444
 51
89.6489963035
  0
ARC
  5
298
100
AcDbEntity
  8
0
100
AcDbCircle
 62
7
  6
CONTINUOUS
 10
3.2371557929
 20
2.5505493934
 40
2.2701848704
100
AcDbArc
 50
89.6481087307
 51
89.8373075771
  0
ARC
  5
299
100
AcDbEntity
  8
0
100
AcDbCircle
 62
7
  6
CONTINUOUS
 10
3.2961592174
 20
3.376292627
 40
1.4432695083
100
AcDbArc
 50
88.2359843001
 51
88.4919638287
  0
ARC
  5
29A
100
AcDbEntity
  8
0
100
AcDbCircle
 62
7
  6
CONTINUOUS
 10
3.2997736648
 20
3.4748006556
 40
1.3448639984
100
AcDbArc
 50
87.9595493771
 51
88.3427971334
  0
ARC
  5
29B
100
AcDbEntity
  8
0
100
AcDbCircle
 62
7
  6
CONTINUOUS
 10
3.3160258939
 20
4.0195905098
 40
0.7996649361
100
AcDbArc
 50
88.0455032619
 51
88.2398971662
  0
ARC
  5
29C
100
AcDbEntity
  8
0
100
AcDbCircle
 62
7
  6
CONTINUOUS
 10
3.2558182813
 20
3.2491138118
 40
0.56325
100
AcDbArc
 50
23.2308920706
 51
53.8077823306
  0
ARC
  5
29D
100
AcDbEntity
  8
0
100
AcDbCircle
 62
7
  6
CONTINUOUS
 10
3.2220773883
 20
3.0409785846
 40
0.56325
100
AcDbArc
 50
24.1181733655
 51
59.7371069019
  0
ARC
  5
29E
100
AcDbEntity
  8
0
100
AcDbCircle
 62
7
  6
CONTINUOUS
 10
3.4980773883
 20
3.6679478534
 40
0.075
100
AcDbArc
 50
180.0
 51
231.4257570771
  0
ARC
  5
29F
100
AcDbEntity
  8
ALL_ASSEMBLY_MEMBERS
100
AcDbCircle
 62
7
  6
CONTINUOUS
 10
3.3911044532
 20
3.0426376347
 40
0.0469268896
100
AcDbArc
 50
90.0
 51
229.6701273024
  0
ARC
  5
2A0
100
AcDbEntity
  8
ALL_ASSEMBLY_MEMBERS
100
AcDbCircle
 62
7
  6
CONTINUOUS
 10
3.3903189495
 20
2.4375333783
 40
0.0467415612
100
AcDbArc
 50
130.1186484512
 51
270.0
  0
ARC
  5
2A1
100
AcDbEntity
  8
ALL_ASSEMBLY_MEMBERS
100
AcDbCircle
 62
7
  6
CONTINUOUS
 10
3.3903189495
 20
2.6448699924
 40
0.0467415612
100
AcDbArc
 50
130.1186484512
 51
270.0
  0
ARC
  5
2A2
100
AcDbEntity
  8
0
100
AcDbCircle
 62
7
  6
CONTINUOUS
 10
3.4312676367
 20
3.5677404477
 40
0.045
100
AcDbArc
 50
12.094757077
 51
51.425757077
  0
ARC
  5
2A3
100
AcDbEntity
  8
ALL_ASSEMBLY_MEMBERS
100
AcDbCircle
 62
7
  6
CONTINUOUS
 10
3.2989523883
 20
2.6360271976
 40
0.0375
100
AcDbArc
 50
90.0
 51
270.0
  0
ARC
  5
2A4
100
AcDbEntity
  8
ALL_ASSEMBLY_MEMBERS
100
AcDbCircle
 62
7
  6
CONTINUOUS
 10
3.2989523883
 20
2.8433638118
 40
0.0375
100
AcDbArc
 50
90.0
 51
270.0
  0
ARC
  5
2A5
100
AcDbEntity
  8
ALL_ASSEMBLY_MEMBERS
100
AcDbCircle
 62
7
  6
CONTINUOUS
 10
3.5895773883
 20
2.6360271976
 40
0.28125
100
AcDbArc
 50
240.7000549289
 51
270.0
  0
ARC
  5
2A6
100
AcDbEntity
  8
ALL_ASSEMBLY_MEMBERS
100
AcDbCircle
 62
7
  6
CONTINUOUS
 10
3.5895773883
 20
2.6360271976
 40
0.28125
100
AcDbArc
 50
187.6622556608
 51
215.3568176196
  0
ARC
  5
2A7
100
AcDbEntity
  8
ALL_ASSEMBLY_MEMBERS
100
AcDbCircle
 62
7
  6
CONTINUOUS
 10
3.5895773883
 20
2.6360271976
 40
0.28125
100
AcDbArc
 50
158.36810251
 51
172.3377443392
  0
ARC
  5
2A8
100
AcDbEntity
  8
ALL_ASSEMBLY_MEMBERS
100
AcDbCircle
 62
7
  6
CONTINUOUS
 10
3.5895773883
 20
2.8433638118
 40
0.28125
100
AcDbArc
 50
240.7000549289
 51
270.0
  0
ARC
  5
2A9
100
AcDbEntity
  8
ALL_ASSEMBLY_MEMBERS
100
AcDbCircle
 62
7
  6
CONTINUOUS
 10
3.5895773883
 20
2.8433638118
 40
0.28125
100
AcDbArc
 50
187.6622556608
 51
215.3568176196
  0
ARC
  5
2AA
100
AcDbEntity
  8
ALL_ASSEMBLY_MEMBERS
100
AcDbCircle
 62
7
  6
CONTINUOUS
 10
3.5895773883
 20
2.8433638118
 40
0.28125
100
AcDbArc
 50
144.4556230538
 51
172.3377443392
  0
ARC
  5
2AB
100
AcDbEntity
  8
ALL_ASSEMBLY_MEMBERS
100
AcDbCircle
 62
7
  6
CONTINUOUS
 10
3.5895773883
 20
2.8433638118
 40
0.28125
100
AcDbArc
 50
90.0
 51
118.8893887005
  0
ARC
  5
2AC
100
AcDbEntity
  8
0
100
AcDbCircle
 62
7
  6
CONTINUOUS
 10
3.6327023883
 20
3.7642074269
 40
0.075
100
AcDbArc
 50
180.0
 51
233.8077823306
  0
ARC
  5
2AD
100
AcDbEntity
  8
0
100
AcDbCircle
 62
7
  6
CONTINUOUS
 10
3.5361756629
 20
3.5792933963
 40
0.06
100
AcDbArc
 50
192.094757077
 51
239.7371069019
  0
ARC
  5
2AE
100
AcDbEntity
  8
ALL_ASSEMBLY_MEMBERS
100
AcDbCircle
 62
7
  6
CONTINUOUS
 10
3.8566309902
 20
2.2535271976
 40
0.04725
100
AcDbArc
 50
2.7294026368
 51
90.0
  0
ARC
  5
2AF
100
AcDbEntity
  8
ALL_ASSEMBLY_MEMBERS
100
AcDbCircle
 62
7
  6
CONTINUOUS
 10
3.8566309902
 20
2.4608638118
 40
0.04725
100
AcDbArc
 50
2.7294026368
 51
90.0
  0
ARC
  5
2B0
100
AcDbEntity
  8
ALL_ASSEMBLY_MEMBERS
100
AcDbCircle
 62
7
  6
CONTINUOUS
 10
3.8299523883
 20
2.3547771976
 40
0.03525
100
AcDbArc
 50
180.0
 51
270.0
  0
ARC
  5
2B1
100
AcDbEntity
  8
ALL_ASSEMBLY_MEMBERS
100
AcDbCircle
 62
7
  6
CONTINUOUS
 10
3.8299523883
 20
2.5621138118
 40
0.03525
100
AcDbArc
 50
180.0
 51
270.0
  0
ARC
  5
2B2
100
AcDbEntity
  8
ALL_FEATURES
100
AcDbCircle
 62
7
  6
CONTINUOUS
 10
3.7808273883
 20
3.3020142207
 40
0.0562370231
100
AcDbArc
 50
236.128659452
 51
270.0
  0
ARC
  5
2B3
100
AcDbEntity
  8
0
100
AcDbCircle
 62
7
  6
CONTINUOUS
 10
3.7703846858
 20
3.2864570359
 40
0.0375
100
AcDbArc
 50
204.1181733656
 51
236.1286594521
  0
ARC
  5
2B4
100
AcDbEntity
  8
0
100
AcDbCircle
 62
7
  6
CONTINUOUS
 10
3.8009692351
 20
3.4831138118
 40
0.03
100
AcDbArc
 50
203.2308920706
 51
270.0
  0
ARC
  5
2B5
100
AcDbEntity
  8
0
100
AcDbCircle
 62
7
  6
CONTINUOUS
 10
3.1891120373
 20
8.8244512689
 40
4.0029769179
100
AcDbArc
 50
270.3132041652
 51
270.5724981095
  0
ARC
  5
2B6
100
AcDbEntity
  8
0
100
AcDbCircle
 62
7
  6
CONTINUOUS
 10
3.385709177
 20
8.3415086766
 40
3.5237015341
100
AcDbArc
 50
268.7036636598
 51
268.8451901511
  0
ARC
  5
2B7
100
AcDbEntity
  8
0
100
AcDbCircle
 62
7
  6
CONTINUOUS
 10
3.3231905419
 20
4.1444071426
 40
0.6748484304
100
AcDbArc
 50
87.7232976725
 51
87.8830364257
  0
ARC
  5
2B8
100
AcDbEntity
  8
0
100
AcDbCircle
 62
7
  6
CONTINUOUS
 10
3.3257878362
 20
4.3045156335
 40
0.5145726364
100
AcDbArc
 50
87.896649356
 51
88.0498087192
  0
ARC
  5
2B9
100
AcDbEntity
  8
0
100
AcDbCircle
 62
7
  6
CONTINUOUS
 10
3.3271600234
 20
5.3110127454
 40
0.4926395561
100
AcDbArc
 50
269.0520255252
 51
269.7963779377
  0
ARC
  5
2BA
100
AcDbEntity
  8
ALL_ASSEMBLY_MEMBERS
100
AcDbCircle
 62
7
  6
CONTINUOUS
 10
4.2300237865
 20
2.2535271976
 40
0.04725
100
AcDbArc
 50
95.3875885823
 51
177.2705973632
  0
ARC
  5
2BB
100
AcDbEntity
  8
ALL_ASSEMBLY_MEMBERS
100
AcDbCircle
 62
7
  6
CONTINUOUS
 10
4.2300237865
 20
2.4608638118
 40
0.04725
100
AcDbArc
 50
95.3875885823
 51
177.2705973632
  0
ARC
  5
2BC
100
AcDbEntity
  8
ALL_ASSEMBLY_MEMBERS
100
AcDbCircle
 62
7
  6
CONTINUOUS
 10
4.2567023883
 20
2.3547771976
 40
0.03525
100
AcDbArc
 50
270.0
 51
360.0
  0
ARC
  5
2BD
100
AcDbEntity
  8
ALL_ASSEMBLY_MEMBERS
100
AcDbCircle
 62
7
  6
CONTINUOUS
 10
4.2567023883
 20
2.5621138118
 40
0.03525
100
AcDbArc
 50
270.0
 51
360.0
  0
ARC
  5
2BE
100
AcDbEntity
  8
ALL_FEATURES
100
AcDbCircle
 62
7
  6
CONTINUOUS
 10
4.3058273883
 20
3.3020142207
 40
0.0562370231
100
AcDbArc
 50
270.0
 51
303.871340548
  0
ARC
  5
2BF
100
AcDbEntity
  8
0
100
AcDbCircle
 62
7
  6
CONTINUOUS
 10
4.3162700909
 20
3.2864570359
 40
0.0375
100
AcDbArc
 50
303.871340548
 51
335.8818266344
  0
ARC
  5
2C0
100
AcDbEntity
  8
0
100
AcDbCircle
 62
7
  6
CONTINUOUS
 10
4.2856855415
 20
3.4831138118
 40
0.03
100
AcDbArc
 50
270.0
 51
336.7691079294
  0
ARC
  5
2C1
100
AcDbEntity
  8
ALL_ASSEMBLY_MEMBERS
100
AcDbCircle
 62
7
  6
CONTINUOUS
 10
4.4970773883
 20
2.6360271976
 40
0.28125
100
AcDbArc
 50
270.0
 51
299.2999450711
  0
ARC
  5
2C2
100
AcDbEntity
  8
ALL_ASSEMBLY_MEMBERS
100
AcDbCircle
 62
7
  6
CONTINUOUS
 10
4.4970773883
 20
2.6360271976
 40
0.28125
100
AcDbArc
 50
324.6431823804
 51
352.3377443392
  0
ARC
  5
2C3
100
AcDbEntity
  8
ALL_ASSEMBLY_MEMBERS
100
AcDbCircle
 62
7
  6
CONTINUOUS
 10
4.4970773883
 20
2.6360271976
 40
0.28125
100
AcDbArc
 50
7.6622556608
 51
21.63189749
  0
ARC
  5
2C4
100
AcDbEntity
  8
ALL_ASSEMBLY_MEMBERS
100
AcDbCircle
 62
7
  6
CONTINUOUS
 10
4.4970773883
 20
2.8433638118
 40
0.28125
100
AcDbArc
 50
270.0
 51
299.2999450711
  0
ARC
  5
2C5
100
AcDbEntity
  8
ALL_ASSEMBLY_MEMBERS
100
AcDbCircle
 62
7
  6
CONTINUOUS
 10
4.4970773883
 20
2.8433638118
 40
0.28125
100
AcDbArc
 50
324.6431823804
 51
352.3377443392
  0
ARC
  5
2C6
100
AcDbEntity
  8
ALL_ASSEMBLY_MEMBERS
100
AcDbCircle
 62
7
  6
CONTINUOUS
 10
4.4970773883
 20
2.8433638118
 40
0.28125
100
AcDbArc
 50
7.6622556608
 51
35.5443769462
  0
ARC
  5
2C7
100
AcDbEntity
  8
ALL_ASSEMBLY_MEMBERS
100
AcDbCircle
 62
7
  6
CONTINUOUS
 10
4.4970773883
 20
2.8433638118
 40
0.28125
100
AcDbArc
 50
61.1106112995
 51
90.0
  0
ARC
  5
2C8
100
AcDbEntity
  8
0
100
AcDbCircle
 62
7
  6
CONTINUOUS
 10
4.4539523883
 20
3.7642074269
 40
0.075
100
AcDbArc
 50
306.1922176694
 51
360.0
  0
ARC
  5
2C9
100
AcDbEntity
  8
0
100
AcDbCircle
 62
7
  6
CONTINUOUS
 10
4.5509092492
 20
3.9965462509
 40
0.0693674786
100
AcDbArc
 50
269.9963980156
 51
274.1689072229
  0
ARC
  5
2CA
100
AcDbEntity
  8
0
100
AcDbCircle
 62
7
  6
CONTINUOUS
 10
4.5509115894
 20
3.9964818981
 40
0.069303126
100
AcDbArc
 50
269.9944599293
 51
274.1708453092
  0
ARC
  5
2CB
100
AcDbEntity
  8
0
100
AcDbCircle
 62
7
  6
CONTINUOUS
 10
4.5504791138
 20
3.5792933963
 40
0.06
100
AcDbArc
 50
300.2628930981
 51
347.905242923
  0
ARC
  5
2CC
100
AcDbEntity
  8
0
100
AcDbCircle
 62
7
  6
CONTINUOUS
 10
4.8837158768
 20
-0.7728245459
 40
5.5931966123
100
AcDbArc
 50
90.7207102464
 51
90.8884286319
  0
ARC
  5
2CD
100
AcDbEntity
  8
0
100
AcDbCircle
 62
7
  6
CONTINUOUS
 10
4.9450252694
 20
0.4984299668
 40
4.323555693
100
AcDbArc
 50
91.119733813
 51
91.2846436402
  0
ARC
  5
2CE
100
AcDbEntity
  8
0
100
AcDbCircle
 62
7
  6
CONTINUOUS
 10
4.8669583478
 20
0.5160142064
 40
4.304259615
100
AcDbArc
 50
91.1294499749
 51
91.2816820616
  0
ARC
  5
2CF
100
AcDbEntity
  8
0
100
AcDbCircle
 62
7
  6
CONTINUOUS
 10
4.8682647186
 20
0.679148361
 40
4.1410432972
100
AcDbArc
 50
90.9455660063
 51
91.1219513709
  0
ARC
  5
2D0
100
AcDbEntity
  8
0
100
AcDbCircle
 62
7
  6
CONTINUOUS
 10
4.8612962719
 20
1.0418264506
 40
3.7782982956
100
AcDbArc
 50
91.1239880368
 51
91.2438977598
  0
ARC
  5
2D1
100
AcDbEntity
  8
0
100
AcDbCircle
 62
7
  6
CONTINUOUS
 10
4.8561168857
 20
1.0525817931
 40
3.767582586
100
AcDbArc
 50
91.0100768817
 51
91.1254520951
  0
ARC
  5
2D2
100
AcDbEntity
  8
ALL_ASSEMBLY_MEMBERS
100
AcDbCircle
 62
7
  6
CONTINUOUS
 10
4.6955503235
 20
3.0426376347
 40
0.0469268896
100
AcDbArc
 50
310.3298726976
 51
90.0
  0
ARC
  5
2D3
100
AcDbEntity
  8
ALL_ASSEMBLY_MEMBERS
100
AcDbCircle
 62
7
  6
CONTINUOUS
 10
4.6963358271
 20
2.4375333783
 40
0.0467415612
100
AcDbArc
 50
270.0
 51
49.8813515488
  0
ARC
  5
2D4
100
AcDbEntity
  8
ALL_ASSEMBLY_MEMBERS
100
AcDbCircle
 62
7
  6
CONTINUOUS
 10
4.6963358271
 20
2.6448699924
 40
0.0467415612
100
AcDbArc
 50
270.0
 51
49.8813515488
  0
ARC
  5
2D5
100
AcDbEntity
  8
0
100
AcDbCircle
 62
7
  6
CONTINUOUS
 10
4.5885773883
 20
3.6679478534
 40
0.075
100
AcDbArc
 50
308.5742429229
 51
360.0
  0
ARC
  5
2D6
100
AcDbEntity
  8
0
100
AcDbCircle
 62
7
  6
CONTINUOUS
 10
4.65538714
 20
3.5677404477
 40
0.045
100
AcDbArc
 50
128.574242923
 51
167.905242923
  0
ARC
  5
2D7
100
AcDbEntity
  8
0
100
AcDbCircle
 62
7
  6
CONTINUOUS
 10
4.8330409063
 20
2.2820841076
 40
2.537718933
100
AcDbArc
 50
91.2731025471
 51
91.5780278888
  0
ARC
  5
2D8
100
AcDbEntity
  8
0
100
AcDbCircle
 62
7
  6
CONTINUOUS
 10
4.8985445061
 20
2.4671704859
 40
2.3542669502
100
AcDbArc
 50
91.2995696911
 51
91.6087728001
  0
ARC
  5
2D9
100
AcDbEntity
  8
0
100
AcDbCircle
 62
7
  6
CONTINUOUS
 10
4.9110345383
 20
2.5585346288
 40
2.2631677575
100
AcDbArc
 50
90.7219976219
 51
90.8975565724
  0
ARC
  5
2DA
100
AcDbEntity
  8
0
100
AcDbCircle
 62
7
  6
CONTINUOUS
 10
4.9104839032
 20
2.5826656679
 40
2.2389218384
100
AcDbArc
 50
90.8873210506
 51
91.3013202554
  0
ARC
  5
2DB
100
AcDbEntity
  8
0
100
AcDbCircle
 62
7
  6
CONTINUOUS
 10
4.9007001878
 20
2.9893439072
 40
1.8321263764
100
AcDbArc
 50
91.2842647229
 51
91.6153136489
  0
ARC
  5
2DC
100
AcDbEntity
  8
0
100
AcDbCircle
 62
7
  6
CONTINUOUS
 10
4.8645773883
 20
3.0409785846
 40
0.56325
100
AcDbArc
 50
120.2628930981
 51
155.8818266345
  0
ARC
  5
2DD
100
AcDbEntity
  8
ALL_ASSEMBLY_MEMBERS
100
AcDbCircle
 62
7
  6
CONTINUOUS
 10
4.7877023883
 20
2.6360271976
 40
0.0375
100
AcDbArc
 50
270.0
 51
90.0
  0
ARC
  5
2DE
100
AcDbEntity
  8
ALL_ASSEMBLY_MEMBERS
100
AcDbCircle
 62
7
  6
CONTINUOUS
 10
4.7877023883
 20
2.8433638118
 40
0.0375
100
AcDbArc
 50
270.0
 51
90.0
  0
ARC
  5
2DF
100
AcDbEntity
  8
0
100
AcDbCircle
 62
7
  6
CONTINUOUS
 10
4.8717698628
 20
3.4778013924
 40
1.3432836798
100
AcDbArc
 50
91.6774050154
 51
92.1459877138
  0
ARC
  5
2E0
100
AcDbEntity
  8
0
100
AcDbCircle
 62
7
  6
CONTINUOUS
 10
4.8988322155
 20
3.5103417887
 40
1.311282422
100
AcDbArc
 50
90.5143029481
 51
90.7129211842
  0
ARC
  5
2E1
100
AcDbEntity
  8
0
100
AcDbCircle
 62
7
  6
CONTINUOUS
 10
4.88308001
 20
3.6196312494
 40
1.2015925844
100
AcDbArc
 50
91.7317314346
 51
92.0163923708
  0
ARC
  5
2E2
100
AcDbEntity
  8
0
100
AcDbCircle
 62
7
  6
CONTINUOUS
 10
4.7943599785
 20
3.7232288439
 40
1.0960560202
100
AcDbArc
 50
91.6313697767
 51
91.768561284
  0
ARC
  5
2E3
100
AcDbEntity
  8
0
100
AcDbCircle
 62
7
  6
CONTINUOUS
 10
4.8730019397
 20
3.9099262174
 40
0.9111227766
100
AcDbArc
 50
92.0253421939
 51
92.3266155735
  0
ARC
  5
2E4
100
AcDbEntity
  8
0
100
AcDbCircle
 62
7
  6
CONTINUOUS
 10
4.8308364954
 20
3.2491138118
 40
0.56325
100
AcDbArc
 50
126.1922176694
 51
156.7691079294
  0
ARC
  5
2E5
100
AcDbEntity
  8
0
100
AcDbCircle
 62
7
  6
CONTINUOUS
 10
4.9104954322
 20
7.5841253715
 40
2.762650009
100
AcDbArc
 50
270.1044776049
 51
270.3142560795
  0
ARC
  5
2E6
100
AcDbEntity
  8
0
100
AcDbCircle
 62
7
  6
CONTINUOUS
 10
4.7834182907
 20
5.9903271728
 40
1.171209792
100
AcDbArc
 50
271.62017782
 51
272.0543221143
  0
ARC
  5
2E7
100
AcDbEntity
  8
0
100
AcDbCircle
 62
7
  6
CONTINUOUS
 10
4.7964127709
 20
5.6346380849
 40
0.8152831862
100
AcDbArc
 50
272.1264979583
 51
272.4450590245
  0
ARC
  5
2E8
100
AcDbEntity
  8
0
100
AcDbCircle
 62
7
  6
CONTINUOUS
 10
4.7828591772
 20
4.0968813294
 40
0.7222265854
100
AcDbArc
 50
91.7714535959
 51
91.9543800605
  0
ARC
  5
2E9
100
AcDbEntity
  8
0
100
AcDbCircle
 62
7
  6
CONTINUOUS
 10
4.8699846917
 20
5.4724602022
 40
0.6515073441
100
AcDbArc
 50
271.4980655407
 51
272.0198471724
  0
ARC
  5
2EA
100
AcDbEntity
  8
0
100
AcDbCircle
 62
7
  6
CONTINUOUS
 10
4.7588532845
 20
4.5510780086
 40
0.2677081717
100
AcDbArc
 50
92.2181604396
 51
92.5138529004
  0
ARC
  5
2EB
100
AcDbEntity
  8
0
100
AcDbCircle
 62
7
  6
CONTINUOUS
 10
4.8844875274
 20
5.0587122294
 40
0.2375052964
100
AcDbArc
 50
272.0413186863
 51
272.257908356
  0
ARC
  5
2EC
100
AcDbEntity
  8
0
100
AcDbCircle
 62
7
  6
CONTINUOUS
 10
4.8923694959
 20
4.6114514735
 40
0.210145171
100
AcDbArc
 50
89.6132850334
 51
89.785569881
  0
ARC
  5
2ED
100
AcDbEntity
  8
0
100
AcDbCircle
 62
7
  6
CONTINUOUS
 10
4.8927898745
 20
4.6720384914
 40
0.1495566962
100
AcDbArc
 50
89.2753084995
 51
89.6176689343
  0
ARC
  5
2EE
100
AcDbEntity
  8
0
100
AcDbCircle
 62
7
  6
CONTINUOUS
 10
4.7560247839
 20
4.9349926033
 40
0.11655258
100
AcDbArc
 50
269.5841571946
 51
270.2294810299
  0
ARC
  5
2EF
100
AcDbEntity
  8
0
100
AcDbCircle
 62
7
  6
CONTINUOUS
 10
4.5940374099
 20
4.0396744115
 40
0.0693674786
100
AcDbArc
 50
355.8310920192
 51
0.0036019849
  0
ARC
  5
2F0
100
AcDbEntity
  8
0
100
AcDbCircle
 62
7
  6
CONTINUOUS
 10
4.5941017626
 20
4.0396720713
 40
0.069303126
100
AcDbArc
 50
355.8291539348
 51
0.0055400693
  0
ARC
  5
2F1
100
AcDbEntity
  8
0
100
AcDbCircle
 62
7
  6
CONTINUOUS
 10
4.8857243403
 20
4.7715477121
 40
0.0498740477
100
AcDbArc
 50
89.0968792832
 51
89.6599520796
  0
SPLINE
  5
2F2
100
AcDbEntity
  8
0
100
AcDbSpline
 62
7
  6
CONTINUOUS
 70
0
 71
3
 72
35
 73
31
 74
0
 42
0.0000001
 43
0.0000001
 44
0.0000000001
 40
0.0
 40
0.0
 40
0.0
 40
0.0
 40
0.0198798482
 40
0.0389061
 40
0.0572349263
 40
0.0750085906
 40
0.1093037191
 40
0.1423092093
 40
0.1743589853
 40
0.2056530689
 40
0.2363464043
 40
0.2665723801
 40
0.3259971954
 40
0.3844687642
 40
0.4423690724
 40
0.5
 40
0.5576309276
 40
0.6155312358
 40
0.6740028046
 40
0.7334276199
 40
0.7636535957
 40
0.7943469311
 40
0.8256410147
 40
0.8576907907
 40
0.8906962809
 40
0.9249914094
 40
0.9427650737
 40
0.9610939
 40
0.9801201518
 40
1.0
 40
1.0
 40
1.0
 40
1.0
 10
3.5357498883
 20
3.9271787724
 30
0.0
 10
3.5346058804
 20
3.9271787724
 30
0.0
 10
3.532366566
 20
3.9272337782
 30
0.0
 10
3.5290806006
 20
3.9274749
 30
0.0
 10
3.5259294803
 20
3.9278510971
 30
0.0
 10
3.5219292164
 20
3.9284959783
 30
0.0
 10
3.5171390746
 20
3.9295266803
 30
0.0
 10
3.5116354234
 20
3.9310866542
 30
0.0
 10
3.5063899672
 20
3.9328911351
 30
0.0
 10
3.5013699663
 20
3.9349181571
 30
0.0
 10
3.4965509402
 20
3.9371447421
 30
0.0
 10
3.4903991097
 20
3.9403289013
 30
0.0
 10
3.4830679357
 20
3.9446960051
 30
0.0
 10
3.4747872139
 20
3.9505224041
 30
0.0
 10
3.4670164642
 20
3.9568501656
 30
0.0
 10
3.4597343285
 20
3.9636632126
 30
0.0
 10
3.4529212815
 20
3.9709453482
 30
0.0
 10
3.44659352
 20
3.978716098
 30
0.0
 10
3.440767121
 20
3.9869968198
 30
0.0
 10
3.4364000172
 20
3.9943279938
 30
0.0
 10
3.433215858
 20
4.0004798243
 30
0.0
 10
3.4309892731
 20
4.0052988504
 30
0.0
 10
3.4289622511
 20
4.0103188512
 30
0.0
 10
3.4271577702
 20
4.0155643075
 30
0.0
 10
3.4255977962
 20
4.0210679587
 30
0.0
 10
3.4245670942
 20
4.0258581005
 30
0.0
 10
3.423922213
 20
4.0298583644
 30
0.0
 10
3.423546016
 20
4.0330094847
 30
0.0
 10
3.4233048941
 20
4.03629545
 30
0.0
 10
3.4232498883
 20
4.0385347645
 30
0.0
 10
3.4232498883
 20
4.0396787724
 30
0.0
  0
SPLINE
  5
2F3
100
AcDbEntity
  8
0
100
AcDbSpline
 62
7
  6
CONTINUOUS
 70
0
 71
3
 72
39
 73
35
 74
0
 42
0.0000001
 43
0.0000001
 44
0.0000000001
 40
0.0
 40
0.0
 40
0.0
 40
0.0
 40
0.0189207966
 40
0.0372305348
 40
0.0550542325
 40
0.0724822351
 40
0.1063471836
 40
0.1228752505
 40
0.1391807571
 40
0.171207758
 40
0.2025842549
 40
0.2334432417
 40
0.2638984405
 40
0.2940325334
 40
0.3239014194
 40
0.3830310758
 40
0.4416392352
 40
0.5000000007
 40
0.5583607662
 40
0.6169689255
 40
0.6760985819
 40
0.7059674678
 40
0.7361015607
 40
0.7665567595
 40
0.7974157462
 40
0.828792243
 40
0.8608192437
 40
0.8771247503
 40
0.8936528172
 40
0.9275177655
 40
0.944945768
 40
0.9627694655
 40
0.9810792036
 40
1.0
 40
1.0
 40
1.0
 40
1.0
 10
4.5559520549
 20
3.9273623134
 30
0.0
 10
4.5569744991
 20
3.9274368431
 30
0.0
 10
4.5589833958
 20
3.9276280019
 30
0.0
 10
4.5619392202
 20
3.9280344224
 30
0.0
 10
4.5647983464
 20
3.928535123
 30
0.0
 10
4.5684645787
 20
3.9293009063
 30
0.0
 10
4.5720246329
 20
3.9302219879
 30
0.0
 10
4.5754819858
 20
3.9312748873
 30
0.0
 10
4.5788164357
 20
3.9323856756
 30
0.0
 10
4.5828605714
 20
3.9339066799
 30
0.0
 10
4.5875499715
 20
3.9359345921
 30
0.0
 10
4.5920665142
 20
3.9381341599
 30
0.0
 10
4.5964305142
 20
3.9404831107
 30
0.0
 10
4.6006573416
 20
3.9429663872
 30
0.0
 10
4.6060993311
 20
3.9464398213
 30
0.0
 10
4.6126070456
 20
3.9511004253
 30
0.0
 10
4.619981728
 20
3.9571649275
 30
0.0
 10
4.6269133166
 20
3.9636703436
 30
0.0
 10
4.6334187327
 20
3.9706019322
 30
0.0
 10
4.6394832351
 20
3.9779766146
 30
0.0
 10
4.644143839
 20
3.984484329
 30
0.0
 10
4.6476172731
 20
3.9899263185
 30
0.0
 10
4.6501005497
 20
3.9941531459
 30
0.0
 10
4.6524495005
 20
3.9985171459
 30
0.0
 10
4.6546490684
 20
4.0030336886
 30
0.0
 10
4.6566769806
 20
4.0077230886
 30
0.0
 10
4.6581979848
 20
4.0117672243
 30
0.0
 10
4.6593087732
 20
4.0151016742
 30
0.0
 10
4.6603616727
 20
4.0185590271
 30
0.0
 10
4.6612827542
 20
4.0221190813
 30
0.0
 10
4.6620485376
 20
4.0257853135
 30
0.0
 10
4.6625492382
 20
4.0286444397
 30
0.0
 10
4.6629556587
 20
4.031600264
 30
0.0
 10
4.6631468176
 20
4.0336091607
 30
0.0
 10
4.6632213472
 20
4.0346316049
 30
0.0
  0
SPLINE
  5
2F4
100
AcDbEntity
  8
ALL_ASSEMBLY_MEMBERS
100
AcDbSpline
 62
7
  6
CONTINUOUS
 70
0
 71
3
 72
13
 73
9
 74
0
 42
0.0000001
 43
0.0000001
 44
0.0000000001
 40
0.0
 40
0.0
 40
0.0
 40
0.0
 40
0.0960360586
 40
0.3403864203
 40
0.4952946549
 40
0.6615452744
 40
0.8320865433
 40
1.0
 40
1.0
 40
1.0
 40
1.0
 10
4.3020773883
 20
3.1921138118
 30
0.0
 10
4.3014093275
 20
3.1951326668
 30
0.0
 10
4.2991675708
 20
3.2058626787
 30
0.0
 10
4.2965889507
 20
3.2216144115
 30
0.0
 10
4.294672551
 20
3.2397278003
 30
0.0
 10
4.293759605
 20
3.2555407869
 30
0.0
 10
4.2936577938
 20
3.271798704
 30
0.0
 10
4.2941544912
 20
3.2826909308
 30
0.0
 10
4.2945364108
 20
3.2880841164
 30
0.0
  0
SPLINE
  5
2F5
100
AcDbEntity
  8
ALL_ASSEMBLY_MEMBERS
100
AcDbSpline
 62
7
  6
CONTINUOUS
 70
0
 71
3
 72
11
 73
7
 74
0
 42
0.0000001
 43
0.0000001
 44
0.0000000001
 40
0.0
 40
0.0
 40
0.0
 40
0.0
 40
0.3821818127
 40
0.7015761899
 40
0.9206286881
 40
1.0
 40
1.0
 40
1.0
 40
1.0
 10
4.2945364108
 20
3.2880841164
 30
0.0
 10
4.2950009852
 20
3.2946444919
 30
0.0
 10
4.2962237725
 20
3.3066643736
 30
0.0
 10
4.2986636388
 20
3.322323406
 30
0.0
 10
4.3006988833
 20
3.3327602421
 30
0.0
 10
4.301782296
 20
3.3377802186
 30
0.0
 10
4.3020773883
 20
3.3391138118
 30
0.0
  0
LINE
  5
2F6
100
AcDbEntity
  8
0
100
AcDbLine
 62
7
  6
CONTINUOUS
 10
4.754047231
 20
4.8184834082
 11
4.7541856959
 21
4.8184642037
  0
LINE
  5
2F7
100
AcDbEntity
  8
0
100
AcDbLine
 62
7
  6
CONTINUOUS
 10
4.7541856959
 20
4.8184642037
 11
4.7545635922
 21
4.8184512384
  0
LINE
  5
2F8
100
AcDbEntity
  8
0
100
AcDbLine
 62
7
  6
CONTINUOUS
 10
4.7545635922
 20
4.8184512384
 11
4.7551788729
 21
4.818443093
  0
LINE
  5
2F9
100
AcDbEntity
  8
0
100
AcDbLine
 62
7
  6
CONTINUOUS
 10
4.7445522506
 20
4.8183520208
 11
4.7471113538
 21
4.8185285503
  0
LINE
  5
2FA
100
AcDbEntity
  8
0
100
AcDbLine
 62
7
  6
CONTINUOUS
 10
4.7934629084
 20
4.8196431159
 11
4.7969912187
 21
4.8196996764
  0
LINE
  5
2FB
100
AcDbEntity
  8
0
100
AcDbLine
 62
7
  6
CONTINUOUS
 10
4.8133622165
 20
4.8199295793
 11
4.8156008026
 21
4.8199579341
  0
LINE
  5
2FC
100
AcDbEntity
  8
0
100
AcDbLine
 62
7
  6
CONTINUOUS
 10
4.8156008026
 20
4.8199579341
 11
4.8171454413
 21
4.8199771785
  0
LINE
  5
2FD
100
AcDbEntity
  8
0
100
AcDbLine
 62
7
  6
CONTINUOUS
 10
4.7897009823
 20
4.8195789354
 11
4.7934629084
 21
4.8196431159
  0
LINE
  5
2FE
100
AcDbEntity
  8
0
100
AcDbLine
 62
7
  6
CONTINUOUS
 10
4.7484917647
 20
4.8185855863
 11
4.7611764822
 21
4.8189709697
  0
LINE
  5
2FF
100
AcDbEntity
  8
0
100
AcDbLine
 62
7
  6
CONTINUOUS
 10
4.7611764822
 20
4.8189709697
 11
4.764117454
 21
4.8190441826
  0
LINE
  5
300
100
AcDbEntity
  8
0
100
AcDbLine
 62
7
  6
CONTINUOUS
 10
4.764117454
 20
4.8190441826
 11
4.7672854655
 21
4.8191194923
  0
LINE
  5
301
100
AcDbEntity
  8
0
100
AcDbLine
 62
7
  6
CONTINUOUS
 10
4.7672854655
 20
4.8191194923
 11
4.7706819326
 21
4.8191969454
  0
LINE
  5
302
100
AcDbEntity
  8
0
100
AcDbLine
 62
7
  6
CONTINUOUS
 10
4.894681455
 20
4.8215832249
 11
4.8960060022
 21
4.8215340027
  0
SPLINE
  5
303
100
AcDbEntity
  8
0
100
AcDbSpline
 62
7
  6
CONTINUOUS
 70
0
 71
3
 72
9
 73
5
 74
0
 42
0.0000001
 43
0.0000001
 44
0.0000000001
 40
0.0
 40
0.0
 40
0.0
 40
0.0
 40
0.3879710723
 40
1.0
 40
1.0
 40
1.0
 40
1.0
 10
4.8960060022
 20
4.8215340027
 30
0.0
 10
4.8960079264
 20
4.8215334715
 30
0.0
 10
4.8960123505
 20
4.8215319702
 30
0.0
 10
4.896019113
 20
4.8215297252
 30
0.0
 10
4.8960193104
 20
4.8215265825
 30
0.0
  0
LINE
  5
304
100
AcDbEntity
  8
0
100
AcDbLine
 62
7
  6
CONTINUOUS
 10
4.8870619356
 20
4.8215713837
 11
4.8931559648
 21
4.8215951728
  0
LINE
  5
305
100
AcDbEntity
  8
0
100
AcDbLine
 62
7
  6
CONTINUOUS
 10
4.8605352183
 20
4.8211600373
 11
4.8666652282
 21
4.8212749365
  0
LINE
  5
306
100
AcDbEntity
  8
0
100
AcDbLine
 62
7
  6
CONTINUOUS
 10
4.8666652282
 20
4.8212749365
 11
4.8726447994
 21
4.8213776814
  0
LINE
  5
307
100
AcDbEntity
  8
0
100
AcDbLine
 62
7
  6
CONTINUOUS
 10
4.8726447994
 20
4.8213776814
 11
4.8755827471
 21
4.8214246988
  0
LINE
  5
308
100
AcDbEntity
  8
0
100
AcDbLine
 62
7
  6
CONTINUOUS
 10
4.8451501432
 20
4.8208318708
 11
4.8480938196
 21
4.8208989516
  0
LINE
  5
309
100
AcDbEntity
  8
0
100
AcDbLine
 62
7
  6
CONTINUOUS
 10
4.8171454413
 20
4.8199771785
 11
4.8207600223
 21
4.8201163955
  0
LINE
  5
30A
100
AcDbEntity
  8
0
100
AcDbLine
 62
7
  6
CONTINUOUS
 10
4.8207600223
 20
4.8201163955
 11
4.8214695377
 21
4.820142974
  0
LINE
  5
30B
100
AcDbEntity
  8
0
100
AcDbLine
 62
7
  6
CONTINUOUS
 10
4.925647948
 20
4.8215169169
 11
4.9307015268
 21
4.821549227
  0
LINE
  5
30C
100
AcDbEntity
  8
0
100
AcDbLine
 62
7
  6
CONTINUOUS
 10
4.8947796554
 20
4.8210610064
 11
4.8960271972
 21
4.8210861357
  0
LINE
  5
30D
100
AcDbEntity
  8
0
100
AcDbLine
 62
7
  6
CONTINUOUS
 10
4.8960271972
 20
4.8210861357
 11
4.9051130556
 21
4.8212693667
  0
LINE
  5
30E
100
AcDbEntity
  8
0
100
AcDbLine
 62
7
  6
CONTINUOUS
 10
4.9051130556
 20
4.8212693667
 11
4.9155330614
 21
4.8214799556
  0
SPLINE
  5
30F
100
AcDbEntity
  8
0
100
AcDbSpline
 62
7
  6
CONTINUOUS
 70
0
 71
3
 72
9
 73
5
 74
0
 42
0.0000001
 43
0.0000001
 44
0.0000000001
 40
0.0
 40
0.0
 40
0.0
 40
0.0
 40
0.7081424666
 40
1.0
 40
1.0
 40
1.0
 40
1.0
 10
4.8870385541
 20
4.8213813383
 30
0.0
 10
4.8870429069
 20
4.821382251
 30
0.0
 10
4.8870479886
 20
4.8213835527
 30
0.0
 10
4.8870557054
 20
4.8213863644
 30
0.0
 10
4.8870557911
 20
4.8213881953
 30
0.0
  0
LINE
  5
310
100
AcDbEntity
  8
0
100
AcDbLine
 62
7
  6
CONTINUOUS
 10
3.1611096014
 20
4.8213296307
 11
3.1613734603
 21
4.8212944726
  0
LINE
  5
311
100
AcDbEntity
  8
0
100
AcDbLine
 62
7
  6
CONTINUOUS
 10
3.190588326
 20
4.8207728969
 11
3.1701591913
 21
4.8212374746
  0
LINE
  5
312
100
AcDbEntity
  8
0
100
AcDbLine
 62
7
  6
CONTINUOUS
 10
3.1701591913
 20
4.8212374746
 11
3.1610742104
 21
4.8214441458
  0
LINE
  5
313
100
AcDbEntity
  8
0
100
AcDbLine
 62
7
  6
CONTINUOUS
 10
3.1610742104
 20
4.8214441458
 11
3.1574177228
 21
4.8215273378
  0
LINE
  5
314
100
AcDbEntity
  8
0
100
AcDbLine
 62
7
  6
CONTINUOUS
 10
3.1574177228
 20
4.8215273378
 11
3.1495441316
 21
4.8217064989
  0
LINE
  5
315
100
AcDbEntity
  8
0
100
AcDbLine
 62
7
  6
CONTINUOUS
 10
3.1947552159
 20
4.8210693988
 11
3.1950182365
 21
4.820996737
  0
LINE
  5
316
100
AcDbEntity
  8
0
100
AcDbLine
 62
7
  6
CONTINUOUS
 10
3.3040922856
 20
4.8187522359
 11
3.3059910428
 21
4.8187090058
  0
LINE
  5
317
100
AcDbEntity
  8
0
100
AcDbLine
 62
7
  6
CONTINUOUS
 10
3.3146929561
 20
4.818522841
 11
3.3176623543
 21
4.8184660817
  0
LINE
  5
318
100
AcDbEntity
  8
0
100
AcDbLine
 62
7
  6
CONTINUOUS
 10
3.3176623543
 20
4.8184660817
 11
3.3190095749
 21
4.8184423937
  0
LINE
  5
319
100
AcDbEntity
  8
0
100
AcDbLine
 62
7
  6
CONTINUOUS
 10
3.1831914005
 20
4.8215287687
 11
3.1910652299
 21
4.8213479669
  0
LINE
  5
31A
100
AcDbEntity
  8
0
100
AcDbLine
 62
7
  6
CONTINUOUS
 10
3.1910652299
 20
4.8213479669
 11
3.1947216306
 21
4.8212640073
  0
LINE
  5
31B
100
AcDbEntity
  8
0
100
AcDbLine
 62
7
  6
CONTINUOUS
 10
3.1947216306
 20
4.8212640073
 11
3.2034828635
 21
4.8210628292
  0
LINE
  5
31C
100
AcDbEntity
  8
0
100
AcDbLine
 62
7
  6
CONTINUOUS
 10
3.2840834545
 20
4.819212078
 11
3.3040922869
 21
4.8187526429
  0
LINE
  5
31D
100
AcDbEntity
  8
0
100
AcDbLine
 62
7
  6
CONTINUOUS
 10
3.3469395462
 20
4.8185176587
 11
3.3479884703
 21
4.818541341
  0
LINE
  5
31E
100
AcDbEntity
  8
0
100
AcDbLine
 62
7
  6
CONTINUOUS
 10
3.3479884703
 20
4.818541341
 11
3.3480992856
 21
4.8185589742
  0
LINE
  5
31F
100
AcDbEntity
  8
0
100
AcDbLine
 62
7
  6
CONTINUOUS
 10
3.3499992303
 20
4.8187228686
 11
3.3548290449
 21
4.8184860015
  0
LINE
  5
320
100
AcDbEntity
  8
0
100
AcDbLine
 62
7
  6
CONTINUOUS
 10
3.3548290449
 20
4.8184860015
 11
3.3555012586
 21
4.8184249322
  0
LINE
  5
321
100
AcDbEntity
  8
0
100
AcDbLine
 62
7
  6
CONTINUOUS
 10
3.3555012586
 20
4.8184249322
 11
3.3557069704
 21
4.8183758643
  0
LINE
  5
322
100
AcDbEntity
  8
0
100
AcDbLine
 62
7
  6
CONTINUOUS
 10
3.3174117797
 20
4.8196411979
 11
3.3266970557
 21
4.8194217121
  0
LINE
  5
323
100
AcDbEntity
  8
0
100
AcDbLine
 62
7
  6
CONTINUOUS
 10
3.3476576207
 20
4.8188119282
 11
3.3481191584
 21
4.8187949896
  0
LINE
  5
324
100
AcDbEntity
  8
0
100
AcDbLine
 62
7
  6
CONTINUOUS
 10
3.3042628339
 20
4.8199238506
 11
3.3086687548
 21
4.8198326397
  0
LINE
  5
325
100
AcDbEntity
  8
0
100
AcDbLine
 62
7
  6
CONTINUOUS
 10
3.3086687548
 20
4.8198326397
 11
3.3174117797
 21
4.8196411979
  0
LINE
  5
326
100
AcDbEntity
  8
0
100
AcDbLine
 62
7
  6
CONTINUOUS
 10
3.2728053858
 20
4.8204703565
 11
3.2780341467
 21
4.8203933357
  0
LINE
  5
327
100
AcDbEntity
  8
0
100
AcDbLine
 62
7
  6
CONTINUOUS
 10
3.2445129811
 20
4.8212273783
 11
3.2291090249
 21
4.8216741772
  0
LINE
  5
328
100
AcDbEntity
  8
0
100
AcDbLine
 62
7
  6
CONTINUOUS
 10
4.8960193104
 20
4.8215265825
 11
4.8938446983
 21
4.8213913303
  0
LINE
  5
329
100
AcDbEntity
  8
0
100
AcDbLine
 62
7
  6
CONTINUOUS
 10
4.7582285404
 20
4.818687794
 11
4.7541561928
 21
4.8185049758
  0
LINE
  5
32A
100
AcDbEntity
  8
0
100
AcDbLine
 62
7
  6
CONTINUOUS
 10
4.7541561928
 20
4.8185049758
 11
4.754047231
 21
4.8184834082
  0
LINE
  5
32B
100
AcDbEntity
  8
0
100
AcDbLine
 62
7
  6
CONTINUOUS
 10
4.8133617311
 20
4.819830309
 11
4.8112151407
 21
4.8198004072
  0
LINE
  5
32C
100
AcDbEntity
  8
0
100
AcDbLine
 62
7
  6
CONTINUOUS
 10
4.8112151407
 20
4.8198004072
 11
4.8090370913
 21
4.8197691544
  0
LINE
  5
32D
100
AcDbEntity
  8
0
100
AcDbLine
 62
7
  6
CONTINUOUS
 10
4.8090370913
 20
4.8197691544
 11
4.7999271889
 21
4.8196277501
  0
LINE
  5
32E
100
AcDbEntity
  8
0
100
AcDbLine
 62
7
  6
CONTINUOUS
 10
4.7792754382
 20
4.8192343706
 11
4.7766578599
 21
4.8191766039
  0
LINE
  5
32F
100
AcDbEntity
  8
0
100
AcDbLine
 62
7
  6
CONTINUOUS
 10
4.8960282445
 20
4.8210335649
 11
4.8972865743
 21
4.8210589107
  0
LINE
  5
330
100
AcDbEntity
  8
0
100
AcDbLine
 62
7
  6
CONTINUOUS
 10
4.8972865743
 20
4.8210589107
 11
4.8993321764
 21
4.8210638092
  0
LINE
  5
331
100
AcDbEntity
  8
0
100
AcDbLine
 62
7
  6
CONTINUOUS
 10
4.8993321764
 20
4.8210638092
 11
4.9013773684
 21
4.8210702562
  0
LINE
  5
332
100
AcDbEntity
  8
0
100
AcDbLine
 62
7
  6
CONTINUOUS
 10
4.9013773684
 20
4.8210702562
 11
4.9034221506
 21
4.8210782494
  0
LINE
  5
333
100
AcDbEntity
  8
0
100
AcDbLine
 62
7
  6
CONTINUOUS
 10
4.9034221506
 20
4.8210782494
 11
4.9095540382
 21
4.8211114769
  0
LINE
  5
334
100
AcDbEntity
  8
0
100
AcDbLine
 62
7
  6
CONTINUOUS
 10
4.9095540382
 20
4.8211114769
 11
4.9236149381
 21
4.821402362
  0
LINE
  5
335
100
AcDbEntity
  8
0
100
AcDbLine
 62
7
  6
CONTINUOUS
 10
4.9236149381
 20
4.821402362
 11
4.9307015268
 21
4.821549227
  0
LINE
  5
336
100
AcDbEntity
  8
0
100
AcDbLine
 62
7
  6
CONTINUOUS
 10
3.3110871199
 20
4.81842156
 11
3.3107165294
 21
4.8184442907
  0
LINE
  5
337
100
AcDbEntity
  8
0
100
AcDbLine
 62
7
  6
CONTINUOUS
 10
3.3557069704
 20
4.8183758643
 11
3.3522329828
 21
4.8182617711
  0
LINE
  5
338
100
AcDbEntity
  8
0
100
AcDbLine
 62
7
  6
CONTINUOUS
 10
3.1613734603
 20
4.8212944726
 11
3.1574144584
 21
4.8213838652
  0
LINE
  5
339
100
AcDbEntity
  8
0
100
AcDbLine
 62
7
  6
CONTINUOUS
 10
3.161824166
 20
4.8213340099
 11
3.1610749066
 21
4.8213340431
  0
LINE
  5
33A
100
AcDbEntity
  8
0
100
AcDbLine
 62
7
  6
CONTINUOUS
 10
3.1728044733
 20
4.8211069609
 11
3.161824166
 21
4.8213340099
  0
LINE
  5
33B
100
AcDbEntity
  8
0
100
AcDbLine
 62
7
  6
CONTINUOUS
 10
3.1884159375
 20
4.8207531378
 11
3.1728045341
 21
4.8211069595
  0
LINE
  5
33C
100
AcDbEntity
  8
0
100
AcDbLine
 62
7
  6
CONTINUOUS
 10
3.1574144584
 20
4.8213838652
 11
3.1534777222
 21
4.8215395223
  0
LINE
  5
33D
100
AcDbEntity
  8
0
100
AcDbLine
 62
7
  6
CONTINUOUS
 10
3.1534777222
 20
4.8215395223
 11
3.1495441316
 21
4.8217064989
  0
LINE
  5
33E
100
AcDbEntity
  8
0
100
AcDbLine
 62
7
  6
CONTINUOUS
 10
3.1950183702
 20
4.8210031751
 11
3.1910593965
 21
4.8210939221
  0
LINE
  5
33F
100
AcDbEntity
  8
0
100
AcDbLine
 62
7
  6
CONTINUOUS
 10
3.1954696748
 20
4.8210854744
 11
3.1947204514
 21
4.8210717686
  0
LINE
  5
340
100
AcDbEntity
  8
0
100
AcDbLine
 62
7
  6
CONTINUOUS
 10
3.2064506331
 20
4.8208726652
 11
3.2031479732
 21
4.8209468692
  0
LINE
  5
341
100
AcDbEntity
  8
0
100
AcDbLine
 62
7
  6
CONTINUOUS
 10
3.2031479732
 20
4.8209468692
 11
3.1954696748
 21
4.8210854744
  0
LINE
  5
342
100
AcDbEntity
  8
0
100
AcDbLine
 62
7
  6
CONTINUOUS
 10
3.2983190865
 20
4.8187645089
 11
3.2831362507
 21
4.819112891
  0
LINE
  5
343
100
AcDbEntity
  8
0
100
AcDbLine
 62
7
  6
CONTINUOUS
 10
3.2831362507
 20
4.819112891
 11
3.2679019856
 21
4.8194624647
  0
LINE
  5
344
100
AcDbEntity
  8
0
100
AcDbLine
 62
7
  6
CONTINUOUS
 10
3.3107165294
 20
4.8184442907
 11
3.3096084301
 21
4.8184841401
  0
LINE
  5
345
100
AcDbEntity
  8
0
100
AcDbLine
 62
7
  6
CONTINUOUS
 10
3.3096084301
 20
4.8184841401
 11
3.300386897
 21
4.8187162343
  0
LINE
  5
346
100
AcDbEntity
  8
0
100
AcDbLine
 62
7
  6
CONTINUOUS
 10
3.300386897
 20
4.8187162343
 11
3.2993668859
 21
4.8187401231
  0
LINE
  5
347
100
AcDbEntity
  8
0
100
AcDbLine
 62
7
  6
CONTINUOUS
 10
3.2993668859
 20
4.8187401231
 11
3.2983190862
 21
4.8187645089
  0
LINE
  5
348
100
AcDbEntity
  8
0
100
AcDbLine
 62
7
  6
CONTINUOUS
 10
3.3135439623
 20
4.8182919467
 11
3.3109563734
 21
4.8183512238
  0
LINE
  5
349
100
AcDbEntity
  8
0
100
AcDbLine
 62
7
  6
CONTINUOUS
 10
3.3135439623
 20
4.8182919467
 11
3.3166711903
 21
4.8182778935
  0
LINE
  5
34A
100
AcDbEntity
  8
0
100
AcDbLine
 62
7
  6
CONTINUOUS
 10
3.3166711903
 20
4.8182778935
 11
3.3229271982
 21
4.8182586882
  0
LINE
  5
34B
100
AcDbEntity
  8
0
100
AcDbLine
 62
7
  6
CONTINUOUS
 10
3.3480992856
 20
4.8185589742
 11
3.3446737579
 21
4.8187415762
  0
LINE
  5
34C
100
AcDbEntity
  8
0
100
AcDbLine
 62
7
  6
CONTINUOUS
 10
3.1910593965
 20
4.8210939221
 11
3.1871296527
 21
4.8213058627
  0
LINE
  5
34D
100
AcDbEntity
  8
0
100
AcDbLine
 62
7
  6
CONTINUOUS
 10
3.1871296527
 20
4.8213058627
 11
3.1831914005
 21
4.8215287687
  0
LINE
  5
34E
100
AcDbEntity
  8
0
100
AcDbLine
 62
7
  6
CONTINUOUS
 10
3.2616964203
 20
4.8202458864
 11
3.256041835
 21
4.8202726552
  0
LINE
  5
34F
100
AcDbEntity
  8
0
100
AcDbLine
 62
7
  6
CONTINUOUS
 10
3.3264511594
 20
4.8192551996
 11
3.3221519476
 21
4.8193552348
  0
LINE
  5
350
100
AcDbEntity
  8
0
100
AcDbLine
 62
7
  6
CONTINUOUS
 10
3.3522329828
 20
4.8182617711
 11
3.3434653253
 21
4.8182967027
  0
LINE
  5
351
100
AcDbEntity
  8
0
100
AcDbLine
 62
7
  6
CONTINUOUS
 10
3.2298626113
 20
4.8211162912
 11
3.2371915951
 21
4.8211650062
  0
LINE
  5
352
100
AcDbEntity
  8
0
100
AcDbLine
 62
7
  6
CONTINUOUS
 10
3.2371915951
 20
4.8211650062
 11
3.2435974963
 21
4.821218834
  0
LINE
  5
353
100
AcDbEntity
  8
0
100
AcDbLine
 62
7
  6
CONTINUOUS
 10
3.2435974963
 20
4.821218834
 11
3.2445129811
 21
4.8212273783
  0
LINE
  5
354
100
AcDbEntity
  8
0
100
AcDbLine
 62
7
  6
CONTINUOUS
 10
3.256041835
 20
4.8202726552
 11
3.2412634462
 21
4.8206849798
  0
LINE
  5
355
100
AcDbEntity
  8
0
100
AcDbLine
 62
7
  6
CONTINUOUS
 10
3.2337851654
 20
4.8208942138
 11
3.2262474937
 21
4.8211054907
  0
LINE
  5
356
100
AcDbEntity
  8
0
100
AcDbLine
 62
7
  6
CONTINUOUS
 10
3.2262474937
 20
4.8211054907
 11
3.2109939771
 21
4.8215341594
  0
LINE
  5
357
100
AcDbEntity
  8
0
100
AcDbLine
 62
7
  6
CONTINUOUS
 10
4.8870557911
 20
4.8213881953
 11
4.8865104439
 21
4.8214155642
  0
LINE
  5
358
100
AcDbEntity
  8
0
100
AcDbLine
 62
7
  6
CONTINUOUS
 10
4.7465268929
 20
4.8182795828
 11
4.744654716
 21
4.8183285304
  0
LINE
  5
359
100
AcDbEntity
  8
0
100
AcDbLine
 62
7
  6
CONTINUOUS
 10
4.744654716
 20
4.8183285304
 11
4.7445522506
 21
4.8183520208
  0
LINE
  5
35A
100
AcDbEntity
  8
0
100
AcDbLine
 62
7
  6
CONTINUOUS
 10
4.7534774239
 20
4.8182983378
 11
4.7473758451
 21
4.8182744034
  0
LINE
  5
35B
100
AcDbEntity
  8
0
100
AcDbLine
 62
7
  6
CONTINUOUS
 10
4.8266645635
 20
4.8199163516
 11
4.8254026517
 21
4.8198701295
  0
LINE
  5
35C
100
AcDbEntity
  8
0
100
AcDbLine
 62
7
  6
CONTINUOUS
 10
4.8165326888
 20
4.8195856072
 11
4.8147692744
 21
4.8195361197
  0
LINE
  5
35D
100
AcDbEntity
  8
0
100
AcDbLine
 62
7
  6
CONTINUOUS
 10
4.8344163023
 20
4.8201384571
 11
4.832442142
 21
4.8201128043
  0
LINE
  5
35E
100
AcDbEntity
  8
0
100
AcDbLine
 62
7
  6
CONTINUOUS
 10
4.832442142
 20
4.8201128043
 11
4.8311938761
 21
4.8200971416
  0
LINE
  5
35F
100
AcDbEntity
  8
0
100
AcDbLine
 62
7
  6
CONTINUOUS
 10
4.8490547307
 20
4.820742227
 11
4.8467681059
 21
4.820675039
  0
LINE
  5
360
100
AcDbEntity
  8
0
100
AcDbLine
 62
7
  6
CONTINUOUS
 10
4.8360140511
 20
4.8202979053
 11
4.8346258342
 21
4.8202399559
  0
LINE
  5
361
100
AcDbEntity
  8
0
100
AcDbLine
 62
7
  6
CONTINUOUS
 10
4.8860203388
 20
4.8214208814
 11
4.8804984322
 21
4.8213845548
  0
LINE
  5
362
100
AcDbEntity
  8
0
100
AcDbLine
 62
7
  6
CONTINUOUS
 10
4.8804984322
 20
4.8213845548
 11
4.8783205028
 21
4.8213559394
  0
LINE
  5
363
100
AcDbEntity
  8
0
100
AcDbLine
 62
7
  6
CONTINUOUS
 10
4.8783205028
 20
4.8213559394
 11
4.8758118368
 21
4.8213190235
  0
ENDSEC
  0
SECTION
  2
OBJECTS
  0
DICTIONARY
  5
C
100
AcDbDictionary
280
0
281
1
  3
ACAD_GROUP
350
D
  3
ACAD_MLINESTYLE
350
17
  3
ACAD_LAYOUT
350
1A
  3
ACAD_PLOTSETTINGS
350
19
  3
ACAD_PLOTSTYLENAME
350
E
  0
DICTIONARY
  5
D
102
{ACAD_REACTORS
330
C
102
}
100
AcDbDictionary
280
0
281
1
  0
ACDBDICTIONARYWDFLT
  5
E
102
{ACAD_REACTORS
330
C
102
}
100
AcDbDictionary
281
1
  3
Normal
350
F
100
AcDbDictionaryWithDefault
340
F
  0
DICTIONARY
  5
17
102
{ACAD_REACTORS
330
C
102
}
100
AcDbDictionary
280
0
281
1
  3
Standard
350
18
  0
DICTIONARY
  5
19
102
{ACAD_REACTORS
330
C
102
}
100
AcDbDictionary
281
1
  0
DICTIONARY
  5
1A
102
{ACAD_REACTORS
330
C
102
}
100
AcDbDictionary
281
1
  3
Model
350
364
  3
Layout1
350
365
  0
ACDBPLACEHOLDER
  5
F
102
{ACAD_REACTORS
330
E
102
}
  0
MLINESTYLE
  5
18
102
{ACAD_REACTORS
330
17
102
}
100
AcDbMlineStyle
  2
STANDARD
 70
0
  3

 62
256
 51
90.0
 52
90.0
 71
2
 49
0.5
 62
256
  6
BYLAYER
 49
-0.5
 62
256
  6
BYLAYER
  0
LAYOUT
  5
364
102
{ACAD_REACTORS
330
1A
102
}
100
AcDbPlotSettings
  1

  2
none_device
  4
ANSI_A_(11.00_x_8.50_Inches)
  6

 40
0.0
 41
0.0
 42
0.0
 43
0.0
 44
279.4
 45
215.9
 46
0.0
 47
0.0
 48
0.0
 49
0.0
140
0.0
141
0.0
142
1.0
143
1.0
 70
1024
 72
0
 73
0
 74
0
  7

 75
0
147
1.0
148
0.0
149
0.0
100
AcDbLayout
  1
Model
 70
0
 71
0
 10
0.0
 20
0.0
 11
11.0
 21
8.5
 12
0.0
 22
0.0
 32
0.0
 14
0.0
 24
0.0
 34
0.0
 15
0.0
 25
0.0
 35
0.0
146
0.0
 13
0.0
 23
0.0
 33
0.0
 16
1.0
 26
0.0
 36
0.0
 17
0.0
 27
1.0
 37
0.0
 76
0
330
21C
345
0
346
0
  0
LAYOUT
  5
365
102
{ACAD_REACTORS
330
1A
102
}
100
AcDbPlotSettings
  1

  2
none_device
  4
ANSI_A_(11.00_x_8.50_Inches)
  6

 40
0.0
 41
0.0
 42
0.0
 43
0.0
 44
279.4
 45
215.9
 46
0.0
 47
0.0
 48
0.0
 49
0.0
140
0.0
141
0.0
142
1.0
143
1.0
 70
0
 72
0
 73
0
 74
0
  7

 75
0
147
1.0
148
0.0
149
0.0
100
AcDbLayout
  1
Layout1
 70
0
 71
1
 10
0.0
 20
0.0
 11
11.0
 21
8.5
 12
0.0
 22
0.0
 32
0.0
 14
0.0
 24
0.0
 34
0.0
 15
0.0
 25
0.0
 35
0.0
146
0.0
 13
0.0
 23
0.0
 33
0.0
 16
1.0
 26
0.0
 36
0.0
 17
0.0
 27
1.0
 37
0.0
 76
0
330
21D
345
0
346
0
  0
ENDSEC
  0
EOF
