999
DXF file: 3-804tr_RIGHT.dxf
999
Pro/ENGINEER 2018400 by Parametric Technology Corporation
  0
SECTION
  2
HEADER
  9
$ACADVER
  1
AC1027
  9
$DWGCODEPAGE
  3
ANSI_1252
  9
$EXTMAX
 10
11.0
 20
8.5
 30
0.0
  9
$EXTMIN
 10
0.0
 20
0.0
 30
0.0
  9
$LIMMIN
 10
0.0
 20
0.0
  9
$LIMMAX
 10
11.0
 20
8.5
  9
$VIEWCTR
 10
5.5
 20
4.25
  9
$VIEWSIZE
 40
8.5
  9
$CLAYER
  8
0
  9
$LTSCALE
 40
0.605
  9
$CELTYPE
  6
BYLAYER
  9
$DIMSCALE
 40
1.0
  9
$DIMASZ
 40
0.1
  9
$DIMEXO
 40
0.0625
  9
$DIMDLI
 40
0.418
  9
$DIMEXE
 40
0.125
  9
$DIMCEN
 40
0.099
  9
$DIMLFAC
 40
1.0
  9
$DIMBLK
  1
_FILLED
  9
$DIMALT
 70
1
  9
$DIMALTD
 70
2
  9
$DIMALTTD
 70
2
  9
$DIMALTF
 40
25.4
  9
$DIMTXT
 40
0.08
  9
$DIMTOL
 70
1
  9
$DIMLIM
 70
0
  9
$DIMTFAC
 40
1.0
  9
$DIMTP
 40
0.001
  9
$DIMTM
 40
0.001
  9
$DIMGAP
 40
0.09
  9
$DIMDSEP
 70
46
  9
$AUNITS
 70
0
  9
$PDMODE
 70
3
  9
$PDSIZE
 40
0.3125
  9
$HANDSEED
  5
416
  9
$TILEMODE
 70
1
  9
$MEASUREMENT
 70
0
  9
$INSUNITS
 70
1
  0
ENDSEC
  0
SECTION
  2
CLASSES
  0
CLASS
  1
ACDBDICTIONARYWDFLT
  2
AcDbDictionaryWithDefault
  3
AutoCAD 2000
 90
0
 91
1
280
0
281
0
  0
CLASS
  1
ACDBPLACEHOLDER
  2
AcDbPlaceHolder
  3
AutoCAD 2000
 90
0
 91
1
280
0
281
0
  0
CLASS
  1
LAYOUT
  2
AcDbLayout
  3
AutoCAD 2000
 90
0
 91
0
280
0
281
0
  0
ENDSEC
  0
SECTION
  2
TABLES
  0
TABLE
  2
VPORT
  5
8
100
AcDbSymbolTable
 70
2
  0
VPORT
  5
1F4
100
AcDbSymbolTableRecord
100
AcDbViewportTableRecord
  2
*ACTIVE
 70
0
 10
0.0
 20
0.0
 11
1.0
 21
1.0
 12
5.5
 22
4.25
 13
0.0
 23
0.0
 14
1.0
 24
1.0
 15
0.0
 25
0.0
 16
0.0
 26
0.0
 36
1.0
 17
0.0
 27
0.0
 37
0.0
 40
8.5
 41
1.2941176471
 42
50.0
 43
0.0
 44
0.0
 50
0.0
 51
0.0
 71
0
 72
100
 73
1
 74
1
 75
0
 76
0
 77
0
 78
0
  0
ENDTAB
  0
TABLE
  2
LTYPE
  5
5
100
AcDbSymbolTable
 70
6
  0
LTYPE
  5
14
100
AcDbSymbolTableRecord
100
AcDbLinetypeTableRecord
  2
BYBLOCK
 70
0
  3

 72
65
 73
0
 40
0.0
  0
LTYPE
  5
15
100
AcDbSymbolTableRecord
100
AcDbLinetypeTableRecord
  2
BYLAYER
 70
0
  3

 72
65
 73
0
 40
0.0
  0
LTYPE
  5
16
100
AcDbSymbolTableRecord
100
AcDbLinetypeTableRecord
  2
CONTINUOUS
 70
64
  3
Solid line
 72
65
 73
0
 40
0.0
  0
LTYPE
  5
1F5
100
AcDbSymbolTableRecord
100
AcDbLinetypeTableRecord
  2
CENTER
 70
64
  3
____ _ ____ _ ____ _ ____ _ ____ _ ____ _ ____
 72
65
 73
4
 40
0.6
 49
0.375
 74
0
 49
-0.075
 74
0
 49
0.075
 74
0
 49
-0.075
 74
0
  0
LTYPE
  5
1F6
100
AcDbSymbolTableRecord
100
AcDbLinetypeTableRecord
  2
HIDDEN
 70
64
  3
- - - - - - - - - - - - - - - - - - - -
 72
65
 73
2
 40
0.2
 49
0.1
 74
0
 49
-0.1
 74
0
  0
LTYPE
  5
1F7
100
AcDbSymbolTableRecord
100
AcDbLinetypeTableRecord
  2
PHANTOM
 70
64
  3
_____ _ _ _____ _ _ _____ _ _ _____
 72
65
 73
6
 40
0.8
 49
0.45
 74
0
 49
-0.05
 74
0
 49
0.1
 74
0
 49
-0.05
 74
0
 49
0.1
 74
0
 49
-0.05
 74
0
  0
LTYPE
  5
1F8
100
AcDbSymbolTableRecord
100
AcDbLinetypeTableRecord
  2
DOT
 70
64
  3
. . . . . . . . . . . . . . . . . . . .
 72
65
 73
2
 40
0.2
 49
0.1
 74
0
 49
-0.1
 74
0
  0
LTYPE
  5
1F9
100
AcDbSymbolTableRecord
100
AcDbLinetypeTableRecord
  2
DASHED
 70
64
  3
- - - - - - - - - - - - - - - - - - - -
 72
65
 73
2
 40
0.2
 49
0.1
 74
0
 49
-0.1
 74
0
  0
ENDTAB
  0
TABLE
  2
LAYER
  5
2
100
AcDbSymbolTable
 70
36
  0
LAYER
  5
10
100
AcDbSymbolTableRecord
100
AcDbLayerTableRecord
  2
0
 70
0
 62
7
  6
CONTINUOUS
370
-3
390
F
  0
LAYER
  5
1FA
100
AcDbSymbolTableRecord
100
AcDbLayerTableRecord
  2
DEFAULT_1
 70
0
 62
7
  6
CENTER
370
-3
390
F
  0
LAYER
  5
1FB
100
AcDbSymbolTableRecord
100
AcDbLayerTableRecord
  2
DEFAULT_2
 70
0
 62
8
  6
HIDDEN
370
-3
390
F
  0
LAYER
  5
1FC
100
AcDbSymbolTableRecord
100
AcDbLayerTableRecord
  2
DEFAULT_3
 70
0
 62
7
  6
PHANTOM
370
-3
390
F
  0
LAYER
  5
1FD
100
AcDbSymbolTableRecord
100
AcDbLayerTableRecord
  2
1_PLATE
 70
0
 62
7
  6
CONTINUOUS
370
-3
390
F
  0
LAYER
  5
1FE
100
AcDbSymbolTableRecord
100
AcDbLayerTableRecord
  2
2-265_ASSY_PLANES
 70
0
 62
7
  6
CONTINUOUS
370
-3
390
F
  0
LAYER
  5
1FF
100
AcDbSymbolTableRecord
100
AcDbLayerTableRecord
  2
ALL_ASSEMBLY_MEMBERS
 70
0
 62
7
  6
CONTINUOUS
370
-3
390
F
  0
LAYER
  5
200
100
AcDbSymbolTableRecord
100
AcDbLayerTableRecord
  2
ALL_FEATURES
 70
0
 62
7
  6
CONTINUOUS
370
-3
390
F
  0
LAYER
  5
201
100
AcDbSymbolTableRecord
100
AcDbLayerTableRecord
  2
AXES_FEATURES
 70
0
 62
7
  6
CONTINUOUS
370
-3
390
F
  0
LAYER
  5
202
100
AcDbSymbolTableRecord
100
AcDbLayerTableRecord
  2
CHAMFER_FEATURES
 70
0
 62
7
  6
CONTINUOUS
370
-3
390
F
  0
LAYER
  5
203
100
AcDbSymbolTableRecord
100
AcDbLayerTableRecord
  2
CUT_FEATURES
 70
0
 62
7
  6
CONTINUOUS
370
-3
390
F
  0
LAYER
  5
204
100
AcDbSymbolTableRecord
100
AcDbLayerTableRecord
  2
DATUM_CURVES
 70
0
 62
7
  6
CONTINUOUS
370
-3
390
F
  0
LAYER
  5
205
100
AcDbSymbolTableRecord
100
AcDbLayerTableRecord
  2
DATUM_PLANES
 70
0
 62
7
  6
CONTINUOUS
370
-3
390
F
  0
LAYER
  5
206
100
AcDbSymbolTableRecord
100
AcDbLayerTableRecord
  2
DATUM_POINTS
 70
0
 62
7
  6
CONTINUOUS
370
-3
390
F
  0
LAYER
  5
207
100
AcDbSymbolTableRecord
100
AcDbLayerTableRecord
  2
DEFAULT_COORDINATE_SYSTEM
 70
0
 62
7
  6
CONTINUOUS
370
-3
390
F
  0
LAYER
  5
208
100
AcDbSymbolTableRecord
100
AcDbLayerTableRecord
  2
DEFAULT_DATUM_AXES
 70
0
 62
7
  6
CONTINUOUS
370
-3
390
F
  0
LAYER
  5
209
100
AcDbSymbolTableRecord
100
AcDbLayerTableRecord
  2
DEFAULT_DATUM_CURVES
 70
0
 62
7
  6
CONTINUOUS
370
-3
390
F
  0
LAYER
  5
20A
100
AcDbSymbolTableRecord
100
AcDbLayerTableRecord
  2
DEFAULT_DATUM_PLANES
 70
0
 62
7
  6
CONTINUOUS
370
-3
390
F
  0
LAYER
  5
20B
100
AcDbSymbolTableRecord
100
AcDbLayerTableRecord
  2
DEFAULT_SURFACES
 70
0
 62
7
  6
CONTINUOUS
370
-3
390
F
  0
LAYER
  5
20C
100
AcDbSymbolTableRecord
100
AcDbLayerTableRecord
  2
DIMENSIONS
 70
0
 62
7
  6
CONTINUOUS
370
-3
390
F
  0
LAYER
  5
20D
100
AcDbSymbolTableRecord
100
AcDbLayerTableRecord
  2
HOLE_FEATURES
 70
0
 62
7
  6
CONTINUOUS
370
-3
390
F
  0
LAYER
  5
20E
100
AcDbSymbolTableRecord
100
AcDbLayerTableRecord
  2
NOTES
 70
0
 62
7
  6
CONTINUOUS
370
-3
390
F
  0
LAYER
  5
20F
100
AcDbSymbolTableRecord
100
AcDbLayerTableRecord
  2
PART_REFERENCE_DIMENSIONS
 70
0
 62
7
  6
CONTINUOUS
370
-3
390
F
  0
LAYER
  5
210
100
AcDbSymbolTableRecord
100
AcDbLayerTableRecord
  2
PLATED_SURFACE_AREA
 70
0
 62
7
  6
CONTINUOUS
370
-3
390
F
  0
LAYER
  5
211
100
AcDbSymbolTableRecord
100
AcDbLayerTableRecord
  2
POINTS
 70
0
 62
7
  6
CONTINUOUS
370
-3
390
F
  0
LAYER
  5
212
100
AcDbSymbolTableRecord
100
AcDbLayerTableRecord
  2
PROTRUSION
 70
0
 62
7
  6
CONTINUOUS
370
-3
390
F
  0
LAYER
  5
213
100
AcDbSymbolTableRecord
100
AcDbLayerTableRecord
  2
PROTRUSION_FEATURES
 70
0
 62
7
  6
CONTINUOUS
370
-3
390
F
  0
LAYER
  5
214
100
AcDbSymbolTableRecord
100
AcDbLayerTableRecord
  2
QUILT
 70
0
 62
7
  6
CONTINUOUS
370
-3
390
F
  0
LAYER
  5
215
100
AcDbSymbolTableRecord
100
AcDbLayerTableRecord
  2
QUILTS
 70
0
 62
7
  6
CONTINUOUS
370
-3
390
F
  0
LAYER
  5
216
100
AcDbSymbolTableRecord
100
AcDbLayerTableRecord
  2
REFERENCE_DIMENSIONS
 70
0
 62
7
  6
CONTINUOUS
370
-3
390
F
  0
LAYER
  5
217
100
AcDbSymbolTableRecord
100
AcDbLayerTableRecord
  2
ROUND_FEATURES
 70
0
 62
7
  6
CONTINUOUS
370
-3
390
F
  0
LAYER
  5
218
100
AcDbSymbolTableRecord
100
AcDbLayerTableRecord
  2
SHELL_FEATURES
 70
0
 62
7
  6
CONTINUOUS
370
-3
390
F
  0
LAYER
  5
219
100
AcDbSymbolTableRecord
100
AcDbLayerTableRecord
  2
XSEC_DATUMS
 70
0
 62
7
  6
CONTINUOUS
370
-3
390
F
  0
ENDTAB
  0
TABLE
  2
STYLE
  5
3
100
AcDbSymbolTable
 70
1
  0
STYLE
  5
11
100
AcDbSymbolTableRecord
100
AcDbTextStyleTableRecord
  2
STANDARD
 70
0
 40
0.0
 41
0.8
 50
0.0
 71
0
 42
0.2
  3
txt
  4

  0
STYLE
  5
21A
100
AcDbSymbolTableRecord
100
AcDbTextStyleTableRecord
  2
TEXTSTYLE_1
 70
0
 40
0.0
 41
0.8
 50
0.0
 71
0
 42
0.2
  3
gdt
  4

  0
ENDTAB
  0
TABLE
  2
VIEW
  5
6
100
AcDbSymbolTable
 70
0
  0
ENDTAB
  0
TABLE
  2
UCS
  5
7
100
AcDbSymbolTable
 70
0
  0
ENDTAB
  0
TABLE
  2
APPID
  5
9
100
AcDbSymbolTable
 70
1
  0
APPID
  5
21B
100
AcDbSymbolTableRecord
100
AcDbRegAppTableRecord
  2
ACAD
 70
0
  0
ENDTAB
  0
TABLE
  2
BLOCK_RECORD
  5
1
100
AcDbSymbolTable
 70
0
  0
BLOCK_RECORD
  5
21C
100
AcDbSymbolTableRecord
100
AcDbBlockTableRecord
  2
*Model_Space
  0
BLOCK_RECORD
  5
21D
100
AcDbSymbolTableRecord
100
AcDbBlockTableRecord
  2
*Paper_Space
  0
BLOCK_RECORD
  5
21E
100
AcDbSymbolTableRecord
100
AcDbBlockTableRecord
  2
_FILLED
  0
ENDTAB
  0
TABLE
  2
DIMSTYLE
  5
A
100
AcDbSymbolTable
 70
1
100
AcDbDimStyleTable
 71
0
  0
DIMSTYLE
105
21F
100
AcDbSymbolTableRecord
100
AcDbDimStyleTableRecord
  2
STANDARD
 70
0
  3

  4

 40
1.0
 41
0.1
 42
0.0625
 43
0.38
 44
0.125
 45
0.0
 46
0.0
 47
0.001
 48
0.001
140
0.08
141
0.09
142
0.0
143
25.4
144
1.0
145
0.0
146
1.0
147
0.09
 71
1.0
 72
0.0
 73
1
 74
1
 75
0
 76
0
 77
0
 78
4
 79
1
170
1
171
2
172
0
173
0
174
0
175
0
176
0
177
0
178
0
270
2
179
3
271
3
272
3
273
2
274
2
275
0
280
0
281
0
282
0
283
1
284
4
285
0
286
0
287
3
288
0
340
11
278
46
341
21E
342
21E
343
21E
344
21E
  0
ENDTAB
  0
ENDSEC
  0
SECTION
  2
BLOCKS
  0
BLOCK
  5
20
100
AcDbEntity
  8
0
100
AcDbBlockBegin
  2
*Model_Space
 70
0
 10
0.0
 20
0.0
 30
0.0
  3
*Model_Space
  1

  0
ENDBLK
  5
21
100
AcDbEntity
  8
0
100
AcDbBlockEnd
  0
BLOCK
  5
1C
100
AcDbEntity
  8
0
100
AcDbBlockBegin
  2
*Paper_Space
 70
0
 10
0.0
 20
0.0
 30
0.0
  3
*Paper_Space
  1

  0
ENDBLK
  5
1D
100
AcDbEntity
  8
0
100
AcDbBlockEnd
  0
BLOCK
  5
220
100
AcDbEntity
  8
0
100
AcDbBlockBegin
  2
_FILLED
 70
64
 10
0.0
 20
0.0
  3
_FILLED
  1

  0
SOLID
  5
221
100
AcDbEntity
  8
0
  6
BYBLOCK
 62
0
100
AcDbTrace
 10
0.0
 20
0.0
 11
-1.0
 21
0.2
 12
-1.0
 22
-0.2
 13
-1.0
 23
-0.2
  0
ENDBLK
  5
222
100
AcDbEntity
  8
0
  6
BYBLOCK
 62
0
100
AcDbBlockEnd
  0
ENDSEC
  0
SECTION
  2
ENTITIES
  0
MTEXT
  5
223
100
AcDbEntity
  8
0
100
AcDbMText
 62
2
  6
CONTINUOUS
  7
STANDARD
 71
3
 72
1
 10
3.8314623979
 20
1.7342366027
 30
0.0
 11
1.0
 21
0.0
 31
0.0
 73
2
 44
0.9
  1
SCALE  .500
 40
0.08
 41
0.704
  0
LINE
  5
224
100
AcDbEntity
  8
0
100
AcDbLine
 62
7
  6
CONTINUOUS
 10
0.0
 20
0.0
 11
0.0
 21
8.5
  0
LINE
  5
225
100
AcDbEntity
  8
0
100
AcDbLine
 62
7
  6
CONTINUOUS
 10
0.0
 20
0.0
 11
11.0
 21
0.0
  0
LINE
  5
226
100
AcDbEntity
  8
0
100
AcDbLine
 62
7
  6
CONTINUOUS
 10
0.0
 20
8.5
 11
11.0
 21
8.5
  0
LINE
  5
227
100
AcDbEntity
  8
0
100
AcDbLine
 62
7
  6
CONTINUOUS
 10
11.0
 20
0.0
 11
11.0
 21
8.5
  0
LINE
  5
228
100
AcDbEntity
  8
1_PLATE
100
AcDbLine
 62
7
  6
CONTINUOUS
 10
5.9906473537
 20
2.6113548137
 11
6.0661473537
 21
2.6113548137
  0
LINE
  5
229
100
AcDbEntity
  8
ALL_ASSEMBLY_MEMBERS
100
AcDbLine
 62
7
  6
CONTINUOUS
 10
4.04330246
 20
4.3933548137
 11
4.04330246
 21
4.5793548137
  0
LINE
  5
22A
100
AcDbEntity
  8
ALL_ASSEMBLY_MEMBERS
100
AcDbLine
 62
7
  6
CONTINUOUS
 10
4.07330246
 20
4.3488548137
 11
4.07330246
 21
4.6238548137
  0
LINE
  5
22B
100
AcDbEntity
  8
ALL_ASSEMBLY_MEMBERS
100
AcDbLine
 62
7
  6
CONTINUOUS
 10
4.08580246
 20
4.6286048137
 11
4.08580246
 21
4.3441048137
  0
LINE
  5
22C
100
AcDbEntity
  8
ALL_ASSEMBLY_MEMBERS
100
AcDbLine
 62
7
  6
CONTINUOUS
 10
4.10930246
 20
4.1838572777
 11
4.10930246
 21
4.7888523496
  0
LINE
  5
22D
100
AcDbEntity
  8
ALL_ASSEMBLY_MEMBERS
100
AcDbLine
 62
7
  6
CONTINUOUS
 10
4.1333122063
 20
4.9212006815
 11
4.1333122063
 21
4.0510158545
  0
LINE
  5
22E
100
AcDbEntity
  8
ALL_ASSEMBLY_MEMBERS
100
AcDbLine
 62
7
  6
CONTINUOUS
 10
4.18830246
 20
4.9417730925
 11
4.18830246
 21
4.0309365348
  0
LINE
  5
22F
100
AcDbEntity
  8
ALL_ASSEMBLY_MEMBERS
100
AcDbLine
 62
7
  6
CONTINUOUS
 10
4.27180246
 20
4.9826048137
 11
4.27180246
 21
3.9901048137
  0
LINE
  5
230
100
AcDbEntity
  8
ALL_ASSEMBLY_MEMBERS
100
AcDbLine
 62
7
  6
CONTINUOUS
 10
4.32180246
 20
4.9826048137
 11
4.32180246
 21
3.9901048137
  0
LINE
  5
231
100
AcDbEntity
  8
ALL_ASSEMBLY_MEMBERS
100
AcDbLine
 62
7
  6
CONTINUOUS
 10
4.40580246
 20
4.941417096
 11
4.40580246
 21
4.0312925313
  0
LINE
  5
232
100
AcDbEntity
  8
ALL_ASSEMBLY_MEMBERS
100
AcDbLine
 62
7
  6
CONTINUOUS
 10
4.4609362684
 20
4.9206776055
 11
4.4609362684
 21
4.0515395236
  0
LINE
  5
233
100
AcDbEntity
  8
ALL_ASSEMBLY_MEMBERS
100
AcDbLine
 62
7
  6
CONTINUOUS
 10
4.48430246
 20
4.1838572777
 11
4.48430246
 21
4.7888523496
  0
LINE
  5
234
100
AcDbEntity
  8
ALL_ASSEMBLY_MEMBERS
100
AcDbLine
 62
7
  6
CONTINUOUS
 10
4.67830246
 20
4.3138548137
 11
4.67830246
 21
4.6588548137
  0
LINE
  5
235
100
AcDbEntity
  8
ALL_ASSEMBLY_MEMBERS
100
AcDbLine
 62
7
  6
CONTINUOUS
 10
4.69392746
 20
4.6613765347
 11
4.69392746
 21
4.3113330927
  0
LINE
  5
236
100
AcDbEntity
  8
ALL_ASSEMBLY_MEMBERS
100
AcDbLine
 62
7
  6
CONTINUOUS
 10
4.7162600053
 20
4.6926048137
 11
4.7162600053
 21
4.2801048137
  0
LINE
  5
237
100
AcDbEntity
  8
ALL_FEATURES
100
AcDbLine
 62
7
  6
CONTINUOUS
 10
5.6349273537
 20
3.9938548137
 11
5.7879971996
 21
3.9938548137
  0
LINE
  5
238
100
AcDbEntity
  8
ALL_ASSEMBLY_MEMBERS
100
AcDbLine
 62
7
  6
CONTINUOUS
 10
5.44392746
 20
4.0013548137
 11
5.0164635346
 21
4.0013548137
  0
LINE
  5
239
100
AcDbEntity
  8
ALL_ASSEMBLY_MEMBERS
100
AcDbLine
 62
7
  6
CONTINUOUS
 10
5.5887109245
 20
4.0016048137
 11
5.5777668816
 21
4.0016048137
  0
LINE
  5
23A
100
AcDbEntity
  8
ALL_ASSEMBLY_MEMBERS
100
AcDbLine
 62
7
  6
CONTINUOUS
 10
5.5540547835
 20
4.0016327629
 11
5.5431107406
 21
4.0016327629
  0
LINE
  5
23B
100
AcDbEntity
  8
ALL_ASSEMBLY_MEMBERS
100
AcDbLine
 62
7
  6
CONTINUOUS
 10
5.5777668816
 20
4.0033385211
 11
5.5540547835
 21
4.0033385211
  0
LINE
  5
23C
100
AcDbEntity
  8
ALL_ASSEMBLY_MEMBERS
100
AcDbLine
 62
7
  6
CONTINUOUS
 10
5.5431107406
 20
4.0033385211
 11
5.5029825781
 21
4.0033385211
  0
LINE
  5
23D
100
AcDbEntity
  8
ALL_ASSEMBLY_MEMBERS
100
AcDbLine
 62
7
  6
CONTINUOUS
 10
5.44392746
 20
4.0040713491
 11
5.5029825781
 21
4.0040713491
  0
LINE
  5
23E
100
AcDbEntity
  8
ALL_ASSEMBLY_MEMBERS
100
AcDbLine
 62
7
  6
CONTINUOUS
 10
5.5887109245
 20
4.0040713491
 11
5.6349273537
 21
4.0040713491
  0
LINE
  5
23F
100
AcDbEntity
  8
ALL_ASSEMBLY_MEMBERS
100
AcDbLine
 62
7
  6
CONTINUOUS
 10
5.5887109245
 20
4.0041093547
 11
5.5029825781
 21
4.0041093547
  0
LINE
  5
240
100
AcDbEntity
  8
ALL_ASSEMBLY_MEMBERS
100
AcDbLine
 62
7
  6
CONTINUOUS
 10
5.5610136246
 20
4.0065887661
 11
5.5029825781
 21
4.0065887661
  0
LINE
  5
241
100
AcDbEntity
  8
ALL_ASSEMBLY_MEMBERS
100
AcDbLine
 62
7
  6
CONTINUOUS
 10
4.81892746
 20
4.8096260245
 11
4.81892746
 21
4.1630836029
  0
LINE
  5
242
100
AcDbEntity
  8
ALL_ASSEMBLY_MEMBERS
100
AcDbLine
 62
7
  6
CONTINUOUS
 10
5.0164635346
 20
4.9713548137
 11
5.0164635346
 21
4.0013548137
  0
LINE
  5
243
100
AcDbEntity
  8
ALL_ASSEMBLY_MEMBERS
100
AcDbLine
 62
7
  6
CONTINUOUS
 10
5.5540547835
 20
4.2577440079
 11
5.5376387191
 21
4.2577440079
  0
LINE
  5
244
100
AcDbEntity
  8
ALL_ASSEMBLY_MEMBERS
100
AcDbLine
 62
7
  6
CONTINUOUS
 10
5.5522307764
 20
4.2638862896
 11
5.5394627263
 21
4.2638862896
  0
LINE
  5
245
100
AcDbEntity
  8
ALL_ASSEMBLY_MEMBERS
100
AcDbLine
 62
7
  6
CONTINUOUS
 10
5.5522307764
 20
4.264736859
 11
5.5394627263
 21
4.264736859
  0
LINE
  5
246
100
AcDbEntity
  8
ALL_ASSEMBLY_MEMBERS
100
AcDbLine
 62
7
  6
CONTINUOUS
 10
5.5522307764
 20
4.2963737098
 11
5.5394627263
 21
4.2963737098
  0
LINE
  5
247
100
AcDbEntity
  8
ALL_ASSEMBLY_MEMBERS
100
AcDbLine
 62
7
  6
CONTINUOUS
 10
5.5540547835
 20
4.3027256071
 11
5.5376387191
 21
4.3027256071
  0
LINE
  5
248
100
AcDbEntity
  8
ALL_ASSEMBLY_MEMBERS
100
AcDbLine
 62
7
  6
CONTINUOUS
 10
5.5540547835
 20
4.3035698721
 11
5.5376387191
 21
4.3035698721
  0
LINE
  5
249
100
AcDbEntity
  8
ALL_ASSEMBLY_MEMBERS
100
AcDbLine
 62
7
  6
CONTINUOUS
 10
5.5686468459
 20
4.3129581855
 11
5.5649988264
 21
4.3129581855
  0
LINE
  5
24A
100
AcDbEntity
  8
ALL_ASSEMBLY_MEMBERS
100
AcDbLine
 62
7
  6
CONTINUOUS
 10
5.5121026151
 20
4.3129581855
 11
5.5029825781
 21
4.3129581855
  0
LINE
  5
24B
100
AcDbEntity
  8
ALL_ASSEMBLY_MEMBERS
100
AcDbLine
 62
7
  6
CONTINUOUS
 10
4.48430246
 20
4.3138548137
 11
4.67830246
 21
4.3138548137
  0
LINE
  5
24C
100
AcDbEntity
  8
ALL_ASSEMBLY_MEMBERS
100
AcDbLine
 62
7
  6
CONTINUOUS
 10
5.5686468459
 20
4.3206886946
 11
5.5649988264
 21
4.3206886946
  0
LINE
  5
24D
100
AcDbEntity
  8
ALL_ASSEMBLY_MEMBERS
100
AcDbLine
 62
7
  6
CONTINUOUS
 10
5.5686468459
 20
4.3215322994
 11
5.5649988264
 21
4.3215322994
  0
LINE
  5
24E
100
AcDbEntity
  8
ALL_ASSEMBLY_MEMBERS
100
AcDbLine
 62
7
  6
CONTINUOUS
 10
4.07330246
 20
4.3488548137
 11
4.08580246
 21
4.3488548137
  0
LINE
  5
24F
100
AcDbEntity
  8
ALL_ASSEMBLY_MEMBERS
100
AcDbLine
 62
7
  6
CONTINUOUS
 10
5.5121026151
 20
4.3600629213
 11
5.5029825781
 21
4.3600629213
  0
LINE
  5
250
100
AcDbEntity
  8
0
100
AcDbLine
 62
7
  6
CONTINUOUS
 10
5.05092746
 20
4.9683434949
 11
5.05092746
 21
5.0821380817
  0
LINE
  5
251
100
AcDbEntity
  8
ALL_ASSEMBLY_MEMBERS
100
AcDbLine
 62
7
  6
CONTINUOUS
 10
5.5121026151
 20
4.3609096345
 11
5.5029825781
 21
4.3609096345
  0
LINE
  5
252
100
AcDbEntity
  8
ALL_ASSEMBLY_MEMBERS
100
AcDbLine
 62
7
  6
CONTINUOUS
 10
5.5887109245
 20
4.3707669861
 11
5.5029825781
 21
4.3707669861
  0
LINE
  5
253
100
AcDbEntity
  8
ALL_ASSEMBLY_MEMBERS
100
AcDbLine
 62
7
  6
CONTINUOUS
 10
5.5741188673
 20
4.3788520471
 11
5.5029825781
 21
4.3788520471
  0
LINE
  5
254
100
AcDbEntity
  8
ALL_ASSEMBLY_MEMBERS
100
AcDbLine
 62
7
  6
CONTINUOUS
 10
5.572780771
 20
4.3797023671
 11
5.5029825781
 21
4.3797023671
  0
LINE
  5
255
100
AcDbEntity
  8
ALL_ASSEMBLY_MEMBERS
100
AcDbLine
 62
7
  6
CONTINUOUS
 10
5.5759428745
 20
4.3869863003
 11
5.5613508121
 21
4.3869863003
  0
LINE
  5
256
100
AcDbEntity
  8
ALL_ASSEMBLY_MEMBERS
100
AcDbLine
 62
7
  6
CONTINUOUS
 10
5.5759428745
 20
4.3878386022
 11
5.5613508121
 21
4.3878386022
  0
LINE
  5
257
100
AcDbEntity
  8
ALL_ASSEMBLY_MEMBERS
100
AcDbLine
 62
7
  6
CONTINUOUS
 10
4.69392746
 20
4.3944802502
 11
4.67830246
 21
4.3944802502
  0
LINE
  5
258
100
AcDbEntity
  8
ALL_ASSEMBLY_MEMBERS
100
AcDbLine
 62
7
  6
CONTINUOUS
 10
4.69392746
 20
4.397364353
 11
4.67830246
 21
4.397364353
  0
LINE
  5
259
100
AcDbEntity
  8
ALL_ASSEMBLY_MEMBERS
100
AcDbLine
 62
7
  6
CONTINUOUS
 10
4.69392746
 20
4.4055832168
 11
4.67830246
 21
4.4055832168
  0
LINE
  5
25A
100
AcDbEntity
  8
ALL_ASSEMBLY_MEMBERS
100
AcDbLine
 62
7
  6
CONTINUOUS
 10
4.69392746
 20
4.4137964468
 11
4.67830246
 21
4.4137964468
  0
LINE
  5
25B
100
AcDbEntity
  8
ALL_ASSEMBLY_MEMBERS
100
AcDbLine
 62
7
  6
CONTINUOUS
 10
4.67830246
 20
4.4252469765
 11
4.69392746
 21
4.4252469765
  0
LINE
  5
25C
100
AcDbEntity
  8
ALL_ASSEMBLY_MEMBERS
100
AcDbLine
 62
7
  6
CONTINUOUS
 10
4.69392746
 20
4.4289829268
 11
4.67830246
 21
4.4289829268
  0
LINE
  5
25D
100
AcDbEntity
  8
ALL_ASSEMBLY_MEMBERS
100
AcDbLine
 62
7
  6
CONTINUOUS
 10
4.69392746
 20
4.4412748942
 11
4.67830246
 21
4.4412748942
  0
LINE
  5
25E
100
AcDbEntity
  8
ALL_ASSEMBLY_MEMBERS
100
AcDbLine
 62
7
  6
CONTINUOUS
 10
4.67830246
 20
4.4506796701
 11
4.69392746
 21
4.4506796701
  0
LINE
  5
25F
100
AcDbEntity
  8
ALL_ASSEMBLY_MEMBERS
100
AcDbLine
 62
7
  6
CONTINUOUS
 10
4.67830246
 20
4.4595696689
 11
4.69392746
 21
4.4595696689
  0
LINE
  5
260
100
AcDbEntity
  8
ALL_ASSEMBLY_MEMBERS
100
AcDbLine
 62
7
  6
CONTINUOUS
 10
4.69392746
 20
4.4611169865
 11
4.67830246
 21
4.4611169865
  0
LINE
  5
261
100
AcDbEntity
  8
ALL_ASSEMBLY_MEMBERS
100
AcDbLine
 62
7
  6
CONTINUOUS
 10
5.5915652553
 20
4.4735595381
 11
5.5029825781
 21
4.4735595381
  0
LINE
  5
262
100
AcDbEntity
  8
ALL_ASSEMBLY_MEMBERS
100
AcDbLine
 62
7
  6
CONTINUOUS
 10
4.69392746
 20
4.4756163507
 11
4.67830246
 21
4.4756163507
  0
LINE
  5
263
100
AcDbEntity
  8
ALL_ASSEMBLY_MEMBERS
100
AcDbLine
 62
7
  6
CONTINUOUS
 10
4.67830246
 20
4.481543581
 11
4.69392746
 21
4.481543581
  0
LINE
  5
264
100
AcDbEntity
  8
ALL_ASSEMBLY_MEMBERS
100
AcDbLine
 62
7
  6
CONTINUOUS
 10
4.67830246
 20
4.4911660463
 11
4.69392746
 21
4.4911660463
  0
LINE
  5
265
100
AcDbEntity
  8
ALL_ASSEMBLY_MEMBERS
100
AcDbLine
 62
7
  6
CONTINUOUS
 10
4.69392746
 20
4.4970932766
 11
4.67830246
 21
4.4970932766
  0
LINE
  5
266
100
AcDbEntity
  8
ALL_ASSEMBLY_MEMBERS
100
AcDbLine
 62
7
  6
CONTINUOUS
 10
5.5915652553
 20
4.4991500893
 11
5.5029825781
 21
4.4991500893
  0
LINE
  5
267
100
AcDbEntity
  8
ALL_FEATURES
100
AcDbLine
 62
7
  6
CONTINUOUS
 10
5.18092746
 20
4.9683439696
 11
5.18092746
 21
5.0821380817
  0
LINE
  5
268
100
AcDbEntity
  8
ALL_ASSEMBLY_MEMBERS
100
AcDbLine
 62
7
  6
CONTINUOUS
 10
4.69392746
 20
4.5115926408
 11
4.67830246
 21
4.5115926408
  0
LINE
  5
269
100
AcDbEntity
  8
ALL_ASSEMBLY_MEMBERS
100
AcDbLine
 62
7
  6
CONTINUOUS
 10
4.67830246
 20
4.5131399584
 11
4.69392746
 21
4.5131399584
  0
LINE
  5
26A
100
AcDbEntity
  8
ALL_ASSEMBLY_MEMBERS
100
AcDbLine
 62
7
  6
CONTINUOUS
 10
4.67830246
 20
4.5220299572
 11
4.69392746
 21
4.5220299572
  0
LINE
  5
26B
100
AcDbEntity
  8
ALL_ASSEMBLY_MEMBERS
100
AcDbLine
 62
7
  6
CONTINUOUS
 10
4.69392746
 20
4.5314347331
 11
4.67830246
 21
4.5314347331
  0
LINE
  5
26C
100
AcDbEntity
  8
ALL_ASSEMBLY_MEMBERS
100
AcDbLine
 62
7
  6
CONTINUOUS
 10
4.69392746
 20
4.5437267005
 11
4.67830246
 21
4.5437267005
  0
LINE
  5
26D
100
AcDbEntity
  8
ALL_ASSEMBLY_MEMBERS
100
AcDbLine
 62
7
  6
CONTINUOUS
 10
4.67830246
 20
4.5474626509
 11
4.69392746
 21
4.5474626509
  0
LINE
  5
26E
100
AcDbEntity
  8
ALL_ASSEMBLY_MEMBERS
100
AcDbLine
 62
7
  6
CONTINUOUS
 10
4.69392746
 20
4.5589131805
 11
4.67830246
 21
4.5589131805
  0
LINE
  5
26F
100
AcDbEntity
  8
ALL_ASSEMBLY_MEMBERS
100
AcDbLine
 62
7
  6
CONTINUOUS
 10
4.69392746
 20
4.5671264105
 11
4.67830246
 21
4.5671264105
  0
LINE
  5
270
100
AcDbEntity
  8
ALL_ASSEMBLY_MEMBERS
100
AcDbLine
 62
7
  6
CONTINUOUS
 10
4.69392746
 20
4.5753452743
 11
4.67830246
 21
4.5753452743
  0
LINE
  5
271
100
AcDbEntity
  8
ALL_ASSEMBLY_MEMBERS
100
AcDbLine
 62
7
  6
CONTINUOUS
 10
4.69392746
 20
4.5782293771
 11
4.67830246
 21
4.5782293771
  0
LINE
  5
272
100
AcDbEntity
  8
ALL_ASSEMBLY_MEMBERS
100
AcDbLine
 62
7
  6
CONTINUOUS
 10
5.5339907023
 20
4.5869056751
 11
5.5266946736
 21
4.5869056751
  0
LINE
  5
273
100
AcDbEntity
  8
ALL_ASSEMBLY_MEMBERS
100
AcDbLine
 62
7
  6
CONTINUOUS
 10
5.5339907023
 20
4.5877574576
 11
5.5266946736
 21
4.5877574576
  0
LINE
  5
274
100
AcDbEntity
  8
ALL_ASSEMBLY_MEMBERS
100
AcDbLine
 62
7
  6
CONTINUOUS
 10
5.5887109245
 20
4.5904285879
 11
5.5795908888
 21
4.5904285879
  0
LINE
  5
275
100
AcDbEntity
  8
ALL_ASSEMBLY_MEMBERS
100
AcDbLine
 62
7
  6
CONTINUOUS
 10
5.5887109245
 20
4.5912795085
 11
5.5795908888
 21
4.5912795085
  0
LINE
  5
276
100
AcDbEntity
  8
ALL_ASSEMBLY_MEMBERS
100
AcDbLine
 62
7
  6
CONTINUOUS
 10
5.5321666951
 20
4.5965452626
 11
5.5285186808
 21
4.5965452626
  0
LINE
  5
277
100
AcDbEntity
  8
ALL_ASSEMBLY_MEMBERS
100
AcDbLine
 62
7
  6
CONTINUOUS
 10
4.07330246
 20
4.6238548137
 11
4.08580246
 21
4.6238548137
  0
LINE
  5
278
100
AcDbEntity
  8
ALL_ASSEMBLY_MEMBERS
100
AcDbLine
 62
7
  6
CONTINUOUS
 10
5.5795908888
 20
4.6404779961
 11
5.5509520287
 21
4.6404779961
  0
LINE
  5
279
100
AcDbEntity
  8
ALL_ASSEMBLY_MEMBERS
100
AcDbLine
 62
7
  6
CONTINUOUS
 10
5.5795908888
 20
4.6413218385
 11
5.5504067692
 21
4.6413218385
  0
LINE
  5
27A
100
AcDbEntity
  8
ALL_ASSEMBLY_MEMBERS
100
AcDbLine
 62
7
  6
CONTINUOUS
 10
5.5887109245
 20
4.6497574887
 11
5.5412867334
 21
4.6497574887
  0
LINE
  5
27B
100
AcDbEntity
  8
ALL_ASSEMBLY_MEMBERS
100
AcDbLine
 62
7
  6
CONTINUOUS
 10
5.44392746
 20
4.9713548137
 11
5.44392746
 21
4.0013548137
  0
LINE
  5
27C
100
AcDbEntity
  8
ALL_ASSEMBLY_MEMBERS
100
AcDbLine
 62
7
  6
CONTINUOUS
 10
4.48430246
 20
4.6588548137
 11
4.52930246
 21
4.6588548137
  0
LINE
  5
27D
100
AcDbEntity
  8
ALL_ASSEMBLY_MEMBERS
100
AcDbLine
 62
7
  6
CONTINUOUS
 10
4.62730246
 20
4.6588548137
 11
4.67830246
 21
4.6588548137
  0
LINE
  5
27E
100
AcDbEntity
  8
ALL_ASSEMBLY_MEMBERS
100
AcDbLine
 62
7
  6
CONTINUOUS
 10
5.5887109245
 20
4.6622936201
 11
5.5029825781
 21
4.6622936201
  0
LINE
  5
27F
100
AcDbEntity
  8
ALL_ASSEMBLY_MEMBERS
100
AcDbLine
 62
7
  6
CONTINUOUS
 10
5.5887109245
 20
4.6631374739
 11
5.5029825781
 21
4.6631374739
  0
LINE
  5
280
100
AcDbEntity
  8
ALL_ASSEMBLY_MEMBERS
100
AcDbLine
 62
7
  6
CONTINUOUS
 10
5.5741188673
 20
4.6730778565
 11
5.5029825781
 21
4.6730778565
  0
LINE
  5
281
100
AcDbEntity
  8
ALL_ASSEMBLY_MEMBERS
100
AcDbLine
 62
7
  6
CONTINUOUS
 10
5.5759428745
 20
4.6829369477
 11
5.5613508121
 21
4.6829369477
  0
LINE
  5
282
100
AcDbEntity
  8
ALL_ASSEMBLY_MEMBERS
100
AcDbLine
 62
7
  6
CONTINUOUS
 10
5.5887109245
 20
4.6951076871
 11
5.5029825781
 21
4.6951076871
  0
LINE
  5
283
100
AcDbEntity
  8
ALL_ASSEMBLY_MEMBERS
100
AcDbLine
 62
7
  6
CONTINUOUS
 10
5.5887109245
 20
4.6959553864
 11
5.5029825781
 21
4.6959553864
  0
LINE
  5
284
100
AcDbEntity
  8
ALL_ASSEMBLY_MEMBERS
100
AcDbLine
 62
7
  6
CONTINUOUS
 10
5.5741188673
 20
4.7056233665
 11
5.5029825781
 21
4.7056233665
  0
LINE
  5
285
100
AcDbEntity
  8
ALL_ASSEMBLY_MEMBERS
100
AcDbLine
 62
7
  6
CONTINUOUS
 10
5.5759428745
 20
4.7152085307
 11
5.5613508121
 21
4.7152085307
  0
LINE
  5
286
100
AcDbEntity
  8
ALL_ASSEMBLY_MEMBERS
100
AcDbLine
 62
7
  6
CONTINUOUS
 10
5.5029825781
 20
4.9708191612
 11
5.5029825781
 21
4.9666387794
  0
LINE
  5
287
100
AcDbEntity
  8
ALL_ASSEMBLY_MEMBERS
100
AcDbLine
 62
7
  6
CONTINUOUS
 10
5.5029825781
 20
4.0033385211
 11
5.5029825781
 21
4.0065887661
  0
LINE
  5
288
100
AcDbEntity
  8
ALL_ASSEMBLY_MEMBERS
100
AcDbLine
 62
7
  6
CONTINUOUS
 10
5.5029825781
 20
4.3129581855
 11
5.5029825781
 21
4.3609096345
  0
LINE
  5
289
100
AcDbEntity
  8
ALL_ASSEMBLY_MEMBERS
100
AcDbLine
 62
7
  6
CONTINUOUS
 10
5.5029825781
 20
4.3707669861
 11
5.5029825781
 21
4.3797023671
  0
LINE
  5
28A
100
AcDbEntity
  8
ALL_ASSEMBLY_MEMBERS
100
AcDbLine
 62
7
  6
CONTINUOUS
 10
5.5029825781
 20
4.4735595381
 11
5.5029825781
 21
4.4991500893
  0
LINE
  5
28B
100
AcDbEntity
  8
ALL_ASSEMBLY_MEMBERS
100
AcDbLine
 62
7
  6
CONTINUOUS
 10
5.5029825781
 20
4.6139487158
 11
5.5029825781
 21
4.6242814835
  0
LINE
  5
28C
100
AcDbEntity
  8
ALL_ASSEMBLY_MEMBERS
100
AcDbLine
 62
7
  6
CONTINUOUS
 10
5.5029825781
 20
4.6622936201
 11
5.5029825781
 21
4.6730778565
  0
LINE
  5
28D
100
AcDbEntity
  8
ALL_ASSEMBLY_MEMBERS
100
AcDbLine
 62
7
  6
CONTINUOUS
 10
5.5029825781
 20
4.6951076871
 11
5.5029825781
 21
4.7056233665
  0
LINE
  5
28E
100
AcDbEntity
  8
ALL_ASSEMBLY_MEMBERS
100
AcDbLine
 62
7
  6
CONTINUOUS
 10
5.5029825781
 20
4.8739401692
 11
5.5029825781
 21
4.8906394817
  0
LINE
  5
28F
100
AcDbEntity
  8
ALL_ASSEMBLY_MEMBERS
100
AcDbLine
 62
7
  6
CONTINUOUS
 10
5.5048065854
 20
4.9682944752
 11
5.5048065854
 21
4.9658134824
  0
LINE
  5
290
100
AcDbEntity
  8
ALL_ASSEMBLY_MEMBERS
100
AcDbLine
 62
7
  6
CONTINUOUS
 10
5.5048065854
 20
4.9710322412
 11
5.5048065854
 21
4.9697943789
  0
LINE
  5
291
100
AcDbEntity
  8
ALL_ASSEMBLY_MEMBERS
100
AcDbLine
 62
7
  6
CONTINUOUS
 10
5.5048065854
 20
4.6052755607
 11
5.5048065854
 21
4.6044275942
  0
LINE
  5
292
100
AcDbEntity
  8
ALL_ASSEMBLY_MEMBERS
100
AcDbLine
 62
7
  6
CONTINUOUS
 10
5.5048065854
 20
4.2875373562
 11
5.5048065854
 21
4.2883832595
  0
LINE
  5
293
100
AcDbEntity
  8
ALL_ASSEMBLY_MEMBERS
100
AcDbLine
 62
7
  6
CONTINUOUS
 10
5.5102786073
 20
4.96750111
 11
5.5102786073
 21
4.9650160051
  0
LINE
  5
294
100
AcDbEntity
  8
ALL_ASSEMBLY_MEMBERS
100
AcDbLine
 62
7
  6
CONTINUOUS
 10
5.5102786073
 20
4.9711024569
 11
5.5102786073
 21
4.9702518905
  0
LINE
  5
295
100
AcDbEntity
  8
ALL_ASSEMBLY_MEMBERS
100
AcDbLine
 62
7
  6
CONTINUOUS
 10
5.5102786073
 20
4.5965452626
 11
5.5102786073
 21
4.5956955416
  0
LINE
  5
296
100
AcDbEntity
  8
ALL_ASSEMBLY_MEMBERS
100
AcDbLine
 62
7
  6
CONTINUOUS
 10
5.5102786073
 20
4.2938423295
 11
5.5102786073
 21
4.2946874289
  0
LINE
  5
297
100
AcDbEntity
  8
ALL_ASSEMBLY_MEMBERS
100
AcDbLine
 62
7
  6
CONTINUOUS
 10
5.5121026151
 20
4.3129581855
 11
5.5121026151
 21
4.3494452115
  0
LINE
  5
298
100
AcDbEntity
  8
ALL_ASSEMBLY_MEMBERS
100
AcDbLine
 62
7
  6
CONTINUOUS
 10
5.5121026151
 20
4.3600629213
 11
5.5121026151
 21
4.3609096345
  0
LINE
  5
299
100
AcDbEntity
  8
ALL_ASSEMBLY_MEMBERS
100
AcDbLine
 62
7
  6
CONTINUOUS
 10
5.5121026151
 20
4.6139487158
 11
5.5121026151
 21
4.6242814835
  0
LINE
  5
29A
100
AcDbEntity
  8
ALL_ASSEMBLY_MEMBERS
100
AcDbLine
 62
7
  6
CONTINUOUS
 10
5.5139266223
 20
4.9696910865
 11
5.5139266223
 21
4.9684412229
  0
LINE
  5
29B
100
AcDbEntity
  8
ALL_ASSEMBLY_MEMBERS
100
AcDbLine
 62
7
  6
CONTINUOUS
 10
5.5139266223
 20
4.6311247133
 11
5.5139266223
 21
4.6302802188
  0
LINE
  5
29C
100
AcDbEntity
  8
ALL_ASSEMBLY_MEMBERS
100
AcDbLine
 62
7
  6
CONTINUOUS
 10
5.5139266223
 20
4.2737849829
 11
5.5139266223
 21
4.2746332727
  0
LINE
  5
29D
100
AcDbEntity
  8
ALL_ASSEMBLY_MEMBERS
100
AcDbLine
 62
7
  6
CONTINUOUS
 10
5.5157506294
 20
4.9710977651
 11
5.5157506294
 21
4.9704793136
  0
LINE
  5
29E
100
AcDbEntity
  8
ALL_ASSEMBLY_MEMBERS
100
AcDbLine
 62
7
  6
CONTINUOUS
 10
5.5157506294
 20
4.9669772446
 11
5.5157506294
 21
4.9644894169
  0
LINE
  5
29F
100
AcDbEntity
  8
ALL_ASSEMBLY_MEMBERS
100
AcDbLine
 62
7
  6
CONTINUOUS
 10
5.5157506294
 20
4.2976414141
 11
5.5157506294
 21
4.2984861145
  0
LINE
  5
2A0
100
AcDbEntity
  8
ALL_ASSEMBLY_MEMBERS
100
AcDbLine
 62
7
  6
CONTINUOUS
 10
5.5175746366
 20
4.9699891673
 11
5.5175746366
 21
4.9679890664
  0
LINE
  5
2A1
100
AcDbEntity
  8
ALL_ASSEMBLY_MEMBERS
100
AcDbLine
 62
7
  6
CONTINUOUS
 10
5.5175746366
 20
4.6362334223
 11
5.5175746366
 21
4.635389306
  0
LINE
  5
2A2
100
AcDbEntity
  8
ALL_ASSEMBLY_MEMBERS
100
AcDbLine
 62
7
  6
CONTINUOUS
 10
5.5175746366
 20
4.5912795085
 11
5.5175746366
 21
4.5904285879
  0
LINE
  5
2A3
100
AcDbEntity
  8
ALL_ASSEMBLY_MEMBERS
100
AcDbLine
 62
7
  6
CONTINUOUS
 10
5.5175746366
 20
4.2700627616
 11
5.5175746366
 21
4.2709118519
  0
LINE
  5
2A4
100
AcDbEntity
  8
ALL_ASSEMBLY_MEMBERS
100
AcDbLine
 62
7
  6
CONTINUOUS
 10
5.5230466593
 20
4.9710751291
 11
5.5230466593
 21
4.9706113427
  0
LINE
  5
2A5
100
AcDbEntity
  8
ALL_ASSEMBLY_MEMBERS
100
AcDbLine
 62
7
  6
CONTINUOUS
 10
5.5230466593
 20
4.9666079932
 11
5.5230466593
 21
4.9641182427
  0
LINE
  5
2A6
100
AcDbEntity
  8
ALL_ASSEMBLY_MEMBERS
100
AcDbLine
 62
7
  6
CONTINUOUS
 10
5.5230466593
 20
4.3001808337
 11
5.5230466593
 21
4.3010253025
  0
LINE
  5
2A7
100
AcDbEntity
  8
ALL_ASSEMBLY_MEMBERS
100
AcDbLine
 62
7
  6
CONTINUOUS
 10
5.5248706665
 20
4.6387840326
 11
5.5248706665
 21
4.6497574887
  0
LINE
  5
2A8
100
AcDbEntity
  8
ALL_ASSEMBLY_MEMBERS
100
AcDbLine
 62
7
  6
CONTINUOUS
 10
5.5266946736
 20
4.5877574576
 11
5.5266946736
 21
4.5869056751
  0
LINE
  5
2A9
100
AcDbEntity
  8
ALL_ASSEMBLY_MEMBERS
100
AcDbLine
 62
7
  6
CONTINUOUS
 10
5.5285186808
 20
4.9710579579
 11
5.5285186808
 21
4.9706714865
  0
LINE
  5
2AA
100
AcDbEntity
  8
ALL_ASSEMBLY_MEMBERS
100
AcDbLine
 62
7
  6
CONTINUOUS
 10
5.5285186808
 20
4.9703316175
 11
5.5285186808
 21
4.9678611214
  0
LINE
  5
2AB
100
AcDbEntity
  8
ALL_ASSEMBLY_MEMBERS
100
AcDbLine
 62
7
  6
CONTINUOUS
 10
5.5285186808
 20
4.9664173527
 11
5.5285186808
 21
4.9639266083
  0
LINE
  5
2AC
100
AcDbEntity
  8
ALL_ASSEMBLY_MEMBERS
100
AcDbLine
 62
7
  6
CONTINUOUS
 10
5.5285186808
 20
4.2651188505
 11
5.5285186808
 21
4.2659691096
  0
LINE
  5
2AD
100
AcDbEntity
  8
ALL_ASSEMBLY_MEMBERS
100
AcDbLine
 62
7
  6
CONTINUOUS
 10
5.5285186808
 20
4.301452555
 11
5.5285186808
 21
4.3022969185
  0
LINE
  5
2AE
100
AcDbEntity
  8
ALL_ASSEMBLY_MEMBERS
100
AcDbLine
 62
7
  6
CONTINUOUS
 10
5.5339907023
 20
4.5877574576
 11
5.5339907023
 21
4.5869056751
  0
LINE
  5
2AF
100
AcDbEntity
  8
ALL_ASSEMBLY_MEMBERS
100
AcDbLine
 62
7
  6
CONTINUOUS
 10
5.5376387191
 20
4.9710368841
 11
5.5376387191
 21
4.970727718
  0
LINE
  5
2B0
100
AcDbEntity
  8
ALL_ASSEMBLY_MEMBERS
100
AcDbLine
 62
7
  6
CONTINUOUS
 10
5.5376387191
 20
4.9662226953
 11
5.5376387191
 21
4.9637309353
  0
LINE
  5
2B1
100
AcDbEntity
  8
ALL_ASSEMBLY_MEMBERS
100
AcDbLine
 62
7
  6
CONTINUOUS
 10
5.5376387191
 20
4.3027256071
 11
5.5376387191
 21
4.3035698721
  0
LINE
  5
2B2
100
AcDbEntity
  8
ALL_ASSEMBLY_MEMBERS
100
AcDbLine
 62
7
  6
CONTINUOUS
 10
5.5394627263
 20
4.9704074248
 11
5.5394627263
 21
4.9679373175
  0
LINE
  5
2B3
100
AcDbEntity
  8
ALL_ASSEMBLY_MEMBERS
100
AcDbLine
 62
7
  6
CONTINUOUS
 10
5.5394627263
 20
4.2638862896
 11
5.5394627263
 21
4.264736859
  0
LINE
  5
2B4
100
AcDbEntity
  8
ALL_ASSEMBLY_MEMBERS
100
AcDbLine
 62
7
  6
CONTINUOUS
 10
5.5412867334
 20
4.6370877996
 11
5.5412867334
 21
4.6497574887
  0
LINE
  5
2B5
100
AcDbEntity
  8
ALL_ASSEMBLY_MEMBERS
100
AcDbLine
 62
7
  6
CONTINUOUS
 10
5.5431107406
 20
4.5912795085
 11
5.5431107406
 21
4.5904285879
  0
LINE
  5
2B6
100
AcDbEntity
  8
ALL_ASSEMBLY_MEMBERS
100
AcDbLine
 62
7
  6
CONTINUOUS
 10
5.5431107406
 20
4.0016327629
 11
5.5431107406
 21
4.0033385211
  0
LINE
  5
2B7
100
AcDbEntity
  8
ALL_ASSEMBLY_MEMBERS
100
AcDbLine
 62
7
  6
CONTINUOUS
 10
5.5467587549
 20
4.6311247133
 11
5.5467587549
 21
4.6302802188
  0
LINE
  5
2B8
100
AcDbEntity
  8
ALL_ASSEMBLY_MEMBERS
100
AcDbLine
 62
7
  6
CONTINUOUS
 10
5.5485827621
 20
4.6139487158
 11
5.5485827621
 21
4.6242814835
  0
LINE
  5
2B9
100
AcDbEntity
  8
ALL_ASSEMBLY_MEMBERS
100
AcDbLine
 62
7
  6
CONTINUOUS
 10
5.5504067692
 20
4.5965452626
 11
5.5504067692
 21
4.5956955416
  0
LINE
  5
2BA
100
AcDbEntity
  8
ALL_ASSEMBLY_MEMBERS
100
AcDbLine
 62
7
  6
CONTINUOUS
 10
5.5522307764
 20
4.9704074248
 11
5.5522307764
 21
4.9679373175
  0
LINE
  5
2BB
100
AcDbEntity
  8
ALL_ASSEMBLY_MEMBERS
100
AcDbLine
 62
7
  6
CONTINUOUS
 10
5.5522307764
 20
4.2638862896
 11
5.5522307764
 21
4.264736859
  0
LINE
  5
2BC
100
AcDbEntity
  8
ALL_ASSEMBLY_MEMBERS
100
AcDbLine
 62
7
  6
CONTINUOUS
 10
5.5540547835
 20
4.9710368841
 11
5.5540547835
 21
4.970727718
  0
LINE
  5
2BD
100
AcDbEntity
  8
ALL_ASSEMBLY_MEMBERS
100
AcDbLine
 62
7
  6
CONTINUOUS
 10
5.5540547835
 20
4.9662226953
 11
5.5540547835
 21
4.9637309353
  0
LINE
  5
2BE
100
AcDbEntity
  8
ALL_ASSEMBLY_MEMBERS
100
AcDbLine
 62
7
  6
CONTINUOUS
 10
5.5540547835
 20
4.0016327629
 11
5.5540547835
 21
4.0033385211
  0
LINE
  5
2BF
100
AcDbEntity
  8
ALL_ASSEMBLY_MEMBERS
100
AcDbLine
 62
7
  6
CONTINUOUS
 10
5.5540547835
 20
4.3027256071
 11
5.5540547835
 21
4.3035698721
  0
LINE
  5
2C0
100
AcDbEntity
  8
ALL_ASSEMBLY_MEMBERS
100
AcDbLine
 62
7
  6
CONTINUOUS
 10
5.5558787907
 20
4.6052755607
 11
5.5558787907
 21
4.6044275942
  0
LINE
  5
2C1
100
AcDbEntity
  8
ALL_ASSEMBLY_MEMBERS
100
AcDbLine
 62
7
  6
CONTINUOUS
 10
5.5577027978
 20
4.3232762042
 11
5.5577027978
 21
4.324119824
  0
LINE
  5
2C2
100
AcDbEntity
  8
ALL_ASSEMBLY_MEMBERS
100
AcDbLine
 62
7
  6
CONTINUOUS
 10
5.5577027978
 20
4.6139487158
 11
5.5577027978
 21
4.6242814835
  0
LINE
  5
2C3
100
AcDbEntity
  8
ALL_ASSEMBLY_MEMBERS
100
AcDbLine
 62
7
  6
CONTINUOUS
 10
5.5581006883
 20
4.0105425316
 11
5.5581006883
 21
4.0080426247
  0
LINE
  5
2C4
100
AcDbEntity
  8
ALL_ASSEMBLY_MEMBERS
100
AcDbLine
 62
7
  6
CONTINUOUS
 10
5.5613508121
 20
4.7152085307
 11
5.5613508121
 21
4.7143562288
  0
LINE
  5
2C5
100
AcDbEntity
  8
ALL_ASSEMBLY_MEMBERS
100
AcDbLine
 62
7
  6
CONTINUOUS
 10
5.5613508121
 20
4.6829369477
 11
5.5613508121
 21
4.6820913499
  0
LINE
  5
2C6
100
AcDbEntity
  8
ALL_ASSEMBLY_MEMBERS
100
AcDbLine
 62
7
  6
CONTINUOUS
 10
5.5613508121
 20
4.3869863003
 11
5.5613508121
 21
4.3878386022
  0
LINE
  5
2C7
100
AcDbEntity
  8
ALL_ASSEMBLY_MEMBERS
100
AcDbLine
 62
7
  6
CONTINUOUS
 10
5.5631748193
 20
4.9710579579
 11
5.5631748193
 21
4.9706714865
  0
LINE
  5
2C8
100
AcDbEntity
  8
ALL_ASSEMBLY_MEMBERS
100
AcDbLine
 62
7
  6
CONTINUOUS
 10
5.5631748193
 20
4.9664173527
 11
5.5631748193
 21
4.9639266083
  0
LINE
  5
2C9
100
AcDbEntity
  8
ALL_ASSEMBLY_MEMBERS
100
AcDbLine
 62
7
  6
CONTINUOUS
 10
5.5631748193
 20
4.9703316175
 11
5.5631748193
 21
4.9678611214
  0
LINE
  5
2CA
100
AcDbEntity
  8
ALL_ASSEMBLY_MEMBERS
100
AcDbLine
 62
7
  6
CONTINUOUS
 10
5.5631748193
 20
4.2651188505
 11
5.5631748193
 21
4.2659691096
  0
LINE
  5
2CB
100
AcDbEntity
  8
ALL_ASSEMBLY_MEMBERS
100
AcDbLine
 62
7
  6
CONTINUOUS
 10
5.5631748193
 20
4.301452555
 11
5.5631748193
 21
4.3022969185
  0
LINE
  5
2CC
100
AcDbEntity
  8
ALL_ASSEMBLY_MEMBERS
100
AcDbLine
 62
7
  6
CONTINUOUS
 10
5.5649988264
 20
4.3206886946
 11
5.5649988264
 21
4.3215322994
  0
LINE
  5
2CD
100
AcDbEntity
  8
ALL_ASSEMBLY_MEMBERS
100
AcDbLine
 62
7
  6
CONTINUOUS
 10
5.5686468459
 20
4.9710751291
 11
5.5686468459
 21
4.9706113427
  0
LINE
  5
2CE
100
AcDbEntity
  8
ALL_ASSEMBLY_MEMBERS
100
AcDbLine
 62
7
  6
CONTINUOUS
 10
5.5686468459
 20
4.9666079932
 11
5.5686468459
 21
4.9641182427
  0
LINE
  5
2CF
100
AcDbEntity
  8
ALL_ASSEMBLY_MEMBERS
100
AcDbLine
 62
7
  6
CONTINUOUS
 10
5.5686468459
 20
4.3001808337
 11
5.5686468459
 21
4.3010253025
  0
LINE
  5
2D0
100
AcDbEntity
  8
ALL_ASSEMBLY_MEMBERS
100
AcDbLine
 62
7
  6
CONTINUOUS
 10
5.5686468459
 20
4.3206886946
 11
5.5686468459
 21
4.3215322994
  0
LINE
  5
2D1
100
AcDbEntity
  8
ALL_ASSEMBLY_MEMBERS
100
AcDbLine
 62
7
  6
CONTINUOUS
 10
5.5686468459
 20
4.352091567
 11
5.5686468459
 21
4.3595775037
  0
LINE
  5
2D2
100
AcDbEntity
  8
ALL_ASSEMBLY_MEMBERS
100
AcDbLine
 62
7
  6
CONTINUOUS
 10
5.5741188673
 20
4.9699891673
 11
5.5741188673
 21
4.9679890664
  0
LINE
  5
2D3
100
AcDbEntity
  8
ALL_ASSEMBLY_MEMBERS
100
AcDbLine
 62
7
  6
CONTINUOUS
 10
5.5741188673
 20
4.2700627616
 11
5.5741188673
 21
4.2709118519
  0
LINE
  5
2D4
100
AcDbEntity
  8
ALL_ASSEMBLY_MEMBERS
100
AcDbLine
 62
7
  6
CONTINUOUS
 10
5.5741188673
 20
4.3232762042
 11
5.5741188673
 21
4.324119824
  0
LINE
  5
2D5
100
AcDbEntity
  8
ALL_ASSEMBLY_MEMBERS
100
AcDbLine
 62
7
  6
CONTINUOUS
 10
5.5759428745
 20
4.9710977651
 11
5.5759428745
 21
4.9704793136
  0
LINE
  5
2D6
100
AcDbEntity
  8
ALL_ASSEMBLY_MEMBERS
100
AcDbLine
 62
7
  6
CONTINUOUS
 10
5.5759428745
 20
4.9669772446
 11
5.5759428745
 21
4.9644894169
  0
LINE
  5
2D7
100
AcDbEntity
  8
ALL_ASSEMBLY_MEMBERS
100
AcDbLine
 62
7
  6
CONTINUOUS
 10
5.5759428745
 20
4.2976414141
 11
5.5759428745
 21
4.2984861145
  0
LINE
  5
2D8
100
AcDbEntity
  8
ALL_ASSEMBLY_MEMBERS
100
AcDbLine
 62
7
  6
CONTINUOUS
 10
5.5759428745
 20
4.357400416
 11
5.5759428745
 21
4.358246728
  0
LINE
  5
2D9
100
AcDbEntity
  8
ALL_ASSEMBLY_MEMBERS
100
AcDbLine
 62
7
  6
CONTINUOUS
 10
5.5759428745
 20
4.3869863003
 11
5.5759428745
 21
4.3878386022
  0
LINE
  5
2DA
100
AcDbEntity
  8
ALL_ASSEMBLY_MEMBERS
100
AcDbLine
 62
7
  6
CONTINUOUS
 10
5.5777668816
 20
4.9696910865
 11
5.5777668816
 21
4.9684412229
  0
LINE
  5
2DB
100
AcDbEntity
  8
ALL_ASSEMBLY_MEMBERS
100
AcDbLine
 62
7
  6
CONTINUOUS
 10
5.5777668816
 20
4.0016048191
 11
5.5777668816
 21
4.0033385211
  0
LINE
  5
2DC
100
AcDbEntity
  8
ALL_ASSEMBLY_MEMBERS
100
AcDbLine
 62
7
  6
CONTINUOUS
 10
5.5777668816
 20
4.2737849829
 11
5.5777668816
 21
4.2746332727
  0
LINE
  5
2DD
100
AcDbEntity
  8
ALL_ASSEMBLY_MEMBERS
100
AcDbLine
 62
7
  6
CONTINUOUS
 10
5.5777668816
 20
4.327167481
 11
5.5777668816
 21
4.3280111745
  0
LINE
  5
2DE
100
AcDbEntity
  8
ALL_ASSEMBLY_MEMBERS
100
AcDbLine
 62
7
  6
CONTINUOUS
 10
5.5795908888
 20
4.3336796429
 11
5.5795908888
 21
4.3389134178
  0
LINE
  5
2DF
100
AcDbEntity
  8
ALL_ASSEMBLY_MEMBERS
100
AcDbLine
 62
7
  6
CONTINUOUS
 10
5.5795908888
 20
4.5904285879
 11
5.5795908888
 21
4.6413218385
  0
LINE
  5
2E0
100
AcDbEntity
  8
ALL_ASSEMBLY_MEMBERS
100
AcDbLine
 62
7
  6
CONTINUOUS
 10
5.5814148959
 20
4.9711024569
 11
5.5814148959
 21
4.9702518905
  0
LINE
  5
2E1
100
AcDbEntity
  8
ALL_ASSEMBLY_MEMBERS
100
AcDbLine
 62
7
  6
CONTINUOUS
 10
5.5814148959
 20
4.96750111
 11
5.5814148959
 21
4.9650160051
  0
LINE
  5
2E2
100
AcDbEntity
  8
ALL_ASSEMBLY_MEMBERS
100
AcDbLine
 62
7
  6
CONTINUOUS
 10
5.5814148959
 20
4.2938423295
 11
5.5814148959
 21
4.2946874289
  0
LINE
  5
2E3
100
AcDbEntity
  8
ALL_ASSEMBLY_MEMBERS
100
AcDbLine
 62
7
  6
CONTINUOUS
 10
5.5832389031
 20
4.352091567
 11
5.5832389031
 21
4.3529371605
  0
LINE
  5
2E4
100
AcDbEntity
  8
ALL_ASSEMBLY_MEMBERS
100
AcDbLine
 62
7
  6
CONTINUOUS
 10
5.5868869174
 20
4.9710322412
 11
5.5868869174
 21
4.9697943789
  0
LINE
  5
2E5
100
AcDbEntity
  8
ALL_ASSEMBLY_MEMBERS
100
AcDbLine
 62
7
  6
CONTINUOUS
 10
5.5868869174
 20
4.9682944752
 11
5.5868869174
 21
4.9658134824
  0
LINE
  5
2E6
100
AcDbEntity
  8
ALL_ASSEMBLY_MEMBERS
100
AcDbLine
 62
7
  6
CONTINUOUS
 10
5.5868869174
 20
4.2875373562
 11
5.5868869174
 21
4.2883832595
  0
LINE
  5
2E7
100
AcDbEntity
  8
ALL_ASSEMBLY_MEMBERS
100
AcDbLine
 62
7
  6
CONTINUOUS
 10
5.5868869174
 20
4.3468042213
 11
5.5868869174
 21
4.347649208
  0
LINE
  5
2E8
100
AcDbEntity
  8
ALL_ASSEMBLY_MEMBERS
100
AcDbLine
 62
7
  6
CONTINUOUS
 10
5.5887109245
 20
4.9708191612
 11
5.5887109245
 21
4.9666387794
  0
LINE
  5
2E9
100
AcDbEntity
  8
ALL_ASSEMBLY_MEMBERS
100
AcDbLine
 62
7
  6
CONTINUOUS
 10
5.5887109245
 20
4.0016048232
 11
5.5887109245
 21
4.0065887661
  0
LINE
  5
2EA
100
AcDbEntity
  8
ALL_ASSEMBLY_MEMBERS
100
AcDbLine
 62
7
  6
CONTINUOUS
 10
5.5887109245
 20
4.3323745373
 11
5.5887109245
 21
4.3376029697
  0
LINE
  5
2EB
100
AcDbEntity
  8
ALL_ASSEMBLY_MEMBERS
100
AcDbLine
 62
7
  6
CONTINUOUS
 10
5.5887109245
 20
4.3707669861
 11
5.5887109245
 21
4.3797023671
  0
LINE
  5
2EC
100
AcDbEntity
  8
ALL_ASSEMBLY_MEMBERS
100
AcDbLine
 62
7
  6
CONTINUOUS
 10
5.5887109245
 20
4.5904285879
 11
5.5887109245
 21
4.6497574887
  0
LINE
  5
2ED
100
AcDbEntity
  8
ALL_ASSEMBLY_MEMBERS
100
AcDbLine
 62
7
  6
CONTINUOUS
 10
5.5887109245
 20
4.6622936201
 11
5.5887109245
 21
4.6730778565
  0
LINE
  5
2EE
100
AcDbEntity
  8
ALL_ASSEMBLY_MEMBERS
100
AcDbLine
 62
7
  6
CONTINUOUS
 10
5.5887109245
 20
4.6951076871
 11
5.5887109245
 21
4.7056233665
  0
LINE
  5
2EF
100
AcDbEntity
  8
ALL_ASSEMBLY_MEMBERS
100
AcDbLine
 62
7
  6
CONTINUOUS
 10
5.5915652553
 20
4.0105425316
 11
5.5915652553
 21
4.0080426247
  0
LINE
  5
2F0
100
AcDbEntity
  8
ALL_ASSEMBLY_MEMBERS
100
AcDbLine
 62
7
  6
CONTINUOUS
 10
5.5915652553
 20
4.4735595381
 11
5.5915652553
 21
4.4991500893
  0
LINE
  5
2F1
100
AcDbEntity
  8
ALL_ASSEMBLY_MEMBERS
100
AcDbLine
 62
7
  6
CONTINUOUS
 10
5.5915652553
 20
4.8739401692
 11
5.5915652553
 21
4.8906394817
  0
LINE
  5
2F2
100
AcDbEntity
  8
ALL_ASSEMBLY_MEMBERS
100
AcDbLine
 62
7
  6
CONTINUOUS
 10
5.5915652553
 20
4.8739401692
 11
5.5029825781
 21
4.8739401692
  0
LINE
  5
2F3
100
AcDbEntity
  8
ALL_ASSEMBLY_MEMBERS
100
AcDbLine
 62
7
  6
CONTINUOUS
 10
5.5915652553
 20
4.8759613446
 11
5.5029825781
 21
4.8759613446
  0
LINE
  5
2F4
100
AcDbEntity
  8
ALL_ASSEMBLY_MEMBERS
100
AcDbLine
 62
7
  6
CONTINUOUS
 10
5.5915652553
 20
4.8906394817
 11
5.5029825781
 21
4.8906394817
  0
LINE
  5
2F5
100
AcDbEntity
  8
ALL_FEATURES
100
AcDbLine
 62
7
  6
CONTINUOUS
 10
5.6349273537
 20
4.9788548137
 11
5.6349273537
 21
3.9938548137
  0
LINE
  5
2F6
100
AcDbEntity
  8
0
100
AcDbLine
 62
7
  6
CONTINUOUS
 10
5.7799370745
 20
4.9788548136
 11
5.7795610731
 21
4.9788475122
  0
LINE
  5
2F7
100
AcDbEntity
  8
0
100
AcDbLine
 62
7
  6
CONTINUOUS
 10
5.7795662135
 20
4.9788476298
 11
5.7799370745
 21
4.9788548136
  0
LINE
  5
2F8
100
AcDbEntity
  8
ALL_ASSEMBLY_MEMBERS
100
AcDbLine
 62
7
  6
CONTINUOUS
 10
5.5540547835
 20
4.9637309353
 11
5.5376387191
 21
4.9637309353
  0
LINE
  5
2F9
100
AcDbEntity
  8
ALL_ASSEMBLY_MEMBERS
100
AcDbLine
 62
7
  6
CONTINUOUS
 10
5.5540547835
 20
4.9662226953
 11
5.5376387191
 21
4.9662226953
  0
LINE
  5
2FA
100
AcDbEntity
  8
ALL_ASSEMBLY_MEMBERS
100
AcDbLine
 62
7
  6
CONTINUOUS
 10
5.5522307764
 20
4.9671558637
 11
5.5394627263
 21
4.9671558637
  0
LINE
  5
2FB
100
AcDbEntity
  8
ALL_ASSEMBLY_MEMBERS
100
AcDbLine
 62
7
  6
CONTINUOUS
 10
5.5522307764
 20
4.9679373175
 11
5.5394627263
 21
4.9679373175
  0
LINE
  5
2FC
100
AcDbEntity
  8
ALL_ASSEMBLY_MEMBERS
100
AcDbLine
 62
7
  6
CONTINUOUS
 10
5.44392746
 20
4.9686382782
 11
5.5029825781
 21
4.9686382782
  0
LINE
  5
2FD
100
AcDbEntity
  8
ALL_ASSEMBLY_MEMBERS
100
AcDbLine
 62
7
  6
CONTINUOUS
 10
5.5887109245
 20
4.9686382782
 11
5.6349273537
 21
4.9686382782
  0
LINE
  5
2FE
100
AcDbEntity
  8
ALL_ASSEMBLY_MEMBERS
100
AcDbLine
 62
7
  6
CONTINUOUS
 10
5.5522307764
 20
4.9704074248
 11
5.5394627263
 21
4.9704074248
  0
LINE
  5
2FF
100
AcDbEntity
  8
ALL_ASSEMBLY_MEMBERS
100
AcDbLine
 62
7
  6
CONTINUOUS
 10
5.5540547835
 20
4.970727718
 11
5.5376387191
 21
4.970727718
  0
LINE
  5
300
100
AcDbEntity
  8
ALL_ASSEMBLY_MEMBERS
100
AcDbLine
 62
7
  6
CONTINUOUS
 10
5.5540547835
 20
4.9710368841
 11
5.5376387191
 21
4.9710368841
  0
LINE
  5
301
100
AcDbEntity
  8
ALL_ASSEMBLY_MEMBERS
100
AcDbLine
 62
7
  6
CONTINUOUS
 10
5.44392746
 20
4.9713548137
 11
5.20342746
 21
4.9713548137
  0
LINE
  5
302
100
AcDbEntity
  8
ALL_ASSEMBLY_MEMBERS
100
AcDbLine
 62
7
  6
CONTINUOUS
 10
5.02842746
 20
4.9713548137
 11
5.0164635346
 21
4.9713548137
  0
LINE
  5
303
100
AcDbEntity
  8
0
100
AcDbLine
 62
7
  6
CONTINUOUS
 10
5.7699273537
 20
4.9787532908
 11
5.6899273537
 21
4.9787532908
  0
LINE
  5
304
100
AcDbEntity
  8
ALL_FEATURES
100
AcDbLine
 62
7
  6
CONTINUOUS
 10
5.6349273537
 20
4.9788548137
 11
5.6799273537
 21
4.9788548137
  0
LINE
  5
305
100
AcDbEntity
  8
ALL_FEATURES
100
AcDbLine
 62
7
  6
CONTINUOUS
 10
5.7799273537
 20
4.9788548137
 11
5.7879971996
 21
4.9788548137
  0
LINE
  5
306
100
AcDbEntity
  8
ALL_FEATURES
100
AcDbLine
 62
7
  6
CONTINUOUS
 10
5.05092746
 20
5.0821380817
 11
5.18092746
 21
5.0821380817
  0
LINE
  5
307
100
AcDbEntity
  8
0
100
AcDbLine
 62
7
  6
CONTINUOUS
 10
5.679917638
 20
4.9788548137
 11
5.6802873002
 21
4.978847653
  0
LINE
  5
308
100
AcDbEntity
  8
0
100
AcDbLine
 62
7
  6
CONTINUOUS
 10
5.680292923
 20
4.9788475294
 11
5.6799176358
 21
4.9788548136
  0
LINE
  5
309
100
AcDbEntity
  8
1_PLATE
100
AcDbLine
 62
7
  6
CONTINUOUS
 10
5.7879971996
 20
5.6738548137
 11
5.7879971996
 21
3.2988548137
  0
LINE
  5
30A
100
AcDbEntity
  8
1_PLATE
100
AcDbLine
 62
7
  6
CONTINUOUS
 10
5.8192308087
 20
5.9806603531
 11
5.8192308087
 21
2.9903548137
  0
LINE
  5
30B
100
AcDbEntity
  8
1_PLATE
100
AcDbLine
 62
7
  6
CONTINUOUS
 10
5.8504947772
 20
2.9076908062
 11
5.8504947772
 21
6.0650188211
  0
LINE
  5
30C
100
AcDbEntity
  8
1_PLATE
100
AcDbLine
 62
7
  6
CONTINUOUS
 10
5.8656473537
 20
6.2363548137
 11
5.8656473537
 21
2.7363548137
  0
LINE
  5
30D
100
AcDbEntity
  8
ALL_FEATURES
100
AcDbLine
 62
7
  6
CONTINUOUS
 10
5.1604729145
 20
5.110578973
 11
5.0713820054
 21
5.110578973
  0
LINE
  5
30E
100
AcDbEntity
  8
1_PLATE
100
AcDbLine
 62
7
  6
CONTINUOUS
 10
5.9906473537
 20
2.6113548137
 11
5.9906473537
 21
6.3613548137
  0
LINE
  5
30F
100
AcDbEntity
  8
1_PLATE
100
AcDbLine
 62
7
  6
CONTINUOUS
 10
6.0661473537
 20
2.6113576643
 11
6.0661473537
 21
6.361351963
  0
LINE
  5
310
100
AcDbEntity
  8
1_PLATE
100
AcDbLine
 62
7
  6
CONTINUOUS
 10
5.9906473537
 20
6.3613548137
 11
6.0661473537
 21
6.3613548137
  0
ARC
  5
311
100
AcDbEntity
  8
ALL_ASSEMBLY_MEMBERS
100
AcDbCircle
 62
7
  6
CONTINUOUS
 10
4.29680246
 20
4.1838548137
 40
0.1875
100
AcDbArc
 50
331.1295236019
 51
360.0
  0
ARC
  5
312
100
AcDbEntity
  8
ALL_ASSEMBLY_MEMBERS
100
AcDbCircle
 62
7
  6
CONTINUOUS
 10
4.29680246
 20
4.1838548137
 40
0.1875
100
AcDbArc
 50
277.6622556608
 51
305.5443769462
  0
ARC
  5
313
100
AcDbEntity
  8
ALL_ASSEMBLY_MEMBERS
100
AcDbCircle
 62
7
  6
CONTINUOUS
 10
4.29680246
 20
4.1838548137
 40
0.1875
100
AcDbArc
 50
234.6431823804
 51
262.3377443392
  0
ARC
  5
314
100
AcDbEntity
  8
ALL_ASSEMBLY_MEMBERS
100
AcDbCircle
 62
7
  6
CONTINUOUS
 10
4.29680246
 20
4.1838548137
 40
0.1875
100
AcDbArc
 50
180.0
 51
209.284895722
  0
ARC
  5
315
100
AcDbEntity
  8
ALL_ASSEMBLY_MEMBERS
100
AcDbCircle
 62
7
  6
CONTINUOUS
 10
4.6657512234
 20
4.1322436441
 40
0.15625
100
AcDbArc
 50
11.3835410059
 51
71.1400389567
  0
ARC
  5
316
100
AcDbEntity
  8
ALL_ASSEMBLY_MEMBERS
100
AcDbCircle
 62
7
  6
CONTINUOUS
 10
4.72692746
 20
4.3113330927
 40
0.033
100
AcDbArc
 50
180.0
 51
251.1400389567
  0
ARC
  5
317
100
AcDbEntity
  8
ALL_ASSEMBLY_MEMBERS
100
AcDbCircle
 62
7
  6
CONTINUOUS
 10
4.04180246
 20
4.3618905482
 40
0.0315
100
AcDbArc
 50
0.0
 51
87.2705973632
  0
ARC
  5
318
100
AcDbEntity
  8
ALL_ASSEMBLY_MEMBERS
100
AcDbCircle
 62
7
  6
CONTINUOUS
 10
4.4296516753
 20
4.0515395236
 40
0.0312845931
100
AcDbArc
 50
220.3298726976
 51
360.0
  0
ARC
  5
319
100
AcDbEntity
  8
ALL_ASSEMBLY_MEMBERS
100
AcDbCircle
 62
7
  6
CONTINUOUS
 10
4.1644732471
 20
4.0510158545
 40
0.0311610408
100
AcDbArc
 50
180.0
 51
319.8813515488
  0
ARC
  5
31A
100
AcDbEntity
  8
ALL_ASSEMBLY_MEMBERS
100
AcDbCircle
 62
7
  6
CONTINUOUS
 10
4.29680246
 20
3.9901048137
 40
0.025
100
AcDbArc
 50
180.0
 51
360.0
  0
ARC
  5
31B
100
AcDbEntity
  8
ALL_ASSEMBLY_MEMBERS
100
AcDbCircle
 62
7
  6
CONTINUOUS
 10
4.10930246
 20
4.3441048137
 40
0.0235
100
AcDbArc
 50
180.0
 51
270.0
  0
ARC
  5
31C
100
AcDbEntity
  8
ALL_ASSEMBLY_MEMBERS
100
AcDbCircle
 62
7
  6
CONTINUOUS
 10
4.29680246
 20
4.7888548137
 40
0.1875
100
AcDbArc
 50
0.0
 51
28.8704763981
  0
ARC
  5
31D
100
AcDbEntity
  8
ALL_ASSEMBLY_MEMBERS
100
AcDbCircle
 62
7
  6
CONTINUOUS
 10
4.29680246
 20
4.7888548137
 40
0.1875
100
AcDbArc
 50
54.4556230538
 51
82.3377443392
  0
ARC
  5
31E
100
AcDbEntity
  8
ALL_ASSEMBLY_MEMBERS
100
AcDbCircle
 62
7
  6
CONTINUOUS
 10
4.29680246
 20
4.7888548137
 40
0.1875
100
AcDbArc
 50
97.6622556608
 51
125.3568176196
  0
ARC
  5
31F
100
AcDbEntity
  8
ALL_ASSEMBLY_MEMBERS
100
AcDbCircle
 62
7
  6
CONTINUOUS
 10
4.29680246
 20
4.7888548137
 40
0.1875
100
AcDbArc
 50
150.715104278
 51
180.0
  0
ARC
  5
320
100
AcDbEntity
  8
ALL_ASSEMBLY_MEMBERS
100
AcDbCircle
 62
7
  6
CONTINUOUS
 10
4.6657512234
 20
4.8404659832
 40
0.15625
100
AcDbArc
 50
288.8599610433
 51
348.6164589941
  0
ARC
  5
321
100
AcDbEntity
  8
ALL_ASSEMBLY_MEMBERS
100
AcDbCircle
 62
7
  6
CONTINUOUS
 10
4.72692746
 20
4.6613765347
 40
0.033
100
AcDbArc
 50
108.8599610433
 51
180.0
  0
ARC
  5
322
100
AcDbEntity
  8
ALL_ASSEMBLY_MEMBERS
100
AcDbCircle
 62
7
  6
CONTINUOUS
 10
4.04180246
 20
4.6108190791
 40
0.0315
100
AcDbArc
 50
272.7294026368
 51
360.0
  0
ARC
  5
323
100
AcDbEntity
  8
ALL_ASSEMBLY_MEMBERS
100
AcDbCircle
 62
7
  6
CONTINUOUS
 10
4.4296516753
 20
4.9211701038
 40
0.0312845931
100
AcDbArc
 50
0.0
 51
139.6701273024
  0
ARC
  5
324
100
AcDbEntity
  8
ALL_ASSEMBLY_MEMBERS
100
AcDbCircle
 62
7
  6
CONTINUOUS
 10
4.1644732471
 20
4.9216937729
 40
0.0311610408
100
AcDbArc
 50
40.1186484512
 51
180.0
  0
ARC
  5
325
100
AcDbEntity
  8
ALL_ASSEMBLY_MEMBERS
100
AcDbCircle
 62
7
  6
CONTINUOUS
 10
4.29680246
 20
4.9826048137
 40
0.025
100
AcDbArc
 50
0.0
 51
180.0
  0
ARC
  5
326
100
AcDbEntity
  8
ALL_ASSEMBLY_MEMBERS
100
AcDbCircle
 62
7
  6
CONTINUOUS
 10
4.10930246
 20
4.6286048137
 40
0.0235
100
AcDbArc
 50
90.0
 51
180.0
  0
ARC
  5
327
100
AcDbEntity
  8
ALL_ASSEMBLY_MEMBERS
100
AcDbCircle
 62
7
  6
CONTINUOUS
 10
5.0164635346
 20
4.2028548137
 40
0.2015
100
AcDbArc
 50
191.3835410059
 51
270.0
  0
ARC
  5
328
100
AcDbEntity
  8
1_PLATE
100
AcDbCircle
 62
7
  6
CONTINUOUS
 10
5.9756473537
 20
3.2988548137
 40
0.1876501541
100
AcDbArc
 50
180.0
 51
213.4957955632
  0
ARC
  5
329
100
AcDbEntity
  8
1_PLATE
100
AcDbCircle
 62
7
  6
CONTINUOUS
 10
5.7566473537
 20
2.8248548137
 40
0.1251764377
100
AcDbArc
 50
29.3590794693
 51
41.4337707006
  0
ARC
  5
32A
100
AcDbEntity
  8
1_PLATE
100
AcDbCircle
 62
7
  6
CONTINUOUS
 10
5.9906473537
 20
2.7363548137
 40
0.125
100
AcDbArc
 50
180.0
 51
270.0
  0
ARC
  5
32B
100
AcDbEntity
  8
1_PLATE
100
AcDbCircle
 62
7
  6
CONTINUOUS
 10
5.9441473537
 20
2.9903548137
 40
0.124916545
100
AcDbArc
 50
180.0
 51
221.4337707006
  0
ARC
  5
32C
100
AcDbEntity
  8
ALL_ASSEMBLY_MEMBERS
100
AcDbCircle
 62
7
  6
CONTINUOUS
 10
5.5748328614
 20
4.0523834514
 40
0.0454241773
100
AcDbArc
 50
270.0001392818
 51
270.9972673083
  0
ARC
  5
32D
100
AcDbEntity
  8
0
100
AcDbCircle
 62
7
  6
CONTINUOUS
 10
5.7699268664
 20
5.4712641983
 40
0.4925109075
100
AcDbArc
 50
270.000056693
 51
271.1214557203
  0
ARC
  5
32E
100
AcDbEntity
  8
0
100
AcDbCircle
 62
7
  6
CONTINUOUS
 10
5.689920685
 20
5.4705338487
 40
0.4917805579
100
AcDbArc
 50
268.8775733666
 51
270.0007769503
  0
ARC
  5
32F
100
AcDbEntity
  8
ALL_ASSEMBLY_MEMBERS
100
AcDbCircle
 62
7
  6
CONTINUOUS
 10
5.0164635346
 20
4.7698548137
 40
0.2015
100
AcDbArc
 50
90.0
 51
168.6164589941
  0
ARC
  5
330
100
AcDbEntity
  8
1_PLATE
100
AcDbCircle
 62
7
  6
CONTINUOUS
 10
5.9756473537
 20
5.6738548137
 40
0.1876501541
100
AcDbArc
 50
146.5042044368
 51
180.0
  0
ARC
  5
331
100
AcDbEntity
  8
ALL_FEATURES
100
AcDbCircle
 62
7
  6
CONTINUOUS
 10
5.11592746
 20
4.9778548137
 40
0.14
100
AcDbArc
 50
71.446995465
 51
108.553004535
  0
ARC
  5
332
100
AcDbEntity
  8
1_PLATE
100
AcDbCircle
 62
7
  6
CONTINUOUS
 10
5.7566473537
 20
6.1478548137
 40
0.1251764377
100
AcDbArc
 50
318.5662292994
 51
330.6409205307
  0
ARC
  5
333
100
AcDbEntity
  8
1_PLATE
100
AcDbCircle
 62
7
  6
CONTINUOUS
 10
5.9906473537
 20
6.2363548137
 40
0.125
100
AcDbArc
 50
90.0
 51
180.0
  0
ARC
  5
334
100
AcDbEntity
  8
1_PLATE
100
AcDbCircle
 62
7
  6
CONTINUOUS
 10
5.9441473537
 20
5.9823548137
 40
0.124916545
100
AcDbArc
 50
138.5662292994
 51
180.0
  0
ARC
  5
335
100
AcDbEntity
  8
ALL_FEATURES
100
AcDbCircle
 62
7
  6
CONTINUOUS
 10
5.08092746
 20
5.0821380817
 40
0.03
100
AcDbArc
 50
108.553004535
 51
180.0
  0
ARC
  5
336
100
AcDbEntity
  8
ALL_FEATURES
100
AcDbCircle
 62
7
  6
CONTINUOUS
 10
5.15092746
 20
5.0821380817
 40
0.03
100
AcDbArc
 50
0.0
 51
71.446995465
  0
SPLINE
  5
337
100
AcDbEntity
  8
ALL_ASSEMBLY_MEMBERS
100
AcDbSpline
 62
7
  6
CONTINUOUS
 70
0
 71
3
 72
20
 73
16
 74
0
 42
0.0000001
 43
0.0000001
 44
0.0000000001
 40
0.0
 40
0.0
 40
0.0
 40
0.0
 40
0.0161728331
 40
0.0258036186
 40
0.0369209756
 40
0.0643334836
 40
0.0992315881
 40
0.1417947005
 40
0.1919721843
 40
0.2494665808
 40
0.313814204
 40
0.4610154349
 40
0.6286948361
 40
0.8109417894
 40
1.0
 40
1.0
 40
1.0
 40
1.0
 10
5.5817224653
 20
4.008042642
 30
0.0
 10
5.5817224637
 20
4.0080811943
 30
0.0
 10
5.5817015781
 20
4.0081429696
 30
0.0
 10
5.581648202
 20
4.0082130334
 30
0.0
 10
5.5815646288
 20
4.0082924861
 30
0.0
 10
5.5814160985
 20
4.0083872947
 30
0.0
 10
5.5811889552
 20
4.0084924625
 30
0.0
 10
5.5809020128
 20
4.0085947
 30
0.0
 10
5.5805574139
 20
4.0086927874
 30
0.0
 10
5.5801578813
 20
4.0087856756
 30
0.0
 10
5.5795279421
 20
4.0089066959
 30
0.0
 10
5.5786323031
 20
4.009033167
 30
0.0
 10
5.577452118
 20
4.0091437962
 30
0.0
 10
5.5761688221
 20
4.0092122074
 30
0.0
 10
5.5752836429
 20
4.0092279133
 30
0.0
 10
5.5748329718
 20
4.0092279133
 30
0.0
  0
SPLINE
  5
338
100
AcDbEntity
  8
ALL_ASSEMBLY_MEMBERS
100
AcDbSpline
 62
7
  6
CONTINUOUS
 70
0
 71
3
 72
23
 73
19
 74
0
 42
0.0000001
 43
0.0000001
 44
0.0000000001
 40
0.0
 40
0.0
 40
0.0
 40
0.0
 40
0.0078034152
 40
0.0161641464
 40
0.0256081261
 40
0.0365034451
 40
0.0490751587
 40
0.0634558353
 40
0.0979038589
 40
0.1401458142
 40
0.1900907423
 40
0.247437934
 40
0.3118120388
 40
0.3826710245
 40
0.459367591
 40
0.6275128975
 40
0.8101911166
 40
1.0
 40
1.0
 40
1.0
 40
1.0
 10
5.5915650321
 20
4.0080426655
 30
0.0
 10
5.5915650339
 20
4.0079977085
 30
0.0
 10
5.5915506965
 20
4.0079040717
 30
0.0
 10
5.59148756
 20
4.0077690086
 30
0.0
 10
5.5913847454
 20
4.0076381143
 30
0.0
 10
5.5912432441
 20
4.007510897
 30
0.0
 10
5.5910635169
 20
4.0073866613
 30
0.0
 10
5.5907540752
 20
4.0072144169
 30
0.0
 10
5.5902679502
 20
4.0070131336
 30
0.0
 10
5.589570674
 20
4.0067967522
 30
0.0
 10
5.588732709
 20
4.0065947301
 30
0.0
 10
5.587761197
 20
4.0064082035
 30
0.0
 10
5.5866644849
 20
4.0062389682
 30
0.0
 10
5.5854527764
 20
4.0060877725
 30
0.0
 10
5.5836429656
 20
4.0059056512
 30
0.0
 10
5.5811852765
 20
4.0057348371
 30
0.0
 10
5.5780725851
 20
4.0056139958
 30
0.0
 10
5.575926498
 20
4.0055871088
 30
0.0
 10
5.5748329718
 20
4.0055871088
 30
0.0
  0
SPLINE
  5
339
100
AcDbEntity
  8
ALL_ASSEMBLY_MEMBERS
100
AcDbSpline
 62
7
  6
CONTINUOUS
 70
0
 71
3
 72
20
 73
16
 74
0
 42
0.0000001
 43
0.0000001
 44
0.0000000001
 40
0.0
 40
0.0
 40
0.0
 40
0.0
 40
0.189057575
 40
0.3713042276
 40
0.5389848736
 40
0.6861864316
 40
0.7505333508
 40
0.8080268943
 40
0.8582038084
 40
0.9007670648
 40
0.9356657355
 40
0.9630788201
 40
0.9741963456
 40
0.9838271894
 40
1.0
 40
1.0
 40
1.0
 40
1.0
 10
5.5748329718
 20
4.0092279133
 30
0.0
 10
5.5743823022
 20
4.0092279133
 30
0.0
 10
5.5734971252
 20
4.0092122083
 30
0.0
 10
5.5722138286
 20
4.0091437963
 30
0.0
 10
5.5710336406
 20
4.0090331656
 30
0.0
 10
5.5701379993
 20
4.0089066964
 30
0.0
 10
5.5695080628
 20
4.0087856772
 30
0.0
 10
5.5691085352
 20
4.0086927899
 30
0.0
 10
5.5687639396
 20
4.0085947022
 30
0.0
 10
5.5684769969
 20
4.0084924643
 30
0.0
 10
5.5682498506
 20
4.0083872959
 30
0.0
 10
5.5681013168
 20
4.008292487
 30
0.0
 10
5.5680177414
 20
4.0082130339
 30
0.0
 10
5.5679643647
 20
4.0081429699
 30
0.0
 10
5.5679434794
 20
4.0080811943
 30
0.0
 10
5.5679434782
 20
4.008042642
 30
0.0
  0
SPLINE
  5
33A
100
AcDbEntity
  8
ALL_ASSEMBLY_MEMBERS
100
AcDbSpline
 62
7
  6
CONTINUOUS
 70
0
 71
3
 72
23
 73
19
 74
0
 42
0.0000001
 43
0.0000001
 44
0.0000000001
 40
0.0
 40
0.0
 40
0.0
 40
0.0
 40
0.1898090382
 40
0.3724871401
 40
0.5406320978
 40
0.6173287805
 40
0.6881879839
 40
0.752562232
 40
0.8099093563
 40
0.859854115
 40
0.9020959549
 40
0.9365440101
 40
0.9509247321
 40
0.9634964936
 40
0.9743918508
 40
0.9838358491
 40
0.9921965845
 40
1.0
 40
1.0
 40
1.0
 40
1.0
 10
5.5748329718
 20
4.0055871088
 30
0.0
 10
5.5737394447
 20
4.0055871088
 30
0.0
 10
5.5715933574
 20
4.0056139962
 30
0.0
 10
5.5684806678
 20
4.0057348366
 30
0.0
 10
5.5660229807
 20
4.005905651
 30
0.0
 10
5.56421317
 20
4.0060877727
 30
0.0
 10
5.5630014589
 20
4.0062389686
 30
0.0
 10
5.561904745
 20
4.0064082036
 30
0.0
 10
5.5609332334
 20
4.0065947296
 30
0.0
 10
5.5600952704
 20
4.0067967515
 30
0.0
 10
5.5593979958
 20
4.0070131331
 30
0.0
 10
5.5589118711
 20
4.0072144164
 30
0.0
 10
5.5586024286
 20
4.0073866608
 30
0.0
 10
5.5584227006
 20
4.0075108966
 30
0.0
 10
5.5582811985
 20
4.007638114
 30
0.0
 10
5.5581783834
 20
4.0077690084
 30
0.0
 10
5.5581152469
 20
4.0079040716
 30
0.0
 10
5.5581009096
 20
4.0079977085
 30
0.0
 10
5.5581009115
 20
4.0080426655
 30
0.0
  0
LINE
  5
33B
100
AcDbEntity
  8
ALL_ASSEMBLY_MEMBERS
100
AcDbLine
 62
7
  6
CONTINUOUS
 10
5.5748329718
 20
4.0110995396
 11
5.5824432432
 21
4.0107353905
  0
SPLINE
  5
33C
100
AcDbEntity
  8
ALL_ASSEMBLY_MEMBERS
100
AcDbSpline
 62
7
  6
CONTINUOUS
 70
0
 71
3
 72
19
 73
15
 74
0
 42
0.0000001
 43
0.0000001
 44
0.0000000001
 40
0.0
 40
0.0
 40
0.0
 40
0.0
 40
0.20355588
 40
0.388916636
 40
0.5529760947
 40
0.6930837406
 40
0.7535900277
 40
0.8074763989
 40
0.8546516999
 40
0.8951680966
 40
0.9292150896
 40
0.95723513
 40
0.9801956094
 40
1.0
 40
1.0
 40
1.0
 40
1.0
 10
5.5824432432
 20
4.0107353905
 30
0.0
 10
5.5831040933
 20
4.0106689531
 30
0.0
 10
5.5843648675
 20
4.0105222483
 30
0.0
 10
5.5861486886
 20
4.0102479819
 30
0.0
 10
5.5877159534
 20
4.0099370743
 30
0.0
 10
5.5888696688
 20
4.0096418823
 30
0.0
 10
5.5896606751
 20
4.0093883345
 30
0.0
 10
5.5901546869
 20
4.0092035856
 30
0.0
 10
5.5905771784
 20
4.0090158868
 30
0.0
 10
5.5909268508
 20
4.0088263071
 30
0.0
 10
5.5912030235
 20
4.008635622
 30
0.0
 10
5.5914053786
 20
4.0084435155
 30
0.0
 10
5.5915333594
 20
4.0082475971
 30
0.0
 10
5.5915650295
 20
4.0081072851
 30
0.0
 10
5.5915650321
 20
4.0080426655
 30
0.0
  0
SPLINE
  5
33D
100
AcDbEntity
  8
ALL_ASSEMBLY_MEMBERS
100
AcDbSpline
 62
7
  6
CONTINUOUS
 70
0
 71
3
 72
18
 73
14
 74
0
 42
0.0000001
 43
0.0000001
 44
0.0000000001
 40
0.0
 40
0.0
 40
0.0
 40
0.0
 40
0.0196331412
 40
0.0421488034
 40
0.0696179638
 40
0.1031481057
 40
0.143227933
 40
0.1900563012
 40
0.3040558468
 40
0.4444578624
 40
0.6090795544
 40
0.7953332078
 40
1.0
 40
1.0
 40
1.0
 40
1.0
 10
5.5679434782
 20
4.008042642
 30
0.0
 10
5.5679434773
 20
4.00801612
 30
0.0
 10
5.5679564262
 20
4.0079587783
 30
0.0
 10
5.5680099592
 20
4.0078797519
 30
0.0
 10
5.5680946423
 20
4.0078041293
 30
0.0
 10
5.5682102445
 20
4.0077307224
 30
0.0
 10
5.5683565955
 20
4.0076591203
 30
0.0
 10
5.5686093847
 20
4.0075597635
 30
0.0
 10
5.5690010753
 20
4.00744677
 30
0.0
 10
5.5695550544
 20
4.0073293734
 30
0.0
 10
5.5702106834
 20
4.0072248979
 30
0.0
 10
5.570955965
 20
4.0071356708
 30
0.0
 10
5.5714820906
 20
4.007089226
 30
0.0
 10
5.5717577851
 20
4.0070683965
 30
0.0
  0
LINE
  5
33E
100
AcDbEntity
  8
ALL_ASSEMBLY_MEMBERS
100
AcDbLine
 62
7
  6
CONTINUOUS
 10
5.5717577851
 20
4.0070683965
 11
5.5748329718
 21
4.006959274
  0
SPLINE
  5
33F
100
AcDbEntity
  8
ALL_ASSEMBLY_MEMBERS
100
AcDbSpline
 62
7
  6
CONTINUOUS
 70
0
 71
3
 72
23
 73
19
 74
0
 42
0.0000001
 43
0.0000001
 44
0.0000000001
 40
0.0
 40
0.0
 40
0.0
 40
0.0
 40
0.0078812127
 40
0.0164536615
 40
0.0261985843
 40
0.0374419714
 40
0.0503770288
 40
0.0651150352
 40
0.1002079959
 40
0.1429471231
 40
0.1932146859
 40
0.2507048315
 40
0.3150490248
 40
0.385731092
 40
0.4621336633
 40
0.6294611839
 40
0.8111746924
 40
1.0
 40
1.0
 40
1.0
 40
1.0
 10
5.5915650298
 20
4.010542573
 30
0.0
 10
5.5915650275
 20
4.0105883298
 30
0.0
 10
5.5915502573
 20
4.0106842923
 30
0.0
 10
5.591486958
 20
4.0108241461
 30
0.0
 10
5.5913841552
 20
4.0109628023
 30
0.0
 10
5.5912426488
 20
4.0111006652
 30
0.0
 10
5.5910628777
 20
4.0112381941
 30
0.0
 10
5.5907540833
 20
4.0114324039
 30
0.0
 10
5.5902691247
 20
4.0116672971
 30
0.0
 10
5.5895728275
 20
4.0119301564
 30
0.0
 10
5.5887365123
 20
4.012184949
 30
0.0
 10
5.5877671601
 20
4.0124285635
 30
0.0
 10
5.5866728373
 20
4.0126572714
 30
0.0
 10
5.5854633673
 20
4.0128681269
 30
0.0
 10
5.5836565354
 20
4.0131294087
 30
0.0
 10
5.5811987226
 20
4.0133854683
 30
0.0
 10
5.5780808033
 20
4.0135730013
 30
0.0
 10
5.5759292561
 20
4.0136156116
 30
0.0
 10
5.5748329718
 20
4.0136156116
 30
0.0
  0
SPLINE
  5
340
100
AcDbEntity
  8
ALL_ASSEMBLY_MEMBERS
100
AcDbSpline
 62
7
  6
CONTINUOUS
 70
0
 71
3
 72
19
 73
15
 74
0
 42
0.0000001
 43
0.0000001
 44
0.0000000001
 40
0.0
 40
0.0
 40
0.0
 40
0.0
 40
0.0198049523
 40
0.0427658196
 40
0.0707860016
 40
0.1048329554
 40
0.1453492186
 40
0.1925243779
 40
0.2464106673
 40
0.3069168988
 40
0.4470242174
 40
0.6110828505
 40
0.7964431978
 40
1.0
 40
1.0
 40
1.0
 40
1.0
 10
5.5581009115
 20
4.0080426655
 30
0.0
 10
5.5581009142
 20
4.0081072822
 30
0.0
 10
5.5581325813
 20
4.0082475871
 30
0.0
 10
5.5582605503
 20
4.0084434969
 30
0.0
 10
5.5584628872
 20
4.0086355955
 30
0.0
 10
5.5587390358
 20
4.0088262725
 30
0.0
 10
5.5590886783
 20
4.0090158444
 30
0.0
 10
5.559511135
 20
4.0092035359
 30
0.0
 10
5.5600051073
 20
4.009388278
 30
0.0
 10
5.5607960512
 20
4.0096418175
 30
0.0
 10
5.561949675
 20
4.0099370019
 30
0.0
 10
5.5635168168
 20
4.010247905
 30
0.0
 10
5.5653005041
 20
4.0105221706
 30
0.0
 10
5.5665611865
 20
4.0106688786
 30
0.0
 10
5.5672219907
 20
4.0107353188
 30
0.0
  0
LINE
  5
341
100
AcDbEntity
  8
ALL_ASSEMBLY_MEMBERS
100
AcDbLine
 62
7
  6
CONTINUOUS
 10
5.5672219907
 20
4.0107353188
 11
5.5748329718
 21
4.0110995396
  0
LINE
  5
342
100
AcDbEntity
  8
ALL_ASSEMBLY_MEMBERS
100
AcDbLine
 62
7
  6
CONTINUOUS
 10
5.5756234564
 20
4.0069661546
 11
5.5779080842
 21
4.0070683916
  0
SPLINE
  5
343
100
AcDbEntity
  8
ALL_ASSEMBLY_MEMBERS
100
AcDbSpline
 62
7
  6
CONTINUOUS
 70
0
 71
3
 72
18
 73
14
 74
0
 42
0.0000001
 43
0.0000001
 44
0.0000000001
 40
0.0
 40
0.0
 40
0.0
 40
0.0
 40
0.2046682898
 40
0.3909226323
 40
0.5555427642
 40
0.6959425846
 40
0.8099416072
 40
0.856770528
 40
0.8968510988
 40
0.9303819048
 40
0.9578513979
 40
0.9803670226
 40
1.0
 40
1.0
 40
1.0
 40
1.0
 10
5.5779080842
 20
4.0070683916
 30
0.0
 10
5.5781837858
 20
4.0070892211
 30
0.0
 10
5.5787099241
 20
4.0071356661
 30
0.0
 10
5.5794552206
 20
4.0072248917
 30
0.0
 10
5.5801108579
 20
4.0073293658
 30
0.0
 10
5.5806648417
 20
4.0074467626
 30
0.0
 10
5.5810565366
 20
4.0075597575
 30
0.0
 10
5.581309332
 20
4.007659115
 30
0.0
 10
5.5814556887
 20
4.0077307182
 30
0.0
 10
5.5815712961
 20
4.0078041259
 30
0.0
 10
5.581655983
 20
4.0078797494
 30
0.0
 10
5.5817095177
 20
4.007958777
 30
0.0
 10
5.5817224664
 20
4.0080161198
 30
0.0
 10
5.5817224653
 20
4.008042642
 30
0.0
  0
SPLINE
  5
344
100
AcDbEntity
  8
ALL_ASSEMBLY_MEMBERS
100
AcDbSpline
 62
7
  6
CONTINUOUS
 70
0
 71
3
 72
23
 73
19
 74
0
 42
0.0000001
 43
0.0000001
 44
0.0000000001
 40
0.0
 40
0.0
 40
0.0
 40
0.0
 40
0.1888229036
 40
0.3705327349
 40
0.5378605567
 40
0.6142646738
 40
0.6849485675
 40
0.7492938873
 40
0.8067841067
 40
0.8570512933
 40
0.899790283
 40
0.9348837029
 40
0.9496220702
 40
0.9625575115
 40
0.9738012536
 40
0.9835463683
 40
0.9921188286
 40
1.0
 40
1.0
 40
1.0
 40
1.0
 10
5.5748329718
 20
4.0136156116
 30
0.0
 10
5.5737367015
 20
4.0136156116
 30
0.0
 10
5.5715851895
 20
4.013573006
 30
0.0
 10
5.5684673039
 20
4.0133854734
 30
0.0
 10
5.5660095011
 20
4.0131294204
 30
0.0
 10
5.5642026482
 20
4.012868135
 30
0.0
 10
5.5629931519
 20
4.0126572782
 30
0.0
 10
5.5618988111
 20
4.012428571
 30
0.0
 10
5.5609294535
 20
4.0121849583
 30
0.0
 10
5.5600931405
 20
4.011930167
 30
0.0
 10
5.5593968442
 20
4.0116673063
 30
0.0
 10
5.5589118822
 20
4.0114324112
 30
0.0
 10
5.5586030809
 20
4.0112381994
 30
0.0
 10
5.5584233034
 20
4.0111006684
 30
0.0
 10
5.5582817907
 20
4.0109628044
 30
0.0
 10
5.5581789832
 20
4.0108241474
 30
0.0
 10
5.558115684
 20
4.0106842922
 30
0.0
 10
5.5581009154
 20
4.0105883296
 30
0.0
 10
5.5581009139
 20
4.010542573
 30
0.0
  0
SPLINE
  5
345
100
AcDbEntity
  8
ALL_ASSEMBLY_MEMBERS
100
AcDbSpline
 62
7
  6
CONTINUOUS
 70
0
 71
3
 72
15
 73
11
 74
0
 42
0.0000001
 43
0.0000001
 44
0.0000000001
 40
0.0
 40
0.0
 40
0.0
 40
0.0
 40
0.0435291241
 40
0.1590580533
 40
0.3190962999
 40
0.4999736454
 40
0.6808601057
 40
0.8409182365
 40
0.9564627026
 40
1.0
 40
1.0
 40
1.0
 40
1.0
 10
4.62730246
 20
4.6588548137
 30
0.0
 10
4.6259026816
 20
4.6585451402
 30
0.0
 10
4.620778318
 20
4.6574553197
 30
0.0
 10
4.6104323257
 20
4.6555864928
 30
0.0
 10
4.5954958075
 20
4.653775884
 30
0.0
 10
4.5783047679
 20
4.6530406237
 30
0.0
 10
4.5611130515
 20
4.6537754993
 30
0.0
 10
4.5461750482
 20
4.6555860874
 30
0.0
 10
4.5358276285
 20
4.6574550976
 30
0.0
 10
4.5307025006
 20
4.6585450791
 30
0.0
 10
4.52930246
 20
4.6588548137
 30
0.0
  0
SPLINE
  5
346
100
AcDbEntity
  8
ALL_ASSEMBLY_MEMBERS
100
AcDbSpline
 62
7
  6
CONTINUOUS
 70
0
 71
3
 72
15
 73
11
 74
0
 42
0.0000001
 43
0.0000001
 44
0.0000000001
 40
0.0
 40
0.0
 40
0.0
 40
0.0
 40
0.0414433687
 40
0.1545443019
 40
0.3155767614
 40
0.4999968917
 40
0.6844178382
 40
0.8454508257
 40
0.9585536103
 40
1.0
 40
1.0
 40
1.0
 40
1.0
 10
5.20342746
 20
4.9713548137
 30
0.0
 10
5.2010284835
 20
4.9709881412
 30
0.0
 10
5.1920744061
 20
4.9696732592
 30
0.0
 10
5.1737323551
 20
4.9673943712
 30
0.0
 10
5.1469609793
 20
4.965176338
 30
0.0
 10
5.1159279585
 20
4.9642741677
 30
0.0
 10
5.0848949047
 20
4.965176278
 30
0.0
 10
5.0581233386
 20
4.9673942839
 30
0.0
 10
5.0397809714
 20
4.9696731933
 30
0.0
 10
5.0308266113
 20
4.9709881142
 30
0.0
 10
5.02842746
 20
4.9713548137
 30
0.0
  0
ELLIPSE
  5
347
100
AcDbEntity
  8
ALL_ASSEMBLY_MEMBERS
100
AcDbEllipse
 62
7
  6
CONTINUOUS
 10
5.5066607355
 20
4.4863548137
 30
0.0
 11
-0.0
 21
0.48475
 31
0.0
 40
0.2210555332
 41
6.3004893413
 42
6.3175170955
  0
ELLIPSE
  5
348
100
AcDbEntity
  8
ALL_ASSEMBLY_MEMBERS
100
AcDbEllipse
 62
7
  6
CONTINUOUS
 10
5.5114815246
 20
4.4863548137
 30
0.0
 11
0.0
 21
0.48475
 31
0.0
 40
0.7957997678
 41
6.2863035852
 42
6.3004893413
  0
ELLIPSE
  5
349
100
AcDbEntity
  8
ALL_ASSEMBLY_MEMBERS
100
AcDbEllipse
 62
7
  6
CONTINUOUS
 10
5.5802119788
 20
4.4863548137
 30
0.0
 11
-0.0
 21
0.48475
 31
0.0
 40
0.7957996981
 41
-0.0173040341
 42
-0.0031182781
  0
ELLIPSE
  5
34A
100
AcDbEntity
  8
ALL_ASSEMBLY_MEMBERS
100
AcDbEllipse
 62
7
  6
CONTINUOUS
 10
5.5850327674
 20
4.4863548137
 30
0.0
 11
0.0
 21
0.48475
 31
0.0
 40
0.2210555139
 41
-0.0343317884
 42
-0.0173040341
  0
ELLIPSE
  5
34B
100
AcDbEntity
  8
ALL_ASSEMBLY_MEMBERS
100
AcDbEllipse
 62
7
  6
CONTINUOUS
 10
5.6644154631
 20
4.4863548137
 30
0.0
 11
3.2147129739
 21
-0.0
 31
0.0
 40
0.1507910672
 41
1.6102429677
 42
1.6130823074
  0
ELLIPSE
  5
34C
100
AcDbEntity
  8
ALL_ASSEMBLY_MEMBERS
100
AcDbEllipse
 62
7
  6
CONTINUOUS
 10
5.6100562608
 20
4.4863548137
 30
0.0
 11
1.9288162072
 21
-0.0
 31
0.0
 40
0.2513199538
 41
1.6130823074
 42
1.6159220045
  0
ELLIPSE
  5
34D
100
AcDbEntity
  8
ALL_ASSEMBLY_MEMBERS
100
AcDbEllipse
 62
7
  6
CONTINUOUS
 10
5.5810532364
 20
4.4863548137
 30
0.0
 11
1.2858813755
 21
0.0
 31
0.0
 40
0.3769787861
 41
1.6159220045
 42
1.621602498
  0
ELLIPSE
  5
34E
100
AcDbEntity
  8
ALL_ASSEMBLY_MEMBERS
100
AcDbEllipse
 62
7
  6
CONTINUOUS
 10
5.5484018999
 20
4.4863548137
 30
0.0
 11
0.6429400371
 21
0.0
 31
0.0
 40
0.7539583352
 41
1.621602498
 42
1.6301263818
  0
ELLIPSE
  5
34F
100
AcDbEntity
  8
ALL_ASSEMBLY_MEMBERS
100
AcDbEllipse
 62
7
  6
CONTINUOUS
 10
5.5331525648
 20
4.4863548137
 30
0.0
 11
0.0
 21
0.48475
 31
0.0
 40
0.7957993124
 41
0.059330055
 42
0.0735464445
  0
ELLIPSE
  5
350
100
AcDbEntity
  8
ALL_ASSEMBLY_MEMBERS
100
AcDbEllipse
 62
7
  6
CONTINUOUS
 10
5.5126804746
 20
4.4863548137
 30
0.0
 11
-0.0
 21
0.48475
 31
0.0
 40
0.2210555332
 41
0.0735464445
 42
0.0906260353
  0
ELLIPSE
  5
351
100
AcDbEntity
  8
ALL_ASSEMBLY_MEMBERS
100
AcDbEllipse
 62
7
  6
CONTINUOUS
 10
5.5790130289
 20
4.4863548137
 30
0.0
 11
0.0
 21
0.48475
 31
0.0
 40
0.2210555139
 41
-0.0906260353
 42
-0.0735464445
  0
ELLIPSE
  5
352
100
AcDbEntity
  8
ALL_ASSEMBLY_MEMBERS
100
AcDbEllipse
 62
7
  6
CONTINUOUS
 10
5.5585409405
 20
4.4863548137
 30
0.0
 11
-0.0
 21
0.48475
 31
0.0
 40
0.7957992427
 41
-0.0735464445
 42
-0.059330055
  0
ELLIPSE
  5
353
100
AcDbEntity
  8
ALL_ASSEMBLY_MEMBERS
100
AcDbEllipse
 62
7
  6
CONTINUOUS
 10
5.5432916078
 20
4.4863548137
 30
0.0
 11
0.642939962
 21
0.0
 31
0.0
 40
0.7539584232
 41
7.794651579
 42
7.8031754627
  0
ELLIPSE
  5
354
100
AcDbEntity
  8
ALL_ASSEMBLY_MEMBERS
100
AcDbEllipse
 62
7
  6
CONTINUOUS
 10
5.5106402789
 20
4.4863548137
 30
0.0
 11
1.2858811504
 21
0.0
 31
0.0
 40
0.3769788521
 41
1.5199901556
 42
1.5256706491
  0
ELLIPSE
  5
355
100
AcDbEntity
  8
ALL_ASSEMBLY_MEMBERS
100
AcDbEllipse
 62
7
  6
CONTINUOUS
 10
5.4816371631
 20
4.4863548137
 30
0.0
 11
1.9288180083
 21
0.0
 31
0.0
 40
0.2513197191
 41
1.5256706491
 42
1.5285103462
  0
ELLIPSE
  5
356
100
AcDbEntity
  8
ALL_ASSEMBLY_MEMBERS
100
AcDbEllipse
 62
7
  6
CONTINUOUS
 10
5.427278075
 20
4.4863548137
 30
0.0
 11
3.2147120734
 21
0.0
 31
0.0
 40
0.1507911094
 41
1.5285103462
 42
1.5313496859
  0
ELLIPSE
  5
357
100
AcDbEntity
  8
ALL_ASSEMBLY_MEMBERS
100
AcDbEllipse
 62
7
  6
CONTINUOUS
 10
5.591228368
 20
4.4863548137
 30
0.0
 11
0.0
 21
0.48475
 31
0.0
 40
0.2652667178
 41
0.0906260353
 42
0.1048790886
  0
ELLIPSE
  5
358
100
AcDbEntity
  8
ALL_ASSEMBLY_MEMBERS
100
AcDbEllipse
 62
7
  6
CONTINUOUS
 10
5.6226384857
 20
4.4863548137
 30
0.0
 11
-0.0
 21
0.48475
 31
0.0
 40
0.8842220554
 41
0.1048790886
 42
0.1134410125
  0
ELLIPSE
  5
359
100
AcDbEntity
  8
ALL_ASSEMBLY_MEMBERS
100
AcDbEllipse
 62
7
  6
CONTINUOUS
 10
5.6832880075
 20
4.4863548137
 30
0.0
 11
0.9644099335
 21
-0.0
 31
0.0
 40
0.5026389538
 41
1.6842373393
 42
1.6956663613
  0
ELLIPSE
  5
35A
100
AcDbEntity
  8
ALL_ASSEMBLY_MEMBERS
100
AcDbEllipse
 62
7
  6
CONTINUOUS
 10
6.0436294097
 20
4.4863548137
 30
0.0
 11
3.857654488
 21
0.0
 31
0.0
 40
0.1256592578
 41
1.6956663613
 42
1.6985261089
  0
ELLIPSE
  5
35B
100
AcDbEntity
  8
ALL_ASSEMBLY_MEMBERS
100
AcDbEllipse
 62
7
  6
CONTINUOUS
 10
5.0480639783
 20
4.4863548137
 30
0.0
 11
3.8576553886
 21
0.0
 31
0.0
 40
0.1256592285
 41
1.4430665446
 42
1.4459262923
  0
ELLIPSE
  5
35C
100
AcDbEntity
  8
ALL_ASSEMBLY_MEMBERS
100
AcDbEllipse
 62
7
  6
CONTINUOUS
 10
5.4084055347
 20
4.4863548137
 30
0.0
 11
0.9644095958
 21
0.0
 31
0.0
 40
0.5026391298
 41
1.4459262923
 42
1.4573553143
  0
ELLIPSE
  5
35D
100
AcDbEntity
  8
ALL_ASSEMBLY_MEMBERS
100
AcDbEllipse
 62
7
  6
CONTINUOUS
 10
5.4690550183
 20
4.4863548137
 30
0.0
 11
0.0
 21
0.48475
 31
0.0
 40
0.8842220554
 41
-0.1134410125
 42
-0.1048790886
  0
ELLIPSE
  5
35E
100
AcDbEntity
  8
ALL_ASSEMBLY_MEMBERS
100
AcDbEllipse
 62
7
  6
CONTINUOUS
 10
5.500465136
 20
4.4863548137
 30
0.0
 11
-0.0
 21
0.48475
 31
0.0
 40
0.2652667178
 41
-0.1048790886
 42
-0.0906260353
  0
ELLIPSE
  5
35F
100
AcDbEntity
  8
ALL_ASSEMBLY_MEMBERS
100
AcDbEllipse
 62
7
  6
CONTINUOUS
 10
5.6580336672
 20
4.4863548137
 30
0.0
 11
0.5716780154
 21
-0.4744956074
 31
0.0
 40
0.1734875795
 41
1.8341228243
 42
1.8564220296
  0
ELLIPSE
  5
360
100
AcDbEntity
  8
ALL_ASSEMBLY_MEMBERS
100
AcDbEllipse
 62
7
  6
CONTINUOUS
 10
5.6154734918
 20
4.4863548137
 30
0.0
 11
0.5716778757
 21
-0.4744956116
 31
0.0
 40
0.1734875871
 41
1.7601616376
 42
1.7823049235
  0
ELLIPSE
  5
361
100
AcDbEntity
  8
ALL_ASSEMBLY_MEMBERS
100
AcDbEllipse
 62
7
  6
CONTINUOUS
 10
5.5588079976
 20
4.4863548137
 30
0.0
 11
0.117123106
 21
0.4846535957
 31
0.0
 40
0.0825387411
 41
1.3243861563
 42
1.3391838673
  0
ELLIPSE
  5
362
100
AcDbEntity
  8
ALL_ASSEMBLY_MEMBERS
100
AcDbEllipse
 62
7
  6
CONTINUOUS
 10
5.5788900382
 20
4.4863548137
 30
0.0
 11
0.3205164298
 21
0.4819141273
 31
0.0
 40
0.1633544133
 41
1.4274608739
 42
1.438573063
  0
ELLIPSE
  5
363
100
AcDbEntity
  8
ALL_ASSEMBLY_MEMBERS
100
AcDbEllipse
 62
7
  6
CONTINUOUS
 10
5.6236140066
 20
4.4863548137
 30
0.0
 11
0.7387483593
 21
0.4700085841
 31
0.0
 40
0.1605905019
 41
1.5775999118
 42
1.5850154544
  0
ELLIPSE
  5
364
100
AcDbEntity
  8
ALL_ASSEMBLY_MEMBERS
100
AcDbEllipse
 62
7
  6
CONTINUOUS
 10
5.7095903583
 20
4.4863548137
 30
0.0
 11
1.4844556253
 21
0.4605286781
 31
0.0
 40
0.1019322549
 41
1.6552211679
 42
1.6589312972
  0
ELLIPSE
  5
365
100
AcDbEntity
  8
ALL_ASSEMBLY_MEMBERS
100
AcDbEllipse
 62
7
  6
CONTINUOUS
 10
5.3510951004
 20
4.4863548137
 30
0.0
 11
1.4844549309
 21
-0.4605286823
 31
0.0
 40
0.1019322941
 41
1.4826613836
 42
1.4863715129
  0
ELLIPSE
  5
366
100
AcDbEntity
  8
ALL_ASSEMBLY_MEMBERS
100
AcDbEllipse
 62
7
  6
CONTINUOUS
 10
5.4370713518
 20
4.4863548137
 30
0.0
 11
0.7387485344
 21
-0.47000858
 31
0.0
 40
0.1605904861
 41
1.5565771643
 42
1.5639927069
  0
ELLIPSE
  5
367
100
AcDbEntity
  8
ALL_ASSEMBLY_MEMBERS
100
AcDbEllipse
 62
7
  6
CONTINUOUS
 10
5.481795339
 20
4.4863548137
 30
0.0
 11
-0.3205164298
 21
0.4819141273
 31
0.0
 40
0.1633544133
 41
-1.438573063
 42
-1.4274608739
  0
ELLIPSE
  5
368
100
AcDbEntity
  8
ALL_ASSEMBLY_MEMBERS
100
AcDbEllipse
 62
7
  6
CONTINUOUS
 10
5.7463140436
 20
4.4863548137
 30
0.0
 11
3.8575848219
 21
0.456341581
 31
0.0
 40
0.0423861521
 41
-1.6322987713
 42
-1.629457479
  0
ELLIPSE
  5
369
100
AcDbEntity
  8
ALL_ASSEMBLY_MEMBERS
100
AcDbEllipse
 62
7
  6
CONTINUOUS
 10
5.5018773796
 20
4.4863548137
 30
0.0
 11
-0.117123106
 21
0.4846535957
 31
0.0
 40
0.0825387411
 41
-1.3391838673
 42
-1.3243861563
  0
ELLIPSE
  5
36A
100
AcDbEntity
  8
ALL_ASSEMBLY_MEMBERS
100
AcDbEllipse
 62
7
  6
CONTINUOUS
 10
5.5829676709
 20
4.4863548137
 30
0.0
 11
0.9622071635
 21
0.4656770005
 31
0.0
 40
0.1399266045
 41
-1.7062712763
 42
-1.6949013418
  0
ELLIPSE
  5
36B
100
AcDbEntity
  8
ALL_ASSEMBLY_MEMBERS
100
AcDbEllipse
 62
7
  6
CONTINUOUS
 10
5.5466381763
 20
4.4863548137
 30
0.0
 11
0.4203531079
 21
0.479141308
 31
0.0
 40
0.1749164141
 41
-1.8439863269
 42
-1.8354531791
  0
ELLIPSE
  5
36C
100
AcDbEntity
  8
ALL_ASSEMBLY_MEMBERS
100
AcDbEllipse
 62
7
  6
CONTINUOUS
 10
5.523740081
 20
4.4863548137
 30
0.0
 11
0.1217484006
 21
0.4846385345
 31
0.0
 40
0.0853799597
 41
-1.9890427863
 42
-1.9748081556
  0
ELLIPSE
  5
36D
100
AcDbEntity
  8
ALL_ASSEMBLY_MEMBERS
100
AcDbEllipse
 62
7
  6
CONTINUOUS
 10
5.5300641606
 20
4.4863548137
 30
0.0
 11
0.9880542361
 21
0.465285186
 31
0.0
 40
0.1376303424
 41
1.5113205669
 42
1.5186896574
  0
ELLIPSE
  5
36E
100
AcDbEntity
  8
ALL_ASSEMBLY_MEMBERS
100
AcDbEllipse
 62
7
  6
CONTINUOUS
 10
5.5259009892
 20
4.4863548137
 30
0.0
 11
0.6553159276
 21
0.4721187462
 31
0.0
 40
0.1677639688
 41
1.4631295299
 42
1.4741845703
  0
ELLIPSE
  5
36F
100
AcDbEntity
  8
ALL_ASSEMBLY_MEMBERS
100
AcDbEllipse
 62
7
  6
CONTINUOUS
 10
5.5173086818
 20
4.4863548137
 30
0.0
 11
0.2873264341
 21
0.4826711449
 31
0.0
 40
0.1560789432
 41
1.3380452399
 42
1.356477401
  0
ELLIPSE
  5
370
100
AcDbEntity
  8
ALL_ASSEMBLY_MEMBERS
100
AcDbEllipse
 62
7
  6
CONTINUOUS
 10
5.5089739461
 20
4.4863548137
 30
0.0
 11
0.0934735408
 21
0.4847090996
 31
0.0
 40
0.0673658948
 41
1.2768224913
 42
1.2952689988
  0
ELLIPSE
  5
371
100
AcDbEntity
  8
ALL_ASSEMBLY_MEMBERS
100
AcDbEllipse
 62
7
  6
CONTINUOUS
 10
5.5517114303
 20
4.4863548137
 30
0.0
 11
-0.0934735326
 21
0.4847090996
 31
0.0
 40
0.0673658893
 41
-1.2952689966
 42
-1.2768224891
  0
ELLIPSE
  5
372
100
AcDbEntity
  8
ALL_ASSEMBLY_MEMBERS
100
AcDbEllipse
 62
7
  6
CONTINUOUS
 10
5.5433766953
 20
4.4863548137
 30
0.0
 11
-0.287326408
 21
0.4826711454
 31
0.0
 40
0.1560789367
 41
-1.3564773887
 42
-1.3380452276
  0
ELLIPSE
  5
373
100
AcDbEntity
  8
ALL_ASSEMBLY_MEMBERS
100
AcDbEllipse
 62
7
  6
CONTINUOUS
 10
5.5679534229
 20
4.4863548137
 30
0.0
 11
-0.1217484006
 21
0.4846385345
 31
0.0
 40
0.0853799597
 41
-4.3083771516
 42
-4.2941425209
  0
ELLIPSE
  5
374
100
AcDbEntity
  8
ALL_ASSEMBLY_MEMBERS
100
AcDbEllipse
 62
7
  6
CONTINUOUS
 10
5.5450553276
 20
4.4863548137
 30
0.0
 11
-0.4203531079
 21
0.479141308
 31
0.0
 40
0.1749164141
 41
-4.4477321281
 42
-4.4391989803
  0
ELLIPSE
  5
375
100
AcDbEntity
  8
ALL_ASSEMBLY_MEMBERS
100
AcDbEllipse
 62
7
  6
CONTINUOUS
 10
5.5087258101
 20
4.4863548137
 30
0.0
 11
0.962207503
 21
-0.4656769952
 31
0.0
 40
0.1399265741
 41
-1.4466913509
 42
-1.4353214165
  0
ELLIPSE
  5
376
100
AcDbEntity
  8
ALL_ASSEMBLY_MEMBERS
100
AcDbEllipse
 62
7
  6
CONTINUOUS
 10
5.3453795073
 20
4.4863548137
 30
0.0
 11
3.8575839213
 21
-0.4563415814
 31
0.0
 40
0.0423861617
 41
-1.5121351722
 42
-1.5092938799
  0
ELLIPSE
  5
377
100
AcDbEntity
  8
ALL_ASSEMBLY_MEMBERS
100
AcDbEllipse
 62
7
  6
CONTINUOUS
 10
5.6679622739
 20
4.4863548137
 30
0.0
 11
0.7463252756
 21
-0.4698307894
 31
0.0
 40
0.1599009769
 41
-1.6130857077
 42
-1.5959095904
  0
ELLIPSE
  5
378
100
AcDbEntity
  8
ALL_ASSEMBLY_MEMBERS
100
AcDbEllipse
 62
7
  6
CONTINUOUS
 10
5.5475745555
 20
4.4863548137
 30
0.0
 11
0.5597140252
 21
-0.4748533936
 31
0.0
 40
0.1741096516
 41
-1.4868806225
 42
-1.4159149133
  0
ELLIPSE
  5
379
100
AcDbEntity
  8
ALL_ASSEMBLY_MEMBERS
100
AcDbEllipse
 62
7
  6
CONTINUOUS
 10
5.5442940525
 20
4.4863548137
 30
0.0
 11
0.9622042765
 21
-0.4656770454
 31
0.0
 40
0.139926863
 41
-1.4949495759
 42
-1.489275252
  0
ELLIPSE
  5
37A
100
AcDbEntity
  8
ALL_ASSEMBLY_MEMBERS
100
AcDbEllipse
 62
7
  6
CONTINUOUS
 10
5.5219459391
 20
4.4863548137
 30
0.0
 11
2.5716108227
 21
-0.4573304865
 31
0.0
 40
0.0624983615
 41
-1.5457781432
 42
-1.5429408411
  0
ELLIPSE
  5
37B
100
AcDbEntity
  8
ALL_ASSEMBLY_MEMBERS
100
AcDbEllipse
 62
7
  6
CONTINUOUS
 10
5.6116997332
 20
4.4863548137
 30
0.0
 11
2.5716108227
 21
0.4573304865
 31
0.0
 40
0.0624983615
 41
-1.5986518125
 42
-1.5958145104
  0
ELLIPSE
  5
37C
100
AcDbEntity
  8
ALL_ASSEMBLY_MEMBERS
100
AcDbEllipse
 62
7
  6
CONTINUOUS
 10
5.5848820508
 20
4.4863548137
 30
0.0
 11
0.6379530235
 21
0.4725921354
 31
0.0
 40
0.1691116546
 41
-1.7093280947
 42
-1.6979797282
  0
ELLIPSE
  5
37D
100
AcDbEntity
  8
ALL_ASSEMBLY_MEMBERS
100
AcDbEllipse
 62
7
  6
CONTINUOUS
 10
5.5984088202
 20
4.4863548137
 30
0.0
 11
0.10123742
 21
0.4846944896
 31
0.0
 40
0.0724615456
 41
-2.012460577
 42
-1.9953544323
  0
ELLIPSE
  5
37E
100
AcDbEntity
  8
ALL_ASSEMBLY_MEMBERS
100
AcDbEllipse
 62
7
  6
CONTINUOUS
 10
5.6283657832
 20
4.4863548137
 30
0.0
 11
0.3768576551
 21
0.4804196369
 31
0.0
 40
0.1715483869
 41
-1.9081086021
 42
-1.8938294856
  0
ELLIPSE
  5
37F
100
AcDbEntity
  8
ALL_ASSEMBLY_MEMBERS
100
AcDbEllipse
 62
7
  6
CONTINUOUS
 10
5.5840604775
 20
4.4863548137
 30
0.0
 11
0.3118799231
 21
0.4821211713
 31
0.0
 40
0.1616508637
 41
-1.8182260229
 42
-1.8068779936
  0
ELLIPSE
  5
380
100
AcDbEntity
  8
ALL_ASSEMBLY_MEMBERS
100
AcDbEllipse
 62
7
  6
CONTINUOUS
 10
5.6596663449
 20
4.4863548137
 30
0.0
 11
0.6379533341
 21
0.4725921268
 31
0.0
 40
0.1691116311
 41
-1.8260145634
 42
-1.8174352631
  0
ELLIPSE
  5
381
100
AcDbEntity
  8
ALL_ASSEMBLY_MEMBERS
100
AcDbEllipse
 62
7
  6
CONTINUOUS
 10
5.7433894959
 20
4.4863548137
 30
0.0
 11
1.2847916974
 21
0.4619431809
 31
0.0
 40
0.1143679302
 41
-1.7482093125
 42
-1.7424844324
  0
ELLIPSE
  5
382
100
AcDbEntity
  8
ALL_ASSEMBLY_MEMBERS
100
AcDbEllipse
 62
7
  6
CONTINUOUS
 10
5.585944771
 20
4.4863548137
 30
0.0
 11
0.10123742
 21
0.4846944896
 31
0.0
 40
0.0724615456
 41
-1.89593605
 42
-1.8789114217
  0
ELLIPSE
  5
383
100
AcDbEntity
  8
ALL_ASSEMBLY_MEMBERS
100
AcDbEllipse
 62
7
  6
CONTINUOUS
 10
5.8307625656
 20
4.4863548137
 30
0.0
 11
1.9284678459
 21
0.4586391126
 31
0.0
 40
0.0813849018
 41
-1.7293289027
 42
-1.7264648042
  0
ELLIPSE
  5
384
100
AcDbEntity
  8
ALL_ASSEMBLY_MEMBERS
100
AcDbEllipse
 62
7
  6
CONTINUOUS
 10
6.00915398
 20
4.4863548137
 30
0.0
 11
3.2146291591
 21
0.4566950122
 31
0.0
 40
0.0505558762
 41
-1.7200233845
 42
-1.7171581365
  0
ELLIPSE
  5
385
100
AcDbEntity
  8
ALL_ASSEMBLY_MEMBERS
100
AcDbEllipse
 62
7
  6
CONTINUOUS
 10
5.0825393952
 20
4.4863548137
 30
0.0
 11
3.2146300597
 21
-0.4566950116
 31
0.0
 40
0.0505558626
 41
-1.4244345211
 42
-1.421569273
  0
ELLIPSE
  5
386
100
AcDbEntity
  8
ALL_ASSEMBLY_MEMBERS
100
AcDbEllipse
 62
7
  6
CONTINUOUS
 10
5.2609311844
 20
4.4863548137
 30
0.0
 11
1.9284660439
 21
-0.458639118
 31
0.0
 40
0.0813849697
 41
-1.4151278149
 42
-1.4122637165
  0
ELLIPSE
  5
387
100
AcDbEntity
  8
ALL_ASSEMBLY_MEMBERS
100
AcDbEllipse
 62
7
  6
CONTINUOUS
 10
5.6345824517
 20
4.4863548137
 30
0.0
 11
0.9622070503
 21
-0.4656770023
 31
0.0
 40
0.1399266146
 41
-1.5716017881
 42
-1.5659156053
  0
ELLIPSE
  5
388
100
AcDbEntity
  8
ALL_ASSEMBLY_MEMBERS
100
AcDbEllipse
 62
7
  6
CONTINUOUS
 10
5.3483039787
 20
4.4863548137
 30
0.0
 11
1.2847919231
 21
-0.461943179
 31
0.0
 40
0.1143679148
 41
-1.3991082341
 42
-1.393383354
  0
ELLIPSE
  5
389
100
AcDbEntity
  8
ALL_ASSEMBLY_MEMBERS
100
AcDbEllipse
 62
7
  6
CONTINUOUS
 10
5.4320271492
 20
4.4863548137
 30
0.0
 11
0.6379534101
 21
-0.4725921247
 31
0.0
 40
0.1691116253
 41
-1.3241574099
 42
-1.3155781096
  0
ELLIPSE
  5
38A
100
AcDbEntity
  8
ALL_ASSEMBLY_MEMBERS
100
AcDbEllipse
 62
7
  6
CONTINUOUS
 10
5.6009915458
 20
4.4863548137
 30
0.0
 11
-0.4203531079
 21
0.479141308
 31
0.0
 40
0.1749164141
 41
-4.5783263692
 42
-4.5698008357
  0
ELLIPSE
  5
38B
100
AcDbEntity
  8
ALL_ASSEMBLY_MEMBERS
100
AcDbEllipse
 62
7
  6
CONTINUOUS
 10
5.4633277159
 20
4.4863548137
 30
0.0
 11
-0.3768576893
 21
0.480419636
 31
0.0
 40
0.1715483905
 41
-4.3893558366
 42
-4.3750767201
  0
ELLIPSE
  5
38C
100
AcDbEntity
  8
ALL_ASSEMBLY_MEMBERS
100
AcDbEllipse
 62
7
  6
CONTINUOUS
 10
5.5847342796
 20
4.4863548137
 30
0.0
 11
-0.1217484712
 21
0.4846385342
 31
0.0
 40
0.0853800028
 41
-4.4389790303
 42
-4.4247782581
  0
ELLIPSE
  5
38D
100
AcDbEntity
  8
ALL_ASSEMBLY_MEMBERS
100
AcDbEllipse
 62
7
  6
CONTINUOUS
 10
5.4932846816
 20
4.4863548137
 30
0.0
 11
-0.101237429
 21
0.4846944896
 31
0.0
 40
0.0724615514
 41
-4.2878308774
 42
-4.2707247327
  0
ELLIPSE
  5
38E
100
AcDbEntity
  8
ALL_ASSEMBLY_MEMBERS
100
AcDbEllipse
 62
7
  6
CONTINUOUS
 10
5.5017011902
 20
4.4863548137
 30
0.0
 11
1.9288162072
 21
0.0
 31
0.0
 40
0.2513199538
 41
7.8400775852
 42
7.8429147916
  0
ELLIPSE
  5
38F
100
AcDbEntity
  8
ALL_ASSEMBLY_MEMBERS
100
AcDbEllipse
 62
7
  6
CONTINUOUS
 10
5.4838225948
 20
4.4863548137
 30
0.0
 11
3.2147129739
 21
0.0
 31
0.0
 40
0.1507910672
 41
7.837240283
 42
7.8400775852
  0
ELLIPSE
  5
390
100
AcDbEntity
  8
ALL_ASSEMBLY_MEMBERS
100
AcDbEllipse
 62
7
  6
CONTINUOUS
 10
5.6078708927
 20
4.4863548137
 30
0.0
 11
3.2147120734
 21
-0.0
 31
0.0
 40
0.1507911094
 41
1.5847003756
 42
1.5875376778
  0
ELLIPSE
  5
391
100
AcDbEntity
  8
ALL_ASSEMBLY_MEMBERS
100
AcDbEllipse
 62
7
  6
CONTINUOUS
 10
5.523740081
 20
4.4863548137
 30
0.0
 11
-0.0
 21
0.48475
 31
0.0
 40
0.2652664142
 41
0.0763914046
 42
0.0906260353
  0
ELLIPSE
  5
392
100
AcDbEntity
  8
ALL_ASSEMBLY_MEMBERS
100
AcDbEllipse
 62
7
  6
CONTINUOUS
 10
5.5466381763
 20
4.4863548137
 30
0.0
 11
0.0
 21
0.48475
 31
0.0
 40
0.8842220554
 41
0.0678582568
 42
0.0763914046
  0
ELLIPSE
  5
393
100
AcDbEntity
  8
ALL_ASSEMBLY_MEMBERS
100
AcDbEllipse
 62
7
  6
CONTINUOUS
 10
5.5829676709
 20
4.4863548137
 30
0.0
 11
0.9644109754
 21
-0.0
 31
0.0
 40
0.5026384108
 41
1.6272846492
 42
1.6386545836
  0
ELLIPSE
  5
394
100
AcDbEntity
  8
ALL_ASSEMBLY_MEMBERS
100
AcDbEllipse
 62
7
  6
CONTINUOUS
 10
5.5829676709
 20
4.4863548137
 30
0.0
 11
0.9595037988
 21
-0.0
 31
0.0
 40
0.5026384108
 41
1.6275738566
 42
1.6336193552
  0
ELLIPSE
  5
395
100
AcDbEntity
  8
ALL_ASSEMBLY_MEMBERS
100
AcDbEllipse
 62
7
  6
CONTINUOUS
 10
5.7463140436
 20
4.4863548137
 30
0.0
 11
3.857633315
 21
-0.0
 31
0.0
 40
0.1256599475
 41
1.6244433569
 42
1.6272846492
  0
ELLIPSE
  5
396
100
AcDbEntity
  8
ALL_ASSEMBLY_MEMBERS
100
AcDbEllipse
 62
7
  6
CONTINUOUS
 10
5.7463140436
 20
4.4863548137
 30
0.0
 11
3.8380046625
 21
-0.0
 31
0.0
 40
0.1256599475
 41
1.6247179887
 42
1.6275738566
  0
ELLIPSE
  5
397
100
AcDbEntity
  8
ALL_ASSEMBLY_MEMBERS
100
AcDbEllipse
 62
7
  6
CONTINUOUS
 10
5.5899923349
 20
4.4863548137
 30
0.0
 11
1.9288180083
 21
0.0
 31
0.0
 40
0.2513197191
 41
1.5818631691
 42
1.5847003756
  0
ELLIPSE
  5
398
100
AcDbEntity
  8
ALL_ASSEMBLY_MEMBERS
100
AcDbEllipse
 62
7
  6
CONTINUOUS
 10
5.5828771993
 20
4.4863548137
 30
0.0
 11
1.2858811504
 21
0.0
 31
0.0
 40
0.3769788521
 41
1.5761890168
 42
1.5818631691
  0
ELLIPSE
  5
399
100
AcDbEntity
  8
ALL_ASSEMBLY_MEMBERS
100
AcDbEllipse
 62
7
  6
CONTINUOUS
 10
5.6434416377
 20
4.4863548137
 30
0.0
 11
0.57167825
 21
-0.4744956005
 31
0.0
 40
0.1734875667
 41
1.8341227539
 42
1.8564219592
  0
ELLIPSE
  5
39A
100
AcDbEntity
  8
ALL_ASSEMBLY_MEMBERS
100
AcDbEllipse
 62
7
  6
CONTINUOUS
 10
5.6434416377
 20
4.4863548137
 30
0.0
 11
0.5687694008
 21
-0.4720812421
 31
0.0
 40
0.1734875667
 41
8.1199044316
 42
8.140341655
  0
ELLIPSE
  5
39B
100
AcDbEntity
  8
ALL_ASSEMBLY_MEMBERS
100
AcDbEllipse
 62
7
  6
CONTINUOUS
 10
5.5794100336
 20
4.4863548137
 30
0.0
 11
0.642939962
 21
0.0
 31
0.0
 40
0.7539584232
 41
7.8508633559
 42
7.859374324
  0
ELLIPSE
  5
39C
100
AcDbEntity
  8
ALL_ASSEMBLY_MEMBERS
100
AcDbEllipse
 62
7
  6
CONTINUOUS
 10
5.6008814453
 20
4.4863548137
 30
0.0
 11
0.5716781103
 21
-0.4744956046
 31
0.0
 40
0.1734875743
 41
1.7601615672
 42
1.7823048532
  0
ELLIPSE
  5
39D
100
AcDbEntity
  8
ALL_ASSEMBLY_MEMBERS
100
AcDbEllipse
 62
7
  6
CONTINUOUS
 10
5.6008814453
 20
4.4863548137
 30
0.0
 11
0.5687692618
 21
-0.4720812463
 31
0.0
 40
0.1734875743
 41
8.0454832217
 42
8.0658410218
  0
ELLIPSE
  5
39E
100
AcDbEntity
  8
ALL_ASSEMBLY_MEMBERS
100
AcDbEllipse
 62
7
  6
CONTINUOUS
 10
5.5297631297
 20
4.4863548137
 30
0.0
 11
-0.3622025764
 21
0.4808294012
 31
0.0
 40
0.1698707729
 41
-1.3947898515
 42
-1.3800412872
  0
ELLIPSE
  5
39F
100
AcDbEntity
  8
ALL_ASSEMBLY_MEMBERS
100
AcDbEllipse
 62
7
  6
CONTINUOUS
 10
5.5297631297
 20
4.4863548137
 30
0.0
 11
-0.3603595945
 21
0.4783828148
 31
0.0
 40
0.1698707729
 41
-1.3950241974
 42
-1.3802000911
  0
ELLIPSE
  5
3A0
100
AcDbEntity
  8
ALL_ASSEMBLY_MEMBERS
100
AcDbEllipse
 62
7
  6
CONTINUOUS
 10
5.5410935505
 20
4.4863548137
 30
0.0
 11
-0.1171229363
 21
0.4846535963
 31
0.0
 40
0.082538636
 41
-1.3022224851
 42
-1.2874639355
  0
ELLIPSE
  5
3A1
100
AcDbEntity
  8
ALL_ASSEMBLY_MEMBERS
100
AcDbEllipse
 62
7
  6
CONTINUOUS
 10
5.5410935505
 20
4.4863548137
 30
0.0
 11
-0.116526984
 21
0.4821875514
 31
0.0
 40
0.082538636
 41
4.9806527798
 42
4.9954870257
  0
ELLIPSE
  5
3A2
100
AcDbEntity
  8
ALL_ASSEMBLY_MEMBERS
100
AcDbEllipse
 62
7
  6
CONTINUOUS
 10
5.4932846816
 20
4.4863548137
 30
0.0
 11
0.0
 21
0.48475
 31
0.0
 40
0.2210555332
 41
-0.10773218
 42
-0.0906260353
  0
ELLIPSE
  5
3A3
100
AcDbEntity
  8
ALL_ASSEMBLY_MEMBERS
100
AcDbEllipse
 62
7
  6
CONTINUOUS
 10
5.4932846816
 20
4.4863548137
 30
0.0
 11
0.0
 21
0.4822834646
 31
0.0
 40
0.2210555332
 41
-0.1082853113
 42
-0.0910908057
  0
ELLIPSE
  5
3A4
100
AcDbEntity
  8
ALL_ASSEMBLY_MEMBERS
100
AcDbEllipse
 62
7
  6
CONTINUOUS
 10
5.4633277159
 20
4.4863548137
 30
0.0
 11
-0.0
 21
0.48475
 31
0.0
 40
0.7958002231
 41
-0.1220112966
 42
-0.10773218
  0
ELLIPSE
  5
3A5
100
AcDbEntity
  8
ALL_ASSEMBLY_MEMBERS
100
AcDbEllipse
 62
7
  6
CONTINUOUS
 10
5.4633277159
 20
4.4863548137
 30
0.0
 11
0.0
 21
0.4822834646
 31
0.0
 40
0.7958002231
 41
-0.1226384364
 42
-0.1082853113
  0
ELLIPSE
  5
3A6
100
AcDbEntity
  8
ALL_ASSEMBLY_MEMBERS
100
AcDbEllipse
 62
7
  6
CONTINUOUS
 10
5.4320271492
 20
4.4863548137
 30
0.0
 11
0.6429400371
 21
0.0
 31
0.0
 40
0.7539583352
 41
1.4402057299
 42
1.4487850302
  0
ELLIPSE
  5
3A7
100
AcDbEntity
  8
ALL_ASSEMBLY_MEMBERS
100
AcDbEllipse
 62
7
  6
CONTINUOUS
 10
5.4320271492
 20
4.4863548137
 30
0.0
 11
0.6396685892
 21
-0.0
 31
0.0
 40
0.7539583352
 41
1.4395339999
 42
1.4481578904
  0
ELLIPSE
  5
3A8
100
AcDbEntity
  8
ALL_ASSEMBLY_MEMBERS
100
AcDbEllipse
 62
7
  6
CONTINUOUS
 10
5.5195918267
 20
4.4863548137
 30
0.0
 11
0.1171229363
 21
0.4846535963
 31
0.0
 40
0.082538636
 41
1.2874639355
 42
1.3022224851
  0
ELLIPSE
  5
3A9
100
AcDbEntity
  8
ALL_ASSEMBLY_MEMBERS
100
AcDbEllipse
 62
7
  6
CONTINUOUS
 10
5.5195918267
 20
4.4863548137
 30
0.0
 11
0.116526984
 21
0.4821875514
 31
0.0
 40
0.082538636
 41
1.2876982814
 42
1.3025325273
  0
ELLIPSE
  5
3AA
100
AcDbEntity
  8
ALL_ASSEMBLY_MEMBERS
100
AcDbEllipse
 62
7
  6
CONTINUOUS
 10
5.500465136
 20
4.4863548137
 30
0.0
 11
-0.1211290532
 21
0.4821725657
 31
0.0
 40
0.0853800458
 41
-4.2918879649
 42
-4.2793511418
  0
ELLIPSE
  5
3AB
100
AcDbEntity
  8
ALL_ASSEMBLY_MEMBERS
100
AcDbEllipse
 62
7
  6
CONTINUOUS
 10
5.5290338411
 20
4.4863548137
 30
0.0
 11
0.3205164298
 21
0.4819141273
 31
0.0
 40
0.1633544133
 41
1.364678812
 42
1.3757409965
  0
ELLIPSE
  5
3AC
100
AcDbEntity
  8
ALL_ASSEMBLY_MEMBERS
100
AcDbEllipse
 62
7
  6
CONTINUOUS
 10
5.5290338411
 20
4.4863548137
 30
0.0
 11
0.318885558
 21
0.4794620215
 31
0.0
 40
0.1633544133
 41
1.3648564897
 42
1.3759753424
  0
ELLIPSE
  5
3AD
100
AcDbEntity
  8
ALL_ASSEMBLY_MEMBERS
100
AcDbEllipse
 62
7
  6
CONTINUOUS
 10
5.5519522398
 20
4.4863548137
 30
0.0
 11
0.9880542361
 21
0.465285186
 31
0.0
 40
0.1376303424
 41
1.533430284
 42
1.5408026323
  0
ELLIPSE
  5
3AE
100
AcDbEntity
  8
ALL_ASSEMBLY_MEMBERS
100
AcDbEllipse
 62
7
  6
CONTINUOUS
 10
5.5519522398
 20
4.4863548137
 30
0.0
 11
0.9830267564
 21
0.4629176926
 31
0.0
 40
0.1376303424
 41
1.5335702205
 42
1.5409803099
  0
ELLIPSE
  5
3AF
100
AcDbEntity
  8
ALL_ASSEMBLY_MEMBERS
100
AcDbEllipse
 62
7
  6
CONTINUOUS
 10
5.500465136
 20
4.4863548137
 30
0.0
 11
-0.1217485418
 21
0.484638534
 31
0.0
 40
0.0853800458
 41
-4.2941425674
 42
-4.2798895141
  0
ELLIPSE
  5
3B0
100
AcDbEntity
  8
ALL_ASSEMBLY_MEMBERS
100
AcDbEllipse
 62
7
  6
CONTINUOUS
 10
5.3483039787
 20
4.4863548137
 30
0.0
 11
1.2858776966
 21
0.0
 31
0.0
 40
0.3769798646
 41
7.7176661569
 42
7.7233910371
  0
ELLIPSE
  5
3B1
100
AcDbEntity
  8
ALL_ASSEMBLY_MEMBERS
100
AcDbEllipse
 62
7
  6
CONTINUOUS
 10
5.3483039787
 20
4.4863548137
 30
0.0
 11
1.2793348128
 21
-0.0
 31
0.0
 40
0.3769798646
 41
1.4337793091
 42
1.4395339999
  0
ELLIPSE
  5
3B2
100
AcDbEntity
  8
ALL_ASSEMBLY_MEMBERS
100
AcDbEllipse
 62
7
  6
CONTINUOUS
 10
5.4690550183
 20
4.4863548137
 30
0.0
 11
-0.4182142408
 21
0.4767033111
 31
0.0
 40
0.1749164141
 41
-4.4101729241
 42
-4.4015666817
  0
ELLIPSE
  5
3B3
100
AcDbEntity
  8
ALL_ASSEMBLY_MEMBERS
100
AcDbEllipse
 62
7
  6
CONTINUOUS
 10
5.4690550183
 20
4.4863548137
 30
0.0
 11
-0.4203531079
 21
0.479141308
 31
0.0
 40
0.1749164141
 41
-4.4107112963
 42
-4.4021493725
  0
ELLIPSE
  5
3B4
100
AcDbEntity
  8
ALL_ASSEMBLY_MEMBERS
100
AcDbEllipse
 62
7
  6
CONTINUOUS
 10
5.2609311844
 20
4.4863548137
 30
0.0
 11
1.928827244
 21
-0.0
 31
0.0
 40
0.2513185157
 41
1.4316167513
 42
1.4344808497
  0
ELLIPSE
  5
3B5
100
AcDbEntity
  8
ALL_ASSEMBLY_MEMBERS
100
AcDbEllipse
 62
7
  6
CONTINUOUS
 10
5.4084055347
 20
4.4863548137
 30
0.0
 11
0.9573098206
 21
-0.463307535
 31
0.0
 40
0.1399267287
 41
-1.3891557708
 42
-1.3776674525
  0
ELLIPSE
  5
3B6
100
AcDbEntity
  8
ALL_ASSEMBLY_MEMBERS
100
AcDbEllipse
 62
7
  6
CONTINUOUS
 10
5.4084055347
 20
4.4863548137
 30
0.0
 11
0.9622057766
 21
-0.4656770221
 31
0.0
 40
0.1399267287
 41
-1.3897384615
 42
-1.3783094395
  0
ELLIPSE
  5
3B7
100
AcDbEntity
  8
ALL_ASSEMBLY_MEMBERS
100
AcDbEllipse
 62
7
  6
CONTINUOUS
 10
5.2609311844
 20
4.4863548137
 30
0.0
 11
1.9190128639
 21
0.0
 31
0.0
 40
0.2513185157
 41
1.4309002792
 42
1.4337793091
  0
ELLIPSE
  5
3B8
100
AcDbEntity
  8
ALL_ASSEMBLY_MEMBERS
100
AcDbEllipse
 62
7
  6
CONTINUOUS
 10
5.0480639783
 20
4.4863548137
 30
0.0
 11
3.8379783783
 21
-0.4540195858
 31
0.0
 40
0.0423859163
 41
-1.4402702398
 42
-1.4373956289
  0
ELLIPSE
  5
3B9
100
AcDbEntity
  8
ALL_ASSEMBLY_MEMBERS
100
AcDbEllipse
 62
7
  6
CONTINUOUS
 10
5.0480639783
 20
4.4863548137
 30
0.0
 11
3.8576068963
 21
-0.4563415717
 31
0.0
 40
0.0423859163
 41
-1.4409122269
 42
-1.4380524792
  0
ELLIPSE
  5
3BA
100
AcDbEntity
  8
ALL_ASSEMBLY_MEMBERS
100
AcDbEllipse
 62
7
  6
CONTINUOUS
 10
5.4948023936
 20
4.4863548137
 30
0.0
 11
-0.0934736487
 21
0.4847090994
 31
0.0
 40
0.0673659664
 41
-1.3359330152
 42
-1.3174326445
  0
ELLIPSE
  5
3BB
100
AcDbEntity
  8
ALL_ASSEMBLY_MEMBERS
100
AcDbEllipse
 62
7
  6
CONTINUOUS
 10
5.4948023936
 20
4.4863548137
 30
0.0
 11
-0.0929980302
 21
0.4822427721
 31
0.0
 40
0.0673659664
 41
-1.3364524313
 42
-1.3178566306
  0
ELLIPSE
  5
3BC
100
AcDbEntity
  8
ALL_ASSEMBLY_MEMBERS
100
AcDbEllipse
 62
7
  6
CONTINUOUS
 10
5.0825393952
 20
4.4863548137
 30
0.0
 11
3.2147129739
 21
0.0
 31
0.0
 40
0.1507910672
 41
1.4287515033
 42
1.4316167513
  0
ELLIPSE
  5
3BD
100
AcDbEntity
  8
ALL_ASSEMBLY_MEMBERS
100
AcDbEllipse
 62
7
  6
CONTINUOUS
 10
5.47479401
 20
4.4863548137
 30
0.0
 11
-0.2873264341
 21
0.4826711449
 31
0.0
 40
0.1560789432
 41
-1.4341230973
 42
-1.4155878961
  0
ELLIPSE
  5
3BE
100
AcDbEntity
  8
ALL_ASSEMBLY_MEMBERS
100
AcDbEllipse
 62
7
  6
CONTINUOUS
 10
5.47479401
 20
4.4863548137
 30
0.0
 11
-0.2858644416
 21
0.4802151872
 31
0.0
 40
0.1560789432
 41
-1.4347384861
 42
-1.4161073122
  0
ELLIPSE
  5
3BF
100
AcDbEntity
  8
ALL_ASSEMBLY_MEMBERS
100
AcDbEllipse
 62
7
  6
CONTINUOUS
 10
5.4314239766
 20
4.4863548137
 30
0.0
 11
0.6553159276
 21
-0.4721187462
 31
0.0
 40
0.1677639688
 41
1.5601896397
 42
1.5713302259
  0
ELLIPSE
  5
3C0
100
AcDbEntity
  8
ALL_ASSEMBLY_MEMBERS
100
AcDbEllipse
 62
7
  6
CONTINUOUS
 10
5.4314239766
 20
4.4863548137
 30
0.0
 11
0.6519815079
 21
-0.4697164819
 31
0.0
 40
0.1677639688
 41
1.5595163628
 42
1.5707148371
  0
ELLIPSE
  5
3C1
100
AcDbEntity
  8
ALL_ASSEMBLY_MEMBERS
100
AcDbEllipse
 62
7
  6
CONTINUOUS
 10
5.3560424488
 20
4.4863548137
 30
0.0
 11
1.2364591409
 21
-0.462368365
 31
0.0
 40
0.1177519922
 41
1.4764767822
 42
1.4839128544
  0
ELLIPSE
  5
3C2
100
AcDbEntity
  8
ALL_ASSEMBLY_MEMBERS
100
AcDbEllipse
 62
7
  6
CONTINUOUS
 10
5.3560424488
 20
4.4863548137
 30
0.0
 11
1.2301677117
 21
-0.4600157132
 31
0.0
 40
0.1177519922
 41
1.475764772
 42
1.4832395775
  0
ELLIPSE
  5
3C3
100
AcDbEntity
  8
ALL_ASSEMBLY_MEMBERS
100
AcDbEllipse
 62
7
  6
CONTINUOUS
 10
5.704642951
 20
4.4863548137
 30
0.0
 11
1.2364593147
 21
0.4623683634
 31
0.0
 40
0.1177519797
 41
1.6576798102
 42
1.6651158823
  0
ELLIPSE
  5
3C4
100
AcDbEntity
  8
ALL_ASSEMBLY_MEMBERS
100
AcDbEllipse
 62
7
  6
CONTINUOUS
 10
5.704642951
 20
4.4863548137
 30
0.0
 11
1.2301678846
 21
0.4600157117
 31
0.0
 40
0.1177519797
 41
1.6583530871
 42
1.6658278925
  0
ELLIPSE
  5
3C5
100
AcDbEntity
  8
ALL_ASSEMBLY_MEMBERS
100
AcDbEllipse
 62
7
  6
CONTINUOUS
 10
5.629261393
 20
4.4863548137
 30
0.0
 11
0.6553158691
 21
0.4721187478
 31
0.0
 40
0.1677639734
 41
1.5702624133
 42
1.5814029995
  0
ELLIPSE
  5
3C6
100
AcDbEntity
  8
ALL_ASSEMBLY_MEMBERS
100
AcDbEllipse
 62
7
  6
CONTINUOUS
 10
5.629261393
 20
4.4863548137
 30
0.0
 11
0.6519814497
 21
0.4697164835
 31
0.0
 40
0.1677639734
 41
1.5708778021
 42
1.5820762764
  0
ELLIPSE
  5
3C7
100
AcDbEntity
  8
ALL_ASSEMBLY_MEMBERS
100
AcDbEllipse
 62
7
  6
CONTINUOUS
 10
5.5858913635
 20
4.4863548137
 30
0.0
 11
0.287326408
 21
0.4826711454
 31
0.0
 40
0.1560789367
 41
1.4155878838
 42
1.434123085
  0
ELLIPSE
  5
3C8
100
AcDbEntity
  8
ALL_ASSEMBLY_MEMBERS
100
AcDbEllipse
 62
7
  6
CONTINUOUS
 10
5.5858913635
 20
4.4863548137
 30
0.0
 11
0.2858644157
 21
0.4802151878
 31
0.0
 40
0.1560789367
 41
1.4161072999
 42
1.4347384738
  0
ELLIPSE
  5
3C9
100
AcDbEntity
  8
ALL_ASSEMBLY_MEMBERS
100
AcDbEllipse
 62
7
  6
CONTINUOUS
 10
5.5658829816
 20
4.4863548137
 30
0.0
 11
0.0934736405
 21
0.4847090994
 31
0.0
 40
0.0673659609
 41
1.3174326423
 42
1.335933013
  0
ELLIPSE
  5
3CA
100
AcDbEntity
  8
ALL_ASSEMBLY_MEMBERS
100
AcDbEllipse
 62
7
  6
CONTINUOUS
 10
5.5658829816
 20
4.4863548137
 30
0.0
 11
0.092998022
 21
0.4822427721
 31
0.0
 40
0.0673659609
 41
1.3178566284
 42
1.3364524291
  0
ELLIPSE
  5
3CB
100
AcDbEntity
  8
ALL_ASSEMBLY_MEMBERS
100
AcDbEllipse
 62
7
  6
CONTINUOUS
 10
5.0825393952
 20
4.4863548137
 30
0.0
 11
3.1983556692
 21
0.0
 31
0.0
 40
0.1507910672
 41
1.4280200816
 42
1.4309002792
  0
ELLIPSE
  5
3CC
100
AcDbEntity
  8
ALL_ASSEMBLY_MEMBERS
100
AcDbEllipse
 62
7
  6
CONTINUOUS
 10
6.0436294097
 20
4.4863548137
 30
0.0
 11
3.8379774823
 21
0.4540195862
 31
0.0
 40
0.0423859259
 41
-1.704197027
 42
-1.7013224161
  0
ELLIPSE
  5
3CD
100
AcDbEntity
  8
ALL_ASSEMBLY_MEMBERS
100
AcDbEllipse
 62
7
  6
CONTINUOUS
 10
6.0436294097
 20
4.4863548137
 30
0.0
 11
3.8576059957
 21
0.4563415721
 31
0.0
 40
0.0423859259
 41
-1.7035401767
 42
-1.700680429
  0
ELLIPSE
  5
3CE
100
AcDbEntity
  8
ALL_ASSEMBLY_MEMBERS
100
AcDbEllipse
 62
7
  6
CONTINUOUS
 10
5.6832880075
 20
4.4863548137
 30
0.0
 11
0.9573101584
 21
0.4633075297
 31
0.0
 40
0.1399266983
 41
-1.7639251619
 42
-1.7524368436
  0
ELLIPSE
  5
3CF
100
AcDbEntity
  8
ALL_ASSEMBLY_MEMBERS
100
AcDbEllipse
 62
7
  6
CONTINUOUS
 10
5.6832880075
 20
4.4863548137
 30
0.0
 11
0.9622061161
 21
0.4656770168
 31
0.0
 40
0.1399266983
 41
-1.7632831748
 42
-1.7518541529
  0
ELLIPSE
  5
3D0
100
AcDbEntity
  8
ALL_ASSEMBLY_MEMBERS
100
AcDbEllipse
 62
7
  6
CONTINUOUS
 10
6.00915398
 20
4.4863548137
 30
0.0
 11
3.2147120734
 21
-0.0
 31
0.0
 40
0.1507911094
 41
1.7099759023
 42
1.7128411503
  0
ELLIPSE
  5
3D1
100
AcDbEntity
  8
ALL_ASSEMBLY_MEMBERS
100
AcDbEllipse
 62
7
  6
CONTINUOUS
 10
6.00915398
 20
4.4863548137
 30
0.0
 11
3.1983547732
 21
-0.0
 31
0.0
 40
0.1507911094
 41
1.7106923744
 42
1.713572572
  0
ELLIPSE
  5
3D2
100
AcDbEntity
  8
ALL_ASSEMBLY_MEMBERS
100
AcDbEllipse
 62
7
  6
CONTINUOUS
 10
5.8307625656
 20
4.4863548137
 30
0.0
 11
1.9288290452
 21
-0.0
 31
0.0
 40
0.251318281
 41
1.7071118038
 42
1.7099759023
  0
ELLIPSE
  5
3D3
100
AcDbEntity
  8
ALL_ASSEMBLY_MEMBERS
100
AcDbEllipse
 62
7
  6
CONTINUOUS
 10
5.6226384857
 20
4.4863548137
 30
0.0
 11
0.4182142408
 21
0.4767033111
 31
0.0
 40
0.1749164141
 41
-1.8816186254
 42
-1.8730123831
  0
ELLIPSE
  5
3D4
100
AcDbEntity
  8
ALL_ASSEMBLY_MEMBERS
100
AcDbEllipse
 62
7
  6
CONTINUOUS
 10
5.6226384857
 20
4.4863548137
 30
0.0
 11
0.4203531079
 21
0.479141308
 31
0.0
 40
0.1749164141
 41
-1.8810359347
 42
-1.8724740109
  0
ELLIPSE
  5
3D5
100
AcDbEntity
  8
ALL_ASSEMBLY_MEMBERS
100
AcDbEllipse
 62
7
  6
CONTINUOUS
 10
5.8307625656
 20
4.4863548137
 30
0.0
 11
1.9190146559
 21
-0.0
 31
0.0
 40
0.251318281
 41
1.7078133445
 42
1.7106923744
  0
ELLIPSE
  5
3D6
100
AcDbEntity
  8
ALL_ASSEMBLY_MEMBERS
100
AcDbEllipse
 62
7
  6
CONTINUOUS
 10
5.591228368
 20
4.4863548137
 30
0.0
 11
0.1211290532
 21
0.4821725657
 31
0.0
 40
0.0853800458
 41
-2.0038341653
 42
-1.9912973423
  0
ELLIPSE
  5
3D7
100
AcDbEntity
  8
ALL_ASSEMBLY_MEMBERS
100
AcDbEllipse
 62
7
  6
CONTINUOUS
 10
5.591228368
 20
4.4863548137
 30
0.0
 11
0.1217485418
 21
0.484638534
 31
0.0
 40
0.0853800458
 41
-2.0032957931
 42
-1.9890427398
  0
ELLIPSE
  5
3D8
100
AcDbEntity
  8
ALL_ASSEMBLY_MEMBERS
100
AcDbEllipse
 62
7
  6
CONTINUOUS
 10
5.7433894959
 20
4.4863548137
 30
0.0
 11
1.2858774715
 21
-0.0
 31
0.0
 40
0.3769799306
 41
1.7013869237
 42
1.7071118038
  0
ELLIPSE
  5
3D9
100
AcDbEntity
  8
ALL_ASSEMBLY_MEMBERS
100
AcDbEllipse
 62
7
  6
CONTINUOUS
 10
5.7433894959
 20
4.4863548137
 30
0.0
 11
1.2793345889
 21
-0.0
 31
0.0
 40
0.3769799306
 41
1.7020586537
 42
1.7078133445
  0
ELLIPSE
  5
3DA
100
AcDbEntity
  8
ALL_ASSEMBLY_MEMBERS
100
AcDbEllipse
 62
7
  6
CONTINUOUS
 10
5.6596663449
 20
4.4863548137
 30
0.0
 11
0.642939962
 21
-0.0
 31
0.0
 40
0.7539584232
 41
1.6928076234
 42
1.7013869237
  0
ELLIPSE
  5
3DB
100
AcDbEntity
  8
ALL_ASSEMBLY_MEMBERS
100
AcDbEllipse
 62
7
  6
CONTINUOUS
 10
5.6596663449
 20
4.4863548137
 30
0.0
 11
0.6396685145
 21
0.0
 31
0.0
 40
0.7539584232
 41
1.6934347632
 42
1.7020586537
  0
ELLIPSE
  5
3DC
100
AcDbEntity
  8
ALL_ASSEMBLY_MEMBERS
100
AcDbEllipse
 62
7
  6
CONTINUOUS
 10
5.6825542936
 20
4.4863548137
 30
0.0
 11
0.7463249724
 21
-0.4698307965
 31
0.0
 40
0.1599010046
 41
-1.6130856485
 42
-1.5959095311
  0
ELLIPSE
  5
3DD
100
AcDbEntity
  8
ALL_ASSEMBLY_MEMBERS
100
AcDbEllipse
 62
7
  6
CONTINUOUS
 10
5.6825542936
 20
4.4863548137
 30
0.0
 11
0.7425274748
 21
-0.4674401739
 31
0.0
 40
0.1599010046
 41
-1.6138200371
 42
-1.5965544644
  0
ELLIPSE
  5
3DE
100
AcDbEntity
  8
ALL_ASSEMBLY_MEMBERS
100
AcDbEllipse
 62
7
  6
CONTINUOUS
 10
5.6283657832
 20
4.4863548137
 30
0.0
 11
0.0
 21
0.48475
 31
0.0
 40
0.7958001534
 41
0.10773218
 42
0.1220112966
  0
ELLIPSE
  5
3DF
100
AcDbEntity
  8
ALL_ASSEMBLY_MEMBERS
100
AcDbEllipse
 62
7
  6
CONTINUOUS
 10
5.6283657832
 20
4.4863548137
 30
0.0
 11
-0.0
 21
0.4822834646
 31
0.0
 40
0.7958001534
 41
0.1082853113
 42
0.1226384364
  0
ELLIPSE
  5
3E0
100
AcDbEntity
  8
ALL_ASSEMBLY_MEMBERS
100
AcDbEllipse
 62
7
  6
CONTINUOUS
 10
5.427278075
 20
4.4863548137
 30
0.0
 11
3.1982722808
 21
-0.4543712279
 31
0.0
 40
0.0505558762
 41
-1.5239656048
 42
-1.5211117194
  0
ELLIPSE
  5
3E1
100
AcDbEntity
  8
ALL_ASSEMBLY_MEMBERS
100
AcDbEllipse
 62
7
  6
CONTINUOUS
 10
5.427278075
 20
4.4863548137
 30
0.0
 11
3.2146291591
 21
-0.4566950122
 31
0.0
 40
0.0505558762
 41
-1.5241674517
 42
-1.521328112
  0
ELLIPSE
  5
3E2
100
AcDbEntity
  8
ALL_ASSEMBLY_MEMBERS
100
AcDbEllipse
 62
7
  6
CONTINUOUS
 10
5.5984088202
 20
4.4863548137
 30
0.0
 11
-0.0
 21
0.48475
 31
0.0
 40
0.2210555139
 41
0.0906260353
 42
0.10773218
  0
ELLIPSE
  5
3E3
100
AcDbEntity
  8
ALL_ASSEMBLY_MEMBERS
100
AcDbEllipse
 62
7
  6
CONTINUOUS
 10
5.5984088202
 20
4.4863548137
 30
0.0
 11
0.0
 21
0.4822834646
 31
0.0
 40
0.2210555139
 41
0.0910908057
 42
0.1082853113
  0
ELLIPSE
  5
3E4
100
AcDbEntity
  8
ALL_ASSEMBLY_MEMBERS
100
AcDbEllipse
 62
7
  6
CONTINUOUS
 10
5.4816371631
 20
4.4863548137
 30
0.0
 11
1.9186443081
 21
-0.4563054692
 31
0.0
 40
0.0813853176
 41
-1.5089407422
 42
-1.5060864941
  0
ELLIPSE
  5
3E5
100
AcDbEntity
  8
ALL_ASSEMBLY_MEMBERS
100
AcDbEllipse
 62
7
  6
CONTINUOUS
 10
5.4816371631
 20
4.4863548137
 30
0.0
 11
1.9284568033
 21
-0.4586391457
 31
0.0
 40
0.0813853176
 41
-1.5091571348
 42
-1.5063174377
  0
ELLIPSE
  5
3E6
100
AcDbEntity
  8
ALL_ASSEMBLY_MEMBERS
100
AcDbEllipse
 62
7
  6
CONTINUOUS
 10
5.5106402789
 20
4.4863548137
 30
0.0
 11
1.2782580077
 21
-0.4595926617
 31
0.0
 40
0.114367678
 41
-1.484342408
 42
-1.4786327952
  0
ELLIPSE
  5
3E7
100
AcDbEntity
  8
ALL_ASSEMBLY_MEMBERS
100
AcDbEllipse
 62
7
  6
CONTINUOUS
 10
5.5106402789
 20
4.4863548137
 30
0.0
 11
1.2847953844
 21
-0.4619431499
 31
0.0
 40
0.114367678
 41
-1.4845733516
 42
-1.478892858
  0
ELLIPSE
  5
3E8
100
AcDbEntity
  8
ALL_ASSEMBLY_MEMBERS
100
AcDbEllipse
 62
7
  6
CONTINUOUS
 10
5.5432916078
 20
4.4863548137
 30
0.0
 11
0.6347072598
 21
-0.4701874538
 31
0.0
 40
0.1691116311
 41
-1.3951024531
 42
-1.386534842
  0
ELLIPSE
  5
3E9
100
AcDbEntity
  8
ALL_ASSEMBLY_MEMBERS
100
AcDbEllipse
 62
7
  6
CONTINUOUS
 10
5.5432916078
 20
4.4863548137
 30
0.0
 11
0.6379533341
 21
-0.4725921268
 31
0.0
 40
0.1691116311
 41
-1.3953625159
 42
-1.3868386321
  0
ELLIPSE
  5
3EA
100
AcDbEntity
  8
ALL_ASSEMBLY_MEMBERS
100
AcDbEllipse
 62
7
  6
CONTINUOUS
 10
5.5585409405
 20
4.4863548137
 30
0.0
 11
-0.3749396591
 21
0.4779751482
 31
0.0
 40
0.1715483401
 41
-4.4374539601
 42
-4.4231645383
  0
ELLIPSE
  5
3EB
100
AcDbEntity
  8
ALL_ASSEMBLY_MEMBERS
100
AcDbEllipse
 62
7
  6
CONTINUOUS
 10
5.5585409405
 20
4.4863548137
 30
0.0
 11
-0.3768572076
 21
0.4804196496
 31
0.0
 40
0.1715483401
 41
-4.4377577502
 42
-4.4235413607
  0
ELLIPSE
  5
3EC
100
AcDbEntity
  8
ALL_ASSEMBLY_MEMBERS
100
AcDbEllipse
 62
7
  6
CONTINUOUS
 10
5.5790130289
 20
4.4863548137
 30
0.0
 11
-0.1007222974
 21
0.4822282366
 31
0.0
 40
0.0724615456
 41
-4.3045336433
 42
-4.2873661045
  0
ELLIPSE
  5
3ED
100
AcDbEntity
  8
ALL_ASSEMBLY_MEMBERS
100
AcDbEllipse
 62
7
  6
CONTINUOUS
 10
5.5790130289
 20
4.4863548137
 30
0.0
 11
-0.10123742
 21
0.4846944896
 31
0.0
 40
0.0724615456
 41
-4.3049104657
 42
-4.2878308749
  0
ELLIPSE
  5
3EE
100
AcDbEntity
  8
ALL_ASSEMBLY_MEMBERS
100
AcDbEllipse
 62
7
  6
CONTINUOUS
 10
5.5122834699
 20
4.4863548137
 30
0.0
 11
0.6429400371
 21
0.0
 31
0.0
 40
0.7539583352
 41
7.8485889439
 42
7.857099912
  0
ELLIPSE
  5
3EF
100
AcDbEntity
  8
ALL_ASSEMBLY_MEMBERS
100
AcDbEllipse
 62
7
  6
CONTINUOUS
 10
5.3453795073
 20
4.4863548137
 30
0.0
 11
3.8576324144
 21
0.0
 31
0.0
 40
0.1256599769
 41
1.5143080044
 42
1.5171492967
  0
ELLIPSE
  5
3F0
100
AcDbEntity
  8
ALL_ASSEMBLY_MEMBERS
100
AcDbEllipse
 62
7
  6
CONTINUOUS
 10
5.3453795073
 20
4.4863548137
 30
0.0
 11
3.8380037666
 21
0.0
 31
0.0
 40
0.1256599769
 41
7.7972041041
 42
7.8000599721
  0
ELLIPSE
  5
3F1
100
AcDbEntity
  8
ALL_ASSEMBLY_MEMBERS
100
AcDbEllipse
 62
7
  6
CONTINUOUS
 10
5.5921242041
 20
4.4863548137
 30
0.0
 11
-0.0866566919
 21
0.4847194462
 31
0.0
 40
0.0628055002
 41
-4.4316026612
 42
-4.4117214252
  0
ELLIPSE
  5
3F2
100
AcDbEntity
  8
ALL_ASSEMBLY_MEMBERS
100
AcDbEllipse
 62
7
  6
CONTINUOUS
 10
5.5921242041
 20
4.4863548137
 30
0.0
 11
-0.0862157599
 21
0.4822530662
 31
0.0
 40
0.0628055002
 41
-4.4318947599
 42
-4.4119116145
  0
ELLIPSE
  5
3F3
100
AcDbEntity
  8
ALL_ASSEMBLY_MEMBERS
100
AcDbEllipse
 62
7
  6
CONTINUOUS
 10
5.6052174226
 20
4.4863548137
 30
0.0
 11
-0.3118799231
 21
0.4821211713
 31
0.0
 40
0.1616508637
 41
-4.5359371337
 42
-4.5245667903
  0
ELLIPSE
  5
3F4
100
AcDbEntity
  8
ALL_ASSEMBLY_MEMBERS
100
AcDbEllipse
 62
7
  6
CONTINUOUS
 10
5.6052174226
 20
4.4863548137
 30
0.0
 11
-0.310292996
 21
0.4796680121
 31
0.0
 40
0.1616508637
 41
-4.5362876155
 42
-4.524858889
  0
ELLIPSE
  5
3F5
100
AcDbEntity
  8
ALL_ASSEMBLY_MEMBERS
100
AcDbEllipse
 62
7
  6
CONTINUOUS
 10
5.6271959265
 20
4.4863548137
 30
0.0
 11
0.6379532564
 21
-0.4725921289
 31
0.0
 40
0.169111637
 41
-1.525970049
 42
-1.5145908343
  0
ELLIPSE
  5
3F6
100
AcDbEntity
  8
ALL_ASSEMBLY_MEMBERS
100
AcDbEllipse
 62
7
  6
CONTINUOUS
 10
5.6271959265
 20
4.4863548137
 30
0.0
 11
0.6347071826
 21
-0.470187456
 31
0.0
 40
0.169111637
 41
-1.5263790513
 42
-1.5149413162
  0
ELLIPSE
  5
3F7
100
AcDbEntity
  8
ALL_ASSEMBLY_MEMBERS
100
AcDbEllipse
 62
7
  6
CONTINUOUS
 10
5.7809550091
 20
4.4863548137
 30
0.0
 11
2.5715997839
 21
-0.4573305014
 31
0.0
 40
0.0624986133
 41
-1.6423298464
 42
-1.639483481
  0
ELLIPSE
  5
3F8
100
AcDbEntity
  8
ALL_ASSEMBLY_MEMBERS
100
AcDbEllipse
 62
7
  6
CONTINUOUS
 10
5.7809550091
 20
4.4863548137
 30
0.0
 11
2.5585148082
 21
-0.4550034836
 31
0.0
 40
0.0624986133
 41
-1.6427535031
 42
-1.6398924833
  0
ELLIPSE
  5
3F9
100
AcDbEntity
  8
ALL_ASSEMBLY_MEMBERS
100
AcDbEllipse
 62
7
  6
CONTINUOUS
 10
5.5087258101
 20
4.4863548137
 30
0.0
 11
0.9644113131
 21
0.0
 31
0.0
 40
0.5026382348
 41
7.7861233771
 42
7.7974933116
  0
ELLIPSE
  5
3FA
100
AcDbEntity
  8
ALL_ASSEMBLY_MEMBERS
100
AcDbEllipse
 62
7
  6
CONTINUOUS
 10
5.5087258101
 20
4.4863548137
 30
0.0
 11
0.9595041348
 21
-0.0
 31
0.0
 40
0.5026382348
 41
7.7911586055
 42
7.7972041041
  0
ELLIPSE
  5
3FB
100
AcDbEntity
  8
ALL_ASSEMBLY_MEMBERS
100
AcDbEllipse
 62
7
  6
CONTINUOUS
 10
5.5450553276
 20
4.4863548137
 30
0.0
 11
-0.0
 21
0.48475
 31
0.0
 40
0.8842220554
 41
6.2067939025
 42
6.2153270503
  0
ELLIPSE
  5
3FC
100
AcDbEntity
  8
ALL_ASSEMBLY_MEMBERS
100
AcDbEllipse
 62
7
  6
CONTINUOUS
 10
5.5679534229
 20
4.4863548137
 30
0.0
 11
-0.0
 21
0.48475
 31
0.0
 40
0.2652664142
 41
6.1925592719
 42
6.2067939025
  0
ELLIPSE
  5
3FD
100
AcDbEntity
  8
ALL_ASSEMBLY_MEMBERS
100
AcDbEllipse
 62
7
  6
CONTINUOUS
 10
5.5088163034
 20
4.4863548137
 30
0.0
 11
1.2858813755
 21
0.0
 31
0.0
 40
0.3769787861
 41
7.8429147916
 42
7.8485889439
  0
ELLIPSE
  5
3FE
100
AcDbEntity
  8
ALL_ASSEMBLY_MEMBERS
100
AcDbEllipse
 62
7
  6
CONTINUOUS
 10
5.5126804746
 20
4.4863548137
 30
0.0
 11
0.1007223063
 21
0.4822282366
 31
0.0
 40
0.0724615514
 41
-1.9958192001
 42
-1.9786516613
  0
ELLIPSE
  5
3FF
100
AcDbEntity
  8
ALL_ASSEMBLY_MEMBERS
100
AcDbEllipse
 62
7
  6
CONTINUOUS
 10
5.5126804746
 20
4.4863548137
 30
0.0
 11
0.101237429
 21
0.4846944896
 31
0.0
 40
0.0724615514
 41
-1.9953544298
 42
-1.9782748389
  0
ELLIPSE
  5
400
100
AcDbEntity
  8
ALL_ASSEMBLY_MEMBERS
100
AcDbEllipse
 62
7
  6
CONTINUOUS
 10
5.5759067031
 20
4.4863548137
 30
0.0
 11
0.1217484712
 21
0.4846385342
 31
0.0
 40
0.0853800028
 41
-1.8839500288
 42
-1.8697617145
  0
ELLIPSE
  5
401
100
AcDbEntity
  8
ALL_ASSEMBLY_MEMBERS
100
AcDbEllipse
 62
7
  6
CONTINUOUS
 10
5.5759067031
 20
4.4863548137
 30
0.0
 11
0.121128983
 21
0.482172566
 31
0.0
 40
0.0853800028
 41
-1.8838760368
 42
-1.8713258838
  0
ELLIPSE
  5
402
100
AcDbEntity
  8
ALL_ASSEMBLY_MEMBERS
100
AcDbEllipse
 62
7
  6
CONTINUOUS
 10
5.5715662853
 20
4.4863548137
 30
0.0
 11
0.4203531079
 21
0.479141308
 31
0.0
 40
0.1749164141
 41
-1.7616396296
 42
-1.7531282233
  0
ELLIPSE
  5
403
100
AcDbEntity
  8
ALL_ASSEMBLY_MEMBERS
100
AcDbEllipse
 62
7
  6
CONTINUOUS
 10
5.5715662853
 20
4.4863548137
 30
0.0
 11
0.4182142408
 21
0.4767033111
 31
0.0
 40
0.1749164141
 41
-1.7616091722
 42
-1.7530542313
  0
ELLIPSE
  5
404
100
AcDbEntity
  8
ALL_ASSEMBLY_MEMBERS
100
AcDbEllipse
 62
7
  6
CONTINUOUS
 10
5.5683755524
 20
4.4863548137
 30
0.0
 11
0.9622070503
 21
0.4656770023
 31
0.0
 40
0.1399266146
 41
-1.6381317277
 42
-1.6324577399
  0
ELLIPSE
  5
405
100
AcDbEntity
  8
ALL_ASSEMBLY_MEMBERS
100
AcDbEllipse
 62
7
  6
CONTINUOUS
 10
5.5683755524
 20
4.4863548137
 30
0.0
 11
0.9573110879
 21
0.4633075153
 31
0.0
 40
0.1399266146
 41
-1.638130289
 42
-1.6324272825
  0
ELLIPSE
  5
406
100
AcDbEntity
  8
ALL_ASSEMBLY_MEMBERS
100
AcDbEllipse
 62
7
  6
CONTINUOUS
 10
5.5653605511
 20
4.4863548137
 30
0.0
 11
1.2847953844
 21
-0.4619431499
 31
0.0
 40
0.114367678
 41
-1.5356543218
 42
-1.5299803341
  0
ELLIPSE
  5
407
100
AcDbEntity
  8
ALL_ASSEMBLY_MEMBERS
100
AcDbEllipse
 62
7
  6
CONTINUOUS
 10
5.5653605511
 20
4.4863548137
 30
0.0
 11
1.2782580077
 21
-0.4595926617
 31
0.0
 40
0.114367678
 41
-1.5356847793
 42
-1.5299817728
  0
ELLIPSE
  5
408
100
AcDbEntity
  8
ALL_ASSEMBLY_MEMBERS
100
AcDbEllipse
 62
7
  6
CONTINUOUS
 10
5.5611214346
 20
4.4863548137
 30
0.0
 11
0.5681047491
 21
-0.4746020763
 31
0.0
 40
0.1736797508
 41
-1.5122023158
 42
-1.4326628245
  0
ELLIPSE
  5
409
100
AcDbEntity
  8
ALL_ASSEMBLY_MEMBERS
100
AcDbEllipse
 62
7
  6
CONTINUOUS
 10
5.5611214346
 20
4.4863548137
 30
0.0
 11
0.5652140828
 21
-0.4721871761
 31
0.0
 40
0.1736797508
 41
-1.5126406373
 42
-1.4326932819
  0
ELLIPSE
  5
40A
100
AcDbEntity
  8
ALL_ASSEMBLY_MEMBERS
100
AcDbEllipse
 62
7
  6
CONTINUOUS
 10
5.6644154631
 20
4.4863548137
 30
0.0
 11
3.2146300597
 21
0.4566950116
 31
0.0
 40
0.0505558626
 41
-1.6202645376
 42
-1.6174251979
  0
ELLIPSE
  5
40B
100
AcDbEntity
  8
ALL_ASSEMBLY_MEMBERS
100
AcDbEllipse
 62
7
  6
CONTINUOUS
 10
5.6644154631
 20
4.4863548137
 30
0.0
 11
3.1982731769
 21
0.4543712273
 31
0.0
 40
0.0505558626
 41
-1.6204809302
 42
-1.6176270448
  0
ELLIPSE
  5
40C
100
AcDbEntity
  8
ALL_ASSEMBLY_MEMBERS
100
AcDbEllipse
 62
7
  6
CONTINUOUS
 10
5.6100562608
 20
4.4863548137
 30
0.0
 11
1.9284550012
 21
0.4586391511
 31
0.0
 40
0.0813853855
 41
-1.6352752504
 42
-1.6324355533
  0
ELLIPSE
  5
40D
100
AcDbEntity
  8
ALL_ASSEMBLY_MEMBERS
100
AcDbEllipse
 62
7
  6
CONTINUOUS
 10
5.6100562608
 20
4.4863548137
 30
0.0
 11
1.9186425152
 21
0.4563054746
 31
0.0
 40
0.0813853855
 41
-1.635506194
 42
-1.6326519458
  0
ELLIPSE
  5
40E
100
AcDbEntity
  8
ALL_ASSEMBLY_MEMBERS
100
AcDbEllipse
 62
7
  6
CONTINUOUS
 10
5.5810532364
 20
4.4863548137
 30
0.0
 11
1.28479561
 21
0.461943148
 31
0.0
 40
0.1143676625
 41
-1.6626997827
 42
-1.6570192891
  0
ELLIPSE
  5
40F
100
AcDbEntity
  8
ALL_ASSEMBLY_MEMBERS
100
AcDbEllipse
 62
7
  6
CONTINUOUS
 10
5.5810532364
 20
4.4863548137
 30
0.0
 11
1.2782582322
 21
0.4595926598
 31
0.0
 40
0.1143676625
 41
-1.6629598455
 42
-1.6572502327
  0
ELLIPSE
  5
410
100
AcDbEntity
  8
ALL_ASSEMBLY_MEMBERS
100
AcDbEllipse
 62
7
  6
CONTINUOUS
 10
5.5484018999
 20
4.4863548137
 30
0.0
 11
0.6379534101
 21
0.4725921247
 31
0.0
 40
0.1691116253
 41
-1.754754002
 42
-1.7462301183
  0
ELLIPSE
  5
411
100
AcDbEntity
  8
ALL_ASSEMBLY_MEMBERS
100
AcDbEllipse
 62
7
  6
CONTINUOUS
 10
5.5484018999
 20
4.4863548137
 30
0.0
 11
0.6347073354
 21
0.4701874517
 31
0.0
 40
0.1691116253
 41
-1.7550577922
 42
-1.7464901811
  0
ELLIPSE
  5
412
100
AcDbEntity
  8
ALL_ASSEMBLY_MEMBERS
100
AcDbEllipse
 62
7
  6
CONTINUOUS
 10
5.5331525648
 20
4.4863548137
 30
0.0
 11
0.3768572419
 21
0.4804196487
 31
0.0
 40
0.1715483437
 41
-1.8596439314
 42
-1.8454275419
  0
ELLIPSE
  5
413
100
AcDbEntity
  8
ALL_ASSEMBLY_MEMBERS
100
AcDbEllipse
 62
7
  6
CONTINUOUS
 10
5.5331525648
 20
4.4863548137
 30
0.0
 11
0.3749396931
 21
0.4779751472
 31
0.0
 40
0.1715483437
 41
-1.8600207538
 42
-1.8457313321
  0
ENDSEC
  0
SECTION
  2
OBJECTS
  0
DICTIONARY
  5
C
100
AcDbDictionary
280
0
281
1
  3
ACAD_GROUP
350
D
  3
ACAD_MLINESTYLE
350
17
  3
ACAD_LAYOUT
350
1A
  3
ACAD_PLOTSETTINGS
350
19
  3
ACAD_PLOTSTYLENAME
350
E
  0
DICTIONARY
  5
D
102
{ACAD_REACTORS
330
C
102
}
100
AcDbDictionary
280
0
281
1
  0
ACDBDICTIONARYWDFLT
  5
E
102
{ACAD_REACTORS
330
C
102
}
100
AcDbDictionary
281
1
  3
Normal
350
F
100
AcDbDictionaryWithDefault
340
F
  0
DICTIONARY
  5
17
102
{ACAD_REACTORS
330
C
102
}
100
AcDbDictionary
280
0
281
1
  3
Standard
350
18
  0
DICTIONARY
  5
19
102
{ACAD_REACTORS
330
C
102
}
100
AcDbDictionary
281
1
  0
DICTIONARY
  5
1A
102
{ACAD_REACTORS
330
C
102
}
100
AcDbDictionary
281
1
  3
Model
350
414
  3
Layout1
350
415
  0
ACDBPLACEHOLDER
  5
F
102
{ACAD_REACTORS
330
E
102
}
  0
MLINESTYLE
  5
18
102
{ACAD_REACTORS
330
17
102
}
100
AcDbMlineStyle
  2
STANDARD
 70
0
  3

 62
256
 51
90.0
 52
90.0
 71
2
 49
0.5
 62
256
  6
BYLAYER
 49
-0.5
 62
256
  6
BYLAYER
  0
LAYOUT
  5
414
102
{ACAD_REACTORS
330
1A
102
}
100
AcDbPlotSettings
  1

  2
none_device
  4
ANSI_A_(11.00_x_8.50_Inches)
  6

 40
0.0
 41
0.0
 42
0.0
 43
0.0
 44
279.4
 45
215.9
 46
0.0
 47
0.0
 48
0.0
 49
0.0
140
0.0
141
0.0
142
1.0
143
1.0
 70
1024
 72
0
 73
0
 74
0
  7

 75
0
147
1.0
148
0.0
149
0.0
100
AcDbLayout
  1
Model
 70
0
 71
0
 10
0.0
 20
0.0
 11
11.0
 21
8.5
 12
0.0
 22
0.0
 32
0.0
 14
0.0
 24
0.0
 34
0.0
 15
0.0
 25
0.0
 35
0.0
146
0.0
 13
0.0
 23
0.0
 33
0.0
 16
1.0
 26
0.0
 36
0.0
 17
0.0
 27
1.0
 37
0.0
 76
0
330
21C
345
0
346
0
  0
LAYOUT
  5
415
102
{ACAD_REACTORS
330
1A
102
}
100
AcDbPlotSettings
  1

  2
none_device
  4
ANSI_A_(11.00_x_8.50_Inches)
  6

 40
0.0
 41
0.0
 42
0.0
 43
0.0
 44
279.4
 45
215.9
 46
0.0
 47
0.0
 48
0.0
 49
0.0
140
0.0
141
0.0
142
1.0
143
1.0
 70
0
 72
0
 73
0
 74
0
  7

 75
0
147
1.0
148
0.0
149
0.0
100
AcDbLayout
  1
Layout1
 70
0
 71
1
 10
0.0
 20
0.0
 11
11.0
 21
8.5
 12
0.0
 22
0.0
 32
0.0
 14
0.0
 24
0.0
 34
0.0
 15
0.0
 25
0.0
 35
0.0
146
0.0
 13
0.0
 23
0.0
 33
0.0
 16
1.0
 26
0.0
 36
0.0
 17
0.0
 27
1.0
 37
0.0
 76
0
330
21D
345
0
346
0
  0
ENDSEC
  0
EOF
