999
DXF file: 3-8102bp_right.dxf
999
Pro/ENGINEER 2013150 by Parametric Technology Corporation
  0
SECTION
  2
HEADER
  9
$ACADVER
  1
AC1021
  9
$DWGCODEPAGE
  3
ANSI_1252
  9
$EXTMAX
 10
11.0
 20
8.5
 30
0.0
  9
$EXTMIN
 10
0.0
 20
0.0
 30
0.0
  9
$LIMMIN
 10
0.0
 20
0.0
  9
$LIMMAX
 10
11.0
 20
8.5
  9
$VIEWCTR
 10
5.5
 20
4.25
  9
$VIEWSIZE
 40
8.5
  9
$CLAYER
  8
0
  9
$LTSCALE
 40
0.605
  9
$CELTYPE
  6
BYLAYER
  9
$DIMSCALE
 40
1.0
  9
$DIMASZ
 40
0.1
  9
$DIMEXO
 40
0.0625
  9
$DIMDLI
 40
0.418
  9
$DIMEXE
 40
0.125
  9
$DIMCEN
 40
0.099
  9
$DIMLFAC
 40
1.0
  9
$DIMBLK
  1
_FILLED
  9
$DIMTXT
 40
0.08
  9
$DIMTOL
 70
1
  9
$DIMLIM
 70
0
  9
$DIMTFAC
 40
1.0
  9
$DIMTP
 40
0.001
  9
$DIMTM
 40
0.001
  9
$DIMGAP
 40
0.09
  9
$DIMDSEP
 70
46
  9
$PDMODE
 70
3
  9
$PDSIZE
 40
0.06
  9
$HANDSEED
  5
3FE
  9
$TILEMODE
 70
1
  9
$MEASUREMENT
 70
0
  9
$INSUNITS
 70
1
  0
ENDSEC
  0
SECTION
  2
CLASSES
  0
CLASS
  1
ACDBDICTIONARYWDFLT
  2
AcDbDictionaryWithDefault
  3
AutoCAD 2000
 90
0
 91
1
280
0
281
0
  0
CLASS
  1
ACDBPLACEHOLDER
  2
AcDbPlaceHolder
  3
AutoCAD 2000
 90
0
 91
1
280
0
281
0
  0
CLASS
  1
LAYOUT
  2
AcDbLayout
  3
AutoCAD 2000
 90
0
 91
0
280
0
281
0
  0
ENDSEC
  0
SECTION
  2
TABLES
  0
TABLE
  2
VPORT
  5
8
100
AcDbSymbolTable
 70
2
  0
VPORT
  5
1F4
100
AcDbSymbolTableRecord
100
AcDbViewportTableRecord
  2
*ACTIVE
 70
0
 10
0.0
 20
0.0
 11
1.0
 21
1.0
 12
5.5
 22
4.25
 13
0.0
 23
0.0
 14
1.0
 24
1.0
 15
0.0
 25
0.0
 16
0.0
 26
0.0
 36
1.0
 17
0.0
 27
0.0
 37
0.0
 40
8.5
 41
1.2941176471
 42
50.0
 43
0.0
 44
0.0
 50
0.0
 51
0.0
 71
0
 72
100
 73
1
 74
1
 75
0
 76
0
 77
0
 78
0
  0
ENDTAB
  0
TABLE
  2
LTYPE
  5
5
100
AcDbSymbolTable
 70
6
  0
LTYPE
  5
14
100
AcDbSymbolTableRecord
100
AcDbLinetypeTableRecord
  2
BYBLOCK
 70
0
  3

 72
65
 73
0
 40
0.0
  0
LTYPE
  5
15
100
AcDbSymbolTableRecord
100
AcDbLinetypeTableRecord
  2
BYLAYER
 70
0
  3

 72
65
 73
0
 40
0.0
  0
LTYPE
  5
16
100
AcDbSymbolTableRecord
100
AcDbLinetypeTableRecord
  2
CONTINUOUS
 70
64
  3
Solid line
 72
65
 73
0
 40
0.0
  0
LTYPE
  5
1F5
100
AcDbSymbolTableRecord
100
AcDbLinetypeTableRecord
  2
CENTER
 70
64
  3
____ _ ____ _ ____ _ ____ _ ____ _ ____ _ ____
 72
65
 73
4
 40
0.6
 49
0.375
 74
0
 49
-0.075
 74
0
 49
0.075
 74
0
 49
-0.075
 74
0
  0
LTYPE
  5
1F6
100
AcDbSymbolTableRecord
100
AcDbLinetypeTableRecord
  2
HIDDEN
 70
64
  3
- - - - - - - - - - - - - - - - - - - -
 72
65
 73
2
 40
0.2
 49
0.1
 74
0
 49
-0.1
 74
0
  0
LTYPE
  5
1F7
100
AcDbSymbolTableRecord
100
AcDbLinetypeTableRecord
  2
PHANTOM
 70
64
  3
_____ _ _ _____ _ _ _____ _ _ _____
 72
65
 73
6
 40
0.8
 49
0.45
 74
0
 49
-0.05
 74
0
 49
0.1
 74
0
 49
-0.05
 74
0
 49
0.1
 74
0
 49
-0.05
 74
0
  0
LTYPE
  5
1F8
100
AcDbSymbolTableRecord
100
AcDbLinetypeTableRecord
  2
DOT
 70
64
  3
. . . . . . . . . . . . . . . . . . . .
 72
65
 73
2
 40
0.2
 49
0.1
 74
0
 49
-0.1
 74
0
  0
LTYPE
  5
1F9
100
AcDbSymbolTableRecord
100
AcDbLinetypeTableRecord
  2
DASHED
 70
64
  3
- - - - - - - - - - - - - - - - - - - -
 72
65
 73
2
 40
0.2
 49
0.1
 74
0
 49
-0.1
 74
0
  0
ENDTAB
  0
TABLE
  2
LAYER
  5
2
100
AcDbSymbolTable
 70
36
  0
LAYER
  5
10
100
AcDbSymbolTableRecord
100
AcDbLayerTableRecord
  2
0
 70
0
 62
7
  6
CONTINUOUS
370
-3
390
F
  0
LAYER
  5
1FA
100
AcDbSymbolTableRecord
100
AcDbLayerTableRecord
  2
DEFAULT_1
 70
0
 62
7
  6
CENTER
370
-3
390
F
  0
LAYER
  5
1FB
100
AcDbSymbolTableRecord
100
AcDbLayerTableRecord
  2
DEFAULT_2
 70
0
 62
8
  6
HIDDEN
370
-3
390
F
  0
LAYER
  5
1FC
100
AcDbSymbolTableRecord
100
AcDbLayerTableRecord
  2
DEFAULT_3
 70
0
 62
7
  6
PHANTOM
370
-3
390
F
  0
LAYER
  5
1FD
100
AcDbSymbolTableRecord
100
AcDbLayerTableRecord
  2
2-217_ASSY_DATUMS
 70
0
 62
7
  6
CONTINUOUS
370
-3
390
F
  0
LAYER
  5
1FE
100
AcDbSymbolTableRecord
100
AcDbLayerTableRecord
  2
ALL_ASSEMBLY_MEMBERS
 70
0
 62
7
  6
CONTINUOUS
370
-3
390
F
  0
LAYER
  5
1FF
100
AcDbSymbolTableRecord
100
AcDbLayerTableRecord
  2
ALL_FEATURES
 70
0
 62
7
  6
CONTINUOUS
370
-3
390
F
  0
LAYER
  5
200
100
AcDbSymbolTableRecord
100
AcDbLayerTableRecord
  2
AXES_FEATURES
 70
0
 62
7
  6
CONTINUOUS
370
-3
390
F
  0
LAYER
  5
201
100
AcDbSymbolTableRecord
100
AcDbLayerTableRecord
  2
CHAMFER_FEATURES
 70
0
 62
7
  6
CONTINUOUS
370
-3
390
F
  0
LAYER
  5
202
100
AcDbSymbolTableRecord
100
AcDbLayerTableRecord
  2
CUT_FEATURES
 70
0
 62
7
  6
CONTINUOUS
370
-3
390
F
  0
LAYER
  5
203
100
AcDbSymbolTableRecord
100
AcDbLayerTableRecord
  2
DATUM_CURVES
 70
0
 62
7
  6
CONTINUOUS
370
-3
390
F
  0
LAYER
  5
204
100
AcDbSymbolTableRecord
100
AcDbLayerTableRecord
  2
DATUM_POINTS
 70
0
 62
7
  6
CONTINUOUS
370
-3
390
F
  0
LAYER
  5
205
100
AcDbSymbolTableRecord
100
AcDbLayerTableRecord
  2
DEFAULT_COORDINATE_SYSTEM
 70
0
 62
7
  6
CONTINUOUS
370
-3
390
F
  0
LAYER
  5
206
100
AcDbSymbolTableRecord
100
AcDbLayerTableRecord
  2
DEFAULT_DATUM_AXES
 70
0
 62
7
  6
CONTINUOUS
370
-3
390
F
  0
LAYER
  5
207
100
AcDbSymbolTableRecord
100
AcDbLayerTableRecord
  2
DEFAULT_DATUM_CURVES
 70
0
 62
7
  6
CONTINUOUS
370
-3
390
F
  0
LAYER
  5
208
100
AcDbSymbolTableRecord
100
AcDbLayerTableRecord
  2
DEFAULT_DATUM_PLANES
 70
0
 62
7
  6
CONTINUOUS
370
-3
390
F
  0
LAYER
  5
209
100
AcDbSymbolTableRecord
100
AcDbLayerTableRecord
  2
DIMENSIONS
 70
0
 62
7
  6
CONTINUOUS
370
-3
390
F
  0
LAYER
  5
20A
100
AcDbSymbolTableRecord
100
AcDbLayerTableRecord
  2
PART_REFERENCE_DIMENSIONS
 70
0
 62
7
  6
CONTINUOUS
370
-3
390
F
  0
LAYER
  5
20B
100
AcDbSymbolTableRecord
100
AcDbLayerTableRecord
  2
PLATED_AREA
 70
0
 62
7
  6
CONTINUOUS
370
-3
390
F
  0
LAYER
  5
20C
100
AcDbSymbolTableRecord
100
AcDbLayerTableRecord
  2
POINTS
 70
0
 62
7
  6
CONTINUOUS
370
-3
390
F
  0
LAYER
  5
20D
100
AcDbSymbolTableRecord
100
AcDbLayerTableRecord
  2
PROTRUSION_FEATURES
 70
0
 62
7
  6
CONTINUOUS
370
-3
390
F
  0
LAYER
  5
20E
100
AcDbSymbolTableRecord
100
AcDbLayerTableRecord
  2
QUILTS
 70
0
 62
7
  6
CONTINUOUS
370
-3
390
F
  0
LAYER
  5
20F
100
AcDbSymbolTableRecord
100
AcDbLayerTableRecord
  2
REFERENCE_DIMENSIONS
 70
0
 62
7
  6
CONTINUOUS
370
-3
390
F
  0
LAYER
  5
210
100
AcDbSymbolTableRecord
100
AcDbLayerTableRecord
  2
ROUND_FEATURES
 70
0
 62
7
  6
CONTINUOUS
370
-3
390
F
  0
ENDTAB
  0
TABLE
  2
STYLE
  5
3
100
AcDbSymbolTable
 70
1
  0
STYLE
  5
11
100
AcDbSymbolTableRecord
100
AcDbTextStyleTableRecord
  2
STANDARD
 70
0
 40
0.0
 41
0.8
 50
0.0
 71
0
 42
0.2
  3
txt
  4

  0
STYLE
  5
211
100
AcDbSymbolTableRecord
100
AcDbTextStyleTableRecord
  2
TEXTSTYLE_1
 70
0
 40
0.0
 41
0.8
 50
0.0
 71
0
 42
0.2
  3
gdt
  4

  0
ENDTAB
  0
TABLE
  2
VIEW
  5
6
100
AcDbSymbolTable
 70
0
  0
ENDTAB
  0
TABLE
  2
UCS
  5
7
100
AcDbSymbolTable
 70
0
  0
ENDTAB
  0
TABLE
  2
APPID
  5
9
100
AcDbSymbolTable
 70
1
  0
APPID
  5
212
100
AcDbSymbolTableRecord
100
AcDbRegAppTableRecord
  2
ACAD
 70
0
  0
ENDTAB
  0
TABLE
  2
BLOCK_RECORD
  5
1
100
AcDbSymbolTable
 70
0
  0
BLOCK_RECORD
  5
213
100
AcDbSymbolTableRecord
100
AcDbBlockTableRecord
  2
*Model_Space
  0
BLOCK_RECORD
  5
214
100
AcDbSymbolTableRecord
100
AcDbBlockTableRecord
  2
*Paper_Space
  0
ENDTAB
  0
TABLE
  2
DIMSTYLE
  5
A
100
AcDbSymbolTable
 70
1
100
AcDbDimStyleTable
 71
0
  0
DIMSTYLE
105
215
100
AcDbSymbolTableRecord
100
AcDbDimStyleTableRecord
  2
STANDARD
 70
0
  3

  4

 40
1.0
 41
0.1
 42
0.0625
 43
0.38
 44
0.125
 45
0.0
 46
0.0
 47
0.001
 48
0.001
140
0.08
141
0.09
142
0.0
143
25.4
144
1.0
145
0.0
146
1.0
147
0.09
 71
1.0
 72
0.0
 73
1
 74
1
 75
0
 76
0
 77
0
 78
4
170
0
171
2
172
0
173
0
174
0
175
0
176
0
177
0
178
0
270
2
271
3
272
3
273
2
274
2
275
0
280
0
281
0
282
0
283
1
284
4
285
0
286
0
287
3
288
0
340
11
278
46
  0
ENDTAB
  0
ENDSEC
  0
SECTION
  2
BLOCKS
  0
BLOCK
  5
20
100
AcDbEntity
  8
0
100
AcDbBlockBegin
  2
*Model_Space
 70
0
 10
0.0
 20
0.0
 30
0.0
  3
*Model_Space
  1

  0
ENDBLK
  5
21
100
AcDbEntity
  8
0
100
AcDbBlockEnd
  0
BLOCK
  5
1C
100
AcDbEntity
  8
0
100
AcDbBlockBegin
  2
*Paper_Space
 70
0
 10
0.0
 20
0.0
 30
0.0
  3
*Paper_Space
  1

  0
ENDBLK
  5
1D
100
AcDbEntity
  8
0
100
AcDbBlockEnd
  0
ENDSEC
  0
SECTION
  2
ENTITIES
  0
LINE
  5
216
100
AcDbEntity
  8
0
100
AcDbLine
 62
7
  6
CONTINUOUS
 10
0.0
 20
0.0
 11
0.0
 21
8.5
  0
LINE
  5
217
100
AcDbEntity
  8
0
100
AcDbLine
 62
7
  6
CONTINUOUS
 10
0.0
 20
0.0
 11
11.0
 21
0.0
  0
LINE
  5
218
100
AcDbEntity
  8
0
100
AcDbLine
 62
7
  6
CONTINUOUS
 10
0.0
 20
8.5
 11
11.0
 21
8.5
  0
LINE
  5
219
100
AcDbEntity
  8
0
100
AcDbLine
 62
7
  6
CONTINUOUS
 10
11.0
 20
0.0
 11
11.0
 21
8.5
  0
LINE
  5
21A
100
AcDbEntity
  8
0
100
AcDbLine
 62
7
  6
CONTINUOUS
 10
3.100514385
 20
7.4657632745
 11
3.1422726595
 21
7.5075215489
  0
LINE
  5
21B
100
AcDbEntity
  8
0
100
AcDbLine
 62
9
  6
CONTINUOUS
 10
3.1561920844
 20
7.5075215489
 11
3.100514385
 21
7.4518438496
  0
LINE
  5
21C
100
AcDbEntity
  8
0
100
AcDbLine
 62
7
  6
CONTINUOUS
 10
4.2028153231
 20
1.223808358
 11
4.0779270525
 21
1.2303534749
  0
LINE
  5
21D
100
AcDbEntity
  8
0
100
AcDbLine
 62
7
  6
CONTINUOUS
 10
3.9244435246
 20
1.2383972058
 11
4.0461669673
 21
1.2320179505
  0
LINE
  5
21E
100
AcDbEntity
  8
0
100
AcDbLine
 62
7
  6
CONTINUOUS
 10
4.0468306652
 20
1.2319831675
 11
4.0772636339
 21
1.2303882432
  0
LINE
  5
21F
100
AcDbEntity
  8
0
100
AcDbLine
 62
9
  6
CONTINUOUS
 10
4.2038455584
 20
1.2434664197
 11
4.0357879106
 21
1.2522739478
  0
LINE
  5
220
100
AcDbEntity
  8
0
100
AcDbLine
 62
9
  6
CONTINUOUS
 10
4.2038455592
 20
1.2434664321
 11
4.2230616402
 21
1.2391952402
  0
LINE
  5
221
100
AcDbEntity
  8
0
100
AcDbLine
 62
7
  6
CONTINUOUS
 10
3.1510590598
 20
7.3595409004
 11
3.1701115092
 21
7.3822467255
  0
LINE
  5
222
100
AcDbEntity
  8
0
100
AcDbLine
 62
7
  6
CONTINUOUS
 10
3.1752445338
 20
7.3353554264
 11
3.1979503588
 21
7.3544078758
  0
LINE
  5
223
100
AcDbEntity
  8
0
100
AcDbLine
 62
7
  6
CONTINUOUS
 10
3.3005193572
 20
7.210080603
 11
3.3232251823
 21
7.2291330524
  0
LINE
  5
224
100
AcDbEntity
  8
0
100
AcDbLine
 62
7
  6
CONTINUOUS
 10
3.9254169933
 20
1.4788234874
 11
4.2207405469
 21
1.4795617986
  0
LINE
  5
225
100
AcDbEntity
  8
0
100
AcDbLine
 62
9
  6
CONTINUOUS
 10
4.2207896864
 20
1.4598750054
 11
4.0357879106
 21
1.4594143147
  0
LINE
  5
226
100
AcDbEntity
  8
0
100
AcDbLine
 62
7
  6
CONTINUOUS
 10
4.2306217904
 20
1.4795577829
 11
4.2207405469
 21
1.4795617861
  0
LINE
  5
227
100
AcDbEntity
  8
0
100
AcDbLine
 62
7
  6
CONTINUOUS
 10
4.352716181
 20
1.3395528356
 11
4.357196593
 21
1.338614058
  0
LINE
  5
228
100
AcDbEntity
  8
0
100
AcDbLine
 62
7
  6
CONTINUOUS
 10
4.5499815264
 20
1.2740445803
 11
4.6254923793
 21
1.2581582607
  0
LINE
  5
229
100
AcDbEntity
  8
0
100
AcDbLine
 62
7
  6
CONTINUOUS
 10
3.2763338832
 20
7.234266077
 11
3.2953863326
 21
7.2569719021
  0
LINE
  5
22A
100
AcDbEntity
  8
0
100
AcDbLine
 62
7
  6
CONTINUOUS
 10
3.4257941807
 20
7.0848057795
 11
3.4485000057
 21
7.103858229
  0
LINE
  5
22B
100
AcDbEntity
  8
0
100
AcDbLine
 62
7
  6
CONTINUOUS
 10
3.4016087066
 20
7.1089912536
 11
3.4206611561
 21
7.1316970786
  0
LINE
  5
22C
100
AcDbEntity
  8
0
100
AcDbLine
 62
7
  6
CONTINUOUS
 10
3.5268835301
 20
6.9837164301
 11
3.5459359795
 21
7.0064222552
  0
LINE
  5
22D
100
AcDbEntity
  8
0
100
AcDbLine
 62
7
  6
CONTINUOUS
 10
3.7094892212
 20
7.2534920458
 11
3.5598554043
 21
7.103858229
  0
LINE
  5
22E
100
AcDbEntity
  8
0
100
AcDbLine
 62
7
  6
CONTINUOUS
 10
3.9036651975
 20
7.378070898
 11
3.8062292238
 21
7.2806349243
  0
LINE
  5
22F
100
AcDbEntity
  8
0
100
AcDbLine
 62
9
  6
CONTINUOUS
 10
3.933504281
 20
7.4051274591
 11
3.922456474
 21
7.3940781843
  0
LINE
  5
230
100
AcDbEntity
  8
0
100
AcDbLine
 62
7
  6
CONTINUOUS
 10
3.9318520328
 20
7.3846826248
 11
3.917932608
 21
7.3707632
  0
LINE
  5
231
100
AcDbEntity
  8
0
100
AcDbLine
 62
7
  6
CONTINUOUS
 10
3.8166687924
 20
7.2493162184
 11
3.7999654826
 21
7.2326129086
  0
LINE
  5
232
100
AcDbEntity
  8
0
100
AcDbLine
 62
7
  6
CONTINUOUS
 10
3.9633250543
 20
7.3184110413
 11
3.9285264922
 21
7.2836124792
  0
LINE
  5
233
100
AcDbEntity
  8
0
100
AcDbLine
 62
7
  6
CONTINUOUS
 10
3.9762398766
 20
7.2358990948
 11
4.0110384387
 21
7.2706976569
  0
LINE
  5
234
100
AcDbEntity
  8
0
100
AcDbLine
 62
7
  6
CONTINUOUS
 10
3.5510690041
 20
6.9595309561
 11
3.5737748291
 21
6.9785834055
  0
LINE
  5
235
100
AcDbEntity
  8
0
100
AcDbLine
 62
7
  6
CONTINUOUS
 10
3.6763438275
 20
6.8342561327
 11
3.6990496526
 21
6.8533085821
  0
LINE
  5
236
100
AcDbEntity
  8
0
100
AcDbLine
 62
7
  6
CONTINUOUS
 10
3.6521583535
 20
6.8584416067
 11
3.6712108029
 21
6.8811474317
  0
LINE
  5
237
100
AcDbEntity
  8
0
100
AcDbLine
 62
7
  6
CONTINUOUS
 10
3.9419436158
 20
7.124041395
 11
3.925240306
 21
7.1073380852
  0
LINE
  5
238
100
AcDbEntity
  8
0
100
AcDbLine
 62
7
  6
CONTINUOUS
 10
4.0773100222
 20
7.2392246354
 11
4.0633905974
 21
7.2253052106
  0
LINE
  5
239
100
AcDbEntity
  8
0
100
AcDbLine
 62
9
  6
CONTINUOUS
 10
4.086705611
 20
7.2298290473
 11
4.0977544192
 21
7.2408773221
  0
LINE
  5
23A
100
AcDbEntity
  8
0
100
AcDbLine
 62
7
  6
CONTINUOUS
 10
4.0706982955
 20
7.2110378001
 11
3.9732623217
 21
7.1136018263
  0
LINE
  5
23B
100
AcDbEntity
  8
0
100
AcDbLine
 62
7
  6
CONTINUOUS
 10
3.9461194433
 20
7.0168618238
 11
3.7964856264
 21
6.8672280069
  0
LINE
  5
23C
100
AcDbEntity
  8
0
100
AcDbLine
 62
7
  6
CONTINUOUS
 10
4.1897882489
 20
7.3107733121
 11
4.1261697359
 21
7.2471821155
  0
LINE
  5
23D
100
AcDbEntity
  8
0
100
AcDbLine
 62
7
  6
CONTINUOUS
 10
3.801618651
 20
6.7089813092
 11
3.824324476
 21
6.7280337586
  0
LINE
  5
23E
100
AcDbEntity
  8
0
100
AcDbLine
 62
7
  6
CONTINUOUS
 10
3.7774331769
 20
6.7331667832
 11
3.7964856264
 21
6.7558726083
  0
LINE
  5
23F
100
AcDbEntity
  8
0
100
AcDbLine
 62
7
  6
CONTINUOUS
 10
3.9027080004
 20
6.6078919598
 11
3.9217604498
 21
6.6305977849
  0
LINE
  5
240
100
AcDbEntity
  8
0
100
AcDbLine
 62
7
  6
CONTINUOUS
 10
3.9268934744
 20
6.5837064858
 11
3.9495992995
 21
6.6027589352
  0
LINE
  5
241
100
AcDbEntity
  8
0
100
AcDbLine
 62
7
  6
CONTINUOUS
 10
4.0279828238
 20
6.4826171364
 11
4.0470352733
 21
6.5053229614
  0
LINE
  5
242
100
AcDbEntity
  8
0
100
AcDbLine
 62
9
  6
CONTINUOUS
 10
4.144471247
 20
6.4078869876
 11
4.2001489463
 21
6.4635646869
  0
LINE
  5
243
100
AcDbEntity
  8
0
100
AcDbLine
 62
7
  6
CONTINUOUS
 10
4.2001489463
 20
6.4496452621
 11
4.1583906719
 21
6.4078869876
  0
LINE
  5
244
100
AcDbEntity
  8
0
100
AcDbLine
 62
7
  6
CONTINUOUS
 10
4.0521682979
 20
6.4584316623
 11
4.0748741229
 21
6.4774841118
  0
LINE
  5
245
100
AcDbEntity
  8
0
100
AcDbLine
 62
7
  6
CONTINUOUS
 10
4.399515182
 20
2.95023109
 11
4.4764166992
 21
2.95023109
  0
LINE
  5
246
100
AcDbEntity
  8
0
100
AcDbLine
 62
9
  6
CONTINUOUS
 10
4.3995124775
 20
2.9582238001
 11
4.4764140039
 21
2.9581996244
  0
LINE
  5
247
100
AcDbEntity
  8
ALL_ASSEMBLY_MEMBERS
100
AcDbLine
 62
7
  6
CONTINUOUS
 10
5.052424602
 20
3.105988964
 11
5.029924602
 21
3.105988964
  0
LINE
  5
248
100
AcDbEntity
  8
ALL_FEATURES
100
AcDbLine
 62
7
  6
CONTINUOUS
 10
5.2657809012
 20
3.149738964
 11
5.2807809012
 21
3.149738964
  0
LINE
  5
249
100
AcDbEntity
  8
ALL_ASSEMBLY_MEMBERS
100
AcDbLine
 62
7
  6
CONTINUOUS
 10
5.2420309012
 20
3.174238964
 11
5.111424602
 21
3.174238964
  0
LINE
  5
24A
100
AcDbEntity
  8
ALL_ASSEMBLY_MEMBERS
100
AcDbLine
 62
7
  6
CONTINUOUS
 10
5.029924602
 20
3.105988964
 11
5.0281758596
 21
3.1061888382
  0
LINE
  5
24B
100
AcDbEntity
  8
ALL_ASSEMBLY_MEMBERS
100
AcDbLine
 62
7
  6
CONTINUOUS
 10
5.0281758596
 20
3.3307890898
 11
4.9941758596
 21
3.3229140898
  0
LINE
  5
24C
100
AcDbEntity
  8
ALL_ASSEMBLY_MEMBERS
100
AcDbLine
 62
7
  6
CONTINUOUS
 10
5.029924602
 20
3.330988964
 11
5.0281758596
 21
3.3307890898
  0
LINE
  5
24D
100
AcDbEntity
  8
ALL_ASSEMBLY_MEMBERS
100
AcDbLine
 62
7
  6
CONTINUOUS
 10
5.2420309012
 20
3.262738964
 11
5.111424602
 21
3.262738964
  0
LINE
  5
24E
100
AcDbEntity
  8
ALL_FEATURES
100
AcDbLine
 62
7
  6
CONTINUOUS
 10
5.2657809012
 20
3.287238964
 11
5.2807809012
 21
3.287238964
  0
LINE
  5
24F
100
AcDbEntity
  8
ALL_ASSEMBLY_MEMBERS
100
AcDbLine
 62
7
  6
CONTINUOUS
 10
5.052424602
 20
3.330988964
 11
5.029924602
 21
3.330988964
  0
LINE
  5
250
100
AcDbEntity
  8
ALL_ASSEMBLY_MEMBERS
100
AcDbLine
 62
7
  6
CONTINUOUS
 10
5.0281758596
 20
3.1061888382
 11
4.9941758596
 21
3.1140638382
  0
LINE
  5
251
100
AcDbEntity
  8
0
100
AcDbLine
 62
9
  6
CONTINUOUS
 10
4.383790515
 20
3.6027988812
 11
4.4921481442
 21
3.6028134497
  0
LINE
  5
252
100
AcDbEntity
  8
0
100
AcDbLine
 62
7
  6
CONTINUOUS
 10
4.5900328697
 20
3.6416680978
 11
4.550662791
 21
3.6416680978
  0
LINE
  5
253
100
AcDbEntity
  8
0
100
AcDbLine
 62
9
  6
CONTINUOUS
 10
4.5408202713
 20
3.6515106175
 11
4.590032874
 21
3.6515106175
  0
LINE
  5
254
100
AcDbEntity
  8
0
100
AcDbLine
 62
9
  6
CONTINUOUS
 10
4.4076487559
 20
3.6820019863
 11
4.4153299932
 21
3.6820018098
  0
LINE
  5
255
100
AcDbEntity
  8
0
100
AcDbLine
 62
7
  6
CONTINUOUS
 10
4.5358990114
 20
3.6834988065
 11
4.5408202713
 21
3.6834988065
  0
LINE
  5
256
100
AcDbEntity
  8
0
100
AcDbLine
 62
9
  6
CONTINUOUS
 10
4.3837912082
 20
3.6064291007
 11
4.4921486929
 21
3.606417017
  0
LINE
  5
257
100
AcDbEntity
  8
0
100
AcDbLine
 62
9
  6
CONTINUOUS
 10
4.0357879106
 20
1.4594143147
 11
4.035738698
 21
1.4790992926
  0
LINE
  5
258
100
AcDbEntity
  8
0
100
AcDbLine
 62
7
  6
CONTINUOUS
 10
3.9057809012
 20
1.258055355
 11
3.9057809012
 21
1.4591385092
  0
LINE
  5
259
100
AcDbEntity
  8
0
100
AcDbLine
 62
9
  6
CONTINUOUS
 10
3.9947835583
 20
1.2539931022
 11
3.994783579
 21
1.4593323058
  0
LINE
  5
25A
100
AcDbEntity
  8
0
100
AcDbLine
 62
9
  6
CONTINUOUS
 10
4.0357879106
 20
1.2522739478
 11
4.0357879106
 21
1.4594143147
  0
LINE
  5
25B
100
AcDbEntity
  8
0
100
AcDbLine
 62
7
  6
CONTINUOUS
 10
4.5358990114
 20
3.8409791215
 11
4.5408202713
 21
3.8409791215
  0
LINE
  5
25C
100
AcDbEntity
  8
0
100
AcDbLine
 62
9
  6
CONTINUOUS
 10
4.590032874
 20
3.8729673104
 11
4.5408202713
 21
3.8729673104
  0
LINE
  5
25D
100
AcDbEntity
  8
0
100
AcDbLine
 62
7
  6
CONTINUOUS
 10
4.5900328697
 20
3.8828098301
 11
4.550662791
 21
3.8828098301
  0
LINE
  5
25E
100
AcDbEntity
  8
0
100
AcDbLine
 62
9
  6
CONTINUOUS
 10
4.2207897595
 20
1.4598768208
 11
4.2207405469
 21
1.4795617986
  0
LINE
  5
25F
100
AcDbEntity
  8
0
100
AcDbLine
 62
9
  6
CONTINUOUS
 10
4.2617929325
 20
7.6020812393
 11
4.2617810024
 21
7.5864549527
  0
LINE
  5
260
100
AcDbEntity
  8
0
100
AcDbLine
 62
9
  6
CONTINUOUS
 10
4.2305570647
 20
1.4598728217
 11
4.2306217904
 21
1.4795577829
  0
LINE
  5
261
100
AcDbEntity
  8
0
100
AcDbLine
 62
9
  6
CONTINUOUS
 10
4.0357879215
 20
1.2522741607
 11
4.0347576752
 21
1.2326158861
  0
LINE
  5
262
100
AcDbEntity
  8
ALL_ASSEMBLY_MEMBERS
100
AcDbLine
 62
7
  6
CONTINUOUS
 10
5.111424602
 20
3.274738964
 11
5.0579280918
 21
3.3286955289
  0
LINE
  5
263
100
AcDbEntity
  8
0
100
AcDbLine
 62
9
  6
CONTINUOUS
 10
4.2279838812
 20
7.3442697679
 11
4.2286171989
 21
7.3286576307
  0
LINE
  5
264
100
AcDbEntity
  8
0
100
AcDbLine
 62
9
  6
CONTINUOUS
 10
4.2851448836
 20
7.3463066825
 11
4.2855733131
 21
7.330687547
  0
LINE
  5
265
100
AcDbEntity
  8
0
100
AcDbLine
 62
9
  6
CONTINUOUS
 10
4.3995124775
 20
2.9582238001
 11
4.399515182
 21
2.95023109
  0
LINE
  5
266
100
AcDbEntity
  8
0
100
AcDbLine
 62
9
  6
CONTINUOUS
 10
4.4764166992
 20
2.95023109
 11
4.4764140039
 21
2.9581996244
  0
LINE
  5
267
100
AcDbEntity
  8
0
100
AcDbLine
 62
7
  6
CONTINUOUS
 10
4.3488911374
 20
3.7132135616
 11
4.3488911374
 21
3.8112643664
  0
LINE
  5
268
100
AcDbEntity
  8
0
100
AcDbLine
 62
9
  6
CONTINUOUS
 10
4.3685026603
 20
3.8211068155
 11
4.3685026603
 21
3.7033711125
  0
LINE
  5
269
100
AcDbEntity
  8
0
100
AcDbLine
 62
7
  6
CONTINUOUS
 10
4.394166728
 20
3.682002212
 11
4.394166728
 21
3.6834543772
  0
LINE
  5
26A
100
AcDbEntity
  8
0
100
AcDbLine
 62
7
  6
CONTINUOUS
 10
4.5358990114
 20
3.6736562844
 11
4.5358990114
 21
3.8508216436
  0
LINE
  5
26B
100
AcDbEntity
  8
0
100
AcDbLine
 62
7
  6
CONTINUOUS
 10
4.5408202713
 20
3.6515106175
 11
4.5408202713
 21
3.8729673104
  0
LINE
  5
26C
100
AcDbEntity
  8
0
100
AcDbLine
 62
9
  6
CONTINUOUS
 10
4.550662791
 20
3.8828098301
 11
4.550662791
 21
3.6416680978
  0
LINE
  5
26D
100
AcDbEntity
  8
0
100
AcDbLine
 62
9
  6
CONTINUOUS
 10
4.3837912082
 20
3.6064291007
 11
4.383790515
 21
3.6027988812
  0
LINE
  5
26E
100
AcDbEntity
  8
0
100
AcDbLine
 62
9
  6
CONTINUOUS
 10
4.4921486929
 20
3.606417017
 11
4.4921481442
 21
3.6028134497
  0
LINE
  5
26F
100
AcDbEntity
  8
0
100
AcDbLine
 62
9
  6
CONTINUOUS
 10
4.3802452273
 20
7.586694282
 11
4.380246935
 21
7.5884922827
  0
LINE
  5
270
100
AcDbEntity
  8
0
100
AcDbLine
 62
9
  6
CONTINUOUS
 10
4.3802468584
 20
7.5884922837
 11
4.3802598685
 21
7.6023808044
  0
LINE
  5
271
100
AcDbEntity
  8
0
100
AcDbLine
 62
9
  6
CONTINUOUS
 10
4.4076487559
 20
3.6820019863
 11
4.4076703499
 21
3.6824837515
  0
LINE
  5
272
100
AcDbEntity
  8
0
100
AcDbLine
 62
9
  6
CONTINUOUS
 10
4.2038455584
 20
1.2434664197
 11
4.2028153231
 21
1.223808358
  0
LINE
  5
273
100
AcDbEntity
  8
0
100
AcDbLine
 62
9
  6
CONTINUOUS
 10
4.4082368818
 20
3.692309953
 11
4.4076703538
 21
3.6824837513
  0
LINE
  5
274
100
AcDbEntity
  8
0
100
AcDbLine
 62
9
  6
CONTINUOUS
 10
4.4153299932
 20
3.6820016332
 11
4.4160000298
 21
3.6918213198
  0
LINE
  5
275
100
AcDbEntity
  8
0
100
AcDbLine
 62
9
  6
CONTINUOUS
 10
4.5900328697
 20
3.6416680978
 11
4.5900328697
 21
3.8828098301
  0
LINE
  5
276
100
AcDbEntity
  8
0
100
AcDbLine
 62
9
  6
CONTINUOUS
 10
4.409690135
 20
1.4517902749
 11
4.4111915976
 21
1.4714181202
  0
LINE
  5
277
100
AcDbEntity
  8
ALL_ASSEMBLY_MEMBERS
100
AcDbLine
 62
7
  6
CONTINUOUS
 10
4.988174602
 20
3.121613964
 11
4.988174602
 21
3.3153635483
  0
LINE
  5
278
100
AcDbEntity
  8
ALL_ASSEMBLY_MEMBERS
100
AcDbLine
 62
9
  6
CONTINUOUS
 10
4.9941758596
 20
3.1140638382
 11
4.9941758596
 21
3.3229140898
  0
LINE
  5
279
100
AcDbEntity
  8
ALL_ASSEMBLY_MEMBERS
100
AcDbLine
 62
9
  6
CONTINUOUS
 10
5.0281758596
 20
3.1061888382
 11
5.0281758596
 21
3.3307890898
  0
LINE
  5
27A
100
AcDbEntity
  8
ALL_ASSEMBLY_MEMBERS
100
AcDbLine
 62
9
  6
CONTINUOUS
 10
5.029924602
 20
3.105988964
 11
5.029924602
 21
3.330988964
  0
LINE
  5
27B
100
AcDbEntity
  8
ALL_ASSEMBLY_MEMBERS
100
AcDbLine
 62
9
  6
CONTINUOUS
 10
5.052424602
 20
3.105988964
 11
5.052424602
 21
3.330988964
  0
LINE
  5
27C
100
AcDbEntity
  8
ALL_ASSEMBLY_MEMBERS
100
AcDbLine
 62
9
  6
CONTINUOUS
 10
5.0579280918
 20
3.1082823991
 11
5.0579280918
 21
3.3286955289
  0
LINE
  5
27D
100
AcDbEntity
  8
0
100
AcDbLine
 62
9
  6
CONTINUOUS
 10
4.6859495984
 20
1.4286546692
 11
4.6873024111
 21
1.4482932126
  0
LINE
  5
27E
100
AcDbEntity
  8
0
100
AcDbLine
 62
9
  6
CONTINUOUS
 10
4.6123136965
 20
1.4342895274
 11
4.6139420376
 21
1.4539083267
  0
LINE
  5
27F
100
AcDbEntity
  8
0
100
AcDbLine
 62
9
  6
CONTINUOUS
 10
4.3527161334
 20
1.3395526062
 11
4.3486957734
 21
1.3202816541
  0
LINE
  5
280
100
AcDbEntity
  8
0
100
AcDbLine
 62
9
  6
CONTINUOUS
 10
4.3571964304
 20
1.3386132851
 11
4.3531445675
 21
1.3193495108
  0
LINE
  5
281
100
AcDbEntity
  8
ALL_ASSEMBLY_MEMBERS
100
AcDbLine
 62
7
  6
CONTINUOUS
 10
5.111424602
 20
3.162238964
 11
5.111424602
 21
3.274738964
  0
LINE
  5
282
100
AcDbEntity
  8
0
100
AcDbLine
 62
9
  6
CONTINUOUS
 10
5.2020407437
 20
3.5685117376
 11
5.2020407437
 21
3.9559661904
  0
LINE
  5
283
100
AcDbEntity
  8
0
100
AcDbLine
 62
9
  6
CONTINUOUS
 10
5.2268603957
 20
3.54294821
 11
5.2268603957
 21
3.981529718
  0
LINE
  5
284
100
AcDbEntity
  8
ALL_FEATURES
100
AcDbLine
 62
7
  6
CONTINUOUS
 10
5.2420309012
 20
3.148488964
 11
5.2420309012
 21
3.288488964
  0
LINE
  5
285
100
AcDbEntity
  8
ALL_FEATURES
100
AcDbLine
 62
7
  6
CONTINUOUS
 10
5.2657809012
 20
3.124738964
 11
5.2657809012
 21
3.312238964
  0
LINE
  5
286
100
AcDbEntity
  8
0
100
AcDbLine
 62
7
  6
CONTINUOUS
 10
5.2807809012
 20
3.0063041028
 11
5.2807809012
 21
4.5181738252
  0
LINE
  5
287
100
AcDbEntity
  8
0
100
AcDbLine
 62
9
  6
CONTINUOUS
 10
5.2938714524
 20
1.128876472
 11
5.2938714524
 21
1.4743416134
  0
LINE
  5
288
100
AcDbEntity
  8
0
100
AcDbLine
 62
9
  6
CONTINUOUS
 10
5.3074092905
 20
2.9969912927
 11
5.3074092905
 21
4.5274866352
  0
LINE
  5
289
100
AcDbEntity
  8
0
100
AcDbLine
 62
9
  6
CONTINUOUS
 10
4.6507640504
 20
1.2735885805
 11
4.6473846577
 21
1.2541950657
  0
LINE
  5
28A
100
AcDbEntity
  8
0
100
AcDbLine
 62
9
  6
CONTINUOUS
 10
4.6291214626
 20
1.2775058834
 11
4.6254923793
 21
1.2581582607
  0
LINE
  5
28B
100
AcDbEntity
  8
0
100
AcDbLine
 62
9
  6
CONTINUOUS
 10
4.5514000686
 20
1.2939305344
 11
4.5468910868
 21
1.2747688556
  0
LINE
  5
28C
100
AcDbEntity
  8
0
100
AcDbLine
 62
9
  6
CONTINUOUS
 10
5.3467257908
 20
1.5156325263
 11
5.3467257908
 21
1.0875855567
  0
LINE
  5
28D
100
AcDbEntity
  8
0
100
AcDbLine
 62
7
  6
CONTINUOUS
 10
5.3745309012
 20
7.1841737238
 11
5.3745309012
 21
7.7379702324
  0
LINE
  5
28E
100
AcDbEntity
  8
0
100
AcDbLine
 62
9
  6
CONTINUOUS
 10
5.3790955588
 20
7.215548726
 11
5.3790955588
 21
7.706595232
  0
LINE
  5
28F
100
AcDbEntity
  8
0
100
AcDbLine
 62
9
  6
CONTINUOUS
 10
5.3901559012
 20
7.7535946786
 11
5.3901559035
 21
7.1685493948
  0
LINE
  5
290
100
AcDbEntity
  8
0
100
AcDbLine
 62
7
  6
CONTINUOUS
 10
5.4057809012
 20
1.0653889209
 11
5.4057809012
 21
1.5378291707
  0
LINE
  5
291
100
AcDbEntity
  8
0
100
AcDbLine
 62
7
  6
CONTINUOUS
 10
5.4057809012
 20
2.8872389634
 11
5.4057809012
 21
4.6372389645
  0
LINE
  5
292
100
AcDbEntity
  8
0
100
AcDbLine
 62
7
  6
CONTINUOUS
 10
5.4057809012
 20
7.168548933
 11
5.4057809012
 21
7.753595028
  0
LINE
  5
293
100
AcDbEntity
  8
0
100
AcDbLine
 62
9
  6
CONTINUOUS
 10
4.1997427439
 20
7.3408521251
 11
4.2061911613
 21
7.3266198127
  0
LINE
  5
294
100
AcDbEntity
  8
0
100
AcDbLine
 62
9
  6
CONTINUOUS
 10
4.6929122431
 20
1.2666212335
 11
4.7409439818
 21
1.4253242739
  0
LINE
  5
295
100
AcDbEntity
  8
0
100
AcDbLine
 62
9
  6
CONTINUOUS
 10
4.6507640884
 20
1.2735887988
 11
4.706337345
 21
1.4273169424
  0
LINE
  5
296
100
AcDbEntity
  8
0
100
AcDbLine
 62
7
  6
CONTINUOUS
 10
3.1510636324
 20
7.3595363278
 11
3.1752399611
 21
7.335359999
  0
LINE
  5
297
100
AcDbEntity
  8
0
100
AcDbLine
 62
7
  6
CONTINUOUS
 10
3.2763384558
 20
7.2342615044
 11
3.3005147846
 21
7.2100851756
  0
LINE
  5
298
100
AcDbEntity
  8
0
100
AcDbLine
 62
7
  6
CONTINUOUS
 10
3.4016132793
 20
7.1089866809
 11
3.425789608
 21
7.0848103522
  0
LINE
  5
299
100
AcDbEntity
  8
0
100
AcDbLine
 62
7
  6
CONTINUOUS
 10
3.5268881027
 20
6.9837118575
 11
3.5510644315
 21
6.9595355287
  0
LINE
  5
29A
100
AcDbEntity
  8
0
100
AcDbLine
 62
7
  6
CONTINUOUS
 10
3.6521629261
 20
6.8584370341
 11
3.6763392549
 21
6.8342607053
  0
LINE
  5
29B
100
AcDbEntity
  8
0
100
AcDbLine
 62
7
  6
CONTINUOUS
 10
3.7774377496
 20
6.7331622106
 11
3.8016140783
 21
6.7089858819
  0
LINE
  5
29C
100
AcDbEntity
  8
0
100
AcDbLine
 62
7
  6
CONTINUOUS
 10
3.902712573
 20
6.6078873872
 11
3.9268889018
 21
6.5837110584
  0
LINE
  5
29D
100
AcDbEntity
  8
0
100
AcDbLine
 62
7
  6
CONTINUOUS
 10
4.0279873965
 20
6.4826125637
 11
4.0521637252
 21
6.458436235
  0
LINE
  5
29E
100
AcDbEntity
  8
0
100
AcDbLine
 62
7
  6
CONTINUOUS
 10
4.144471247
 20
6.4078869876
 11
3.100514385
 21
7.4518438496
  0
LINE
  5
29F
100
AcDbEntity
  8
0
100
AcDbLine
 62
9
  6
CONTINUOUS
 10
3.100514385
 20
7.4657632745
 11
4.1583906719
 21
6.4078869876
  0
LINE
  5
2A0
100
AcDbEntity
  8
0
100
AcDbLine
 62
9
  6
CONTINUOUS
 10
4.2001489463
 20
6.4496452621
 11
3.1422726595
 21
7.5075215489
  0
LINE
  5
2A1
100
AcDbEntity
  8
0
100
AcDbLine
 62
7
  6
CONTINUOUS
 10
3.1561920844
 20
7.5075215489
 11
4.2001489463
 21
6.4635646869
  0
LINE
  5
2A2
100
AcDbEntity
  8
ALL_ASSEMBLY_MEMBERS
100
AcDbLine
 62
7
  6
CONTINUOUS
 10
5.111424602
 20
3.162238964
 11
5.0579280918
 21
3.1082823991
  0
LINE
  5
2A3
100
AcDbEntity
  8
0
100
AcDbLine
 62
9
  6
CONTINUOUS
 10
3.9461194433
 20
7.0168618238
 11
3.7094894277
 21
7.2534918394
  0
LINE
  5
2A4
100
AcDbEntity
  8
0
100
AcDbLine
 62
7
  6
CONTINUOUS
 10
3.9461193893
 20
7.0307813026
 11
3.7234087
 21
7.2534919919
  0
LINE
  5
2A5
100
AcDbEntity
  8
0
100
AcDbLine
 62
9
  6
CONTINUOUS
 10
3.7873807971
 20
7.226892597
 11
3.9195197891
 21
7.0947503794
  0
LINE
  5
2A6
100
AcDbEntity
  8
0
100
AcDbLine
 62
9
  6
CONTINUOUS
 10
3.7999654826
 20
7.2326129086
 11
3.925240306
 21
7.1073380852
  0
LINE
  5
2A7
100
AcDbEntity
  8
0
100
AcDbLine
 62
9
  6
CONTINUOUS
 10
3.941943599
 20
7.1240414118
 11
3.8166687924
 21
7.2493162184
  0
LINE
  5
2A8
100
AcDbEntity
  8
0
100
AcDbLine
 62
7
  6
CONTINUOUS
 10
3.8062292285
 20
7.2736752071
 11
3.9663026043
 21
7.1136018313
  0
LINE
  5
2A9
100
AcDbEntity
  8
0
100
AcDbLine
 62
9
  6
CONTINUOUS
 10
3.8062292374
 20
7.2806349106
 11
3.9732623217
 21
7.1136018263
  0
LINE
  5
2AA
100
AcDbEntity
  8
0
100
AcDbLine
 62
7
  6
CONTINUOUS
 10
3.9762398766
 20
7.2358990948
 11
3.9285264922
 21
7.2836124792
  0
LINE
  5
2AB
100
AcDbEntity
  8
0
100
AcDbLine
 62
9
  6
CONTINUOUS
 10
4.0706982955
 20
7.2110378001
 11
4.0110384387
 21
7.2706976569
  0
LINE
  5
2AC
100
AcDbEntity
  8
0
100
AcDbLine
 62
9
  6
CONTINUOUS
 10
3.9633250543
 20
7.3184110413
 11
3.9036652125
 21
7.3780708831
  0
LINE
  5
2AD
100
AcDbEntity
  8
0
100
AcDbLine
 62
7
  6
CONTINUOUS
 10
4.070698256
 20
7.217997552
 11
3.9106249243
 21
7.3780708837
  0
LINE
  5
2AE
100
AcDbEntity
  8
0
100
AcDbLine
 62
7
  6
CONTINUOUS
 10
4.0867056104
 20
7.2298290472
 11
3.9224564736
 21
7.394078184
  0
LINE
  5
2AF
100
AcDbEntity
  8
0
100
AcDbLine
 62
9
  6
CONTINUOUS
 10
3.9224619271
 20
7.4161691531
 11
3.9335042673
 21
7.4051274603
  0
LINE
  5
2B0
100
AcDbEntity
  8
0
100
AcDbLine
 62
9
  6
CONTINUOUS
 10
4.0977544161
 20
7.2408772933
 11
4.1087380617
 21
7.2297479628
  0
LINE
  5
2B1
100
AcDbEntity
  8
0
100
AcDbLine
 62
9
  6
CONTINUOUS
 10
4.1998888398
 20
7.3208531619
 11
4.1887825781
 21
7.3318432932
  0
LINE
  5
2B2
100
AcDbEntity
  8
0
100
AcDbLine
 62
9
  6
CONTINUOUS
 10
4.1897758528
 20
7.310785713
 11
4.1787094827
 21
7.3218163943
  0
LINE
  5
2B3
100
AcDbEntity
  8
0
100
AcDbLine
 62
9
  6
CONTINUOUS
 10
4.0437898471
 20
7.5375860604
 11
4.054772192
 21
7.5264775625
  0
LINE
  5
2B4
100
AcDbEntity
  8
0
100
AcDbLine
 62
7
  6
CONTINUOUS
 10
4.2853590913
 20
7.3306816644
 11
4.2855733131
 21
7.330687547
  0
LINE
  5
2B5
100
AcDbEntity
  8
0
100
AcDbLine
 62
7
  6
CONTINUOUS
 10
5.4057809012
 20
7.1685487243
 11
5.3901558999
 21
7.1685487243
  0
LINE
  5
2B6
100
AcDbEntity
  8
0
100
AcDbLine
 62
9
  6
CONTINUOUS
 10
5.4057809012
 20
7.2155487245
 11
5.3745309457
 21
7.2155486896
  0
LINE
  5
2B7
100
AcDbEntity
  8
0
100
AcDbLine
 62
9
  6
CONTINUOUS
 10
4.2617810173
 20
7.5865305444
 11
4.3802453562
 21
7.5866496161
  0
LINE
  5
2B8
100
AcDbEntity
  8
0
100
AcDbLine
 62
7
  6
CONTINUOUS
 10
5.3901558999
 20
7.7535952319
 11
5.4057809012
 21
7.7535952319
  0
LINE
  5
2B9
100
AcDbEntity
  8
0
100
AcDbLine
 62
9
  6
CONTINUOUS
 10
5.3745309457
 20
7.7065952797
 11
5.4057809012
 21
7.7065952319
  0
ARC
  5
2BA
100
AcDbEntity
  8
0
100
AcDbCircle
 62
9
  6
CONTINUOUS
 10
-67.3070003427
 20
-13.1350985003
 40
73.6279447568
100
AcDbArc
 50
11.2436438924
 51
11.3997835738
  0
ARC
  5
2BB
100
AcDbEntity
  8
0
100
AcDbCircle
 62
9
  6
CONTINUOUS
 10
-61.4838154268
 20
-7.8085084624
 40
66.9764581588
100
AcDbArc
 50
7.7570504256
 51
7.9195379674
  0
ARC
  5
2BC
100
AcDbEntity
  8
0
100
AcDbCircle
 62
9
  6
CONTINUOUS
 10
-56.2634704567
 20
-12.9659203349
 40
62.8309053499
100
AcDbArc
 50
13.0492452663
 51
13.2375241704
  0
ARC
  5
2BD
100
AcDbEntity
  8
0
100
AcDbCircle
 62
7
  6
CONTINUOUS
 10
4.0452285687
 20
-3.3078393136
 40
4.7932484781
100
AcDbArc
 50
85.3628518072
 51
85.6212237823
  0
ARC
  5
2BE
100
AcDbEntity
  8
0
100
AcDbCircle
 62
7
  6
CONTINUOUS
 10
4.0701272882
 20
-2.8398259737
 40
4.1338582677
100
AcDbArc
 50
72.8706712777
 51
81.4153364325
  0
ARC
  5
2BF
100
AcDbEntity
  8
0
100
AcDbCircle
 62
9
  6
CONTINUOUS
 10
4.0746883208
 20
-2.8013558298
 40
4.1149955728
100
AcDbArc
 50
72.7935526575
 51
77.7911197124
  0
ARC
  5
2C0
100
AcDbEntity
  8
0
100
AcDbCircle
 62
7
  6
CONTINUOUS
 10
2.2638747434
 20
3.3361811979
 40
2.2541238776
100
AcDbArc
 50
350.3527441448
 51
6.7939230177
  0
ARC
  5
2C1
100
AcDbEntity
  8
0
100
AcDbCircle
 62
7
  6
CONTINUOUS
 10
4.224640519
 20
-0.3096178628
 40
1.7891856152
100
AcDbArc
 50
89.2088952809
 51
89.8084590883
  0
ARC
  5
2C2
100
AcDbEntity
  8
0
100
AcDbCircle
 62
7
  6
CONTINUOUS
 10
4.2249824999
 20
-0.2276058547
 40
1.7071729235
100
AcDbArc
 50
89.8107349723
 51
90.1423676825
  0
ARC
  5
2C3
100
AcDbEntity
  8
0
100
AcDbCircle
 62
7
  6
CONTINUOUS
 10
4.3269503118
 20
1.2161039865
 40
0.1261089848
100
AcDbArc
 50
78.210646477
 51
145.1610363874
  0
ARC
  5
2C4
100
AcDbEntity
  8
0
100
AcDbCircle
 62
7
  6
CONTINUOUS
 10
4.3269414141
 20
1.2161081638
 40
0.1260992101
100
AcDbArc
 50
145.1602846813
 51
167.4688965537
  0
ARC
  5
2C5
100
AcDbEntity
  8
0
100
AcDbCircle
 62
7
  6
CONTINUOUS
 10
4.3269427993
 20
1.2161074918
 40
0.1064156302
100
AcDbArc
 50
78.2097089373
 51
167.4689303687
  0
ARC
  5
2C6
100
AcDbEntity
  8
0
100
AcDbCircle
 62
7
  6
CONTINUOUS
 10
4.2038455584
 20
1.2434664197
 40
0.0196850394
100
AcDbArc
 50
267.0
 51
347.468351183
  0
ARC
  5
2C7
100
AcDbEntity
  8
0
100
AcDbCircle
 62
7
  6
CONTINUOUS
 10
3.9254732067
 20
1.258055273
 40
0.0196850348
100
AcDbArc
 50
179.9997299463
 51
266.9771677617
  0
ARC
  5
2C8
100
AcDbEntity
  8
0
100
AcDbCircle
 62
7
  6
CONTINUOUS
 10
3.9254661985
 20
1.4591385295
 40
0.0196850209
100
AcDbArc
 50
90.1427341274
 51
180.0000590519
  0
ARC
  5
2C9
100
AcDbEntity
  8
0
100
AcDbCircle
 62
7
  6
CONTINUOUS
 10
4.236225895
 20
3.6820016332
 40
0.157940833
100
AcDbArc
 50
331.3992432965
 51
360.0
  0
ARC
  5
2CA
100
AcDbEntity
  8
0
100
AcDbCircle
 62
9
  6
CONTINUOUS
 10
4.2536969532
 20
3.6890509877
 40
0.1541130783
100
AcDbArc
 50
327.578033804
 51
357.378424949
  0
ARC
  5
2CB
100
AcDbEntity
  8
0
100
AcDbCircle
 62
7
  6
CONTINUOUS
 10
4.365747287
 20
2.9553448255
 40
0.7381889764
100
AcDbArc
 50
76.6735559422
 51
89.7861363898
  0
ARC
  5
2CC
100
AcDbEntity
  8
0
100
AcDbCircle
 62
9
  6
CONTINUOUS
 10
4.3657199788
 20
2.9744100057
 40
0.7289665749
100
AcDbArc
 50
76.4995797558
 51
89.7812844493
  0
ARC
  5
2CD
100
AcDbEntity
  8
0
100
AcDbCircle
 62
9
  6
CONTINUOUS
 10
4.365747287
 20
2.9553448255
 40
0.7283464567
100
AcDbArc
 50
86.0965308097
 51
86.7002751658
  0
ARC
  5
2CE
100
AcDbEntity
  8
0
100
AcDbCircle
 62
9
  6
CONTINUOUS
 10
4.3656028361
 20
2.9989807924
 40
0.6848285243
100
AcDbArc
 50
81.3437049774
 51
85.8359434145
  0
ARC
  5
2CF
100
AcDbEntity
  8
0
100
AcDbCircle
 62
7
  6
CONTINUOUS
 10
4.3685761768
 20
3.7132135616
 40
0.0196850394
100
AcDbArc
 50
180.0
 51
269.786027075
  0
ARC
  5
2D0
100
AcDbEntity
  8
0
100
AcDbCircle
 62
9
  6
CONTINUOUS
 10
4.3816263749
 20
3.5994963204
 40
0.0090415539
100
AcDbArc
 50
115.392339051
 51
120.6092768366
  0
ARC
  5
2D1
100
AcDbEntity
  8
0
100
AcDbCircle
 62
9
  6
CONTINUOUS
 10
4.3786625307
 20
3.6021298621
 40
0.0049505751
100
AcDbArc
 50
171.7489859668
 51
173.2457413997
  0
ARC
  5
2D2
100
AcDbEntity
  8
0
100
AcDbCircle
 62
7
  6
CONTINUOUS
 10
4.399515182
 20
2.9600736097
 40
0.0098425197
100
AcDbArc
 50
189.6081010515
 51
270.0000000005
  0
ARC
  5
2D3
100
AcDbEntity
  8
0
100
AcDbCircle
 62
7
  6
CONTINUOUS
 10
4.3835357599
 20
3.60168316
 40
0.0098425197
100
AcDbArc
 50
151.3993078933
 51
173.2442007688
  0
ARC
  5
2D4
100
AcDbEntity
  8
0
100
AcDbCircle
 62
7
  6
CONTINUOUS
 10
4.3843242083
 20
3.6834543358
 40
0.0098425197
100
AcDbArc
 50
0.0
 51
88.5377424814
  0
ARC
  5
2D5
100
AcDbEntity
  8
0
100
AcDbCircle
 62
7
  6
CONTINUOUS
 10
4.3798182545
 20
3.8471647038
 40
3.4850512361
100
AcDbArc
 50
73.4158844352
 51
77.1097383324
  0
ARC
  5
2D6
100
AcDbEntity
  8
0
100
AcDbCircle
 62
9
  6
CONTINUOUS
 10
4.3808750293
 20
3.8786092224
 40
3.4690171372
100
AcDbArc
 50
77.5421382298
 51
91.5813200406
  0
ARC
  5
2D7
100
AcDbEntity
  8
0
100
AcDbCircle
 62
7
  6
CONTINUOUS
 10
4.3888327756
 20
3.884771726
 40
3.4463809714
100
AcDbArc
 50
77.1436772443
 51
77.5706923298
  0
ARC
  5
2D8
100
AcDbEntity
  8
0
100
AcDbCircle
 62
7
  6
CONTINUOUS
 10
4.3888367375
 20
3.8847935773
 40
3.4463587828
100
AcDbArc
 50
77.1163350289
 51
77.5963949901
  0
ARC
  5
2D9
100
AcDbEntity
  8
0
100
AcDbCircle
 62
9
  6
CONTINUOUS
 10
4.3930642567
 20
3.9355365665
 40
3.4107900946
100
AcDbArc
 50
77.0506954154
 51
77.5357829601
  0
ARC
  5
2DA
100
AcDbEntity
  8
0
100
AcDbCircle
 62
7
  6
CONTINUOUS
 10
4.365747287
 20
4.5691331025
 40
0.7381889764
100
AcDbArc
 50
270.2138636589
 51
283.3264440582
  0
ARC
  5
2DB
100
AcDbEntity
  8
0
100
AcDbCircle
 62
9
  6
CONTINUOUS
 10
4.3657199674
 20
4.5500679922
 40
0.7289666449
100
AcDbArc
 50
270.2187164238
 51
283.5004198182
  0
ARC
  5
2DC
100
AcDbEntity
  8
0
100
AcDbCircle
 62
7
  6
CONTINUOUS
 10
4.3685761768
 20
3.8112643664
 40
0.0196850394
100
AcDbArc
 50
90.2139710997
 51
180.0
  0
ARC
  5
2DD
100
AcDbEntity
  8
0
100
AcDbCircle
 62
7
  6
CONTINUOUS
 10
3.1074740975
 20
7.458803562
 40
0.0098425197
100
AcDbArc
 50
135.0
 51
224.999999999
  0
ARC
  5
2DE
100
AcDbEntity
  8
0
100
AcDbCircle
 62
7
  6
CONTINUOUS
 10
3.1492323719
 20
7.5005618365
 40
0.0098425197
100
AcDbArc
 50
45.0
 51
135.0
  0
ARC
  5
2DF
100
AcDbEntity
  8
0
100
AcDbCircle
 62
7
  6
CONTINUOUS
 10
3.7957896551
 20
7.1031622577
 40
0.124015748
100
AcDbArc
 50
93.8879095608
 51
108.6090770818
  0
ARC
  5
2E0
100
AcDbEntity
  8
0
100
AcDbCircle
 62
7
  6
CONTINUOUS
 10
3.7957896551
 20
7.1031622577
 40
0.124015748
100
AcDbArc
 50
341.3953075684
 51
356.1106918372
  0
ARC
  5
2E1
100
AcDbEntity
  8
0
100
AcDbCircle
 62
7
  6
CONTINUOUS
 10
3.9391597308
 20
7.0934186603
 40
0.0196850394
100
AcDbArc
 50
135.0
 51
176.1120904392
  0
ARC
  5
2E2
100
AcDbEntity
  8
0
100
AcDbCircle
 62
7
  6
CONTINUOUS
 10
3.7860460578
 20
7.2465323334
 40
0.0196850394
100
AcDbArc
 50
273.8879095608
 51
315.0
  0
ARC
  5
2E3
100
AcDbEntity
  8
0
100
AcDbCircle
 62
7
  6
CONTINUOUS
 10
3.9335050168
 20
7.4051267277
 40
0.015625
100
AcDbArc
 50
135.0018212329
 51
225.0
  0
ARC
  5
2E4
100
AcDbEntity
  8
0
100
AcDbCircle
 62
7
  6
CONTINUOUS
 10
3.80970908
 20
7.2562759308
 40
0.0098425197
100
AcDbArc
 50
315.0
 51
44.9999818048
  0
ARC
  5
2E5
100
AcDbEntity
  8
0
100
AcDbCircle
 62
7
  6
CONTINUOUS
 10
3.9489033282
 20
7.1170816825
 40
0.0098425197
100
AcDbArc
 50
45.0000202379
 51
135.0
  0
ARC
  5
2E6
100
AcDbEntity
  8
0
100
AcDbCircle
 62
7
  6
CONTINUOUS
 10
3.9391597308
 20
7.0238215362
 40
0.0098425197
100
AcDbArc
 50
315.0
 51
45.0
  0
ARC
  5
2E7
100
AcDbEntity
  8
0
100
AcDbCircle
 62
7
  6
CONTINUOUS
 10
3.7164489336
 20
7.2465323334
 40
0.0098425197
100
AcDbArc
 50
45.0
 51
135.0
  0
ARC
  5
2E8
100
AcDbEntity
  8
0
100
AcDbCircle
 62
7
  6
CONTINUOUS
 10
3.9071450537
 20
7.3745910418
 40
0.0049212598
100
AcDbArc
 50
45.0
 51
135.0
  0
ARC
  5
2E9
100
AcDbEntity
  8
0
100
AcDbCircle
 62
7
  6
CONTINUOUS
 10
3.80970908
 20
7.2771550681
 40
0.0049212598
100
AcDbArc
 50
135.0
 51
224.9999715734
  0
ARC
  5
2EA
100
AcDbEntity
  8
0
100
AcDbCircle
 62
7
  6
CONTINUOUS
 10
4.1514309594
 20
6.4148467
 40
0.0098425197
100
AcDbArc
 50
225.0
 51
315.0
  0
ARC
  5
2EB
100
AcDbEntity
  8
0
100
AcDbCircle
 62
7
  6
CONTINUOUS
 10
4.1931892339
 20
6.4566049745
 40
0.0098425197
100
AcDbArc
 50
315.0
 51
44.9999999991
  0
ARC
  5
2EC
100
AcDbEntity
  8
0
100
AcDbCircle
 62
7
  6
CONTINUOUS
 10
4.0984345769
 20
7.2416419776
 40
0.0166590921
100
AcDbArc
 50
225.2043104931
 51
228.0426149288
  0
ARC
  5
2ED
100
AcDbEntity
  8
0
100
AcDbCircle
 62
7
  6
CONTINUOUS
 10
4.0970792436
 20
7.2416359885
 40
0.0166509252
100
AcDbArc
 50
311.956916353
 51
314.4423035813
  0
ARC
  5
2EE
100
AcDbEntity
  8
0
100
AcDbCircle
 62
7
  6
CONTINUOUS
 10
4.0983357677
 20
7.2415326721
 40
0.0165117463
100
AcDbArc
 50
228.0440012699
 51
229.4206487256
  0
ARC
  5
2EF
100
AcDbEntity
  8
0
100
AcDbCircle
 62
7
  6
CONTINUOUS
 10
4.0971780474
 20
7.2415263946
 40
0.0165033685
100
AcDbArc
 50
310.4044850636
 51
311.9562087644
  0
ARC
  5
2F0
100
AcDbEntity
  8
0
100
AcDbCircle
 62
7
  6
CONTINUOUS
 10
4.0982294539
 20
7.2414081888
 40
0.0163480434
100
AcDbArc
 50
229.4198405203
 51
231.1159978376
  0
ARC
  5
2F1
100
AcDbEntity
  8
0
100
AcDbCircle
 62
7
  6
CONTINUOUS
 10
4.0972962341
 20
7.2413871965
 40
0.0163207647
100
AcDbArc
 50
308.6140180176
 51
310.4052842434
  0
ARC
  5
2F2
100
AcDbEntity
  8
0
100
AcDbCircle
 62
7
  6
CONTINUOUS
 10
4.097677061
 20
7.2414232564
 40
0.0161743069
100
AcDbArc
 50
280.6853809012
 51
282.5604210183
  0
ARC
  5
2F3
100
AcDbEntity
  8
0
100
AcDbCircle
 62
7
  6
CONTINUOUS
 10
4.097831142
 20
7.24142294
 40
0.0161739842
100
AcDbArc
 50
257.3961920373
 51
259.2852281199
  0
ARC
  5
2F4
100
AcDbEntity
  8
0
100
AcDbCircle
 62
7
  6
CONTINUOUS
 10
4.0978206662
 20
7.2413621489
 40
0.0161123053
100
AcDbArc
 50
259.2816396168
 51
263.445896175
  0
ARC
  5
2F5
100
AcDbEntity
  8
0
100
AcDbCircle
 62
7
  6
CONTINUOUS
 10
4.097687616
 20
7.2413619724
 40
0.0161121286
100
AcDbArc
 50
276.5679558263
 51
280.6889048864
  0
ARC
  5
2F6
100
AcDbEntity
  8
0
100
AcDbCircle
 62
7
  6
CONTINUOUS
 10
4.0976933484
 20
7.2413526655
 40
0.0161018635
100
AcDbArc
 50
282.558477142
 51
285.7830992575
  0
ARC
  5
2F7
100
AcDbEntity
  8
0
100
AcDbCircle
 62
7
  6
CONTINUOUS
 10
4.0978144252
 20
7.2413507037
 40
0.0160998408
100
AcDbArc
 50
254.1723612505
 51
257.398154383
  0
ARC
  5
2F8
100
AcDbEntity
  8
0
100
AcDbCircle
 62
7
  6
CONTINUOUS
 10
4.0977984572
 20
7.2411791607
 40
0.0159279781
100
AcDbArc
 50
263.4501312083
 51
264.5588181754
  0
ARC
  5
2F9
100
AcDbEntity
  8
0
100
AcDbCircle
 62
7
  6
CONTINUOUS
 10
4.0977098316
 20
7.2411790003
 40
0.0159278163
100
AcDbArc
 50
275.4247505824
 51
276.5638510632
  0
ARC
  5
2FA
100
AcDbEntity
  8
0
100
AcDbCircle
 62
7
  6
CONTINUOUS
 10
4.0977453899
 20
7.2411688047
 40
0.0159107794
100
AcDbArc
 50
285.7828471337
 51
288.5690230423
  0
ARC
  5
2FB
100
AcDbEntity
  8
0
100
AcDbCircle
 62
7
  6
CONTINUOUS
 10
4.0977611561
 20
7.2411631773
 40
0.0159048954
100
AcDbArc
 50
251.3293341297
 51
254.1727310671
  0
ARC
  5
2FC
100
AcDbEntity
  8
0
100
AcDbCircle
 62
7
  6
CONTINUOUS
 10
4.0978159157
 20
7.2409579155
 40
0.0156884102
100
AcDbArc
 50
288.570128812
 51
290.7249103462
  0
ARC
  5
2FD
100
AcDbEntity
  8
0
100
AcDbCircle
 62
7
  6
CONTINUOUS
 10
4.097689264
 20
7.2409493035
 40
0.0156792621
100
AcDbArc
 50
249.192661456
 51
251.3280248861
  0
ARC
  5
2FE
100
AcDbEntity
  8
0
100
AcDbCircle
 62
7
  6
CONTINUOUS
 10
4.097773236
 20
7.2408904043
 40
0.0156381315
100
AcDbArc
 50
264.5504884135
 51
267.982075285
  0
ARC
  5
2FF
100
AcDbEntity
  8
0
100
AcDbCircle
 62
7
  6
CONTINUOUS
 10
4.0977350895
 20
7.2408893087
 40
0.0156370345
100
AcDbArc
 50
272.0185801049
 51
275.4329661567
  0
ARC
  5
300
100
AcDbEntity
  8
0
100
AcDbCircle
 62
7
  6
CONTINUOUS
 10
4.0977541251
 20
7.2408776194
 40
0.015625
100
AcDbArc
 50
225.0001489312
 51
314.6227039696
  0
ARC
  5
301
100
AcDbEntity
  8
0
100
AcDbCircle
 62
7
  6
CONTINUOUS
 10
4.0975750225
 20
7.2406531386
 40
0.0153618316
100
AcDbArc
 50
245.3744356146
 51
249.1985734404
  0
ARC
  5
302
100
AcDbEntity
  8
0
100
AcDbCircle
 62
7
  6
CONTINUOUS
 10
4.0979419146
 20
7.2406314576
 40
0.0153384888
100
AcDbArc
 50
290.7162510377
 51
295.133610978
  0
ARC
  5
303
100
AcDbEntity
  8
0
100
AcDbCircle
 62
7
  6
CONTINUOUS
 10
4.0977549498
 20
7.2404109524
 40
0.0151583331
100
AcDbArc
 50
267.9873382547
 51
272.0134089161
  0
ARC
  5
304
100
AcDbEntity
  8
0
100
AcDbCircle
 62
7
  6
CONTINUOUS
 10
4.09746435
 20
7.2404059677
 40
0.0150910252
100
AcDbArc
 50
244.5476391787
 51
245.3653768355
  0
ARC
  5
305
100
AcDbEntity
  8
0
100
AcDbCircle
 62
7
  6
CONTINUOUS
 10
4.0672184392
 20
7.2145176563
 40
0.0049212598
100
AcDbArc
 50
315.0
 51
45.0
  0
ARC
  5
306
100
AcDbEntity
  8
0
100
AcDbCircle
 62
7
  6
CONTINUOUS
 10
3.9697824655
 20
7.1170816825
 40
0.0049212598
100
AcDbArc
 50
225.0000255698
 51
315.0
  0
ARC
  5
307
100
AcDbEntity
  8
0
100
AcDbCircle
 62
7
  6
CONTINUOUS
 10
4.2643062861
 20
11.5880970131
 40
3.9860165659
100
AcDbArc
 50
269.9638523457
 51
270.1479824548
  0
ARC
  5
308
100
AcDbEntity
  8
0
100
AcDbCircle
 62
7
  6
CONTINUOUS
 10
4.1699035253
 20
11.3626169483
 40
3.828131396
100
AcDbArc
 50
287.9651130934
 51
288.3413548959
  0
ARC
  5
309
100
AcDbEntity
  8
0
100
AcDbCircle
 62
7
  6
CONTINUOUS
 10
4.5900328697
 20
1.3343420824
 40
2.3073260154
100
AcDbArc
 50
74.6184582377
 51
89.999999863
  0
ARC
  5
30A
100
AcDbEntity
  8
0
100
AcDbCircle
 62
7
  6
CONTINUOUS
 10
4.9496782434
 20
2.9864807296
 40
1.7584638271
100
AcDbArc
 50
256.7584440943
 51
261.4153335078
  0
ARC
  5
30B
100
AcDbEntity
  8
0
100
AcDbCircle
 62
9
  6
CONTINUOUS
 10
4.9501212729
 20
2.9892737131
 40
1.7416056445
100
AcDbArc
 50
259.3789432628
 51
260.1025203073
  0
ARC
  5
30C
100
AcDbEntity
  8
0
100
AcDbCircle
 62
9
  6
CONTINUOUS
 10
4.9496782443
 20
2.9864807341
 40
1.738778793
100
AcDbArc
 50
256.8619072321
 51
259.376328783
  0
ARC
  5
30D
100
AcDbEntity
  8
0
100
AcDbCircle
 62
9
  6
CONTINUOUS
 10
5.2341022064
 20
0.9368441319
 40
0.2011272935
100
AcDbArc
 50
72.7114734436
 51
73.2797518607
  0
ARC
  5
30E
100
AcDbEntity
  8
0
100
AcDbCircle
 62
9
  6
CONTINUOUS
 10
5.234104252
 20
1.6663671287
 40
0.2011201686
100
AcDbArc
 50
286.7202563374
 51
287.2885479301
  0
ARC
  5
30F
100
AcDbEntity
  8
0
100
AcDbCircle
 62
7
  6
CONTINUOUS
 10
5.2340990863
 20
0.9368440722
 40
0.1818882548
100
AcDbArc
 50
72.3012043392
 51
72.8706335129
  0
ARC
  5
310
100
AcDbEntity
  8
0
100
AcDbCircle
 62
7
  6
CONTINUOUS
 10
5.2340990863
 20
1.6663740132
 40
0.1818882548
100
AcDbArc
 50
287.1293664876
 51
287.6987956604
  0
ARC
  5
311
100
AcDbEntity
  8
0
100
AcDbCircle
 62
7
  6
CONTINUOUS
 10
5.2347799841
 20
0.9389259559
 40
0.17969791
100
AcDbArc
 50
70.1499181918
 51
72.3062260631
  0
ARC
  5
312
100
AcDbEntity
  8
0
100
AcDbCircle
 62
7
  6
CONTINUOUS
 10
5.3817443714
 20
1.1083318478
 40
0.0492125984
100
AcDbArc
 50
224.6366270405
 51
299.2370057492
  0
ARC
  5
313
100
AcDbEntity
  8
0
100
AcDbCircle
 62
7
  6
CONTINUOUS
 10
5.3817443714
 20
1.4948862377
 40
0.0492125984
100
AcDbArc
 50
60.7629954793
 51
135.3633818283
  0
ARC
  5
314
100
AcDbEntity
  8
0
100
AcDbCircle
 62
7
  6
CONTINUOUS
 10
5.32015098
 20
3.0063041028
 40
0.0393700787
100
AcDbArc
 50
180.0
 51
251.1169544324
  0
ARC
  5
315
100
AcDbEntity
  8
ALL_FEATURES
100
AcDbCircle
 62
7
  6
CONTINUOUS
 10
5.2657809012
 20
3.148488964
 40
0.02375
100
AcDbArc
 50
180.0
 51
270.0
  0
ARC
  5
316
100
AcDbEntity
  8
0
100
AcDbCircle
 62
7
  6
CONTINUOUS
 10
4.4764166992
 20
2.9600736097
 40
0.0098425197
100
AcDbArc
 50
270.0000002146
 51
350.3918989041
  0
ARC
  5
317
100
AcDbEntity
  8
ALL_ASSEMBLY_MEMBERS
100
AcDbCircle
 62
7
  6
CONTINUOUS
 10
4.995924602
 20
3.121613964
 40
0.00775
100
AcDbArc
 50
180.0
 51
256.9592389661
  0
ARC
  5
318
100
AcDbEntity
  8
ALL_ASSEMBLY_MEMBERS
100
AcDbCircle
 62
7
  6
CONTINUOUS
 10
5.052424602
 20
3.113738964
 40
0.00775
100
AcDbArc
 50
270.0
 51
315.2453073495
  0
ARC
  5
319
100
AcDbEntity
  8
0
100
AcDbCircle
 62
7
  6
CONTINUOUS
 10
4.8730190573
 20
3.5221254791
 40
2.0809554417
100
AcDbArc
 50
269.6334122364
 51
270.3770542646
  0
ARC
  5
31A
100
AcDbEntity
  8
0
100
AcDbCircle
 62
7
  6
CONTINUOUS
 10
4.8730415364
 20
3.5203015056
 40
2.0791314721
100
AcDbArc
 50
269.7530107778
 51
270.2853347975
  0
ARC
  5
31B
100
AcDbEntity
  8
0
100
AcDbCircle
 62
7
  6
CONTINUOUS
 10
4.873291042
 20
3.4695682915
 40
2.0283976036
100
AcDbArc
 50
270.3791413951
 51
270.681024307
  0
ARC
  5
31C
100
AcDbEntity
  8
0
100
AcDbCircle
 62
7
  6
CONTINUOUS
 10
4.6397059862
 20
3.6820016332
 40
0.157940833
100
AcDbArc
 50
183.6076230328
 51
208.6007585263
  0
ARC
  5
31D
100
AcDbEntity
  8
0
100
AcDbCircle
 62
9
  6
CONTINUOUS
 10
4.622343666
 20
3.6890888681
 40
0.1542250819
100
AcDbArc
 50
184.8652923618
 51
212.4123457206
  0
ARC
  5
31E
100
AcDbEntity
  8
0
100
AcDbCircle
 62
7
  6
CONTINUOUS
 10
4.4923961213
 20
3.60168316
 40
0.0098425197
100
AcDbArc
 50
6.755781499
 51
28.6008364148
  0
ARC
  5
31F
100
AcDbEntity
  8
0
100
AcDbCircle
 62
7
  6
CONTINUOUS
 10
4.4919011497
 20
3.6726827959
 40
0.0098425197
100
AcDbArc
 50
80.0257344108
 51
183.6076238642
  0
ARC
  5
320
100
AcDbEntity
  8
0
100
AcDbCircle
 62
7
  6
CONTINUOUS
 10
4.550662791
 20
3.6515106175
 40
0.0098425197
100
AcDbArc
 50
180.0
 51
270.0
  0
ARC
  5
321
100
AcDbEntity
  8
0
100
AcDbCircle
 62
7
  6
CONTINUOUS
 10
4.550662791
 20
3.8729673104
 40
0.0098425197
100
AcDbArc
 50
90.0
 51
180.0
  0
ARC
  5
322
100
AcDbEntity
  8
0
100
AcDbCircle
 62
9
  6
CONTINUOUS
 10
4.4942954409
 20
3.5993332032
 40
0.009145341
100
AcDbArc
 50
60.3970155111
 51
65.6105605445
  0
ARC
  5
323
100
AcDbEntity
  8
0
100
AcDbCircle
 62
9
  6
CONTINUOUS
 10
4.497359565
 20
3.6021340309
 40
0.0048604962
100
AcDbArc
 50
6.7545045863
 51
8.3763558047
  0
ARC
  5
324
100
AcDbEntity
  8
0
100
AcDbCircle
 62
7
  6
CONTINUOUS
 10
4.9252390372
 20
4.8560786486
 40
3.4160719165
100
AcDbArc
 50
266.3467951549
 51
266.9358988582
  0
ARC
  5
325
100
AcDbEntity
  8
0
100
AcDbCircle
 62
7
  6
CONTINUOUS
 10
4.9253325569
 20
4.8559978966
 40
3.4159967834
100
AcDbArc
 50
266.410986753
 51
266.8689440435
  0
ARC
  5
326
100
AcDbEntity
  8
0
100
AcDbCircle
 62
9
  6
CONTINUOUS
 10
4.9925728168
 20
3.2110856611
 40
1.9674165955
100
AcDbArc
 50
259.9949593553
 51
261.1637971182
  0
ARC
  5
327
100
AcDbEntity
  8
0
100
AcDbCircle
 62
7
  6
CONTINUOUS
 10
5.2709383815
 20
3.964020662
 40
0.0492125984
100
AcDbArc
 50
78.4630422051
 51
153.5939329391
  0
ARC
  5
328
100
AcDbEntity
  8
0
100
AcDbCircle
 62
7
  6
CONTINUOUS
 10
5.2709383815
 20
3.560457266
 40
0.0492125984
100
AcDbArc
 50
206.4060670607
 51
281.5369575551
  0
ARC
  5
329
100
AcDbEntity
  8
0
100
AcDbCircle
 62
7
  6
CONTINUOUS
 10
5.191598007
 20
4.0034160381
 40
0.0393700787
100
AcDbArc
 50
285.381541763
 51
333.593932939
  0
ARC
  5
32A
100
AcDbEntity
  8
0
100
AcDbCircle
 62
7
  6
CONTINUOUS
 10
5.191598007
 20
3.5210618899
 40
0.0393700787
100
AcDbArc
 50
26.406067061
 51
74.6184582429
  0
ARC
  5
32B
100
AcDbEntity
  8
0
100
AcDbCircle
 62
9
  6
CONTINUOUS
 10
5.2570861059
 20
3.9628885433
 40
0.035511823
100
AcDbArc
 50
142.7409652807
 51
148.336467124
  0
ARC
  5
32C
100
AcDbEntity
  8
ALL_FEATURES
100
AcDbCircle
 62
7
  6
CONTINUOUS
 10
5.2657809012
 20
3.288488964
 40
0.02375
100
AcDbArc
 50
90.0
 51
180.0
  0
ARC
  5
32D
100
AcDbEntity
  8
ALL_ASSEMBLY_MEMBERS
100
AcDbCircle
 62
7
  6
CONTINUOUS
 10
5.052424602
 20
3.323238964
 40
0.00775
100
AcDbArc
 50
44.7546926505
 51
90.0
  0
ARC
  5
32E
100
AcDbEntity
  8
ALL_ASSEMBLY_MEMBERS
100
AcDbCircle
 62
7
  6
CONTINUOUS
 10
4.995924602
 20
3.315363964
 40
0.00775
100
AcDbArc
 50
103.0407610339
 51
180.0
  0
ARC
  5
32F
100
AcDbEntity
  8
0
100
AcDbCircle
 62
7
  6
CONTINUOUS
 10
4.9580230441
 20
5.3755634233
 40
3.9365900191
100
AcDbArc
 50
266.0566373871
 51
266.3523660547
  0
ARC
  5
330
100
AcDbEntity
  8
0
100
AcDbCircle
 62
7
  6
CONTINUOUS
 10
5.4080784536
 20
4.5639786366
 40
0.0732963459
100
AcDbArc
 50
91.7962917581
 51
95.9038756887
  0
ARC
  5
331
100
AcDbEntity
  8
0
100
AcDbCircle
 62
7
  6
CONTINUOUS
 10
5.32015098
 20
4.5181738252
 40
0.0393700787
100
AcDbArc
 50
108.8830455862
 51
180.0
  0
ARC
  5
332
100
AcDbEntity
  8
0
100
AcDbCircle
 62
7
  6
CONTINUOUS
 10
6.612057138
 20
3.3361811979
 40
2.2541238779
100
AcDbArc
 50
173.2060769062
 51
189.6472558548
  0
ARC
  5
333
100
AcDbEntity
  8
0
100
AcDbCircle
 62
7
  6
CONTINUOUS
 10
4.5900328697
 20
6.1901358455
 40
2.3073260154
100
AcDbArc
 50
270.0000000749
 51
285.3815417624
  0
ARC
  5
334
100
AcDbEntity
  8
0
100
AcDbCircle
 62
9
  6
CONTINUOUS
 10
4.5899985146
 20
6.1710977539
 40
2.2981301612
100
AcDbArc
 50
270.000856662
 51
285.4455091113
  0
ARC
  5
335
100
AcDbEntity
  8
0
100
AcDbCircle
 62
7
  6
CONTINUOUS
 10
4.5699531521
 20
10.1807949517
 40
2.5810100442
100
AcDbArc
 50
283.1953878216
 51
283.7512706789
  0
ARC
  5
336
100
AcDbEntity
  8
0
100
AcDbCircle
 62
7
  6
CONTINUOUS
 10
4.5745832303
 20
10.1610247055
 40
2.5607048668
100
AcDbArc
 50
282.5496337393
 51
283.1956741917
  0
ARC
  5
337
100
AcDbEntity
  8
0
100
AcDbCircle
 62
9
  6
CONTINUOUS
 10
4.5803318344
 20
10.1025081397
 40
2.5154743176
100
AcDbArc
 50
282.6375684691
 51
283.295432929
  0
ARC
  5
338
100
AcDbEntity
  8
0
100
AcDbCircle
 62
9
  6
CONTINUOUS
 10
4.5805111551
 20
10.0985296836
 40
2.5132840353
100
AcDbArc
 50
282.6511510424
 51
283.3095325804
  0
ARC
  5
339
100
AcDbEntity
  8
0
100
AcDbCircle
 62
9
  6
CONTINUOUS
 10
4.5817072519
 20
10.0974047012
 40
2.5101908909
100
AcDbArc
 50
283.2916693566
 51
288.4116505501
  0
ARC
  5
33A
100
AcDbEntity
  8
0
100
AcDbCircle
 62
9
  6
CONTINUOUS
 10
4.5819129023
 20
10.0933060772
 40
2.5078773967
100
AcDbArc
 50
283.3058416454
 51
288.4243100913
  0
ARC
  5
33B
100
AcDbEntity
  8
0
100
AcDbCircle
 62
7
  6
CONTINUOUS
 10
4.5917070501
 20
10.0796788946
 40
2.4775819906
100
AcDbArc
 50
277.5568650536
 51
282.5718470365
  0
ARC
  5
33C
100
AcDbEntity
  8
0
100
AcDbCircle
 62
7
  6
CONTINUOUS
 10
4.5939337796
 20
10.0648152573
 40
2.4625574838
100
AcDbArc
 50
278.9199863702
 51
279.9945700218
  0
ARC
  5
33D
100
AcDbEntity
  8
0
100
AcDbCircle
 62
7
  6
CONTINUOUS
 10
4.5947469244
 20
10.0597256405
 40
2.4574033396
100
AcDbArc
 50
278.8002895003
 51
278.9196566894
  0
ARC
  5
33E
100
AcDbEntity
  8
0
100
AcDbCircle
 62
7
  6
CONTINUOUS
 10
4.5955543591
 20
10.0544133543
 40
2.4520300616
100
AcDbArc
 50
277.7429611455
 51
278.8006353681
  0
ARC
  5
33F
100
AcDbEntity
  8
0
100
AcDbCircle
 62
7
  6
CONTINUOUS
 10
4.5970890702
 20
10.0430073758
 40
2.440521234
100
AcDbArc
 50
276.6326856136
 51
277.5448396809
  0
ARC
  5
340
100
AcDbEntity
  8
0
100
AcDbCircle
 62
9
  6
CONTINUOUS
 10
5.0507792274
 20
6.6790728645
 40
5.2630793529
100
AcDbArc
 50
265.2211673073
 51
266.0251446068
  0
ARC
  5
341
100
AcDbEntity
  8
0
100
AcDbCircle
 62
7
  6
CONTINUOUS
 10
5.0509550095
 20
6.6813690958
 40
5.2456959904
100
AcDbArc
 50
265.2212150554
 51
266.0248394212
  0
ARC
  5
342
100
AcDbEntity
  8
0
100
AcDbCircle
 62
9
  6
CONTINUOUS
 10
5.0024454853
 20
6.2692572429
 40
4.8509864554
100
AcDbArc
 50
266.5004434686
 51
266.9098659388
  0
ARC
  5
343
100
AcDbEntity
  8
0
100
AcDbCircle
 62
7
  6
CONTINUOUS
 10
5.3910110706
 20
7.184580804
 40
0.0165585913
100
AcDbArc
 50
209.2560568821
 51
210.5641116704
  0
ARC
  5
344
100
AcDbEntity
  8
0
100
AcDbCircle
 62
7
  6
CONTINUOUS
 10
5.3909965772
 20
7.1845739807
 40
0.016542612
100
AcDbArc
 50
203.5607397287
 51
209.2599709527
  0
ARC
  5
345
100
AcDbEntity
  8
0
100
AcDbCircle
 62
7
  6
CONTINUOUS
 10
5.3908421851
 20
7.1844785888
 40
0.0163611941
100
AcDbArc
 50
210.5566353569
 51
214.6845380548
  0
ARC
  5
346
100
AcDbEntity
  8
0
100
AcDbCircle
 62
7
  6
CONTINUOUS
 10
5.3906352178
 20
7.1844173589
 40
0.0161487717
100
AcDbArc
 50
198.9912062564
 51
203.5638539264
  0
ARC
  5
347
100
AcDbEntity
  8
0
100
AcDbCircle
 62
7
  6
CONTINUOUS
 10
5.3905321421
 20
7.1842670571
 40
0.015985873
100
AcDbArc
 50
214.6934639545
 51
215.856400392
  0
ARC
  5
348
100
AcDbEntity
  8
0
100
AcDbCircle
 62
7
  6
CONTINUOUS
 10
5.3902817354
 20
7.1842923578
 40
0.015773852
100
AcDbArc
 50
197.5680669029
 51
198.9797069275
  0
ARC
  5
349
100
AcDbEntity
  8
0
100
AcDbCircle
 62
7
  6
CONTINUOUS
 10
5.3901317496
 20
7.7378394155
 40
0.0157518062
100
AcDbArc
 50
89.912755493
 51
95.3597552008
  0
ARC
  5
34A
100
AcDbEntity
  8
0
100
AcDbCircle
 62
7
  6
CONTINUOUS
 10
5.3902854016
 20
7.7379944209
 40
0.0157504903
100
AcDbArc
 50
174.6122338273
 51
180.088674611
  0
ARC
  5
34B
100
AcDbEntity
  8
0
100
AcDbCircle
 62
7
  6
CONTINUOUS
 10
5.3902623717
 20
7.1841488185
 40
0.0157274615
100
AcDbArc
 50
179.9094878652
 51
185.8488403323
  0
ARC
  5
34C
100
AcDbEntity
  8
0
100
AcDbCircle
 62
7
  6
CONTINUOUS
 10
5.390155854
 20
7.7379694043
 40
0.0156249083
100
AcDbArc
 50
90.0004217375
 51
179.9976722378
  0
ARC
  5
34D
100
AcDbEntity
  8
0
100
AcDbCircle
 62
7
  6
CONTINUOUS
 10
5.390155854
 20
7.1841745519
 40
0.0156249083
100
AcDbArc
 50
180.0032378095
 51
269.9995782625
  0
ARC
  5
34E
100
AcDbEntity
  8
0
100
AcDbCircle
 62
7
  6
CONTINUOUS
 10
5.3898033764
 20
7.1841471492
 40
0.0152739756
100
AcDbArc
 50
192.1295334372
 51
197.5903914167
  0
ARC
  5
34F
100
AcDbEntity
  8
0
100
AcDbCircle
 62
7
  6
CONTINUOUS
 10
5.3897964107
 20
7.1841056444
 40
0.0152595273
100
AcDbArc
 50
185.865864621
 51
187.8102579245
  0
ARC
  5
350
100
AcDbEntity
  8
0
100
AcDbCircle
 62
7
  6
CONTINUOUS
 10
5.3897790589
 20
7.1837109734
 40
0.0150497821
100
AcDbArc
 50
215.8199431293
 51
221.2800501541
  0
ARC
  5
351
100
AcDbEntity
  8
0
100
AcDbCircle
 62
7
  6
CONTINUOUS
 10
5.3893150751
 20
7.1840356097
 40
0.0147731401
100
AcDbArc
 50
187.7948416513
 51
192.1045321069
  0
ARC
  5
352
100
AcDbEntity
  8
0
100
AcDbCircle
 62
7
  6
CONTINUOUS
 10
5.3893666994
 20
7.1833595945
 40
0.01450808
100
AcDbArc
 50
221.3116085605
 51
222.4747543191
  0
ARC
  5
353
100
AcDbEntity
  8
0
100
AcDbCircle
 62
7
  6
CONTINUOUS
 10
5.3892804431
 20
7.1832803102
 40
0.0143909215
100
AcDbArc
 50
222.4738295052
 51
224.9494124794
  0
ARC
  5
354
100
AcDbEntity
  8
0
100
AcDbCircle
 62
7
  6
CONTINUOUS
 10
5.3892561429
 20
7.738852207
 40
0.0143818273
100
AcDbArc
 50
132.9481746237
 51
134.9498205847
  0
ARC
  5
355
100
AcDbEntity
  8
0
100
AcDbCircle
 62
7
  6
CONTINUOUS
 10
5.389273877
 20
7.7388700382
 40
0.0143817585
100
AcDbArc
 50
135.0501297553
 51
137.0477845291
  0
ARC
  5
356
100
AcDbEntity
  8
0
100
AcDbCircle
 62
7
  6
CONTINUOUS
 10
5.3892560742
 20
7.1832916789
 40
0.0143817289
100
AcDbArc
 50
225.0501750401
 51
227.0459928118
  0
LINE
  5
357
100
AcDbEntity
  8
0
100
AcDbLine
 62
7
  6
CONTINUOUS
 10
3.9906616068
 20
7.2980342012
 11
3.9886965705
 21
7.2999990835
  0
SPLINE
  5
358
100
AcDbEntity
  8
0
100
AcDbSpline
 62
7
  6
CONTINUOUS
 70
0
 71
3
 72
17
 73
13
 74
0
 42
0.0000001
 43
0.0000001
 44
0.0000000001
 40
0.0
 40
0.0
 40
0.0
 40
0.0
 40
0.2501638619
 40
0.5003084843
 40
0.6253801529
 40
0.7504263924
 40
0.8129570301
 40
0.8754660462
 40
0.9067299517
 40
0.9379780237
 40
0.9691548099
 40
1.0
 40
1.0
 40
1.0
 40
1.0
 10
3.9886965705
 20
7.2999990835
 30
0.0
 10
3.9867850668
 20
7.3019098712
 30
0.0
 10
3.9829631504
 20
7.3057314378
 30
0.0
 10
3.9780887275
 20
7.310414981
 30
0.0
 10
3.973991561
 20
7.3139418279
 30
0.0
 10
3.9712954828
 20
7.3159855905
 30
0.0
 10
3.9690062774
 20
7.3174239179
 30
0.0
 10
3.967497816
 20
7.3181934993
 30
0.0
 10
3.9662284658
 20
7.3186613985
 30
0.0
 10
3.9652388666
 20
7.3188912705
 30
0.0
 10
3.9642224355
 20
7.3189296027
 30
0.0
 10
3.9635606984
 20
7.3186466855
 30
0.0
 10
3.9633250543
 20
7.3184110413
 30
0.0
  0
LINE
  5
359
100
AcDbEntity
  8
0
100
AcDbLine
 62
7
  6
CONTINUOUS
 10
3.9906616068
 20
7.2980342012
 11
3.9926265982
 21
7.2960690557
  0
SPLINE
  5
35A
100
AcDbEntity
  8
0
100
AcDbSpline
 62
7
  6
CONTINUOUS
 70
0
 71
3
 72
17
 73
13
 74
0
 42
0.0000001
 43
0.0000001
 44
0.0000000001
 40
0.0
 40
0.0
 40
0.0
 40
0.0
 40
0.250163867
 40
0.5003084942
 40
0.6253801655
 40
0.7504264077
 40
0.8129570468
 40
0.875466064
 40
0.9067299699
 40
0.9379780398
 40
0.9691548188
 40
1.0
 40
1.0
 40
1.0
 40
1.0
 10
3.9926265982
 20
7.2960690557
 30
0.0
 10
3.9945373761
 20
7.2941575617
 30
0.0
 10
3.9983589228
 20
7.2903356643
 30
0.0
 10
4.0030424394
 20
7.2854612635
 30
0.0
 10
4.0065692647
 20
7.2813641148
 30
0.0
 10
4.008613014
 20
7.278668048
 30
0.0
 10
4.0100513309
 20
7.2763788523
 30
0.0
 10
4.010820906
 20
7.2748703973
 30
0.0
 10
4.0112888005
 20
7.2736010528
 30
0.0
 10
4.0115186692
 20
7.2726114582
 30
0.0
 10
4.0115569986
 20
7.2715950323
 30
0.0
 10
4.0112740816
 20
7.2709332998
 30
0.0
 10
4.0110384387
 20
7.2706976569
 30
0.0
  0
SPLINE
  5
35B
100
AcDbEntity
  8
0
100
AcDbSpline
 62
9
  6
CONTINUOUS
 70
0
 71
3
 72
10
 73
6
 74
0
 42
0.0000001
 43
0.0000001
 44
0.0000000001
 40
0.0
 40
0.0
 40
0.0
 40
0.0
 40
0.2770656813
 40
0.5399771886
 40
1.0
 40
1.0
 40
1.0
 40
1.0
 10
4.4921486536
 20
3.6064170093
 30
0.0
 10
4.4926505458
 20
3.6066732817
 30
0.0
 10
4.4936897214
 20
3.6070497675
 30
0.0
 10
4.4956507463
 20
3.607575516
 30
0.0
 10
4.4971395776
 20
3.6077399943
 30
0.0
 10
4.4980720224
 20
3.6076625132
 30
0.0
  0
LINE
  5
35C
100
AcDbEntity
  8
0
100
AcDbLine
 62
9
  6
CONTINUOUS
 10
4.4924114847
 20
3.6026543508
 11
4.4980718898
 21
3.6076623934
  0
LINE
  5
35D
100
AcDbEntity
  8
0
100
AcDbLine
 62
9
  6
CONTINUOUS
 10
4.498813122
 20
3.6072847956
 11
4.5006742751
 21
3.6058406363
  0
LINE
  5
35E
100
AcDbEntity
  8
0
100
AcDbLine
 62
9
  6
CONTINUOUS
 10
4.5006742751
 20
3.6058406363
 11
4.5015355199
 21
3.6046694014
  0
LINE
  5
35F
100
AcDbEntity
  8
0
100
AcDbLine
 62
9
  6
CONTINUOUS
 10
4.5015355199
 20
3.6046694014
 11
4.502168212
 21
3.6028420826
  0
SPLINE
  5
360
100
AcDbEntity
  8
0
100
AcDbSpline
 62
9
  6
CONTINUOUS
 70
0
 71
3
 72
12
 73
8
 74
0
 42
0.0000001
 43
0.0000001
 44
0.0000000001
 40
0.0
 40
0.0
 40
0.0
 40
0.0
 40
0.0942525716
 40
0.1881735748
 40
0.3145915982
 40
0.6417367114
 40
1.0
 40
1.0
 40
1.0
 40
1.0
 10
4.4861211607
 20
2.9584308636
 30
0.0
 10
4.486069121
 20
2.9581231673
 30
0.0
 10
4.4853171867
 20
2.9578365807
 30
0.0
 10
4.4843580905
 20
2.9576833686
 30
0.0
 10
4.4825110234
 20
2.9575704134
 30
0.0
 10
4.479843601
 20
2.9577209893
 30
0.0
 10
4.4775847067
 20
2.9580085688
 30
0.0
 10
4.4764140007
 20
2.9581996244
 30
0.0
  0
SPLINE
  5
361
100
AcDbEntity
  8
0
100
AcDbSpline
 62
9
  6
CONTINUOUS
 70
0
 71
3
 72
13
 73
9
 74
0
 42
0.0000001
 43
0.0000001
 44
0.0000000001
 40
0.0
 40
0.0
 40
0.0
 40
0.0
 40
0.2482002549
 40
0.4984949828
 40
0.7495500107
 40
0.8749393731
 40
0.9375216895
 40
1.0
 40
1.0
 40
1.0
 40
1.0
 10
4.3995124382
 20
2.9582238005
 30
0.0
 10
4.3906190593
 20
3.0109832956
 30
0.0
 10
4.3763893247
 20
3.1176013817
 30
0.0
 10
4.3665030184
 20
3.279007878
 30
0.0
 10
4.3679669601
 20
3.4142327275
 30
0.0
 10
4.3740949651
 20
3.5086911597
 30
0.0
 10
4.379007858
 20
3.5624587051
 30
0.0
 10
4.3819534718
 20
3.5892577656
 30
0.0
 10
4.3835212664
 20
3.6026344692
 30
0.0
  0
SPLINE
  5
362
100
AcDbEntity
  8
0
100
AcDbSpline
 62
9
  6
CONTINUOUS
 70
0
 71
3
 72
18
 73
14
 74
0
 42
0.0000001
 43
0.0000001
 44
0.0000000001
 40
0.0
 40
0.0
 40
0.0
 40
0.0
 40
0.0057951892
 40
0.0206100243
 40
0.0446948088
 40
0.0779304807
 40
0.1200916689
 40
0.1707035504
 40
0.295115944
 40
0.4464988685
 40
0.6188800967
 40
0.8057820101
 40
1.0
 40
1.0
 40
1.0
 40
1.0
 10
4.3941675489
 20
3.6834545015
 30
0.0
 10
4.3941676304
 20
3.6834283243
 30
0.0
 10
4.3942913081
 20
3.6833972315
 30
0.0
 10
4.3944585852
 20
3.6833581236
 30
0.0
 10
4.3947987177
 20
3.6833157884
 30
0.0
 10
4.3952384839
 20
3.6832705088
 30
0.0
 10
4.3958085508
 20
3.6832236325
 30
0.0
 10
4.396785784
 20
3.6831531512
 30
0.0
 10
4.3982581866
 20
3.6830618542
 30
0.0
 10
4.4002788766
 20
3.6829442001
 30
0.0
 10
4.4025817803
 20
3.682809738
 30
0.0
 10
4.4050772244
 20
3.6826559933
 30
0.0
 10
4.4067951026
 20
3.6825434488
 30
0.0
 10
4.4076703748
 20
3.6824838851
 30
0.0
  0
SPLINE
  5
363
100
AcDbEntity
  8
0
100
AcDbSpline
 62
9
  6
CONTINUOUS
 70
0
 71
3
 72
17
 73
13
 74
0
 42
0.0000001
 43
0.0000001
 44
0.0000000001
 40
0.0
 40
0.0
 40
0.0
 40
0.0
 40
0.1817059248
 40
0.3672478817
 40
0.5459220465
 40
0.7055403001
 40
0.8348552522
 40
0.9278440806
 40
0.959462005
 40
0.9814621251
 40
0.9945489819
 40
1.0
 40
1.0
 40
1.0
 40
1.0
 10
4.4076494491
 20
3.6820016028
 30
0.0
 10
4.4068315464
 20
3.682036076
 30
0.0
 10
4.4051782175
 20
3.6820993669
 30
0.0
 10
4.402719725
 20
3.6821739747
 30
0.0
 10
4.4003604705
 20
3.682222644
 30
0.0
 10
4.3982529287
 20
3.6822422722
 30
0.0
 10
4.3965346204
 20
3.6822294049
 30
0.0
 10
4.3953860127
 20
3.6821919204
 30
0.0
 10
4.3947335882
 20
3.6821447619
 30
0.0
 10
4.3944252258
 20
3.6821030395
 30
0.0
 10
4.394264189
 20
3.6820719291
 30
0.0
 10
4.394166706
 20
3.6820261702
 30
0.0
 10
4.394166728
 20
3.682001612
 30
0.0
  0
LINE
  5
364
100
AcDbEntity
  8
0
100
AcDbLine
 62
9
  6
CONTINUOUS
 10
4.3835212664
 20
3.6026344692
 11
4.383790515
 21
3.6027988812
  0
LINE
  5
365
100
AcDbEntity
  8
0
100
AcDbLine
 62
9
  6
CONTINUOUS
 10
4.4921488722
 20
3.6028061665
 11
4.4924100056
 21
3.602655867
  0
SPLINE
  5
366
100
AcDbEntity
  8
0
100
AcDbSpline
 62
9
  6
CONTINUOUS
 70
0
 71
3
 72
10
 73
6
 74
0
 42
0.0000001
 43
0.0000001
 44
0.0000000001
 40
0.0
 40
0.0
 40
0.0
 40
0.0
 40
0.458482736
 40
0.7219229402
 40
1.0
 40
1.0
 40
1.0
 40
1.0
 10
4.3777491526
 20
3.6076645333
 30
0.0
 10
4.3786950847
 20
3.6077587925
 30
0.0
 10
4.3802140109
 20
3.6076025249
 30
0.0
 10
4.3822148496
 20
3.6070749958
 30
0.0
 10
4.3832785107
 20
3.6066922232
 30
0.0
 10
4.3837914056
 20
3.6064288506
 30
0.0
  0
LINE
  5
367
100
AcDbEntity
  8
0
100
AcDbLine
 62
9
  6
CONTINUOUS
 10
4.38352004
 20
3.6026332483
 11
4.3777492074
 21
3.6076644927
  0
SPLINE
  5
368
100
AcDbEntity
  8
0
100
AcDbSpline
 62
9
  6
CONTINUOUS
 70
0
 71
3
 72
12
 73
8
 74
0
 42
0.0000001
 43
0.0000001
 44
0.0000000001
 40
0.0
 40
0.0
 40
0.0
 40
0.0
 40
0.3582630101
 40
0.6856266788
 40
0.8121708891
 40
0.9061488115
 40
1.0
 40
1.0
 40
1.0
 40
1.0
 10
4.3995124775
 20
2.9582238
 30
0.0
 10
4.3983430644
 20
2.9580328896
 30
0.0
 10
4.3960859417
 20
2.9577442307
 30
0.0
 10
4.3934213154
 20
2.9575897523
 30
0.0
 10
4.391573749
 20
2.9576965546
 30
0.0
 10
4.3906175041
 20
2.9578457903
 30
0.0
 10
4.3898624822
 20
2.9581248116
 30
0.0
 10
4.3898107208
 20
2.9584308621
 30
0.0
  0
SPLINE
  5
369
100
AcDbEntity
  8
0
100
AcDbSpline
 62
9
  6
CONTINUOUS
 70
0
 71
3
 72
13
 73
9
 74
0
 42
0.0000001
 43
0.0000001
 44
0.0000000001
 40
0.0
 40
0.0
 40
0.0
 40
0.0
 40
0.3455572131
 40
0.6690448678
 40
0.7987498526
 40
0.8982792497
 40
0.9645943109
 40
1.0
 40
1.0
 40
1.0
 40
1.0
 10
4.3835200396
 20
3.6026332448
 30
0.0
 10
4.3823995304
 20
3.6027643203
 30
0.0
 10
4.3802259234
 20
3.6029776929
 30
0.0
 10
4.3776188443
 20
3.6031273795
 30
0.0
 10
4.3758169853
 20
3.6031291662
 30
0.0
 10
4.3748466797
 20
3.6030796837
 30
0.0
 10
4.3742074256
 20
3.6029849373
 30
0.0
 10
4.3738718285
 20
3.6028789915
 30
0.0
 10
4.3737909555
 20
3.6027964048
 30
0.0
  0
SPLINE
  5
36A
100
AcDbEntity
  8
0
100
AcDbSpline
 62
9
  6
CONTINUOUS
 70
0
 71
3
 72
9
 73
5
 74
0
 42
0.0000001
 43
0.0000001
 44
0.0000000001
 40
0.0
 40
0.0
 40
0.0
 40
0.0
 40
0.5351960128
 40
1.0
 40
1.0
 40
1.0
 40
1.0
 10
4.3737909555
 20
3.6027964048
 30
0.0
 10
4.3737788842
 20
3.6027840777
 30
0.0
 10
4.3737585823
 20
3.6027583964
 30
0.0
 10
4.373748081
 20
3.6027269992
 30
0.0
 10
4.3737463195
 20
3.6027121191
 30
0.0
  0
SPLINE
  5
36B
100
AcDbEntity
  8
0
100
AcDbSpline
 62
9
  6
CONTINUOUS
 70
0
 71
3
 72
9
 73
5
 74
0
 42
0.0000001
 43
0.0000001
 44
0.0000000001
 40
0.0
 40
0.0
 40
0.0
 40
0.0
 40
0.5596571599
 40
1.0
 40
1.0
 40
1.0
 40
1.0
 10
4.4980716037
 20
3.6076625405
 30
0.0
 10
4.4986970427
 20
3.6076792562
 30
0.0
 10
4.4998502419
 20
3.6075836656
 30
0.0
 10
4.5008024382
 20
3.6068267571
 30
0.0
 10
4.5010378879
 20
3.6063944385
 30
0.0
  0
SPLINE
  5
36C
100
AcDbEntity
  8
0
100
AcDbSpline
 62
9
  6
CONTINUOUS
 70
0
 71
3
 72
9
 73
5
 74
0
 42
0.0000001
 43
0.0000001
 44
0.0000000001
 40
0.0
 40
0.0
 40
0.0
 40
0.0
 40
0.4427477404
 40
1.0
 40
1.0
 40
1.0
 40
1.0
 10
4.3748940213
 20
3.6063944991
 30
0.0
 10
4.3751231352
 20
3.606815169
 30
0.0
 10
4.3760326365
 20
3.6075565977
 30
0.0
 10
4.3771466073
 20
3.607670394
 30
0.0
 10
4.3777494793
 20
3.6076645508
 30
0.0
  0
LINE
  5
36D
100
AcDbEntity
  8
0
100
AcDbLine
 62
9
  6
CONTINUOUS
 10
4.3685027004
 20
3.6935286518
 11
4.3685027009
 21
3.7033712693
  0
SPLINE
  5
36E
100
AcDbEntity
  8
0
100
AcDbSpline
 62
9
  6
CONTINUOUS
 70
0
 71
3
 72
16
 73
12
 74
0
 42
0.0000001
 43
0.0000001
 44
0.0000000001
 40
0.0
 40
0.0
 40
0.0
 40
0.0
 40
0.3797984325
 40
0.5532801162
 40
0.7063823783
 40
0.832175371
 40
0.882992169
 40
0.9248543137
 40
0.957241378
 40
0.9801315985
 40
1.0
 40
1.0
 40
1.0
 40
1.0
 10
4.468674272
 20
3.6760084602
 30
0.0
 10
4.4703667483
 20
3.6754553384
 30
0.0
 10
4.4728245421
 20
3.6746255205
 30
0.0
 10
4.4759602954
 20
3.6735616872
 30
0.0
 10
4.4779750127
 20
3.6728964289
 30
0.0
 10
4.4794503023
 20
3.6724413057
 30
0.0
 10
4.4804430134
 20
3.6721746888
 30
0.0
 10
4.4810056061
 20
3.6720385232
 30
0.0
 10
4.4814757321
 20
3.6719636522
 30
0.0
 10
4.4817752963
 20
3.6719213007
 30
0.0
 10
4.4820835967
 20
3.6719707163
 30
0.0
 10
4.4820777544
 20
3.6720636798
 30
0.0
  0
SPLINE
  5
36F
100
AcDbEntity
  8
0
100
AcDbSpline
 62
9
  6
CONTINUOUS
 70
0
 71
3
 72
13
 73
9
 74
0
 42
0.0000001
 43
0.0000001
 44
0.0000000001
 40
0.0
 40
0.0
 40
0.0
 40
0.0
 40
0.0770912875
 40
0.1615357627
 40
0.2598514874
 40
0.3754020339
 40
0.6604442021
 40
1.0
 40
1.0
 40
1.0
 40
1.0
 10
4.3488911375
 20
3.8112644398
 30
0.0
 10
4.3488935012
 20
3.8118735266
 30
0.0
 10
4.3491392965
 20
3.813158824
 30
0.0
 10
4.3502010647
 20
3.814951711
 30
0.0
 10
4.3519063666
 20
3.8166088305
 30
0.0
 10
4.3552468917
 20
3.8187395914
 30
0.0
 10
4.3608746424
 20
3.820600631
 30
0.0
 10
4.3658198694
 20
3.8211009346
 30
0.0
 10
4.3685026634
 20
3.8211065903
 30
0.0
  0
SPLINE
  5
370
100
AcDbEntity
  8
0
100
AcDbSpline
 62
9
  6
CONTINUOUS
 70
0
 71
3
 72
13
 73
9
 74
0
 42
0.0000001
 43
0.0000001
 44
0.0000000001
 40
0.0
 40
0.0
 40
0.0
 40
0.0
 40
0.3395553655
 40
0.6245978155
 40
0.7401469773
 40
0.8384632196
 40
0.9229113674
 40
1.0
 40
1.0
 40
1.0
 40
1.0
 10
4.3685026633
 20
3.703371305
 30
0.0
 10
4.365819871
 20
3.703376959
 30
0.0
 10
4.3608746392
 20
3.7038772618
 30
0.0
 10
4.3552469051
 20
3.7057383098
 30
0.0
 10
4.351906367
 20
3.7078690499
 30
0.0
 10
4.3502010627
 20
3.7095262017
 30
0.0
 10
4.3491392621
 20
3.7113190741
 30
0.0
 10
4.3488934387
 20
3.7126043942
 30
0.0
 10
4.3488911375
 20
3.7132134606
 30
0.0
  0
LINE
  5
371
100
AcDbEntity
  8
0
100
AcDbLine
 62
9
  6
CONTINUOUS
 10
4.3770225895
 20
3.6072780206
 11
4.3752159178
 21
3.6058275997
  0
LINE
  5
372
100
AcDbEntity
  8
0
100
AcDbLine
 62
9
  6
CONTINUOUS
 10
4.3752159178
 20
3.6058275997
 11
4.3743798692
 21
3.6046592928
  0
LINE
  5
373
100
AcDbEntity
  8
0
100
AcDbLine
 62
9
  6
CONTINUOUS
 10
4.3743798692
 20
3.6046592928
 11
4.3737631998
 21
3.6028403198
  0
SPLINE
  5
374
100
AcDbEntity
  8
0
100
AcDbSpline
 62
9
  6
CONTINUOUS
 70
0
 71
3
 72
11
 73
7
 74
0
 42
0.0000001
 43
0.0000001
 44
0.0000000001
 40
0.0
 40
0.0
 40
0.0
 40
0.0
 40
0.2481661101
 40
0.4984898188
 40
0.7495901988
 40
1.0
 40
1.0
 40
1.0
 40
1.0
 10
4.4764140454
 20
2.9581996171
 30
0.0
 10
4.4852861001
 20
3.0109554913
 30
0.0
 10
4.4994688258
 20
3.1175772863
 30
0.0
 10
4.5093596288
 20
3.2789969751
 30
0.0
 10
4.5076084288
 20
3.4411943289
 30
0.0
 10
4.498718911
 20
3.5490438042
 30
0.0
 10
4.492410197
 20
3.6026542413
 30
0.0
  0
LINE
  5
375
100
AcDbEntity
  8
0
100
AcDbLine
 62
9
  6
CONTINUOUS
 10
4.3685029691
 20
3.8309471132
 11
4.3685027253
 21
3.8211068154
  0
SPLINE
  5
376
100
AcDbEntity
  8
0
100
AcDbSpline
 62
9
  6
CONTINUOUS
 70
0
 71
3
 72
9
 73
5
 74
0
 42
0.0000001
 43
0.0000001
 44
0.0000000001
 40
0.0
 40
0.0
 40
0.0
 40
0.0
 40
0.5395087443
 40
1.0
 40
1.0
 40
1.0
 40
1.0
 10
4.492410198
 20
3.6026542414
 30
0.0
 10
4.4938015968
 20
3.6028169374
 30
0.0
 10
4.4963871027
 20
3.6030554819
 30
0.0
 10
4.4989862406
 20
3.6031656393
 30
0.0
 10
4.5001813365
 20
3.6031275373
 30
0.0
  0
SPLINE
  5
377
100
AcDbEntity
  8
0
100
AcDbSpline
 62
9
  6
CONTINUOUS
 70
0
 71
3
 72
10
 73
6
 74
0
 42
0.0000001
 43
0.0000001
 44
0.0000000001
 40
0.0
 40
0.0
 40
0.0
 40
0.0
 40
0.6704617388
 40
0.8744602031
 40
1.0
 40
1.0
 40
1.0
 40
1.0
 10
4.5001813365
 20
3.6031275373
 30
0.0
 10
4.5006246352
 20
3.6031134041
 30
0.0
 10
4.5012076071
 20
3.6030854032
 30
0.0
 10
4.5018523467
 20
3.6029494196
 30
0.0
 10
4.5020601449
 20
3.6028641046
 30
0.0
 10
4.5021229499
 20
3.6028097689
 30
0.0
  0
LINE
  5
378
100
AcDbEntity
  8
0
100
AcDbLine
 62
9
  6
CONTINUOUS
 10
4.5021229499
 20
3.6028097689
 11
4.5021863215
 21
3.6027057005
  0
SPLINE
  5
379
100
AcDbEntity
  8
0
100
AcDbSpline
 62
9
  6
CONTINUOUS
 70
0
 71
3
 72
9
 73
5
 74
0
 42
0.0000001
 43
0.0000001
 44
0.0000000001
 40
0.0
 40
0.0
 40
0.0
 40
0.0
 40
0.2507490864
 40
1.0
 40
1.0
 40
1.0
 40
1.0
 10
4.4700652206
 20
3.6861257325
 30
0.0
 10
4.4700700382
 20
3.6861247864
 30
0.0
 10
4.4700602339
 20
3.6860953586
 30
0.0
 10
4.4700639742
 20
3.6860817477
 30
0.0
 10
4.4700626157
 20
3.6860671405
 30
0.0
  0
LINE
  5
37A
100
AcDbEntity
  8
0
100
AcDbLine
 62
9
  6
CONTINUOUS
 10
4.4700626157
 20
3.6860671405
 11
4.4686742848
 21
3.6760084021
  0
SPLINE
  5
37B
100
AcDbEntity
  8
0
100
AcDbSpline
 62
7
  6
CONTINUOUS
 70
0
 71
3
 72
11
 73
7
 74
0
 42
0.0000001
 43
0.0000001
 44
0.0000000001
 40
0.0
 40
0.0
 40
0.0
 40
0.0
 40
0.4679544525
 40
0.6299960284
 40
0.7912450798
 40
1.0
 40
1.0
 40
1.0
 40
1.0
 10
5.4057809012
 20
4.637238964
 30
0.0
 10
5.3761958396
 20
4.6362784669
 30
0.0
 10
5.3640718612
 20
4.613895561
 30
0.0
 10
5.349221479
 20
4.5839956244
 30
0.0
 10
5.3332132958
 20
4.5672804732
 30
0.0
 10
5.3175632362
 20
4.5588981902
 30
0.0
 10
5.3074093482
 20
4.5554250523
 30
0.0
  0
SPLINE
  5
37C
100
AcDbEntity
  8
0
100
AcDbSpline
 62
7
  6
CONTINUOUS
 70
0
 71
3
 72
11
 73
7
 74
0
 42
0.0000001
 43
0.0000001
 44
0.0000000001
 40
0.0
 40
0.0
 40
0.0
 40
0.0
 40
0.4679541483
 40
0.6299956266
 40
0.791244581
 40
1.0
 40
1.0
 40
1.0
 40
1.0
 10
5.4057808969
 20
2.8872389641
 30
0.0
 10
5.3761958388
 20
2.8881994627
 30
0.0
 10
5.3640718608
 20
2.9105823678
 30
0.0
 10
5.349221479
 20
2.9404823036
 30
0.0
 10
5.333213277
 20
2.9571974744
 30
0.0
 10
5.3175631834
 20
2.965579766
 30
0.0
 10
5.307409257
 20
2.9690529069
 30
0.0
  0
SPLINE
  5
37D
100
AcDbEntity
  8
0
100
AcDbSpline
 62
9
  6
CONTINUOUS
 70
0
 71
3
 72
12
 73
8
 74
0
 42
0.0000001
 43
0.0000001
 44
0.0000000001
 40
0.0
 40
0.0
 40
0.0
 40
0.0
 40
0.1189237579
 40
0.2093328543
 40
0.3240307089
 40
0.6242195359
 40
1.0
 40
1.0
 40
1.0
 40
1.0
 10
5.2807809012
 20
4.5181738351
 30
0.0
 10
5.2807811302
 20
4.5193359723
 30
0.0
 10
5.2823485113
 20
4.5211576432
 30
0.0
 10
5.2850339567
 20
4.5226938854
 30
0.0
 10
5.2896455967
 20
4.5245857687
 30
0.0
 10
5.2971872333
 20
4.5263263959
 30
0.0
 10
5.303750473
 20
4.5271737556
 30
0.0
 10
5.3074092911
 20
4.5274866381
 30
0.0
  0
SPLINE
  5
37E
100
AcDbEntity
  8
0
100
AcDbSpline
 62
9
  6
CONTINUOUS
 70
0
 71
3
 72
21
 73
17
 74
0
 42
0.0000001
 43
0.0000001
 44
0.0000000001
 40
0.0
 40
0.0
 40
0.0
 40
0.0
 40
0.1266416739
 40
0.248327086
 40
0.366780332
 40
0.4833537232
 40
0.5404444709
 40
0.5961907281
 40
0.650379072
 40
0.7036688993
 40
0.7314199749
 40
0.7617347652
 40
0.796000883
 40
0.8339717012
 40
0.9164798654
 40
1.0
 40
1.0
 40
1.0
 40
1.0
 10
5.3074092931
 20
4.5274866282
 30
0.0
 10
5.3126905985
 20
4.5297924439
 30
0.0
 10
5.3226254981
 20
4.5353993186
 30
0.0
 10
5.3350773184
 20
4.546691469
 30
0.0
 10
5.344736881
 20
4.5598782069
 30
0.0
 10
5.3504710787
 20
4.5719086625
 30
0.0
 10
5.354738989
 20
4.5814298892
 30
0.0
 10
5.3579661195
 20
4.5883164189
 30
0.0
 10
5.3615706753
 20
4.594812385
 30
0.0
 10
5.3655025686
 20
4.5996664891
 30
0.0
 10
5.3697259704
 20
4.6025440142
 30
0.0
 10
5.3736712795
 20
4.6040724088
 30
0.0
 10
5.3782458898
 20
4.605038542
 30
0.0
 10
5.3852191427
 20
4.6060185332
 30
0.0
 10
5.3944340962
 20
4.6071496811
 30
0.0
 10
5.4019811921
 20
4.6076487705
 30
0.0
 10
5.4057809015
 20
4.6077269379
 30
0.0
  0
SPLINE
  5
37F
100
AcDbEntity
  8
0
100
AcDbSpline
 62
9
  6
CONTINUOUS
 70
0
 71
3
 72
21
 73
17
 74
0
 42
0.0000001
 43
0.0000001
 44
0.0000000001
 40
0.0
 40
0.0
 40
0.0
 40
0.0
 40
0.083520119
 40
0.1660282663
 40
0.2039990757
 40
0.2382651922
 40
0.2685799778
 40
0.2963310493
 40
0.3496208671
 40
0.4038091846
 40
0.4595554626
 40
0.5166462089
 40
0.6332197153
 40
0.7516729456
 40
0.873358342
 40
1.0
 40
1.0
 40
1.0
 40
1.0
 10
5.4057809015
 20
2.9167509903
 30
0.0
 10
5.4019811928
 20
2.9168291568
 30
0.0
 10
5.3944340985
 20
2.917328247
 30
0.0
 10
5.385219147
 20
2.9184593952
 30
0.0
 10
5.3782458954
 20
2.9194393855
 30
0.0
 10
5.3736712854
 20
2.9204055176
 30
0.0
 10
5.3697259772
 20
2.9219339122
 30
0.0
 10
5.3655025728
 20
2.9248114324
 30
0.0
 10
5.3615706847
 20
2.929665538
 30
0.0
 10
5.3579661125
 20
2.9361614939
 30
0.0
 10
5.3547390016
 20
2.943048033
 30
0.0
 10
5.350471071
 20
2.9525692569
 30
0.0
 10
5.3447368734
 20
2.9645997165
 30
0.0
 10
5.3350773174
 20
2.9777864642
 30
0.0
 10
5.3226254955
 20
2.9890786102
 30
0.0
 10
5.3126905979
 20
2.9946854847
 30
0.0
 10
5.3074092932
 20
2.9969913
 30
0.0
  0
SPLINE
  5
380
100
AcDbEntity
  8
0
100
AcDbSpline
 62
9
  6
CONTINUOUS
 70
0
 71
3
 72
12
 73
8
 74
0
 42
0.0000001
 43
0.0000001
 44
0.0000000001
 40
0.0
 40
0.0
 40
0.0
 40
0.0
 40
0.1268882243
 40
0.2260890815
 40
0.3514504661
 40
0.662468673
 40
1.0
 40
1.0
 40
1.0
 40
1.0
 10
5.3074092568
 20
2.9690529063
 30
0.0
 10
5.3062386454
 20
2.9694533085
 30
0.0
 10
5.3048566932
 20
2.9716191147
 30
0.0
 10
5.3042243208
 20
2.9749231924
 30
0.0
 10
5.3039490728
 20
2.9801836902
 30
0.0
 10
5.3049141321
 20
2.9876961503
 30
0.0
 10
5.3064456362
 20
2.9938445278
 30
0.0
 10
5.3074092523
 20
2.9969913178
 30
0.0
  0
SPLINE
  5
381
100
AcDbEntity
  8
0
100
AcDbSpline
 62
9
  6
CONTINUOUS
 70
0
 71
3
 72
12
 73
8
 74
0
 42
0.0000001
 43
0.0000001
 44
0.0000000001
 40
0.0
 40
0.0
 40
0.0
 40
0.0
 40
0.3757804946
 40
0.675969298
 40
0.7906671528
 40
0.8810762556
 40
1.0
 40
1.0
 40
1.0
 40
1.0
 10
5.307409291
 20
2.9969912888
 30
0.0
 10
5.3037504726
 20
2.9973041713
 30
0.0
 10
5.2971872329
 20
2.9981515309
 30
0.0
 10
5.2896455963
 20
2.9998921583
 30
0.0
 10
5.2850339566
 20
3.0017840419
 30
0.0
 10
5.2823485115
 20
3.0033202842
 30
0.0
 10
5.28078113
 20
3.0051419549
 30
0.0
 10
5.2807809012
 20
3.0063040919
 30
0.0
  0
SPLINE
  5
382
100
AcDbEntity
  8
0
100
AcDbSpline
 62
9
  6
CONTINUOUS
 70
0
 71
3
 72
12
 73
8
 74
0
 42
0.0000001
 43
0.0000001
 44
0.0000000001
 40
0.0
 40
0.0
 40
0.0
 40
0.0
 40
0.1244825201
 40
0.2220343355
 40
0.3460784172
 40
0.6574781641
 40
1.0
 40
1.0
 40
1.0
 40
1.0
 10
5.3074092428
 20
4.5554250136
 30
0.0
 10
5.3062606787
 20
4.5550321407
 30
0.0
 10
5.3048860624
 20
4.5529250784
 30
0.0
 10
5.3042389614
 20
4.5496723686
 30
0.0
 10
5.3039389026
 20
4.544438805
 30
0.0
 10
5.3048913673
 20
4.5368816746
 30
0.0
 10
5.3064312552
 20
4.5306803659
 30
0.0
 10
5.3074092447
 20
4.5274866312
 30
0.0
  0
SPLINE
  5
383
100
AcDbEntity
  8
0
100
AcDbSpline
 62
9
  6
CONTINUOUS
 70
0
 71
3
 72
12
 73
8
 74
0
 42
0.0000001
 43
0.0000001
 44
0.0000000001
 40
0.0
 40
0.0
 40
0.0
 40
0.0
 40
0.2087001461
 40
0.4479560694
 40
0.5798704188
 40
0.7183967268
 40
1.0
 40
1.0
 40
1.0
 40
1.0
 10
5.2288220135
 20
3.9843880934
 30
0.0
 10
5.2312436897
 20
3.9875787886
 30
0.0
 10
5.2374991197
 20
3.9936709001
 30
0.0
 10
5.247435442
 20
3.99898064
 30
0.0
 10
5.2567907437
 20
4.0019248589
 30
0.0
 10
5.2672642023
 20
4.0036757516
 30
0.0
 10
5.2754471932
 20
4.0034693997
 30
0.0
 10
5.280780908
 20
4.0025952484
 30
0.0
  0
SPLINE
  5
384
100
AcDbEntity
  8
0
100
AcDbSpline
 62
9
  6
CONTINUOUS
 70
0
 71
3
 72
12
 73
8
 74
0
 42
0.0000001
 43
0.0000001
 44
0.0000000001
 40
0.0
 40
0.0
 40
0.0
 40
0.0
 40
0.3525911003
 40
0.671212902
 40
0.7954319512
 40
0.8902254485
 40
1.0
 40
1.0
 40
1.0
 40
1.0
 10
5.2020407437
 20
3.5685117376
 30
0.0
 10
5.2017541639
 20
3.5673911677
 30
0.0
 10
5.2013076765
 20
3.5652301105
 30
0.0
 10
5.2010305306
 20
3.5626339518
 30
0.0
 10
5.2011246866
 20
3.5608519243
 30
0.0
 10
5.2013021318
 20
3.5598234346
 30
0.0
 10
5.2016934801
 20
3.5591173416
 30
0.0
 10
5.2020406738
 20
3.559021787
 30
0.0
  0
SPLINE
  5
385
100
AcDbEntity
  8
0
100
AcDbSpline
 62
9
  6
CONTINUOUS
 70
0
 71
3
 72
11
 73
7
 74
0
 42
0.0000001
 43
0.0000001
 44
0.0000000001
 40
0.0
 40
0.0
 40
0.0
 40
0.0
 40
0.2700587527
 40
0.5238997812
 40
0.7660193748
 40
1.0
 40
1.0
 40
1.0
 40
1.0
 10
5.2020407437
 20
3.5685117376
 30
0.0
 10
5.2051916702
 20
3.5675273445
 30
0.0
 10
5.2109009107
 20
3.5643651478
 30
0.0
 10
5.2179621972
 20
3.558133598
 30
0.0
 10
5.2232197818
 20
3.5508504671
 30
0.0
 10
5.2258257727
 20
3.5456146257
 30
0.0
 10
5.2268603957
 20
3.54294821
 30
0.0
  0
SPLINE
  5
386
100
AcDbEntity
  8
0
100
AcDbSpline
 62
9
  6
CONTINUOUS
 70
0
 71
3
 72
9
 73
5
 74
0
 42
0.0000001
 43
0.0000001
 44
0.0000000001
 40
0.0
 40
0.0
 40
0.0
 40
0.0
 40
0.5427810998
 40
1.0
 40
1.0
 40
1.0
 40
1.0
 10
5.2268604086
 20
3.5429482083
 30
0.0
 10
5.22656059
 20
3.5421955242
 30
0.0
 10
5.2262188078
 20
3.5406961874
 30
0.0
 10
5.2265568787
 20
3.5391822201
 30
0.0
 10
5.2268604014
 20
3.5385709451
 30
0.0
  0
SPLINE
  5
387
100
AcDbEntity
  8
0
100
AcDbSpline
 62
9
  6
CONTINUOUS
 70
0
 71
3
 72
12
 73
8
 74
0
 42
0.0000001
 43
0.0000001
 44
0.0000000001
 40
0.0
 40
0.0
 40
0.0
 40
0.0
 40
0.1129493057
 40
0.2101605452
 40
0.336352993
 40
0.6545367333
 40
1.0
 40
1.0
 40
1.0
 40
1.0
 10
5.2020407437
 20
3.9654561601
 30
0.0
 10
5.2016835725
 20
3.9653579026
 30
0.0
 10
5.2012907633
 20
3.964623129
 30
0.0
 10
5.2011186851
 20
3.9635716681
 30
0.0
 10
5.2010346921
 20
3.9617757142
 30
0.0
 10
5.2013166803
 20
3.9592000554
 30
0.0
 10
5.2017599542
 20
3.9570641533
 30
0.0
 10
5.2020406738
 20
3.9559664636
 30
0.0
  0
LINE
  5
388
100
AcDbEntity
  8
0
100
AcDbLine
 62
9
  6
CONTINUOUS
 10
5.2268603957
 20
3.54294821
 11
5.2291954206
 21
3.5396094481
  0
SPLINE
  5
389
100
AcDbEntity
  8
0
100
AcDbSpline
 62
9
  6
CONTINUOUS
 70
0
 71
3
 72
13
 73
9
 74
0
 42
0.0000001
 43
0.0000001
 44
0.0000000001
 40
0.0
 40
0.0
 40
0.0
 40
0.0
 40
0.2115376979
 40
0.4522382612
 40
0.583950449
 40
0.7211030788
 40
0.8609660031
 40
1.0
 40
1.0
 40
1.0
 40
1.0
 10
5.2291954206
 20
3.5396094481
 30
0.0
 10
5.2316728514
 20
3.5364438192
 30
0.0
 10
5.2380151113
 20
3.5304492614
 30
0.0
 10
5.2479811269
 20
3.5252750547
 30
0.0
 10
5.2572659668
 20
3.5224475689
 30
0.0
 10
5.2649589147
 20
3.5212261719
 30
0.0
 10
5.2728826039
 20
3.5209247713
 30
0.0
 10
5.2781681443
 20
3.5214903732
 30
0.0
 10
5.2807809
 20
3.5218826255
 30
0.0
  0
SPLINE
  5
38A
100
AcDbEntity
  8
0
100
AcDbSpline
 62
9
  6
CONTINUOUS
 70
0
 71
3
 72
21
 73
17
 74
0
 42
0.0000001
 43
0.0000001
 44
0.0000000001
 40
0.0
 40
0.0
 40
0.0
 40
0.0
 40
0.0305911164
 40
0.0612406577
 40
0.1227100159
 40
0.1843985175
 40
0.2462943227
 40
0.4956515258
 40
0.6212386989
 40
0.747250049
 40
0.810374214
 40
0.8735528558
 40
0.9051567404
 40
0.936767046
 40
0.9683829136
 40
1.0
 40
1.0
 40
1.0
 40
1.0
 10
5.2020407437
 20
3.5685117376
 30
0.0
 10
5.1959573054
 20
3.5702117302
 30
0.0
 10
5.1837499379
 20
3.5735111953
 30
0.0
 10
5.1592471515
 20
3.5799611035
 30
0.0
 10
5.1284287763
 20
3.5876371448
 30
0.0
 10
5.0912111903
 20
3.5962985208
 30
0.0
 10
5.0159171962
 20
3.6124490279
 30
0.0
 10
4.9269313769
 20
3.6277080547
 30
0.0
 10
4.8242107296
 20
3.6399869742
 30
0.0
 10
4.7594472244
 20
3.6455167474
 30
0.0
 10
4.7074394413
 20
3.648616024
 30
0.0
 10
4.6748628153
 20
3.6500142491
 30
0.0
 10
4.6487762573
 20
3.6507906929
 30
0.0
 10
4.6291992229
 20
3.6511825964
 30
0.0
 10
4.6096180207
 20
3.6514614927
 30
0.0
 10
4.5965610597
 20
3.6515561561
 30
0.0
 10
4.5900328727
 20
3.6515106175
 30
0.0
  0
SPLINE
  5
38B
100
AcDbEntity
  8
0
100
AcDbSpline
 62
9
  6
CONTINUOUS
 70
0
 71
3
 72
10
 73
6
 74
0
 42
0.0000001
 43
0.0000001
 44
0.0000000001
 40
0.0
 40
0.0
 40
0.0
 40
0.0
 40
0.2663616205
 40
0.5203600961
 40
1.0
 40
1.0
 40
1.0
 40
1.0
 10
5.202041055
 20
3.9559651642
 30
0.0
 10
5.2051148491
 20
3.9570204224
 30
0.0
 10
5.2108395167
 20
3.9599914632
 30
0.0
 10
5.2199942608
 20
3.9681788769
 30
0.0
 10
5.2246978099
 20
3.9760912028
 30
0.0
 10
5.2268608041
 20
3.9815289051
 30
0.0
  0
SPLINE
  5
38C
100
AcDbEntity
  8
0
100
AcDbSpline
 62
9
  6
CONTINUOUS
 70
0
 71
3
 72
9
 73
5
 74
0
 42
0.0000001
 43
0.0000001
 44
0.0000000001
 40
0.0
 40
0.0
 40
0.0
 40
0.0
 40
0.4917761809
 40
1.0
 40
1.0
 40
1.0
 40
1.0
 10
5.2268604086
 20
3.9859069773
 30
0.0
 10
5.226533997
 20
3.9852496115
 30
0.0
 10
5.2262235169
 20
3.9837204355
 30
0.0
 10
5.2265797193
 20
3.9822343683
 30
0.0
 10
5.2268604014
 20
3.9815297217
 30
0.0
  0
SPLINE
  5
38D
100
AcDbEntity
  8
0
100
AcDbSpline
 62
7
  6
CONTINUOUS
 70
0
 71
3
 72
9
 73
5
 74
0
 42
0.0000001
 43
0.0000001
 44
0.0000000001
 40
0.0
 40
0.0
 40
0.0
 40
0.0
 40
0.4658380974
 40
1.0
 40
1.0
 40
1.0
 40
1.0
 10
5.346725786
 20
1.073754709
 30
0.0
 10
5.3373539137
 20
1.0832462338
 30
0.0
 10
5.3238657429
 20
1.0966660911
 30
0.0
 10
5.3011238456
 20
1.1063804466
 30
0.0
 10
5.2893954079
 20
1.1101231941
 30
0.0
  0
SPLINE
  5
38E
100
AcDbEntity
  8
0
100
AcDbSpline
 62
7
  6
CONTINUOUS
 70
0
 71
3
 72
9
 73
5
 74
0
 42
0.0000001
 43
0.0000001
 44
0.0000000001
 40
0.0
 40
0.0
 40
0.0
 40
0.0
 40
0.4658388763
 40
1.0
 40
1.0
 40
1.0
 40
1.0
 10
5.3467258109
 20
1.5294634016
 30
0.0
 10
5.3373539248
 20
1.5199718627
 30
0.0
 10
5.3238657685
 20
1.5065520144
 30
0.0
 10
5.3011239002
 20
1.4968376622
 30
0.0
 10
5.2893954869
 20
1.4930949166
 30
0.0
  0
SPLINE
  5
38F
100
AcDbEntity
  8
0
100
AcDbSpline
 62
7
  6
CONTINUOUS
 70
0
 71
3
 72
9
 73
5
 74
0
 42
0.0000001
 43
0.0000001
 44
0.0000000001
 40
0.0
 40
0.0
 40
0.0
 40
0.0
 40
0.5875612237
 40
1.0
 40
1.0
 40
1.0
 40
1.0
 10
5.287670665
 20
1.4925539246
 30
0.0
 10
5.2080451118
 20
1.4680132824
 30
0.0
 10
5.0720388026
 20
1.4480387808
 30
0.0
 10
4.9481493271
 20
1.4419174943
 30
0.0
 10
4.8974002444
 20
1.441313972
 30
0.0
  0
SPLINE
  5
390
100
AcDbEntity
  8
0
100
AcDbSpline
 62
7
  6
CONTINUOUS
 70
0
 71
3
 72
9
 73
5
 74
0
 42
0.0000001
 43
0.0000001
 44
0.0000000001
 40
0.0
 40
0.0
 40
0.0
 40
0.0
 40
0.3027775499
 40
1.0
 40
1.0
 40
1.0
 40
1.0
 10
4.8597048551
 20
1.4412126308
 30
0.0
 10
4.8479537782
 20
1.4412872923
 30
0.0
 10
4.8091291969
 20
1.4418558229
 30
0.0
 10
4.7700265511
 20
1.4434284523
 30
0.0
 10
4.742639178
 20
1.4448904934
 30
0.0
  0
SPLINE
  5
391
100
AcDbEntity
  8
0
100
AcDbSpline
 62
7
  6
CONTINUOUS
 70
0
 71
3
 72
9
 73
5
 74
0
 42
0.0000001
 43
0.0000001
 44
0.0000000001
 40
0.0
 40
0.0
 40
0.0
 40
0.0
 40
0.2344408326
 40
1.0
 40
1.0
 40
1.0
 40
1.0
 10
4.6139420376
 20
1.4539083273
 30
0.0
 10
4.5982317958
 20
1.4552122619
 30
0.0
 10
4.5310740073
 20
1.4610133188
 30
0.0
 10
4.463328875
 20
1.4674298315
 30
0.0
 10
4.4111916028
 20
1.4714181633
 30
0.0
  0
SPLINE
  5
392
100
AcDbEntity
  8
0
100
AcDbSpline
 62
7
  6
CONTINUOUS
 70
0
 71
3
 72
8
 73
4
 74
0
 42
0.0000001
 43
0.0000001
 44
0.0000000001
 40
0.0
 40
0.0
 40
0.0
 40
0.0
 40
1.0
 40
1.0
 40
1.0
 40
1.0
 10
4.4111916028
 20
1.4714181633
 30
0.0
 10
4.3513281198
 20
1.475997525
 30
0.0
 10
4.2911029302
 20
1.479358888
 30
0.0
 10
4.2306217903
 20
1.4795577547
 30
0.0
  0
SPLINE
  5
393
100
AcDbEntity
  8
0
100
AcDbSpline
 62
7
  6
CONTINUOUS
 70
0
 71
3
 72
8
 73
4
 74
0
 42
0.0000001
 43
0.0000001
 44
0.0000000001
 40
0.0
 40
0.0
 40
0.0
 40
0.0
 40
1.0
 40
1.0
 40
1.0
 40
1.0
 10
4.2493437034
 20
1.4793972066
 30
0.0
 10
4.2963395853
 20
1.478750862
 30
0.0
 10
4.3431740497
 20
1.4763130616
 30
0.0
 10
4.3897973471
 20
1.4729985292
 30
0.0
  0
SPLINE
  5
394
100
AcDbEntity
  8
0
100
AcDbSpline
 62
7
  6
CONTINUOUS
 70
0
 71
3
 72
9
 73
5
 74
0
 42
0.0000001
 43
0.0000001
 44
0.0000000001
 40
0.0
 40
0.0
 40
0.0
 40
0.0
 40
0.8489549536
 40
1.0
 40
1.0
 40
1.0
 40
1.0
 10
4.4327395916
 20
1.4697192868
 30
0.0
 10
4.4776225588
 20
1.4660822346
 30
0.0
 10
4.5302424048
 20
1.461144257
 30
0.0
 10
4.5825072491
 20
1.4565782725
 30
0.0
 10
4.5903932439
 20
1.4558998854
 30
0.0
  0
LINE
  5
395
100
AcDbEntity
  8
0
100
AcDbLine
 62
7
  6
CONTINUOUS
 10
4.8597048607
 20
1.4412126307
 11
4.8629700516
 21
1.4411943976
  0
LINE
  5
396
100
AcDbEntity
  8
0
100
AcDbLine
 62
7
  6
CONTINUOUS
 10
4.8833956342
 20
1.4411958154
 11
4.8866825043
 21
1.4412148933
  0
LINE
  5
397
100
AcDbEntity
  8
0
100
AcDbLine
 62
7
  6
CONTINUOUS
 10
4.8866825043
 20
1.4412148933
 11
4.8879441237
 21
1.4412236201
  0
SPLINE
  5
398
100
AcDbEntity
  8
0
100
AcDbSpline
 62
7
  6
CONTINUOUS
 70
0
 71
3
 72
8
 73
4
 74
0
 42
0.0000001
 43
0.0000001
 44
0.0000000001
 40
0.0
 40
0.0
 40
0.0
 40
0.0
 40
1.0
 40
1.0
 40
1.0
 40
1.0
 10
4.8879441237
 20
1.4412236201
 30
0.0
 10
4.887974221
 20
1.4412238376
 30
0.0
 10
4.8880043184
 20
1.4412240557
 30
0.0
 10
4.8880344159
 20
1.4412242746
 30
0.0
  0
LINE
  5
399
100
AcDbEntity
  8
0
100
AcDbLine
 62
7
  6
CONTINUOUS
 10
4.5468898893
 20
1.2747691374
 11
4.5243007505
 21
1.2801029829
  0
SPLINE
  5
39A
100
AcDbEntity
  8
0
100
AcDbSpline
 62
7
  6
CONTINUOUS
 70
0
 71
3
 72
8
 73
4
 74
0
 42
0.0000001
 43
0.0000001
 44
0.0000000001
 40
0.0
 40
0.0
 40
0.0
 40
0.0
 40
1.0
 40
1.0
 40
1.0
 40
1.0
 10
4.5243007505
 20
1.2801029829
 30
0.0
 10
4.4729970808
 20
1.2922498432
 30
0.0
 10
4.4231645731
 20
1.3042109253
 30
0.0
 10
4.37367666
 20
1.3149597308
 30
0.0
  0
LINE
  5
39B
100
AcDbEntity
  8
0
100
AcDbLine
 62
7
  6
CONTINUOUS
 10
4.3486957734
 20
1.3202816541
 11
4.3531445675
 21
1.3193495108
  0
SPLINE
  5
39C
100
AcDbEntity
  8
0
100
AcDbSpline
 62
7
  6
CONTINUOUS
 70
0
 71
3
 72
8
 73
4
 74
0
 42
0.0000001
 43
0.0000001
 44
0.0000000001
 40
0.0
 40
0.0
 40
0.0
 40
0.0
 40
1.0
 40
1.0
 40
1.0
 40
1.0
 10
4.3531447807
 20
1.319350528
 30
0.0
 10
4.4166192337
 20
1.3059995704
 30
0.0
 10
4.4804049971
 20
1.290413868
 30
0.0
 10
4.5468898893
 20
1.2747691374
 30
0.0
  0
LINE
  5
39D
100
AcDbEntity
  8
0
100
AcDbLine
 62
7
  6
CONTINUOUS
 10
4.0779266217
 20
1.2303534975
 11
4.0461674637
 21
1.2320179245
  0
SPLINE
  5
39E
100
AcDbEntity
  8
0
100
AcDbSpline
 62
9
  6
CONTINUOUS
 70
0
 71
3
 72
13
 73
9
 74
0
 42
0.0000001
 43
0.0000001
 44
0.0000000001
 40
0.0
 40
0.0
 40
0.0
 40
0.0
 40
0.3430190496
 40
0.6647495034
 40
0.7949029487
 40
0.8957164447
 40
0.9638560035
 40
1.0
 40
1.0
 40
1.0
 40
1.0
 10
5.2938715091
 20
1.4743416238
 30
0.0
 10
5.2932073388
 20
1.4764351883
 30
0.0
 10
5.2919700413
 20
1.480507548
 30
0.0
 10
5.2906182867
 20
1.4854182739
 30
0.0
 10
5.2898077559
 20
1.4888602245
 30
0.0
 10
5.2894252109
 20
1.4907438451
 30
0.0
 10
5.2892551343
 20
1.4920345383
 30
0.0
 10
5.2892182107
 20
1.4927200051
 30
0.0
 10
5.2892843118
 20
1.4929417988
 30
0.0
  0
LINE
  5
39F
100
AcDbEntity
  8
0
100
AcDbLine
 62
9
  6
CONTINUOUS
 10
5.2892843118
 20
1.4929417988
 11
5.2893954133
 21
1.4930948413
  0
SPLINE
  5
3A0
100
AcDbEntity
  8
0
100
AcDbSpline
 62
9
  6
CONTINUOUS
 70
0
 71
3
 72
15
 73
11
 74
0
 42
0.0000001
 43
0.0000001
 44
0.0000000001
 40
0.0
 40
0.0
 40
0.0
 40
0.0
 40
0.1250833122
 40
0.2501759663
 40
0.3752600901
 40
0.5003151803
 40
0.6253288977
 40
0.7502966951
 40
0.875183332
 40
1.0
 40
1.0
 40
1.0
 40
1.0
 10
4.8979638584
 20
1.4216305206
 30
0.0
 10
4.9145874482
 20
1.4217623764
 30
0.0
 10
4.9478317293
 20
1.4226325636
 30
0.0
 10
4.9976438998
 20
1.4251818526
 30
0.0
 10
5.0473810136
 20
1.4288868112
 30
0.0
 10
5.0969927401
 20
1.4339294898
 30
0.0
 10
5.1463943295
 20
1.4406242298
 30
0.0
 10
5.195508328
 20
1.4490813365
 30
0.0
 10
5.2441193531
 20
1.459986474
 30
0.0
 10
5.2760874462
 20
1.4689495867
 30
0.0
 10
5.2919687641
 20
1.4737420668
 30
0.0
  0
LINE
  5
3A1
100
AcDbEntity
  8
0
100
AcDbLine
 62
9
  6
CONTINUOUS
 10
3.9057809012
 20
1.4591385092
 11
3.994783579
 21
1.459332306
  0
SPLINE
  5
3A2
100
AcDbEntity
  8
0
100
AcDbSpline
 62
9
  6
CONTINUOUS
 70
0
 71
3
 72
14
 73
10
 74
0
 42
0.0000001
 43
0.0000001
 44
0.0000000001
 40
0.0
 40
0.0
 40
0.0
 40
0.0
 40
0.3671553411
 40
0.5446995617
 40
0.7030376086
 40
0.8314387012
 40
0.9242249105
 40
0.9787221615
 40
1.0
 40
1.0
 40
1.0
 40
1.0
 10
5.2919687645
 20
1.473742067
 30
0.0
 10
5.2912730171
 20
1.476012696
 30
0.0
 10
5.2902823255
 20
1.4793963978
 30
0.0
 10
5.2891117295
 20
1.4837857892
 30
0.0
 10
5.2883945829
 20
1.4867144465
 30
0.0
 10
5.2878818811
 20
1.489082396
 30
0.0
 10
5.287576408
 20
1.490916279
 30
0.0
 10
5.2874914538
 20
1.4918719352
 30
0.0
 10
5.2875391406
 20
1.4925133878
 30
0.0
 10
5.2876706648
 20
1.4925539236
 30
0.0
  0
SPLINE
  5
3A3
100
AcDbEntity
  8
0
100
AcDbSpline
 62
9
  6
CONTINUOUS
 70
0
 71
3
 72
11
 73
7
 74
0
 42
0.0000001
 43
0.0000001
 44
0.0000000001
 40
0.0
 40
0.0
 40
0.0
 40
0.0
 40
0.253165442
 40
0.521385091
 40
0.7771228612
 40
1.0
 40
1.0
 40
1.0
 40
1.0
 10
5.4057809341
 20
1.5206522972
 30
0.0
 10
5.4009138378
 20
1.5222889617
 30
0.0
 10
5.390470356
 20
1.5244674462
 30
0.0
 10
5.3746137925
 20
1.5246267376
 30
0.0
 10
5.3596305254
 20
1.521816694
 30
0.0
 10
5.350589236
 20
1.51797974
 30
0.0
 10
5.3467257908
 20
1.5156325263
 30
0.0
  0
SPLINE
  5
3A4
100
AcDbEntity
  8
0
100
AcDbSpline
 62
9
  6
CONTINUOUS
 70
0
 71
3
 72
11
 73
7
 74
0
 42
0.0000001
 43
0.0000001
 44
0.0000000001
 40
0.0
 40
0.0
 40
0.0
 40
0.0
 40
0.3119683661
 40
0.5839704494
 40
0.8091203598
 40
1.0
 40
1.0
 40
1.0
 40
1.0
 10
5.3467259963
 20
1.5156327424
 30
0.0
 10
5.346044224
 20
1.5169965052
 30
0.0
 10
5.34498817
 20
1.5196711423
 30
0.0
 10
5.344398928
 20
1.5236308189
 30
0.0
 10
5.3449686552
 20
1.5270119542
 30
0.0
 10
5.3460709826
 20
1.5287991974
 30
0.0
 10
5.3467264342
 20
1.5294630207
 30
0.0
  0
SPLINE
  5
3A5
100
AcDbEntity
  8
0
100
AcDbSpline
 62
9
  6
CONTINUOUS
 70
0
 71
3
 72
18
 73
14
 74
0
 42
0.0000001
 43
0.0000001
 44
0.0000000001
 40
0.0
 40
0.0
 40
0.0
 40
0.0
 40
0.1820262165
 40
0.3678808226
 40
0.5468501461
 40
0.7067361496
 40
0.8362697016
 40
0.8876753719
 40
0.9293786203
 40
0.9609806838
 40
0.9828686713
 40
0.9956385229
 40
1.0
 40
1.0
 40
1.0
 40
1.0
 10
4.8979611469
 20
1.4216304501
 30
0.0
 10
4.8979469479
 20
1.4228256755
 30
0.0
 10
4.89791458
 20
1.4252412384
 30
0.0
 10
4.8978552018
 20
1.4288316769
 30
0.0
 10
4.8977851839
 20
1.4322768322
 30
0.0
 10
4.8977085058
 20
1.4353508781
 30
0.0
 10
4.8976390567
 20
1.4375897963
 30
0.0
 10
4.8975799007
 20
1.4390477386
 30
0.0
 10
4.8975436815
 20
1.4398718744
 30
0.0
 10
4.8975012921
 20
1.440480702
 30
0.0
 10
4.897480225
 20
1.4409476685
 30
0.0
 10
4.8974295888
 20
1.4411458707
 30
0.0
 10
4.8974289519
 20
1.4413148204
 30
0.0
 10
4.8974003134
 20
1.4413144827
 30
0.0
  0
SPLINE
  5
3A6
100
AcDbEntity
  8
0
100
AcDbSpline
 62
9
  6
CONTINUOUS
 70
0
 71
3
 72
11
 73
7
 74
0
 42
0.0000001
 43
0.0000001
 44
0.0000000001
 40
0.0
 40
0.0
 40
0.0
 40
0.0
 40
0.2423932423
 40
0.5079086137
 40
0.7681216557
 40
1.0
 40
1.0
 40
1.0
 40
1.0
 10
4.8684078462
 20
1.4177328527
 30
0.0
 10
4.8679048422
 20
1.4204044781
 30
0.0
 10
4.8679732748
 20
1.4262746891
 30
0.0
 10
4.8717024896
 20
1.4343580213
 30
0.0
 10
4.8785328278
 20
1.4399197229
 30
0.0
 10
4.8841128119
 20
1.4411978293
 30
0.0
 10
4.8867133895
 20
1.4412150958
 30
0.0
  0
SPLINE
  5
3A7
100
AcDbEntity
  8
0
100
AcDbSpline
 62
9
  6
CONTINUOUS
 70
0
 71
3
 72
10
 73
6
 74
0
 42
0.0000001
 43
0.0000001
 44
0.0000000001
 40
0.0
 40
0.0
 40
0.0
 40
0.0
 40
0.6206965852
 40
0.8533638166
 40
1.0
 40
1.0
 40
1.0
 40
1.0
 10
4.8979612646
 20
1.4216304528
 30
0.0
 10
4.8918678365
 20
1.4206710121
 30
0.0
 10
4.8834719986
 20
1.4194617934
 30
0.0
 10
4.8736132663
 20
1.418215672
 30
0.0
 10
4.8698622421
 20
1.4178244034
 30
0.0
 10
4.8684078462
 20
1.4177328527
 30
0.0
  0
SPLINE
  5
3A8
100
AcDbEntity
  8
0
100
AcDbSpline
 62
9
  6
CONTINUOUS
 70
0
 71
3
 72
12
 73
8
 74
0
 42
0.0000001
 43
0.0000001
 44
0.0000000001
 40
0.0
 40
0.0
 40
0.0
 40
0.0
 40
0.3276471256
 40
0.6489166476
 40
0.7797722132
 40
0.8813857624
 40
1.0
 40
1.0
 40
1.0
 40
1.0
 10
4.8538545556
 20
1.4196620371
 30
0.0
 10
4.8537987647
 20
1.4222032666
 30
0.0
 10
4.8539806656
 20
1.4272474871
 30
0.0
 10
4.8548654768
 20
1.433241699
 30
0.0
 10
4.8562137462
 20
1.4373733647
 30
0.0
 10
4.857329591
 20
1.4397647045
 30
0.0
 10
4.8587846481
 20
1.4412180308
 30
0.0
 10
4.8597048219
 20
1.4412120713
 30
0.0
  0
LINE
  5
3A9
100
AcDbEntity
  8
0
100
AcDbLine
 62
9
  6
CONTINUOUS
 10
4.9077976281
 20
1.2209901947
 11
4.8797609164
 21
1.2314954644
  0
LINE
  5
3AA
100
AcDbEntity
  8
0
100
AcDbLine
 62
9
  6
CONTINUOUS
 10
4.8538560855
 20
1.4196617691
 11
4.8684064666
 21
1.4177326326
  0
LINE
  5
3AB
100
AcDbEntity
  8
0
100
AcDbLine
 62
9
  6
CONTINUOUS
 10
4.9449117998
 20
1.220576138
 11
4.9406571271
 21
1.2013325183
  0
SPLINE
  5
3AC
100
AcDbEntity
  8
0
100
AcDbSpline
 62
9
  6
CONTINUOUS
 70
0
 71
3
 72
9
 73
5
 74
0
 42
0.0000001
 43
0.0000001
 44
0.0000000001
 40
0.0
 40
0.0
 40
0.0
 40
0.0
 40
0.4019878238
 40
1.0
 40
1.0
 40
1.0
 40
1.0
 10
4.9077995546
 20
1.2209902997
 30
0.0
 10
4.9127690459
 20
1.2207945065
 30
0.0
 10
4.9251422544
 20
1.2206403996
 30
0.0
 10
4.9375132661
 20
1.2205687297
 30
0.0
 10
4.9449117998
 20
1.220576138
 30
0.0
  0
SPLINE
  5
3AD
100
AcDbEntity
  8
0
100
AcDbSpline
 62
9
  6
CONTINUOUS
 70
0
 71
3
 72
11
 73
7
 74
0
 42
0.0000001
 43
0.0000001
 44
0.0000000001
 40
0.0
 40
0.0
 40
0.0
 40
0.0
 40
0.33786903
 40
0.4936092069
 40
0.6344420039
 40
1.0
 40
1.0
 40
1.0
 40
1.0
 10
3.9947837154
 20
1.4593323058
 30
0.0
 10
3.9947788734
 20
1.4618500029
 30
0.0
 10
3.9950454164
 20
1.4655229356
 30
0.0
 10
3.9960694271
 20
1.4701963785
 30
0.0
 10
3.9975274806
 20
1.4747066449
 30
0.0
 10
4.0002117701
 20
1.4790104029
 30
0.0
 10
4.0029357935
 20
1.4790172398
 30
0.0
  0
LINE
  5
3AE
100
AcDbEntity
  8
0
100
AcDbLine
 62
7
  6
CONTINUOUS
 10
3.994783579
 20
1.4593323058
 11
4.0357879106
 21
1.4594143145
  0
LINE
  5
3AF
100
AcDbEntity
  8
0
100
AcDbLine
 62
7
  6
CONTINUOUS
 10
3.9947835583
 20
1.2539931022
 11
4.0357879106
 21
1.2522739478
  0
SPLINE
  5
3B0
100
AcDbEntity
  8
0
100
AcDbSpline
 62
9
  6
CONTINUOUS
 70
0
 71
3
 72
11
 73
7
 74
0
 42
0.0000001
 43
0.0000001
 44
0.0000000001
 40
0.0
 40
0.0
 40
0.0
 40
0.0
 40
0.3385033604
 40
0.4940409499
 40
0.634531285
 40
1.0
 40
1.0
 40
1.0
 40
1.0
 10
3.994786019
 20
1.2539929629
 30
0.0
 10
3.994679231
 20
1.2515181583
 30
0.0
 10
3.9947876279
 20
1.2479002044
 30
0.0
 10
3.9955957831
 20
1.2432721378
 30
0.0
 10
3.9968356355
 20
1.238786117
 30
0.0
 10
3.9992863822
 20
1.2344749018
 30
0.0
 10
4.0019571507
 20
1.2343349068
 30
0.0
  0
SPLINE
  5
3B1
100
AcDbEntity
  8
0
100
AcDbSpline
 62
9
  6
CONTINUOUS
 70
0
 71
3
 72
10
 73
6
 74
0
 42
0.0000001
 43
0.0000001
 44
0.0000000001
 40
0.0
 40
0.0
 40
0.0
 40
0.0
 40
0.4993516051
 40
0.7549884212
 40
1.0
 40
1.0
 40
1.0
 40
1.0
 10
4.9077979416
 20
1.220990071
 30
0.0
 10
4.9083082867
 20
1.2173686694
 30
0.0
 10
4.9106507888
 20
1.2119226793
 30
0.0
 10
4.9163287564
 20
1.2071347664
 30
0.0
 10
4.9198171197
 20
1.2057663397
 30
0.0
 10
4.9215730923
 20
1.2053968161
 30
0.0
  0
SPLINE
  5
3B2
100
AcDbEntity
  8
0
100
AcDbSpline
 62
9
  6
CONTINUOUS
 70
0
 71
3
 72
12
 73
8
 74
0
 42
0.0000001
 43
0.0000001
 44
0.0000000001
 40
0.0
 40
0.0
 40
0.0
 40
0.0
 40
0.3546427267
 40
0.6759352347
 40
0.8018659998
 40
0.8973745192
 40
1.0
 40
1.0
 40
1.0
 40
1.0
 10
4.8797600146
 20
1.2314955556
 30
0.0
 10
4.8793953169
 20
1.2293848415
 30
0.0
 10
4.8788415571
 20
1.2253286552
 30
0.0
 10
4.8785487206
 20
1.2205126593
 30
0.0
 10
4.8787731694
 20
1.2171862158
 30
0.0
 10
4.8790819332
 20
1.2153605473
 30
0.0
 10
4.8796964816
 20
1.2139849326
 30
0.0
 10
4.8803043696
 20
1.2138637834
 30
0.0
  0
SPLINE
  5
3B3
100
AcDbEntity
  8
0
100
AcDbSpline
 62
9
  6
CONTINUOUS
 70
0
 71
3
 72
9
 73
5
 74
0
 42
0.0000001
 43
0.0000001
 44
0.0000000001
 40
0.0
 40
0.0
 40
0.0
 40
0.0
 40
0.2497761389
 40
1.0
 40
1.0
 40
1.0
 40
1.0
 10
4.2305570647
 20
1.4598728212
 30
0.0
 10
4.2454886923
 20
1.4598237249
 30
0.0
 10
4.3052673861
 20
1.4588448984
 30
0.0
 10
4.3649721413
 20
1.4552112483
 30
0.0
 10
4.4096901479
 20
1.4517904678
 30
0.0
  0
SPLINE
  5
3B4
100
AcDbEntity
  8
0
100
AcDbSpline
 62
9
  6
CONTINUOUS
 70
0
 71
3
 72
9
 73
5
 74
0
 42
0.0000001
 43
0.0000001
 44
0.0000000001
 40
0.0
 40
0.0
 40
0.0
 40
0.0
 40
0.2497617289
 40
1.0
 40
1.0
 40
1.0
 40
1.0
 10
4.5514000278
 20
1.2939303614
 30
0.0
 10
4.535250374
 20
1.2977306201
 30
0.0
 10
4.4706260484
 20
1.3130907387
 30
0.0
 10
4.4059650336
 20
1.328356137
 30
0.0
 10
4.3571965571
 20
1.3386138875
 30
0.0
  0
SPLINE
  5
3B5
100
AcDbEntity
  8
0
100
AcDbSpline
 62
9
  6
CONTINUOUS
 70
0
 71
3
 72
9
 73
5
 74
0
 42
0.0000001
 43
0.0000001
 44
0.0000000001
 40
0.0
 40
0.0
 40
0.0
 40
0.0
 40
0.2497586761
 40
1.0
 40
1.0
 40
1.0
 40
1.0
 10
4.4096901332
 20
1.451790275
 30
0.0
 10
4.4265726707
 20
1.4504987303
 30
0.0
 10
4.4941383125
 20
1.444939306
 30
0.0
 10
4.5616270263
 20
1.438497536
 30
0.0
 10
4.6123137823
 20
1.4342905611
 30
0.0
  0
LINE
  5
3B6
100
AcDbEntity
  8
0
100
AcDbLine
 62
9
  6
CONTINUOUS
 10
4.6903575127
 20
1.2670193572
 11
4.692912243
 21
1.2666212337
  0
SPLINE
  5
3B7
100
AcDbEntity
  8
0
100
AcDbSpline
 62
9
  6
CONTINUOUS
 70
0
 71
3
 72
18
 73
14
 74
0
 42
0.0000001
 43
0.0000001
 44
0.0000000001
 40
0.0
 40
0.0
 40
0.0
 40
0.0
 40
0.1825422353
 40
0.3686220277
 40
0.5475666608
 40
0.7072880269
 40
0.8366312625
 40
0.8879532563
 40
0.9295891091
 40
0.9611435087
 40
0.9829965807
 40
0.9957302108
 40
1.0
 40
1.0
 40
1.0
 40
1.0
 10
4.6929121163
 20
1.2666212587
 30
0.0
 10
4.692733681
 20
1.2654449545
 30
0.0
 10
4.6923705036
 20
1.2630699639
 30
0.0
 10
4.6918222589
 20
1.2595435076
 30
0.0
 10
4.6912867467
 20
1.2561652687
 30
0.0
 10
4.6907980352
 20
1.2531551335
 30
0.0
 10
4.6904321533
 20
1.2509649485
 30
0.0
 10
4.6901821842
 20
1.2495408602
 30
0.0
 10
4.6900403271
 20
1.2487354119
 30
0.0
 10
4.6899191757
 20
1.2481437963
 30
0.0
 10
4.6898445403
 20
1.2476845589
 30
0.0
 10
4.6897657029
 20
1.2475008107
 30
0.0
 10
4.6897536749
 20
1.2473304553
 30
0.0
 10
4.6897261465
 20
1.2473345367
 30
0.0
  0
LINE
  5
3B8
100
AcDbEntity
  8
0
100
AcDbLine
 62
9
  6
CONTINUOUS
 10
4.2305570647
 20
1.4598728217
 11
4.2207896864
 21
1.4598750054
  0
LINE
  5
3B9
100
AcDbEntity
  8
0
100
AcDbLine
 62
9
  6
CONTINUOUS
 10
4.706337345
 20
1.4273169424
 11
4.6859495979
 21
1.4286547117
  0
LINE
  5
3BA
100
AcDbEntity
  8
0
100
AcDbLine
 62
9
  6
CONTINUOUS
 10
4.7063373316
 20
1.4273165626
 11
4.7076368669
 21
1.4469443694
  0
SPLINE
  5
3BB
100
AcDbEntity
  8
0
100
AcDbSpline
 62
9
  6
CONTINUOUS
 70
0
 71
3
 72
17
 73
13
 74
0
 42
0.0000001
 43
0.0000001
 44
0.0000000001
 40
0.0
 40
0.0
 40
0.0
 40
0.0
 40
0.1786319447
 40
0.361938786
 40
0.5397285131
 40
0.6998595923
 40
0.8308749927
 40
0.9259899789
 40
0.958547478
 40
0.9812777037
 40
0.9947708847
 40
1.0
 40
1.0
 40
1.0
 40
1.0
 10
4.7409439045
 20
1.4253243258
 30
0.0
 10
4.7410064489
 20
1.4264938503
 30
0.0
 10
4.7411401895
 20
1.4288631004
 30
0.0
 10
4.7413612262
 20
1.4323950969
 30
0.0
 10
4.7416002489
 20
1.4358036122
 30
0.0
 10
4.7418418846
 20
1.4388705106
 30
0.0
 10
4.7420742409
 20
1.4413875305
 30
0.0
 10
4.7422613582
 20
1.4430838298
 30
0.0
 10
4.7424011503
 20
1.4440464461
 30
0.0
 10
4.7424855501
 20
1.4445114215
 30
0.0
 10
4.74254787
 20
1.4447374389
 30
0.0
 10
4.7426050471
 20
1.4448923369
 30
0.0
 10
4.7426392834
 20
1.4448905184
 30
0.0
  0
SPLINE
  5
3BC
100
AcDbEntity
  8
0
100
AcDbSpline
 62
9
  6
CONTINUOUS
 70
0
 71
3
 72
10
 73
6
 74
0
 42
0.0000001
 43
0.0000001
 44
0.0000000001
 40
0.0
 40
0.0
 40
0.0
 40
0.0
 40
0.2436274651
 40
0.4929101486
 40
1.0
 40
1.0
 40
1.0
 40
1.0
 10
4.8797605834
 20
1.2314954275
 30
0.0
 10
4.8646963087
 20
1.234890196
 30
0.0
 10
4.8341564903
 20
1.2414917677
 30
0.0
 10
4.7719330742
 20
1.2535784471
 30
0.0
 10
4.7246691841
 20
1.2616654612
 30
0.0
 10
4.692912177
 20
1.2666208816
 30
0.0
  0
SPLINE
  5
3BD
100
AcDbEntity
  8
0
100
AcDbSpline
 62
9
  6
CONTINUOUS
 70
0
 71
3
 72
11
 73
7
 74
0
 42
0.0000001
 43
0.0000001
 44
0.0000000001
 40
0.0
 40
0.0
 40
0.0
 40
0.0
 40
0.2552892382
 40
0.5077050771
 40
0.7554590434
 40
1.0
 40
1.0
 40
1.0
 40
1.0
 10
4.7409439902
 20
1.4253243212
 30
0.0
 10
4.750550516
 20
1.4248036179
 30
0.0
 10
4.7696562147
 20
1.4237846572
 30
0.0
 10
4.7980858026
 20
1.422265117
 30
0.0
 10
4.8261073042
 20
1.4207459295
 30
0.0
 10
4.8446416678
 20
1.4198273891
 30
0.0
 10
4.8538557596
 20
1.419661993
 30
0.0
  0
SPLINE
  5
3BE
100
AcDbEntity
  8
0
100
AcDbSpline
 62
9
  6
CONTINUOUS
 70
0
 71
3
 72
18
 73
14
 74
0
 42
0.0000001
 43
0.0000001
 44
0.0000000001
 40
0.0
 40
0.0
 40
0.0
 40
0.0
 40
0.1822932184
 40
0.3682127295
 40
0.547112318
 40
0.7068907816
 40
0.8363634425
 40
0.8877599744
 40
0.9294663404
 40
0.961079923
 40
0.9829766272
 40
0.9957344289
 40
1.0
 40
1.0
 40
1.0
 40
1.0
 10
4.6903575131
 20
1.267019357
 30
0.0
 10
4.6901799643
 20
1.2658438951
 30
0.0
 10
4.6898185944
 20
1.2634699838
 30
0.0
 10
4.6892732087
 20
1.2599440849
 30
0.0
 10
4.6887405371
 20
1.2565644569
 30
0.0
 10
4.688254453
 20
1.2535512625
 30
0.0
 10
4.6878907772
 20
1.2513577152
 30
0.0
 10
4.6876423932
 20
1.2499307613
 30
0.0
 10
4.6875016955
 20
1.2491232109
 30
0.0
 10
4.687381187
 20
1.2485301892
 30
0.0
 10
4.6873081329
 20
1.2480690837
 30
0.0
 10
4.6872289028
 20
1.2478855857
 30
0.0
 10
4.6872186759
 20
1.2477139222
 30
0.0
 10
4.6871911702
 20
1.2477180736
 30
0.0
  0
LINE
  5
3BF
100
AcDbEntity
  8
0
100
AcDbLine
 62
7
  6
CONTINUOUS
 10
4.5514000681
 20
1.2939305325
 11
4.5544559119
 21
1.2932143645
  0
SPLINE
  5
3C0
100
AcDbEntity
  8
0
100
AcDbSpline
 62
9
  6
CONTINUOUS
 70
0
 71
3
 72
14
 73
10
 74
0
 42
0.0000001
 43
0.0000001
 44
0.0000000001
 40
0.0
 40
0.0
 40
0.0
 40
0.0
 40
0.3685675745
 40
0.5463291142
 40
0.704535077
 40
0.8325265021
 40
0.9248085031
 40
0.9789005725
 40
1.0
 40
1.0
 40
1.0
 40
1.0
 10
5.2919671886
 20
1.1294708771
 30
0.0
 10
5.2912689911
 20
1.1271920895
 30
0.0
 10
5.2902758022
 20
1.1237990741
 30
0.0
 10
5.289103726
 20
1.1194012745
 30
0.0
 10
5.2883880984
 20
1.1164752348
 30
0.0
 10
5.2878774854
 20
1.1141142168
 30
0.0
 10
5.2875753115
 20
1.1122895006
 30
0.0
 10
5.2874906558
 20
1.1113398784
 30
0.0
 10
5.2875404472
 20
1.1107038864
 30
0.0
 10
5.2876709488
 20
1.1106640724
 30
0.0
  0
SPLINE
  5
3C1
100
AcDbEntity
  8
0
100
AcDbSpline
 62
9
  6
CONTINUOUS
 70
0
 71
3
 72
11
 73
7
 74
0
 42
0.0000001
 43
0.0000001
 44
0.0000000001
 40
0.0
 40
0.0
 40
0.0
 40
0.0
 40
0.2229054888
 40
0.4786762584
 40
0.7468972735
 40
1.0
 40
1.0
 40
1.0
 40
1.0
 10
5.3467257908
 20
1.0875855567
 30
0.0
 10
5.3505957016
 20
1.0852478642
 30
0.0
 10
5.3596286089
 20
1.0813936938
 30
0.0
 10
5.374617648
 20
1.0785940734
 30
0.0
 10
5.3904736941
 20
1.0787465671
 30
0.0
 10
5.4009129517
 20
1.0809356864
 30
0.0
 10
5.4057809341
 20
1.0825657891
 30
0.0
  0
SPLINE
  5
3C2
100
AcDbEntity
  8
0
100
AcDbSpline
 62
9
  6
CONTINUOUS
 70
0
 71
3
 72
11
 73
7
 74
0
 42
0.0000001
 43
0.0000001
 44
0.0000000001
 40
0.0
 40
0.0
 40
0.0
 40
0.0
 40
0.2824534892
 40
0.5490810697
 40
0.7874907636
 40
1.0
 40
1.0
 40
1.0
 40
1.0
 10
5.3467257843
 20
1.0875855698
 30
0.0
 10
5.3461085209
 20
1.086350944
 30
0.0
 10
5.3451075089
 20
1.0838437986
 30
0.0
 10
5.3444152554
 20
1.0800212344
 30
0.0
 10
5.3448300248
 20
1.0764666922
 30
0.0
 10
5.3459961151
 20
1.0744936956
 30
0.0
 10
5.3467257865
 20
1.0737547095
 30
0.0
  0
SPLINE
  5
3C3
100
AcDbEntity
  8
0
100
AcDbSpline
 62
9
  6
CONTINUOUS
 70
0
 71
3
 72
13
 73
9
 74
0
 42
0.0000001
 43
0.0000001
 44
0.0000000001
 40
0.0
 40
0.0
 40
0.0
 40
0.0
 40
0.3431126596
 40
0.6648545828
 40
0.7949841291
 40
0.8957642207
 40
0.9638737623
 40
1.0
 40
1.0
 40
1.0
 40
1.0
 10
5.2938714525
 20
1.1288764719
 30
0.0
 10
5.2932070976
 20
1.126782325
 30
0.0
 10
5.2919696153
 20
1.1227092948
 30
0.0
 10
5.2906177825
 20
1.1177980218
 30
0.0
 10
5.289807403
 20
1.1143563178
 30
0.0
 10
5.2894250463
 20
1.1124732203
 30
0.0
 10
5.2892551038
 20
1.1111830225
 30
0.0
 10
5.2892182674
 20
1.1104978597
 30
0.0
 10
5.2892843629
 20
1.1102761816
 30
0.0
  0
LINE
  5
3C4
100
AcDbEntity
  8
0
100
AcDbLine
 62
9
  6
CONTINUOUS
 10
5.2892843629
 20
1.1102761816
 11
5.2893954869
 21
1.1101231697
  0
SPLINE
  5
3C5
100
AcDbEntity
  8
0
100
AcDbSpline
 62
9
  6
CONTINUOUS
 70
0
 71
3
 72
12
 73
8
 74
0
 42
0.0000001
 43
0.0000001
 44
0.0000000001
 40
0.0
 40
0.0
 40
0.0
 40
0.0
 40
0.219136247
 40
0.3395496853
 40
0.4648383072
 40
0.7215295629
 40
1.0
 40
1.0
 40
1.0
 40
1.0
 10
5.3467255589
 20
1.0875852681
 30
0.0
 10
5.3440722884
 20
1.0918699016
 30
0.0
 10
5.3399198421
 20
1.0984987026
 30
0.0
 10
5.3331600794
 20
1.1068165514
 30
0.0
 10
5.3246254981
 20
1.1146564194
 30
0.0
 10
5.3116201347
 20
1.1227781515
 30
0.0
 10
5.2999947369
 20
1.1270004964
 30
0.0
 10
5.293871389
 20
1.1288761899
 30
0.0
  0
LINE
  5
3C6
100
AcDbEntity
  8
0
100
AcDbLine
 62
9
  6
CONTINUOUS
 10
3.9057809012
 20
1.2580553644
 11
3.994783579
 21
1.2539929615
  0
SPLINE
  5
3C7
100
AcDbEntity
  8
0
100
AcDbSpline
 62
9
  6
CONTINUOUS
 70
0
 71
3
 72
12
 73
8
 74
0
 42
0.0000001
 43
0.0000001
 44
0.0000000001
 40
0.0
 40
0.0
 40
0.0
 40
0.0
 40
0.2784708545
 40
0.5351531626
 40
0.6604509296
 40
0.7808637891
 40
1.0
 40
1.0
 40
1.0
 40
1.0
 10
5.2938713299
 20
1.4743420911
 30
0.0
 10
5.2999946775
 20
1.476217771
 30
0.0
 10
5.3116200724
 20
1.4804397768
 30
0.0
 10
5.3246246997
 20
1.4885624208
 30
0.0
 10
5.3331600328
 20
1.4964014184
 30
0.0
 10
5.3399196687
 20
1.5047196428
 30
0.0
 10
5.344072185
 20
1.5113483306
 30
0.0
 10
5.346725454
 20
1.5156329513
 30
0.0
  0
SPLINE
  5
3C8
100
AcDbEntity
  8
0
100
AcDbSpline
 62
7
  6
CONTINUOUS
 70
0
 71
3
 72
10
 73
6
 74
0
 42
0.0000001
 43
0.0000001
 44
0.0000000001
 40
0.0
 40
0.0
 40
0.0
 40
0.0
 40
0.1881136368
 40
0.7645427427
 40
1.0
 40
1.0
 40
1.0
 40
1.0
 10
5.379456205
 20
7.1727656782
 30
0.0
 10
5.3799525144
 20
7.1723035929
 30
0.0
 10
5.3821153113
 20
7.1705554995
 30
0.0
 10
5.3858415213
 20
7.1688525335
 30
0.0
 10
5.3891851379
 20
7.1685514898
 30
0.0
 10
5.390155735
 20
7.1685527527
 30
0.0
  0
SPLINE
  5
3C9
100
AcDbEntity
  8
0
100
AcDbSpline
 62
7
  6
CONTINUOUS
 70
0
 71
3
 72
10
 73
6
 74
0
 42
0.0000001
 43
0.0000001
 44
0.0000000001
 40
0.0
 40
0.0
 40
0.0
 40
0.0
 40
0.1299729932
 40
0.7860486052
 40
1.0
 40
1.0
 40
1.0
 40
1.0
 10
5.3886603891
 20
7.753522352
 30
0.0
 10
5.3881934395
 20
7.7534784112
 30
0.0
 10
5.3853896707
 20
7.7530849164
 30
0.0
 10
5.3821158165
 20
7.7515886877
 30
0.0
 10
5.3799532815
 20
7.7498409833
 30
0.0
 10
5.3794572783
 20
7.7493792772
 30
0.0
  0
SPLINE
  5
3CA
100
AcDbEntity
  8
0
100
AcDbSpline
 62
7
  6
CONTINUOUS
 70
0
 71
3
 72
10
 73
6
 74
0
 42
0.0000001
 43
0.0000001
 44
0.0000000001
 40
0.0
 40
0.0
 40
0.0
 40
0.0
 40
0.2141860682
 40
0.8706532383
 40
1.0
 40
1.0
 40
1.0
 40
1.0
 10
5.3787475482
 20
7.7486695985
 30
0.0
 10
5.3782855794
 20
7.7481733831
 30
0.0
 10
5.3765376055
 20
7.7460106667
 30
0.0
 10
5.3750422692
 20
7.7427387652
 30
0.0
 10
5.3746484268
 20
7.7399377113
 30
0.0
 10
5.3746044964
 20
7.7394733248
 30
0.0
  0
SPLINE
  5
3CB
100
AcDbEntity
  8
0
100
AcDbSpline
 62
7
  6
CONTINUOUS
 70
0
 71
3
 72
10
 73
6
 74
0
 42
0.0000001
 43
0.0000001
 44
0.0000000001
 40
0.0
 40
0.0
 40
0.0
 40
0.0
 40
0.5932027924
 40
0.8231844599
 40
1.0
 40
1.0
 40
1.0
 40
1.0
 10
4.216218208
 20
7.3281394847
 30
0.0
 10
4.2142093813
 20
7.3280204749
 30
0.0
 10
4.2114174768
 20
7.3278210177
 30
0.0
 10
4.2080734062
 20
7.3272525682
 30
0.0
 10
4.2067375174
 20
7.3268673572
 30
0.0
 10
4.2061911613
 20
7.3266198127
 30
0.0
  0
SPLINE
  5
3CC
100
AcDbEntity
  8
0
100
AcDbSpline
 62
7
  6
CONTINUOUS
 70
0
 71
3
 72
9
 73
5
 74
0
 42
0.0000001
 43
0.0000001
 44
0.0000000001
 40
0.0
 40
0.0
 40
0.0
 40
0.0
 40
0.2570454273
 40
1.0
 40
1.0
 40
1.0
 40
1.0
 10
3.9224622649
 20
7.394083964
 30
0.0
 10
3.9219398841
 20
7.3946101793
 30
0.0
 10
3.9200703925
 20
7.3968151258
 30
0.0
 10
3.9188116202
 20
7.3995197017
 30
0.0
 10
3.9182911006
 20
7.4015986595
 30
0.0
  0
SPLINE
  5
3CD
100
AcDbEntity
  8
0
100
AcDbSpline
 62
7
  6
CONTINUOUS
 70
0
 71
3
 72
9
 73
5
 74
0
 42
0.0000001
 43
0.0000001
 44
0.0000000001
 40
0.0
 40
0.0
 40
0.0
 40
0.0
 40
0.2531903366
 40
1.0
 40
1.0
 40
1.0
 40
1.0
 10
3.9182911006
 20
7.4015986595
 30
0.0
 10
3.9181396164
 20
7.4022036881
 30
0.0
 10
3.9176781298
 20
7.4046270428
 30
0.0
 10
3.9178859909
 20
7.4071654389
 30
0.0
 10
3.9183657159
 20
7.4089414668
 30
0.0
  0
SPLINE
  5
3CE
100
AcDbEntity
  8
0
100
AcDbSpline
 62
7
  6
CONTINUOUS
 70
0
 71
3
 72
9
 73
5
 74
0
 42
0.0000001
 43
0.0000001
 44
0.0000000001
 40
0.0
 40
0.0
 40
0.0
 40
0.0
 40
0.2428316782
 40
1.0
 40
1.0
 40
1.0
 40
1.0
 10
3.9183657159
 20
7.4089414668
 30
0.0
 10
3.9185420948
 20
7.409594453
 30
0.0
 10
3.9194330401
 20
7.4122340521
 30
0.0
 10
3.9209761154
 20
7.4146723394
 30
0.0
 10
3.9224619142
 20
7.41616914
 30
0.0
  0
SPLINE
  5
3CF
100
AcDbEntity
  8
0
100
AcDbSpline
 62
7
  6
CONTINUOUS
 70
0
 71
3
 72
9
 73
5
 74
0
 42
0.0000001
 43
0.0000001
 44
0.0000000001
 40
0.0
 40
0.0
 40
0.0
 40
0.0
 40
0.253190343
 40
1.0
 40
1.0
 40
1.0
 40
1.0
 10
3.9182911011
 20
7.4015986573
 30
0.0
 10
3.9181396167
 20
7.4022036862
 30
0.0
 10
3.9176781297
 20
7.4046270417
 30
0.0
 10
3.9178859908
 20
7.4071654387
 30
0.0
 10
3.918365716
 20
7.4089414673
 30
0.0
  0
SPLINE
  5
3D0
100
AcDbEntity
  8
0
100
AcDbSpline
 62
7
  6
CONTINUOUS
 70
0
 71
3
 72
9
 73
5
 74
0
 42
0.0000001
 43
0.0000001
 44
0.0000000001
 40
0.0
 40
0.0
 40
0.0
 40
0.0
 40
0.2428316794
 40
1.0
 40
1.0
 40
1.0
 40
1.0
 10
3.918365716
 20
7.4089414673
 30
0.0
 10
3.9185420949
 20
7.4095944535
 30
0.0
 10
3.9194330402
 20
7.4122340523
 30
0.0
 10
3.9209761154
 20
7.4146723394
 30
0.0
 10
3.922461914
 20
7.4161691399
 30
0.0
  0
SPLINE
  5
3D1
100
AcDbEntity
  8
0
100
AcDbSpline
 62
7
  6
CONTINUOUS
 70
0
 71
3
 72
9
 73
5
 74
0
 42
0.0000001
 43
0.0000001
 44
0.0000000001
 40
0.0
 40
0.0
 40
0.0
 40
0.0
 40
0.4814742474
 40
1.0
 40
1.0
 40
1.0
 40
1.0
 10
4.0977545347
 20
7.2252526194
 30
0.0
 10
4.0996961799
 20
7.2252526186
 30
0.0
 10
4.1037683598
 20
7.2259979299
 30
0.0
 10
4.1072450961
 20
7.2282838593
 30
0.0
 10
4.1087380617
 20
7.2297479627
 30
0.0
  0
SPLINE
  5
3D2
100
AcDbEntity
  8
0
100
AcDbSpline
 62
7
  6
CONTINUOUS
 70
0
 71
3
 72
9
 73
5
 74
0
 42
0.0000001
 43
0.0000001
 44
0.0000000001
 40
0.0
 40
0.0
 40
0.0
 40
0.0
 40
0.4814453067
 40
1.0
 40
1.0
 40
1.0
 40
1.0
 10
4.0977537189
 20
7.2252526194
 30
0.0
 10
4.0957959582
 20
7.2252526202
 30
0.0
 10
4.0916887631
 20
7.2260102637
 30
0.0
 10
4.0881933072
 20
7.2283346153
 30
0.0
 10
4.0866969031
 20
7.229820292
 30
0.0
  0
SPLINE
  5
3D3
100
AcDbEntity
  8
0
100
AcDbSpline
 62
7
  6
CONTINUOUS
 70
0
 71
3
 72
8
 73
4
 74
0
 42
0.0000001
 43
0.0000001
 44
0.0000000001
 40
0.0
 40
0.0
 40
0.0
 40
0.0
 40
1.0
 40
1.0
 40
1.0
 40
1.0
 10
4.1044566398
 20
7.22674522
 30
0.0
 10
4.1055328087
 20
7.2272503987
 30
0.0
 10
4.1065525967
 20
7.2278927886
 30
0.0
 10
4.1074815465
 20
7.2286346763
 30
0.0
  0
SPLINE
  5
3D4
100
AcDbEntity
  8
0
100
AcDbSpline
 62
7
  6
CONTINUOUS
 70
0
 71
3
 72
8
 73
4
 74
0
 42
0.0000001
 43
0.0000001
 44
0.0000000001
 40
0.0
 40
0.0
 40
0.0
 40
0.0
 40
1.0
 40
1.0
 40
1.0
 40
1.0
 10
4.0909788237
 20
7.2267796332
 30
0.0
 10
4.0899065572
 20
7.2272899942
 30
0.0
 10
4.088891457
 20
7.2279371334
 30
0.0
 10
4.0879670394
 20
7.2286825701
 30
0.0
  0
SPLINE
  5
3D5
100
AcDbEntity
  8
0
100
AcDbSpline
 62
7
  6
CONTINUOUS
 70
0
 71
3
 72
9
 73
5
 74
0
 42
0.0000001
 43
0.0000001
 44
0.0000000001
 40
0.0
 40
0.0
 40
0.0
 40
0.0
 40
0.2278537085
 40
1.0
 40
1.0
 40
1.0
 40
1.0
 10
4.2061911613
 20
7.3266198127
 30
0.0
 10
4.205982276
 20
7.3265251704
 30
0.0
 10
4.2050850859
 20
7.3260623597
 30
0.0
 10
4.2043279615
 20
7.3253744299
 30
0.0
 10
4.2037723115
 20
7.3248311156
 30
0.0
  0
LINE
  5
3D6
100
AcDbEntity
  8
0
100
AcDbLine
 62
7
  6
CONTINUOUS
 10
4.2746012828
 20
7.6020937421
 11
4.3667281119
 21
7.6023880503
  0
LINE
  5
3D7
100
AcDbEntity
  8
0
100
AcDbLine
 62
7
  6
CONTINUOUS
 10
4.3667281119
 20
7.6023880503
 11
4.3802579509
 21
7.6023808083
  0
LINE
  5
3D8
100
AcDbEntity
  8
0
100
AcDbLine
 62
7
  6
CONTINUOUS
 10
3.9224561222
 20
7.41617492
 11
3.9367597011
 21
7.4304790048
  0
LINE
  5
3D9
100
AcDbEntity
  8
0
100
AcDbLine
 62
7
  6
CONTINUOUS
 10
3.9367597011
 20
7.4304790048
 11
4.0397760357
 21
7.5335774894
  0
LINE
  5
3DA
100
AcDbEntity
  8
0
100
AcDbLine
 62
7
  6
CONTINUOUS
 10
4.0437898472
 20
7.5375860605
 11
3.9224561222
 21
7.41617492
  0
SPLINE
  5
3DB
100
AcDbEntity
  8
0
100
AcDbSpline
 62
7
  6
CONTINUOUS
 70
0
 71
3
 72
14
 73
10
 74
0
 42
0.0000001
 43
0.0000001
 44
0.0000000001
 40
0.0
 40
0.0
 40
0.0
 40
0.0
 40
0.1164629408
 40
0.3266069572
 40
0.5367509735
 40
0.7468949899
 40
0.8519669981
 40
0.9570390062
 40
1.0
 40
1.0
 40
1.0
 40
1.0
 10
4.2617929318
 20
7.6020812394
 30
0.0
 10
4.2526752999
 20
7.6020882004
 30
0.0
 10
4.2270947517
 20
7.6022172352
 30
0.0
 10
4.1849744185
 20
7.603363588
 30
0.0
 10
4.1360881797
 20
7.5946287527
 30
0.0
 10
4.0976402879
 20
7.5785044234
 30
0.0
 10
4.0697041431
 20
7.5607544672
 30
0.0
 10
4.0545106662
 20
7.5480087344
 30
0.0
 10
4.0461820036
 20
7.5399510505
 30
0.0
 10
4.0437898472
 20
7.5375860605
 30
0.0
  0
LINE
  5
3DC
100
AcDbEntity
  8
0
100
AcDbLine
 62
7
  6
CONTINUOUS
 10
4.3802597835
 20
7.6023808065
 11
4.2617929318
 21
7.6020812394
  0
SPLINE
  5
3DD
100
AcDbEntity
  8
0
100
AcDbSpline
 62
7
  6
CONTINUOUS
 70
0
 71
3
 72
13
 73
9
 74
0
 42
0.0000001
 43
0.0000001
 44
0.0000000001
 40
0.0
 40
0.0
 40
0.0
 40
0.0
 40
0.1708950322
 40
0.354239668
 40
0.5375843038
 40
0.7209289395
 40
0.9042735753
 40
1.0
 40
1.0
 40
1.0
 40
1.0
 10
4.9175341535
 20
7.6236151294
 30
0.0
 10
4.887140827
 20
7.6195897302
 30
0.0
 10
4.8239827465
 20
7.6124305816
 30
0.0
 10
4.7277794017
 20
7.6053447053
 30
0.0
 10
4.6291355255
 20
7.6022118792
 30
0.0
 10
4.5304558183
 20
7.6021596503
 30
0.0
 10
4.447509429
 20
7.6022459796
 30
0.0
 10
4.3974344482
 20
7.6023644847
 30
0.0
 10
4.3802597835
 20
7.6023808065
 30
0.0
  0
SPLINE
  5
3DE
100
AcDbEntity
  8
0
100
AcDbSpline
 62
7
  6
CONTINUOUS
 70
0
 71
3
 72
10
 73
6
 74
0
 42
0.0000001
 43
0.0000001
 44
0.0000000001
 40
0.0
 40
0.0
 40
0.0
 40
0.0
 40
0.3049183708
 40
0.7455191692
 40
1.0
 40
1.0
 40
1.0
 40
1.0
 10
5.3745309153
 20
7.7289599975
 30
0.0
 10
5.3529223391
 20
7.721801726
 30
0.0
 10
5.299966504
 20
7.7046746475
 30
0.0
 10
5.2280210794
 20
7.6846741564
 30
0.0
 10
5.177630567
 20
7.672268988
 30
0.0
 10
5.159134189
 20
7.6679323302
 30
0.0
  0
SPLINE
  5
3DF
100
AcDbEntity
  8
0
100
AcDbSpline
 62
7
  6
CONTINUOUS
 70
0
 71
3
 72
10
 73
6
 74
0
 42
0.0000001
 43
0.0000001
 44
0.0000000001
 40
0.0
 40
0.0
 40
0.0
 40
0.0
 40
0.1839050769
 40
0.7517026516
 40
1.0
 40
1.0
 40
1.0
 40
1.0
 10
5.1834784275
 20
7.673764919
 30
0.0
 10
5.1938269362
 20
7.6762973614
 30
0.0
 10
5.2360626906
 20
7.6869096866
 30
0.0
 10
5.2918910579
 20
7.7024297113
 30
0.0
 10
5.3369610309
 20
7.7166947197
 30
0.0
 10
5.3506441311
 20
7.7211280211
 30
0.0
  0
LINE
  5
3E0
100
AcDbEntity
  8
0
100
AcDbLine
 62
7
  6
CONTINUOUS
 10
5.1575945947
 20
7.6675718566
 11
5.1591267636
 21
7.6679305893
  0
LINE
  5
3E1
100
AcDbEntity
  8
0
100
AcDbLine
 62
7
  6
CONTINUOUS
 10
4.9175345284
 20
7.623615179
 11
4.9214907056
 21
7.6241424352
  0
LINE
  5
3E2
100
AcDbEntity
  8
0
100
AcDbLine
 62
7
  6
CONTINUOUS
 10
4.9214907056
 20
7.6241424352
 11
4.9259144082
 21
7.6247397834
  0
SPLINE
  5
3E3
100
AcDbEntity
  8
0
100
AcDbSpline
 62
7
  6
CONTINUOUS
 70
0
 71
3
 72
18
 73
14
 74
0
 42
0.0000001
 43
0.0000001
 44
0.0000000001
 40
0.0
 40
0.0
 40
0.0
 40
0.0
 40
0.0161514797
 40
0.0760513749
 40
0.1359512701
 40
0.1958511653
 40
0.2557510605
 40
0.375550851
 40
0.4953506414
 40
0.6151504318
 40
0.7349502223
 40
0.8547500127
 40
1.0
 40
1.0
 40
1.0
 40
1.0
 10
4.2855733131
 20
7.330687547
 30
0.0
 10
4.2901448544
 20
7.3308129445
 30
0.0
 10
4.3116763233
 20
7.3313619118
 30
0.0
 10
4.3501604156
 20
7.3319835157
 30
0.0
 10
4.4010431954
 20
7.3320633445
 30
0.0
 10
4.4519195348
 20
7.3313993517
 30
0.0
 10
4.5197352399
 20
7.3295231798
 30
0.0
 10
4.6044396322
 20
7.325320439
 30
0.0
 10
4.7058942973
 20
7.317309579
 30
0.0
 10
4.8070714516
 20
7.3063375334
 30
0.0
 10
4.9078852526
 20
7.2924153254
 30
0.0
 10
5.0153546906
 20
7.2743542972
 30
0.0
 10
5.0889376412
 20
7.2595438847
 30
0.0
 10
5.1291035008
 20
7.2507100913
 30
0.0
  0
LINE
  5
3E4
100
AcDbEntity
  8
0
100
AcDbLine
 62
7
  6
CONTINUOUS
 10
5.1576930169
 20
7.2442948608
 11
5.1572691016
 21
7.2443918512
  0
LINE
  5
3E5
100
AcDbEntity
  8
0
100
AcDbLine
 62
7
  6
CONTINUOUS
 10
5.1572691016
 20
7.2443918512
 11
5.1556765952
 21
7.2447557076
  0
LINE
  5
3E6
100
AcDbEntity
  8
0
100
AcDbLine
 62
7
  6
CONTINUOUS
 10
5.130614177
 20
7.2503774891
 11
5.1290974817
 21
7.2507114151
  0
LINE
  5
3E7
100
AcDbEntity
  8
0
100
AcDbLine
 62
7
  6
CONTINUOUS
 10
4.5100234787
 20
7.3296073576
 11
4.5065055038
 21
7.3297359674
  0
SPLINE
  5
3E8
100
AcDbEntity
  8
0
100
AcDbSpline
 62
7
  6
CONTINUOUS
 70
0
 71
3
 72
9
 73
5
 74
0
 42
0.0000001
 43
0.0000001
 44
0.0000000001
 40
0.0
 40
0.0
 40
0.0
 40
0.0
 40
0.5018447566
 40
1.0
 40
1.0
 40
1.0
 40
1.0
 10
4.2286173809
 20
7.3286531425
 30
0.0
 10
4.2381360328
 20
7.3290392728
 30
0.0
 10
4.2571244673
 20
7.329819634
 30
0.0
 10
4.2759382422
 20
7.3304181177
 30
0.0
 10
4.285359179
 20
7.3306771404
 30
0.0
  0
LINE
  5
3E9
100
AcDbEntity
  8
0
100
AcDbLine
 62
7
  6
CONTINUOUS
 10
4.1087296468
 20
7.2297565337
 11
4.1261723603
 21
7.2471858643
  0
LINE
  5
3EA
100
AcDbEntity
  8
0
100
AcDbLine
 62
7
  6
CONTINUOUS
 10
4.1998888398
 20
7.3208531619
 11
4.1897758528
 21
7.310785713
  0
SPLINE
  5
3EB
100
AcDbEntity
  8
0
100
AcDbSpline
 62
7
  6
CONTINUOUS
 70
0
 71
3
 72
10
 73
6
 74
0
 42
0.0000001
 43
0.0000001
 44
0.0000000001
 40
0.0
 40
0.0
 40
0.0
 40
0.0
 40
0.3451396293
 40
0.6109366675
 40
1.0
 40
1.0
 40
1.0
 40
1.0
 10
4.2061911613
 20
7.3266198127
 30
0.0
 10
4.2052932894
 20
7.3262130024
 30
0.0
 10
4.2039330847
 20
7.3250492269
 30
0.0
 10
4.2019776984
 20
7.3229858896
 30
0.0
 10
4.2006704228
 20
7.3216430035
 30
0.0
 10
4.1998888398
 20
7.3208531619
 30
0.0
  0
LINE
  5
3EC
100
AcDbEntity
  8
0
100
AcDbLine
 62
7
  6
CONTINUOUS
 10
4.2286171989
 20
7.3286576307
 11
4.216218208
 21
7.3281394847
  0
SPLINE
  5
3ED
100
AcDbEntity
  8
0
100
AcDbSpline
 62
9
  6
CONTINUOUS
 70
0
 71
3
 72
15
 73
11
 74
0
 42
0.0000001
 43
0.0000001
 44
0.0000000001
 40
0.0
 40
0.0
 40
0.0
 40
0.0
 40
0.1254905342
 40
0.2509355527
 40
0.3762858578
 40
0.5014972067
 40
0.6265196217
 40
0.751306041
 40
0.8758128145
 40
1.0
 40
1.0
 40
1.0
 40
1.0
 10
4.380246935
 20
7.5884922827
 30
0.0
 10
4.4027568681
 20
7.5882105376
 30
0.0
 10
4.4477707958
 20
7.5878069924
 30
0.0
 10
4.5152738137
 20
7.587806527
 30
0.0
 10
4.5827224323
 20
7.5885367075
 30
0.0
 10
4.6500898686
 20
7.5895844624
 30
0.0
 10
4.7173429866
 20
7.5915351367
 30
0.0
 10
4.7843786574
 20
7.5956260288
 30
0.0
 10
4.8511116637
 20
7.6016808335
 30
0.0
 10
4.8954126287
 20
7.6070132368
 30
0.0
 10
4.9174896773
 20
7.6099979081
 30
0.0
  0
LINE
  5
3EE
100
AcDbEntity
  8
0
100
AcDbLine
 62
9
  6
CONTINUOUS
 10
4.9174896947
 20
7.6099979131
 11
4.9175342027
 21
7.6236148202
  0
LINE
  5
3EF
100
AcDbEntity
  8
0
100
AcDbLine
 62
9
  6
CONTINUOUS
 10
4.9174886439
 20
7.608202399
 11
4.9174896773
 21
7.6099979108
  0
SPLINE
  5
3F0
100
AcDbEntity
  8
0
100
AcDbSpline
 62
9
  6
CONTINUOUS
 70
0
 71
3
 72
9
 73
5
 74
0
 42
0.0000001
 43
0.0000001
 44
0.0000000001
 40
0.0
 40
0.0
 40
0.0
 40
0.0
 40
0.5013457298
 40
1.0
 40
1.0
 40
1.0
 40
1.0
 10
4.9174896773
 20
7.6099979108
 30
0.0
 10
4.9533595425
 20
7.6148472799
 30
0.0
 10
5.0247401397
 20
7.6258387617
 30
0.0
 10
5.0955453283
 20
7.6400987642
 30
0.0
 10
5.1306751028
 20
7.6479748778
 30
0.0
  0
SPLINE
  5
3F1
100
AcDbEntity
  8
0
100
AcDbSpline
 62
9
  6
CONTINUOUS
 70
0
 71
3
 72
15
 73
11
 74
0
 42
0.0000001
 43
0.0000001
 44
0.0000000001
 40
0.0
 40
0.0
 40
0.0
 40
0.0
 40
0.1254908586
 40
0.2509357801
 40
0.3762865143
 40
0.501498223
 40
0.6265198149
 40
0.7513046759
 40
0.8758114035
 40
1.0
 40
1.0
 40
1.0
 40
1.0
 10
4.3802456178
 20
7.5866779103
 30
0.0
 10
4.4027553981
 20
7.5863755573
 30
0.0
 10
4.4477694619
 20
7.5859552673
 30
0.0
 10
4.5152728635
 20
7.5859751856
 30
0.0
 10
4.5827213736
 20
7.5867433339
 30
0.0
 10
4.6500885587
 20
7.5878102697
 30
0.0
 10
4.717341916
 20
7.5897410109
 30
0.0
 10
4.784378432
 20
7.5938163713
 30
0.0
 10
4.8511115276
 20
7.5998731908
 30
0.0
 10
4.8954121415
 20
7.6052115082
 30
0.0
 10
4.9174891838
 20
7.6081985312
 30
0.0
  0
SPLINE
  5
3F2
100
AcDbEntity
  8
0
100
AcDbSpline
 62
9
  6
CONTINUOUS
 70
0
 71
3
 72
11
 73
7
 74
0
 42
0.0000001
 43
0.0000001
 44
0.0000000001
 40
0.0
 40
0.0
 40
0.0
 40
0.0
 40
0.2499574866
 40
0.499363064
 40
0.7486311079
 40
1.0
 40
1.0
 40
1.0
 40
1.0
 10
4.0547760236
 20
7.5264736841
 30
0.0
 10
4.0679602766
 20
7.5395082112
 30
0.0
 10
4.0978650837
 20
7.5621432483
 30
0.0
 10
4.1501210375
 20
7.5832318353
 30
0.0
 10
4.2060762715
 20
7.587748588
 30
0.0
 10
4.2431364992
 20
7.586469188
 30
0.0
 10
4.2617809596
 20
7.5864549527
 30
0.0
  0
LINE
  5
3F3
100
AcDbEntity
  8
0
100
AcDbLine
 62
9
  6
CONTINUOUS
 10
3.9335020726
 20
7.4051296674
 11
4.0547721906
 21
7.5264775611
  0
LINE
  5
3F4
100
AcDbEntity
  8
0
100
AcDbLine
 62
9
  6
CONTINUOUS
 10
4.0977544192
 20
7.2408773221
 11
3.933504281
 21
7.4051274591
  0
LINE
  5
3F5
100
AcDbEntity
  8
0
100
AcDbLine
 62
9
  6
CONTINUOUS
 10
4.1787094821
 20
7.3218163937
 11
4.0977541248
 21
7.2408776124
  0
LINE
  5
3F6
100
AcDbEntity
  8
0
100
AcDbLine
 62
9
  6
CONTINUOUS
 10
4.1887825754
 20
7.3318432905
 11
4.1787096734
 21
7.321816203
  0
SPLINE
  5
3F7
100
AcDbEntity
  8
0
100
AcDbSpline
 62
9
  6
CONTINUOUS
 70
0
 71
3
 72
9
 73
5
 74
0
 42
0.0000001
 43
0.0000001
 44
0.0000000001
 40
0.0
 40
0.0
 40
0.0
 40
0.0
 40
0.2497210363
 40
1.0
 40
1.0
 40
1.0
 40
1.0
 10
4.1997427356
 20
7.3408521213
 30
0.0
 10
4.1986620025
 20
7.340362459
 30
0.0
 10
4.1945319805
 20
7.337941211
 30
0.0
 10
4.1912897634
 20
7.3343773698
 30
0.0
 10
4.188782376
 20
7.3318434878
 30
0.0
  0
SPLINE
  5
3F8
100
AcDbEntity
  8
0
100
AcDbSpline
 62
9
  6
CONTINUOUS
 70
0
 71
3
 72
9
 73
5
 74
0
 42
0.0000001
 43
0.0000001
 44
0.0000000001
 40
0.0
 40
0.0
 40
0.0
 40
0.0
 40
0.7520912706
 40
1.0
 40
1.0
 40
1.0
 40
1.0
 10
4.2279838681
 20
7.3442697674
 30
0.0
 10
4.2208167856
 20
7.3439790318
 30
0.0
 10
4.2111296998
 20
7.3446216514
 30
0.0
 10
4.2018964013
 20
7.3418278801
 30
0.0
 10
4.1997427473
 20
7.3408520955
 30
0.0
  0
LINE
  5
3F9
100
AcDbEntity
  8
0
100
AcDbLine
 62
9
  6
CONTINUOUS
 10
4.2851449031
 20
7.346306683
 11
4.2279838667
 21
7.3442698003
  0
SPLINE
  5
3FA
100
AcDbEntity
  8
0
100
AcDbSpline
 62
9
  6
CONTINUOUS
 70
0
 71
3
 72
9
 73
5
 74
0
 42
0.0000001
 43
0.0000001
 44
0.0000000001
 40
0.0
 40
0.0
 40
0.0
 40
0.0
 40
0.4981646093
 40
1.0
 40
1.0
 40
1.0
 40
1.0
 10
5.3745309013
 20
7.2022195342
 30
0.0
 10
5.3388020744
 20
7.2129387229
 30
0.0
 10
5.2667848549
 20
7.2334837318
 30
0.0
 10
5.1940686998
 20
7.2514625953
 30
0.0
 10
5.1573803054
 20
7.2595862307
 30
0.0
  0
SPLINE
  5
3FB
100
AcDbEntity
  8
0
100
AcDbSpline
 62
9
  6
CONTINUOUS
 70
0
 71
3
 72
9
 73
5
 74
0
 42
0.0000001
 43
0.0000001
 44
0.0000000001
 40
0.0
 40
0.0
 40
0.0
 40
0.0
 40
0.5013460951
 40
1.0
 40
1.0
 40
1.0
 40
1.0
 10
4.9174886724
 20
7.6082024029
 30
0.0
 10
4.9534066147
 20
7.6130620832
 30
0.0
 10
5.0248827395
 20
7.6240759435
 30
0.0
 10
5.0957811346
 20
7.6383690038
 30
0.0
 10
5.1309565654
 20
7.6462641242
 30
0.0
  0
ENDSEC
  0
SECTION
  2
OBJECTS
  0
DICTIONARY
  5
C
100
AcDbDictionary
280
0
281
1
  3
ACAD_GROUP
350
D
  3
ACAD_MLINESTYLE
350
17
  3
ACAD_LAYOUT
350
1A
  3
ACAD_PLOTSETTINGS
350
19
  3
ACAD_PLOTSTYLENAME
350
E
  0
DICTIONARY
  5
D
102
{ACAD_REACTORS
330
C
102
}
100
AcDbDictionary
280
0
281
1
  0
ACDBDICTIONARYWDFLT
  5
E
102
{ACAD_REACTORS
330
C
102
}
100
AcDbDictionary
281
1
  3
Normal
350
F
100
AcDbDictionaryWithDefault
340
F
  0
DICTIONARY
  5
17
102
{ACAD_REACTORS
330
C
102
}
100
AcDbDictionary
280
0
281
1
  3
Standard
350
18
  0
DICTIONARY
  5
19
102
{ACAD_REACTORS
330
C
102
}
100
AcDbDictionary
281
1
  0
DICTIONARY
  5
1A
102
{ACAD_REACTORS
330
C
102
}
100
AcDbDictionary
281
1
  3
Model
350
3FC
  3
Layout1
350
3FD
  0
ACDBPLACEHOLDER
  5
F
102
{ACAD_REACTORS
330
E
102
}
  0
MLINESTYLE
  5
18
102
{ACAD_REACTORS
330
17
102
}
100
AcDbMlineStyle
  2
STANDARD
 70
0
  3

 62
256
 51
90.0
 52
90.0
 71
2
 49
0.5
 62
256
  6
BYLAYER
 49
-0.5
 62
256
  6
BYLAYER
  0
LAYOUT
  5
3FC
102
{ACAD_REACTORS
330
1A
102
}
100
AcDbPlotSettings
  1

  2
none_device
  4
ANSI_A_(11.00_x_8.50_Inches)
  6

 40
0.0
 41
0.0
 42
0.0
 43
0.0
 44
279.4
 45
215.9
 46
0.0
 47
0.0
 48
0.0
 49
0.0
140
0.0
141
0.0
142
1.0
143
1.0
 70
1024
 72
0
 73
0
 74
0
  7

 75
0
147
1.0
148
0.0
149
0.0
100
AcDbLayout
  1
Model
 70
0
 71
0
 10
0.0
 20
0.0
 11
11.0
 21
8.5
 12
0.0
 22
0.0
 32
0.0
 14
0.0
 24
0.0
 34
0.0
 15
0.0
 25
0.0
 35
0.0
146
0.0
 13
0.0
 23
0.0
 33
0.0
 16
1.0
 26
0.0
 36
0.0
 17
0.0
 27
1.0
 37
0.0
 76
0
330
213
345
0
346
0
  0
LAYOUT
  5
3FD
102
{ACAD_REACTORS
330
1A
102
}
100
AcDbPlotSettings
  1

  2
none_device
  4
ANSI_A_(11.00_x_8.50_Inches)
  6

 40
0.0
 41
0.0
 42
0.0
 43
0.0
 44
279.4
 45
215.9
 46
0.0
 47
0.0
 48
0.0
 49
0.0
140
0.0
141
0.0
142
1.0
143
1.0
 70
0
 72
0
 73
0
 74
0
  7

 75
0
147
1.0
148
0.0
149
0.0
100
AcDbLayout
  1
Layout1
 70
0
 71
1
 10
0.0
 20
0.0
 11
11.0
 21
8.5
 12
0.0
 22
0.0
 32
0.0
 14
0.0
 24
0.0
 34
0.0
 15
0.0
 25
0.0
 35
0.0
146
0.0
 13
0.0
 23
0.0
 33
0.0
 16
1.0
 26
0.0
 36
0.0
 17
0.0
 27
1.0
 37
0.0
 76
0
330
214
345
0
346
0
  0
ENDSEC
  0
EOF
