999
DXF file: 3-8102bp_top.dxf
999
Pro/ENGINEER 2013150 by Parametric Technology Corporation
  0
SECTION
  2
HEADER
  9
$ACADVER
  1
AC1021
  9
$DWGCODEPAGE
  3
ANSI_1252
  9
$EXTMAX
 10
11.0
 20
8.5
 30
0.0
  9
$EXTMIN
 10
0.0
 20
0.0
 30
0.0
  9
$LIMMIN
 10
0.0
 20
0.0
  9
$LIMMAX
 10
11.0
 20
8.5
  9
$VIEWCTR
 10
5.5
 20
4.25
  9
$VIEWSIZE
 40
8.5
  9
$CLAYER
  8
0
  9
$LTSCALE
 40
0.605
  9
$CELTYPE
  6
BYLAYER
  9
$DIMSCALE
 40
1.0
  9
$DIMASZ
 40
0.1
  9
$DIMEXO
 40
0.0625
  9
$DIMDLI
 40
0.418
  9
$DIMEXE
 40
0.125
  9
$DIMCEN
 40
0.099
  9
$DIMLFAC
 40
1.0
  9
$DIMBLK
  1
_FILLED
  9
$DIMTXT
 40
0.08
  9
$DIMTOL
 70
1
  9
$DIMLIM
 70
0
  9
$DIMTFAC
 40
1.0
  9
$DIMTP
 40
0.001
  9
$DIMTM
 40
0.001
  9
$DIMGAP
 40
0.09
  9
$DIMDSEP
 70
46
  9
$PDMODE
 70
3
  9
$PDSIZE
 40
0.06
  9
$HANDSEED
  5
32B
  9
$TILEMODE
 70
1
  9
$MEASUREMENT
 70
0
  9
$INSUNITS
 70
1
  0
ENDSEC
  0
SECTION
  2
CLASSES
  0
CLASS
  1
ACDBDICTIONARYWDFLT
  2
AcDbDictionaryWithDefault
  3
AutoCAD 2000
 90
0
 91
1
280
0
281
0
  0
CLASS
  1
ACDBPLACEHOLDER
  2
AcDbPlaceHolder
  3
AutoCAD 2000
 90
0
 91
1
280
0
281
0
  0
CLASS
  1
LAYOUT
  2
AcDbLayout
  3
AutoCAD 2000
 90
0
 91
0
280
0
281
0
  0
ENDSEC
  0
SECTION
  2
TABLES
  0
TABLE
  2
VPORT
  5
8
100
AcDbSymbolTable
 70
2
  0
VPORT
  5
1F4
100
AcDbSymbolTableRecord
100
AcDbViewportTableRecord
  2
*ACTIVE
 70
0
 10
0.0
 20
0.0
 11
1.0
 21
1.0
 12
5.5
 22
4.25
 13
0.0
 23
0.0
 14
1.0
 24
1.0
 15
0.0
 25
0.0
 16
0.0
 26
0.0
 36
1.0
 17
0.0
 27
0.0
 37
0.0
 40
8.5
 41
1.2941176471
 42
50.0
 43
0.0
 44
0.0
 50
0.0
 51
0.0
 71
0
 72
100
 73
1
 74
1
 75
0
 76
0
 77
0
 78
0
  0
ENDTAB
  0
TABLE
  2
LTYPE
  5
5
100
AcDbSymbolTable
 70
6
  0
LTYPE
  5
14
100
AcDbSymbolTableRecord
100
AcDbLinetypeTableRecord
  2
BYBLOCK
 70
0
  3

 72
65
 73
0
 40
0.0
  0
LTYPE
  5
15
100
AcDbSymbolTableRecord
100
AcDbLinetypeTableRecord
  2
BYLAYER
 70
0
  3

 72
65
 73
0
 40
0.0
  0
LTYPE
  5
16
100
AcDbSymbolTableRecord
100
AcDbLinetypeTableRecord
  2
CONTINUOUS
 70
64
  3
Solid line
 72
65
 73
0
 40
0.0
  0
LTYPE
  5
1F5
100
AcDbSymbolTableRecord
100
AcDbLinetypeTableRecord
  2
CENTER
 70
64
  3
____ _ ____ _ ____ _ ____ _ ____ _ ____ _ ____
 72
65
 73
4
 40
0.6
 49
0.375
 74
0
 49
-0.075
 74
0
 49
0.075
 74
0
 49
-0.075
 74
0
  0
LTYPE
  5
1F6
100
AcDbSymbolTableRecord
100
AcDbLinetypeTableRecord
  2
HIDDEN
 70
64
  3
- - - - - - - - - - - - - - - - - - - -
 72
65
 73
2
 40
0.2
 49
0.1
 74
0
 49
-0.1
 74
0
  0
LTYPE
  5
1F7
100
AcDbSymbolTableRecord
100
AcDbLinetypeTableRecord
  2
PHANTOM
 70
64
  3
_____ _ _ _____ _ _ _____ _ _ _____
 72
65
 73
6
 40
0.8
 49
0.45
 74
0
 49
-0.05
 74
0
 49
0.1
 74
0
 49
-0.05
 74
0
 49
0.1
 74
0
 49
-0.05
 74
0
  0
LTYPE
  5
1F8
100
AcDbSymbolTableRecord
100
AcDbLinetypeTableRecord
  2
DOT
 70
64
  3
. . . . . . . . . . . . . . . . . . . .
 72
65
 73
2
 40
0.2
 49
0.1
 74
0
 49
-0.1
 74
0
  0
LTYPE
  5
1F9
100
AcDbSymbolTableRecord
100
AcDbLinetypeTableRecord
  2
DASHED
 70
64
  3
- - - - - - - - - - - - - - - - - - - -
 72
65
 73
2
 40
0.2
 49
0.1
 74
0
 49
-0.1
 74
0
  0
ENDTAB
  0
TABLE
  2
LAYER
  5
2
100
AcDbSymbolTable
 70
36
  0
LAYER
  5
10
100
AcDbSymbolTableRecord
100
AcDbLayerTableRecord
  2
0
 70
0
 62
7
  6
CONTINUOUS
370
-3
390
F
  0
LAYER
  5
1FA
100
AcDbSymbolTableRecord
100
AcDbLayerTableRecord
  2
DEFAULT_1
 70
0
 62
7
  6
CENTER
370
-3
390
F
  0
LAYER
  5
1FB
100
AcDbSymbolTableRecord
100
AcDbLayerTableRecord
  2
DEFAULT_2
 70
0
 62
8
  6
HIDDEN
370
-3
390
F
  0
LAYER
  5
1FC
100
AcDbSymbolTableRecord
100
AcDbLayerTableRecord
  2
DEFAULT_3
 70
0
 62
7
  6
PHANTOM
370
-3
390
F
  0
LAYER
  5
1FD
100
AcDbSymbolTableRecord
100
AcDbLayerTableRecord
  2
2-217_ASSY_DATUMS
 70
0
 62
7
  6
CONTINUOUS
370
-3
390
F
  0
LAYER
  5
1FE
100
AcDbSymbolTableRecord
100
AcDbLayerTableRecord
  2
ALL_ASSEMBLY_MEMBERS
 70
0
 62
7
  6
CONTINUOUS
370
-3
390
F
  0
LAYER
  5
1FF
100
AcDbSymbolTableRecord
100
AcDbLayerTableRecord
  2
ALL_FEATURES
 70
0
 62
7
  6
CONTINUOUS
370
-3
390
F
  0
LAYER
  5
200
100
AcDbSymbolTableRecord
100
AcDbLayerTableRecord
  2
AXES_FEATURES
 70
0
 62
7
  6
CONTINUOUS
370
-3
390
F
  0
LAYER
  5
201
100
AcDbSymbolTableRecord
100
AcDbLayerTableRecord
  2
CHAMFER_FEATURES
 70
0
 62
7
  6
CONTINUOUS
370
-3
390
F
  0
LAYER
  5
202
100
AcDbSymbolTableRecord
100
AcDbLayerTableRecord
  2
CUT_FEATURES
 70
0
 62
7
  6
CONTINUOUS
370
-3
390
F
  0
LAYER
  5
203
100
AcDbSymbolTableRecord
100
AcDbLayerTableRecord
  2
DATUM_CURVES
 70
0
 62
7
  6
CONTINUOUS
370
-3
390
F
  0
LAYER
  5
204
100
AcDbSymbolTableRecord
100
AcDbLayerTableRecord
  2
DATUM_POINTS
 70
0
 62
7
  6
CONTINUOUS
370
-3
390
F
  0
LAYER
  5
205
100
AcDbSymbolTableRecord
100
AcDbLayerTableRecord
  2
DEFAULT_COORDINATE_SYSTEM
 70
0
 62
7
  6
CONTINUOUS
370
-3
390
F
  0
LAYER
  5
206
100
AcDbSymbolTableRecord
100
AcDbLayerTableRecord
  2
DEFAULT_DATUM_AXES
 70
0
 62
7
  6
CONTINUOUS
370
-3
390
F
  0
LAYER
  5
207
100
AcDbSymbolTableRecord
100
AcDbLayerTableRecord
  2
DEFAULT_DATUM_CURVES
 70
0
 62
7
  6
CONTINUOUS
370
-3
390
F
  0
LAYER
  5
208
100
AcDbSymbolTableRecord
100
AcDbLayerTableRecord
  2
DEFAULT_DATUM_PLANES
 70
0
 62
7
  6
CONTINUOUS
370
-3
390
F
  0
LAYER
  5
209
100
AcDbSymbolTableRecord
100
AcDbLayerTableRecord
  2
DIMENSIONS
 70
0
 62
7
  6
CONTINUOUS
370
-3
390
F
  0
LAYER
  5
20A
100
AcDbSymbolTableRecord
100
AcDbLayerTableRecord
  2
PART_REFERENCE_DIMENSIONS
 70
0
 62
7
  6
CONTINUOUS
370
-3
390
F
  0
LAYER
  5
20B
100
AcDbSymbolTableRecord
100
AcDbLayerTableRecord
  2
PLATED_AREA
 70
0
 62
7
  6
CONTINUOUS
370
-3
390
F
  0
LAYER
  5
20C
100
AcDbSymbolTableRecord
100
AcDbLayerTableRecord
  2
POINTS
 70
0
 62
7
  6
CONTINUOUS
370
-3
390
F
  0
LAYER
  5
20D
100
AcDbSymbolTableRecord
100
AcDbLayerTableRecord
  2
PROTRUSION_FEATURES
 70
0
 62
7
  6
CONTINUOUS
370
-3
390
F
  0
LAYER
  5
20E
100
AcDbSymbolTableRecord
100
AcDbLayerTableRecord
  2
QUILTS
 70
0
 62
7
  6
CONTINUOUS
370
-3
390
F
  0
LAYER
  5
20F
100
AcDbSymbolTableRecord
100
AcDbLayerTableRecord
  2
REFERENCE_DIMENSIONS
 70
0
 62
7
  6
CONTINUOUS
370
-3
390
F
  0
LAYER
  5
210
100
AcDbSymbolTableRecord
100
AcDbLayerTableRecord
  2
ROUND_FEATURES
 70
0
 62
7
  6
CONTINUOUS
370
-3
390
F
  0
ENDTAB
  0
TABLE
  2
STYLE
  5
3
100
AcDbSymbolTable
 70
1
  0
STYLE
  5
11
100
AcDbSymbolTableRecord
100
AcDbTextStyleTableRecord
  2
STANDARD
 70
0
 40
0.0
 41
0.8
 50
0.0
 71
0
 42
0.2
  3
txt
  4

  0
STYLE
  5
211
100
AcDbSymbolTableRecord
100
AcDbTextStyleTableRecord
  2
TEXTSTYLE_1
 70
0
 40
0.0
 41
0.8
 50
0.0
 71
0
 42
0.2
  3
gdt
  4

  0
ENDTAB
  0
TABLE
  2
VIEW
  5
6
100
AcDbSymbolTable
 70
0
  0
ENDTAB
  0
TABLE
  2
UCS
  5
7
100
AcDbSymbolTable
 70
0
  0
ENDTAB
  0
TABLE
  2
APPID
  5
9
100
AcDbSymbolTable
 70
1
  0
APPID
  5
212
100
AcDbSymbolTableRecord
100
AcDbRegAppTableRecord
  2
ACAD
 70
0
  0
ENDTAB
  0
TABLE
  2
BLOCK_RECORD
  5
1
100
AcDbSymbolTable
 70
0
  0
BLOCK_RECORD
  5
213
100
AcDbSymbolTableRecord
100
AcDbBlockTableRecord
  2
*Model_Space
  0
BLOCK_RECORD
  5
214
100
AcDbSymbolTableRecord
100
AcDbBlockTableRecord
  2
*Paper_Space
  0
ENDTAB
  0
TABLE
  2
DIMSTYLE
  5
A
100
AcDbSymbolTable
 70
1
100
AcDbDimStyleTable
 71
0
  0
DIMSTYLE
105
215
100
AcDbSymbolTableRecord
100
AcDbDimStyleTableRecord
  2
STANDARD
 70
0
  3

  4

 40
1.0
 41
0.1
 42
0.0625
 43
0.38
 44
0.125
 45
0.0
 46
0.0
 47
0.001
 48
0.001
140
0.08
141
0.09
142
0.0
143
25.4
144
1.0
145
0.0
146
1.0
147
0.09
 71
1.0
 72
0.0
 73
1
 74
1
 75
0
 76
0
 77
0
 78
4
170
0
171
2
172
0
173
0
174
0
175
0
176
0
177
0
178
0
270
2
271
3
272
3
273
2
274
2
275
0
280
0
281
0
282
0
283
1
284
4
285
0
286
0
287
3
288
0
340
11
278
46
  0
ENDTAB
  0
ENDSEC
  0
SECTION
  2
BLOCKS
  0
BLOCK
  5
20
100
AcDbEntity
  8
0
100
AcDbBlockBegin
  2
*Model_Space
 70
0
 10
0.0
 20
0.0
 30
0.0
  3
*Model_Space
  1

  0
ENDBLK
  5
21
100
AcDbEntity
  8
0
100
AcDbBlockEnd
  0
BLOCK
  5
1C
100
AcDbEntity
  8
0
100
AcDbBlockBegin
  2
*Paper_Space
 70
0
 10
0.0
 20
0.0
 30
0.0
  3
*Paper_Space
  1

  0
ENDBLK
  5
1D
100
AcDbEntity
  8
0
100
AcDbBlockEnd
  0
ENDSEC
  0
SECTION
  2
ENTITIES
  0
LINE
  5
216
100
AcDbEntity
  8
0
100
AcDbLine
 62
7
  6
CONTINUOUS
 10
0.0
 20
0.0
 11
0.0
 21
8.5
  0
LINE
  5
217
100
AcDbEntity
  8
0
100
AcDbLine
 62
7
  6
CONTINUOUS
 10
0.0
 20
0.0
 11
11.0
 21
0.0
  0
LINE
  5
218
100
AcDbEntity
  8
0
100
AcDbLine
 62
7
  6
CONTINUOUS
 10
0.0
 20
8.5
 11
11.0
 21
8.5
  0
LINE
  5
219
100
AcDbEntity
  8
0
100
AcDbLine
 62
7
  6
CONTINUOUS
 10
11.0
 20
0.0
 11
11.0
 21
8.5
  0
LINE
  5
21A
100
AcDbEntity
  8
0
100
AcDbLine
 62
7
  6
CONTINUOUS
 10
5.2938420668
 20
2.9484040497
 11
3.817464114
 21
2.9484040497
  0
LINE
  5
21B
100
AcDbEntity
  8
0
100
AcDbLine
 62
9
  6
CONTINUOUS
 10
3.817464114
 20
2.951286857
 11
5.2938420668
 21
2.951286857
  0
LINE
  5
21C
100
AcDbEntity
  8
0
100
AcDbLine
 62
9
  6
CONTINUOUS
 10
5.2938420668
 20
2.9930451314
 11
3.817464114
 21
2.9930451314
  0
LINE
  5
21D
100
AcDbEntity
  8
0
100
AcDbLine
 62
9
  6
CONTINUOUS
 10
3.817464114
 20
3.0069645563
 11
5.2938420668
 21
3.0069645563
  0
LINE
  5
21E
100
AcDbEntity
  8
0
100
AcDbLine
 62
9
  6
CONTINUOUS
 10
4.5559656844
 20
3.5602618996
 11
4.5556530904
 21
3.5602616931
  0
LINE
  5
21F
100
AcDbEntity
  8
0
100
AcDbLine
 62
9
  6
CONTINUOUS
 10
4.5556523148
 20
3.5741811719
 11
4.5559453279
 21
3.5741811719
  0
LINE
  5
220
100
AcDbEntity
  8
0
100
AcDbLine
 62
7
  6
CONTINUOUS
 10
3.8076215943
 20
2.9582465694
 11
3.8076215943
 21
4.0439617058
  0
LINE
  5
221
100
AcDbEntity
  8
0
100
AcDbLine
 62
9
  6
CONTINUOUS
 10
3.817464114
 20
4.0538042255
 11
3.817464114
 21
2.9484040497
  0
LINE
  5
222
100
AcDbEntity
  8
0
100
AcDbLine
 62
9
  6
CONTINUOUS
 10
4.5556530904
 20
3.6570016957
 11
4.5557206065
 21
3.6570017093
  0
LINE
  5
223
100
AcDbEntity
  8
0
100
AcDbLine
 62
9
  6
CONTINUOUS
 10
4.5557238627
 20
3.7544376844
 11
4.5556530904
 21
3.7544376694
  0
LINE
  5
224
100
AcDbEntity
  8
0
100
AcDbLine
 62
7
  6
CONTINUOUS
 10
4.4506591606
 20
3.7686524887
 11
4.6606685521
 21
3.7686524887
  0
LINE
  5
225
100
AcDbEntity
  8
0
100
AcDbLine
 62
9
  6
CONTINUOUS
 10
4.6606685521
 20
3.7732285941
 11
4.4506591606
 21
3.7732285941
  0
LINE
  5
226
100
AcDbEntity
  8
0
100
AcDbLine
 62
9
  6
CONTINUOUS
 10
5.2938420668
 20
4.0509214183
 11
4.6763108023
 21
4.0509214183
  0
LINE
  5
227
100
AcDbEntity
  8
0
100
AcDbLine
 62
9
  6
CONTINUOUS
 10
4.4350169098
 20
4.0509214183
 11
3.817464114
 21
4.0509214183
  0
LINE
  5
228
100
AcDbEntity
  8
0
100
AcDbLine
 62
7
  6
CONTINUOUS
 10
5.2938420668
 20
4.0538042255
 11
4.676312871
 21
4.0538042255
  0
LINE
  5
229
100
AcDbEntity
  8
0
100
AcDbLine
 62
7
  6
CONTINUOUS
 10
4.4350148438
 20
4.0538042255
 11
3.817464114
 21
4.0538042255
  0
LINE
  5
22A
100
AcDbEntity
  8
0
100
AcDbLine
 62
9
  6
CONTINUOUS
 10
4.6836058463
 20
4.0715130188
 11
4.6763243466
 21
4.0715130188
  0
LINE
  5
22B
100
AcDbEntity
  8
0
100
AcDbLine
 62
9
  6
CONTINUOUS
 10
4.435003363
 20
4.0715130188
 11
4.4277003345
 21
4.0715130188
  0
LINE
  5
22C
100
AcDbEntity
  8
0
100
AcDbLine
 62
7
  6
CONTINUOUS
 10
4.2613539676
 20
5.2409283718
 11
4.2613539676
 21
5.2565533731
  0
LINE
  5
22D
100
AcDbEntity
  8
0
100
AcDbLine
 62
9
  6
CONTINUOUS
 10
4.3083539198
 20
5.2253034176
 11
4.3083539676
 21
5.2565533731
  0
LWPOLYLINE
  5
22E
100
AcDbEntity
  8
0
100
AcDbPolyline
 62
7
  6
CONTINUOUS
 90
17
 70
0
 10
4.7353937318
 20
4.7188250791
 10
4.7371291006
 20
4.7194240889
 10
4.7394381248
 20
4.7204115644
 10
4.7416570221
 20
4.7215868441
 10
4.7437719811
 20
4.7229411733
 10
4.7457706382
 20
4.724467214
 10
4.7476392252
 20
4.7261556508
 10
4.7493646596
 20
4.7279938947
 10
4.7509349788
 20
4.7299698768
 10
4.7523386386
 20
4.7320708653
 10
4.7535666702
 20
4.7342822996
 10
4.7546107072
 20
4.7365889773
 10
4.7554630205
 20
4.7389760484
 10
4.7561180863
 20
4.7414284422
 10
4.7565711298
 20
4.7439300867
 10
4.756817976
 20
4.7464651322
 10
4.756862775
 20
4.7487337364
  0
LINE
  5
22F
100
AcDbEntity
  8
0
100
AcDbLine
 62
9
  6
CONTINUOUS
 10
4.4506591177
 20
4.1125639986
 11
4.4350341596
 21
4.1125520626
  0
LINE
  5
230
100
AcDbEntity
  8
0
100
AcDbLine
 62
9
  6
CONTINUOUS
 10
4.6606666268
 20
4.1125654044
 11
4.676293553
 21
4.1125534743
  0
LWPOLYLINE
  5
231
100
AcDbEntity
  8
0
100
AcDbPolyline
 62
7
  6
CONTINUOUS
 90
8
 70
0
 10
4.4059957898
 20
4.6190978303
 10
4.4061216427
 20
4.6174483294
 10
4.4063784029
 20
4.6137876165
 10
4.406609597
 20
4.6100760787
 10
4.4068164671
 20
4.6063234237
 10
4.4070007155
 20
4.6025312308
 10
4.4071642874
 20
4.5986919431
 10
4.4073084683
 20
4.5948085821
  0
LINE
  5
232
100
AcDbEntity
  8
0
100
AcDbLine
 62
7
  6
CONTINUOUS
 10
4.4073084683
 20
4.5948085821
 11
4.4074344271
 21
4.5908868457
  0
LWPOLYLINE
  5
233
100
AcDbEntity
  8
0
100
AcDbPolyline
 62
7
  6
CONTINUOUS
 90
4
 70
0
 10
4.4074344271
 20
4.5908868457
 10
4.4075436141
 20
4.5869217815
 10
4.4076371882
 20
4.5829141661
 10
4.4077187508
 20
4.5787229996
  0
LINE
  5
234
100
AcDbEntity
  8
0
100
AcDbLine
 62
9
  6
CONTINUOUS
 10
4.4074904313
 20
4.5917164548
 11
4.4076371882
 21
4.5829141661
  0
LWPOLYLINE
  5
235
100
AcDbEntity
  8
0
100
AcDbPolyline
 62
7
  6
CONTINUOUS
 90
17
 70
0
 10
4.3544824053
 20
4.7510973007
 10
4.3545158912
 20
4.7490642359
 10
4.3547443674
 20
4.7465246135
 10
4.3551792161
 20
4.7440160212
 10
4.3558166849
 20
4.7415546512
 10
4.3566519329
 20
4.7391569347
 10
4.3576799416
 20
4.7368377642
 10
4.3588934689
 20
4.7346119937
 10
4.3602837506
 20
4.7324953909
 10
4.3618419972
 20
4.7305027721
 10
4.3635573938
 20
4.728647068
 10
4.365417537
 20
4.7269405007
 10
4.3674092567
 20
4.7253957915
 10
4.3695191607
 20
4.7240229631
 10
4.3717341228
 20
4.7228294135
 10
4.3740398267
 20
4.7218237665
 10
4.3760324575
 20
4.7211306969
  0
LWPOLYLINE
  5
236
100
AcDbEntity
  8
0
100
AcDbPolyline
 62
7
  6
CONTINUOUS
 90
4
 70
0
 10
4.4077170329
 20
4.5788207644
 10
4.4077716431
 20
4.5754697224
 10
4.4078545269
 20
4.5690504377
 10
4.4079123483
 20
4.5628332054
  0
LINE
  5
237
100
AcDbEntity
  8
0
100
AcDbLine
 62
7
  6
CONTINUOUS
 10
4.4079123483
 20
4.5628332054
 11
4.4079517569
 21
4.5568127706
  0
LINE
  5
238
100
AcDbEntity
  8
0
100
AcDbLine
 62
7
  6
CONTINUOUS
 10
4.4079517569
 20
4.5568127706
 11
4.4079936253
 21
4.5456585428
  0
LINE
  5
239
100
AcDbEntity
  8
0
100
AcDbLine
 62
7
  6
CONTINUOUS
 10
4.4079936253
 20
4.5456585428
 11
4.4080117379
 21
4.5320956249
  0
LINE
  5
23A
100
AcDbEntity
  8
0
100
AcDbLine
 62
7
  6
CONTINUOUS
 10
4.4350324805
 20
4.028758411
 11
4.4349952283
 21
4.0921447811
  0
LINE
  5
23B
100
AcDbEntity
  8
0
100
AcDbLine
 62
7
  6
CONTINUOUS
 10
4.3883302557
 20
3.6785768041
 11
4.3883302557
 21
3.5289429873
  0
LINE
  5
23C
100
AcDbEntity
  8
0
100
AcDbLine
 62
7
  6
CONTINUOUS
 10
4.4080152951
 20
4.0538042255
 11
4.4080188158
 21
4.5571097949
  0
LINE
  5
23D
100
AcDbEntity
  8
0
100
AcDbLine
 62
7
  6
CONTINUOUS
 10
4.4168735628
 20
3.6855365166
 11
4.4168735628
 21
3.6743392985
  0
LINE
  5
23E
100
AcDbEntity
  8
0
100
AcDbLine
 62
9
  6
CONTINUOUS
 10
4.4277003345
 20
4.0715130188
 11
4.4277003345
 21
4.0538042255
  0
LINE
  5
23F
100
AcDbEntity
  8
0
100
AcDbLine
 62
9
  6
CONTINUOUS
 10
4.4277003345
 20
4.0813942622
 11
4.4277003345
 21
4.4573719528
  0
LINE
  5
240
100
AcDbEntity
  8
0
100
AcDbLine
 62
7
  6
CONTINUOUS
 10
4.4375428542
 20
3.7757413063
 11
4.4375428542
 21
3.7405182446
  0
LINE
  5
241
100
AcDbEntity
  8
0
100
AcDbLine
 62
9
  6
CONTINUOUS
 10
4.4506591606
 20
3.7686524891
 11
4.4506591173
 21
4.2310304228
  0
LINE
  5
242
100
AcDbEntity
  8
0
100
AcDbLine
 62
7
  6
CONTINUOUS
 10
4.4350530004
 20
3.9055440743
 11
4.4350341596
 21
3.784276754
  0
LINE
  5
243
100
AcDbEntity
  8
0
100
AcDbLine
 62
7
  6
CONTINUOUS
 10
4.4350530004
 20
3.9055440743
 11
4.4349973757
 21
4.1132678423
  0
LINE
  5
244
100
AcDbEntity
  8
0
100
AcDbLine
 62
7
  6
CONTINUOUS
 10
4.4349973757
 20
4.1132678423
 11
4.4350164343
 21
4.1359173753
  0
LINE
  5
245
100
AcDbEntity
  8
0
100
AcDbLine
 62
9
  6
CONTINUOUS
 10
4.4506590819
 20
4.2310326452
 11
4.4350341596
 21
4.2310177956
  0
LINE
  5
246
100
AcDbEntity
  8
0
100
AcDbLine
 62
9
  6
CONTINUOUS
 10
4.6761475562
 20
4.2310193303
 11
4.660668896
 21
4.2310323404
  0
LINE
  5
247
100
AcDbEntity
  8
0
100
AcDbLine
 62
9
  6
CONTINUOUS
 10
4.6762567888
 20
4.2310176993
 11
4.6761475565
 21
4.231019407
  0
LWPOLYLINE
  5
248
100
AcDbEntity
  8
0
100
AcDbPolyline
 62
7
  6
CONTINUOUS
 90
10
 70
0
 10
4.3889405431
 20
4.7079202258
 10
4.3913949741
 20
4.699842179
 10
4.3944200833
 20
4.6893511852
 10
4.3970915868
 20
4.6788504648
 10
4.3994126201
 20
4.6681751557
 10
4.4013997675
 20
4.6573488863
 10
4.4030572336
 20
4.6465250114
 10
4.404410311
 20
4.6357669546
 10
4.4054963597
 20
4.6250419783
 10
4.4059978287
 20
4.6190725284
  0
LINE
  5
249
100
AcDbEntity
  8
0
100
AcDbLine
 62
7
  6
CONTINUOUS
 10
4.6763112784
 20
4.1359173748
 11
4.676331445
 21
4.1107592364
  0
LINE
  5
24A
100
AcDbEntity
  8
0
100
AcDbLine
 62
7
  6
CONTINUOUS
 10
4.6762935531
 20
3.7842767529
 11
4.6762747119
 21
3.9055466907
  0
LINE
  5
24B
100
AcDbEntity
  8
0
100
AcDbLine
 62
9
  6
CONTINUOUS
 10
4.6606685511
 20
4.2310322554
 11
4.6606685521
 21
3.768652494
  0
LINE
  5
24C
100
AcDbEntity
  8
0
100
AcDbLine
 62
7
  6
CONTINUOUS
 10
4.6737633266
 20
3.7756926237
 11
4.6737633266
 21
3.7405182446
  0
LINE
  5
24D
100
AcDbEntity
  8
0
100
AcDbLine
 62
9
  6
CONTINUOUS
 10
4.6836058463
 20
4.456934007
 11
4.6836058463
 21
4.0813942622
  0
LINE
  5
24E
100
AcDbEntity
  8
0
100
AcDbLine
 62
9
  6
CONTINUOUS
 10
4.6836058463
 20
4.0538042255
 11
4.6836058463
 21
4.0715130188
  0
LINE
  5
24F
100
AcDbEntity
  8
0
100
AcDbLine
 62
7
  6
CONTINUOUS
 10
4.6762747119
 20
3.9055466907
 11
4.6763307918
 21
4.1125534892
  0
LINE
  5
250
100
AcDbEntity
  8
0
100
AcDbLine
 62
7
  6
CONTINUOUS
 10
4.6763307913
 20
4.0856377239
 11
4.6763293352
 21
4.0818556888
  0
LINE
  5
251
100
AcDbEntity
  8
0
100
AcDbLine
 62
7
  6
CONTINUOUS
 10
4.6763026065
 20
4.0395548487
 11
4.6762953858
 21
4.0289953289
  0
LWPOLYLINE
  5
252
100
AcDbEntity
  8
0
100
AcDbPolyline
 62
7
  6
CONTINUOUS
 90
11
 70
0
 10
4.7213577212
 20
4.7046120465
 10
4.7220369468
 20
4.7065182122
 10
4.7229259111
 20
4.7084180438
 10
4.7239911655
 20
4.710217395
 10
4.7252222777
 20
4.7119000943
 10
4.7266071021
 20
4.7134516649
 10
4.7281315836
 20
4.7148582293
 10
4.7297810198
 20
4.7161062338
 10
4.7315394644
 20
4.7171851658
 10
4.7333906241
 20
4.7180856005
 10
4.7353941736
 20
4.7188236852
  0
LINE
  5
253
100
AcDbEntity
  8
0
100
AcDbLine
 62
7
  6
CONTINUOUS
 10
4.694432618
 20
3.6855365166
 11
4.694432618
 21
3.6743471671
  0
LINE
  5
254
100
AcDbEntity
  8
0
100
AcDbLine
 62
7
  6
CONTINUOUS
 10
4.703287365
 20
4.5571098169
 11
4.7032908857
 21
4.0538042255
  0
LINE
  5
255
100
AcDbEntity
  8
0
100
AcDbLine
 62
7
  6
CONTINUOUS
 10
4.722975925
 20
3.6785768041
 11
4.722975925
 21
3.5289429873
  0
LINE
  5
256
100
AcDbEntity
  8
0
100
AcDbLine
 62
7
  6
CONTINUOUS
 10
4.7032944429
 20
4.5320956522
 11
4.7033125555
 21
4.5456585557
  0
LINE
  5
257
100
AcDbEntity
  8
0
100
AcDbLine
 62
7
  6
CONTINUOUS
 10
4.7033125555
 20
4.5456585557
 11
4.703354424
 21
4.556812778
  0
LWPOLYLINE
  5
258
100
AcDbEntity
  8
0
100
AcDbPolyline
 62
7
  6
CONTINUOUS
 90
5
 70
0
 10
4.703354424
 20
4.556812778
 10
4.7033938326
 20
4.5628332108
 10
4.7034516539
 20
4.5690504415
 10
4.7035345377
 20
4.575469725
 10
4.7035891479
 20
4.5788207672
  0
LINE
  5
259
100
AcDbEntity
  8
0
100
AcDbLine
 62
9
  6
CONTINUOUS
 10
4.7036705394
 20
4.5829863927
 11
4.7038157495
 21
4.5917164537
  0
LWPOLYLINE
  5
25A
100
AcDbEntity
  8
0
100
AcDbPolyline
 62
7
  6
CONTINUOUS
 90
4
 70
0
 10
4.7035874141
 20
4.5787220955
 10
4.7036705394
 20
4.5829863927
 10
4.7037640365
 20
4.5869796139
 10
4.7038730327
 20
4.590929779
  0
LINE
  5
25B
100
AcDbEntity
  8
0
100
AcDbLine
 62
7
  6
CONTINUOUS
 10
4.7038730327
 20
4.590929779
 11
4.7039986799
 21
4.5948365649
  0
LWPOLYLINE
  5
25C
100
AcDbEntity
  8
0
100
AcDbPolyline
 62
7
  6
CONTINUOUS
 90
7
 70
0
 10
4.7039986799
 20
4.5948365649
 10
4.7041424551
 20
4.5987060558
 10
4.7043055496
 20
4.6025330829
 10
4.7044892284
 20
4.6063140466
 10
4.7046954041
 20
4.6100559442
 10
4.7049257583
 20
4.6137570504
 10
4.7051815336
 20
4.6174078759
  0
LINE
  5
25D
100
AcDbEntity
  8
0
100
AcDbLine
 62
7
  6
CONTINUOUS
 10
4.7051815336
 20
4.6174078759
 11
4.7053301852
 21
4.6193500593
  0
LWPOLYLINE
  5
25E
100
AcDbEntity
  8
0
100
AcDbPolyline
 62
7
  6
CONTINUOUS
 90
10
 70
0
 10
4.7053299301
 20
4.6193457873
 10
4.705742479
 20
4.6242854243
 10
4.7067355026
 20
4.634326363
 10
4.7079726043
 20
4.6444988375
 10
4.7094915264
 20
4.6548232643
 10
4.7113203203
 20
4.6652403798
 10
4.7134733249
 20
4.6756299048
 10
4.7159842162
 20
4.6859740881
 10
4.7188844416
 20
4.696362547
 10
4.7213579105
 20
4.7046119008
  0
LWPOLYLINE
  5
25F
100
AcDbEntity
  8
0
100
AcDbPolyline
 62
7
  6
CONTINUOUS
 90
11
 70
0
 10
4.3760322515
 20
4.7211300295
 10
4.3775812385
 20
4.720575446
 10
4.3792947786
 20
4.7197748586
 10
4.38093458
 20
4.7187987142
 10
4.3824828536
 20
4.7176539883
 10
4.3839191781
 20
4.7163518445
 10
4.3852279415
 20
4.7149040441
 10
4.3863968926
 20
4.7133221294
 10
4.3874125269
 20
4.7116202108
 10
4.3882639711
 20
4.7098136176
 10
4.3889404331
 20
4.7079208504
  0
LINE
  5
260
100
AcDbEntity
  8
0
100
AcDbLine
 62
9
  6
CONTINUOUS
 10
4.8029737449
 20
5.2565533731
 11
4.8029737798
 21
5.2253034176
  0
LINE
  5
261
100
AcDbEntity
  8
0
100
AcDbLine
 62
7
  6
CONTINUOUS
 10
4.8499730751
 20
5.2565533731
 11
4.8499730751
 21
5.2409283754
  0
LINE
  5
262
100
AcDbEntity
  8
0
100
AcDbLine
 62
9
  6
CONTINUOUS
 10
4.7177769989
 20
4.7682621666
 11
4.7023486853
 21
4.7683066747
  0
LINE
  5
263
100
AcDbEntity
  8
0
100
AcDbLine
 62
9
  6
CONTINUOUS
 10
4.7178805896
 20
4.7682611158
 11
4.7177769962
 21
4.7682621492
  0
LINE
  5
264
100
AcDbEntity
  8
0
100
AcDbLine
 62
9
  6
CONTINUOUS
 10
5.2938420668
 20
2.9484040497
 11
5.2938420668
 21
4.0538042255
  0
LINE
  5
265
100
AcDbEntity
  8
0
100
AcDbLine
 62
7
  6
CONTINUOUS
 10
5.3036845865
 20
4.0439617058
 11
5.3036845865
 21
2.9582465694
  0
LINE
  5
266
100
AcDbEntity
  8
0
100
AcDbLine
 62
7
  6
CONTINUOUS
 10
5.3115879516
 20
5.1315533731
 11
4.7946619394
 21
5.1315533731
  0
LINE
  5
267
100
AcDbEntity
  8
0
100
AcDbLine
 62
7
  6
CONTINUOUS
 10
4.3167772363
 20
5.1315533731
 11
3.7997182292
 21
5.1315533731
  0
LINE
  5
268
100
AcDbEntity
  8
0
100
AcDbLine
 62
9
  6
CONTINUOUS
 10
5.3209007873
 20
5.1581818201
 11
4.801859996
 21
5.1581818201
  0
LINE
  5
269
100
AcDbEntity
  8
0
100
AcDbLine
 62
9
  6
CONTINUOUS
 10
4.3095383832
 20
5.1581818201
 11
3.7904054125
 21
5.1581818201
  0
LINE
  5
26A
100
AcDbEntity
  8
0
100
AcDbLine
 62
7
  6
CONTINUOUS
 10
4.2769789671
 20
5.2253033731
 11
4.8343487456
 21
5.2253033731
  0
LINE
  5
26B
100
AcDbEntity
  8
0
100
AcDbLine
 62
9
  6
CONTINUOUS
 10
4.8029737452
 20
5.2298680308
 11
4.3083539693
 21
5.2298680308
  0
LINE
  5
26C
100
AcDbEntity
  8
0
100
AcDbLine
 62
9
  6
CONTINUOUS
 10
4.2613545209
 20
5.2409283731
 11
4.8499730751
 21
5.2409283754
  0
LINE
  5
26D
100
AcDbEntity
  8
0
100
AcDbLine
 62
7
  6
CONTINUOUS
 10
3.6806530893
 20
5.2565533731
 11
5.4306530904
 21
5.2565533731
  0
ARC
  5
26E
100
AcDbEntity
  8
0
100
AcDbCircle
 62
7
  6
CONTINUOUS
 10
4.5556515414
 20
3.9142803574
 40
0.1459232632
100
AcDbArc
 50
270.0006082093
 51
273.4924884494
  0
ARC
  5
26F
100
AcDbEntity
  8
0
100
AcDbCircle
 62
7
  6
CONTINUOUS
 10
4.4506590268
 20
3.7842773558
 40
0.0156584209
100
AcDbArc
 50
179.9996704553
 51
270.000492716
  0
ARC
  5
270
100
AcDbEntity
  8
0
100
AcDbCircle
 62
7
  6
CONTINUOUS
 10
3.8174639089
 20
2.9582467374
 40
0.0098423145
100
AcDbArc
 50
180.0009784092
 51
240.2914853118
  0
ARC
  5
271
100
AcDbEntity
  8
0
100
AcDbCircle
 62
7
  6
CONTINUOUS
 10
3.8174639089
 20
4.0439615378
 40
0.0098423145
100
AcDbArc
 50
119.7085146882
 51
179.9990215908
  0
ARC
  5
272
100
AcDbEntity
  8
0
100
AcDbCircle
 62
7
  6
CONTINUOUS
 10
0.1089658434
 20
4.8192502235
 40
4.2460629921
100
AcDbArc
 50
359.0803148016
 51
2.2955726988
  0
ARC
  5
273
100
AcDbEntity
  8
0
100
AcDbCircle
 62
9
  6
CONTINUOUS
 10
0.1925188063
 20
4.8183083579
 40
4.1821948313
100
AcDbArc
 50
359.0713221011
 51
0.838260922
  0
ARC
  5
274
100
AcDbEntity
  8
0
100
AcDbCircle
 62
7
  6
CONTINUOUS
 10
0.7690690398
 20
4.225888472
 40
3.6660190229
100
AcDbArc
 50
0.6504551424
 51
1.055618405
  0
ARC
  5
275
100
AcDbEntity
  8
0
100
AcDbCircle
 62
7
  6
CONTINUOUS
 10
0.7864812067
 20
4.2261951835
 40
3.6486041607
100
AcDbArc
 50
1.0558402079
 51
1.1909295022
  0
ARC
  5
276
100
AcDbEntity
  8
0
100
AcDbCircle
 62
7
  6
CONTINUOUS
 10
0.8026692856
 20
4.2265428995
 40
3.6324123517
100
AcDbArc
 50
1.190753067
 51
1.5637945963
  0
ARC
  5
277
100
AcDbEntity
  8
0
100
AcDbCircle
 62
7
  6
CONTINUOUS
 10
0.8336329959
 20
4.2274176163
 40
3.6014362554
100
AcDbArc
 50
1.6604936351
 51
2.0663891254
  0
ARC
  5
278
100
AcDbEntity
  8
0
100
AcDbCircle
 62
7
  6
CONTINUOUS
 10
0.9411800008
 20
4.2293704649
 40
3.4940910701
100
AcDbArc
 50
12.4577618207
 51
12.867274883
  0
ARC
  5
279
100
AcDbEntity
  8
0
100
AcDbCircle
 62
7
  6
CONTINUOUS
 10
0.941208696
 20
4.2293767884
 40
3.4940616867
100
AcDbArc
 50
12.4346198055
 51
12.9077667631
  0
ARC
  5
27A
100
AcDbEntity
  8
0
100
AcDbCircle
 62
7
  6
CONTINUOUS
 10
0.9423154923
 20
4.2296295808
 40
3.4929263889
100
AcDbArc
 50
12.9077801512
 51
13.0917339615
  0
ARC
  5
27B
100
AcDbEntity
  8
0
100
AcDbCircle
 62
9
  6
CONTINUOUS
 10
0.9609832085
 20
4.2242655108
 40
3.4907718214
100
AcDbArc
 50
13.0063579742
 51
16.6495889186
  0
ARC
  5
27C
100
AcDbEntity
  8
0
100
AcDbCircle
 62
7
  6
CONTINUOUS
 10
0.9533588929
 20
4.2323096393
 40
3.4815629606
100
AcDbArc
 50
13.0899409681
 51
16.1628853286
  0
ARC
  5
27D
100
AcDbEntity
  8
0
100
AcDbCircle
 62
7
  6
CONTINUOUS
 10
0.9546410352
 20
4.2326159302
 40
3.4802452071
100
AcDbArc
 50
12.9051862381
 51
16.5728910435
  0
ARC
  5
27E
100
AcDbEntity
  8
0
100
AcDbCircle
 62
7
  6
CONTINUOUS
 10
0.9727140774
 20
4.237775062
 40
3.4614514037
100
AcDbArc
 50
16.1651776179
 51
16.5763712692
  0
ARC
  5
27F
100
AcDbEntity
  8
0
100
AcDbCircle
 62
9
  6
CONTINUOUS
 10
1.0301198904
 20
4.240642526
 40
3.419720204
100
AcDbArc
 50
12.5162895822
 51
12.99970666
  0
ARC
  5
280
100
AcDbEntity
  8
0
100
AcDbCircle
 62
7
  6
CONTINUOUS
 10
3.0350627243
 20
4.5552396893
 40
1.3729532548
100
AcDbArc
 50
0.0780428714
 51
1.0377635971
  0
ARC
  5
281
100
AcDbEntity
  8
0
100
AcDbCircle
 62
7
  6
CONTINUOUS
 10
3.5673343218
 20
4.5641754958
 40
0.8406074195
100
AcDbArc
 50
1.0858738908
 51
1.8775270138
  0
ARC
  5
282
100
AcDbEntity
  8
0
100
AcDbCircle
 62
7
  6
CONTINUOUS
 10
3.7997520973
 20
4.5722832982
 40
0.6080490035
100
AcDbArc
 50
1.8314764229
 51
4.403112201
  0
ARC
  5
283
100
AcDbEntity
  8
0
100
AcDbCircle
 62
7
  6
CONTINUOUS
 10
4.3538713924
 20
5.1217108534
 40
0.0492125984
100
AcDbArc
 50
168.4630408911
 51
241.7075590614
  0
ARC
  5
284
100
AcDbEntity
  8
0
100
AcDbCircle
 62
7
  6
CONTINUOUS
 10
3.7997182292
 20
5.1709234519
 40
0.0393700787
100
AcDbArc
 50
198.8829568619
 51
270.0
  0
ARC
  5
285
100
AcDbEntity
  8
0
100
AcDbCircle
 62
7
  6
CONTINUOUS
 10
4.2771097858
 20
5.2409042216
 40
0.0157518081
100
AcDbArc
 50
179.9127557071
 51
185.3597162493
  0
ARC
  5
286
100
AcDbEntity
  8
0
100
AcDbCircle
 62
7
  6
CONTINUOUS
 10
4.2769547752
 20
5.2410578
 40
0.0157504168
100
AcDbArc
 50
264.6115062366
 51
270.0877848209
  0
ARC
  5
287
100
AcDbEntity
  8
0
100
AcDbCircle
 62
7
  6
CONTINUOUS
 10
4.2769797951
 20
5.2409283259
 40
0.0156249083
100
AcDbArc
 50
180.0004217375
 51
269.9967621905
  0
ARC
  5
288
100
AcDbEntity
  8
0
100
AcDbCircle
 62
7
  6
CONTINUOUS
 10
4.2760969966
 20
5.2400286188
 40
0.0143818329
100
AcDbArc
 50
222.947842981
 51
224.9498203356
  0
ARC
  5
289
100
AcDbEntity
  8
0
100
AcDbCircle
 62
7
  6
CONTINUOUS
 10
4.2760791564
 20
5.240046344
 40
0.0143817516
100
AcDbArc
 50
225.0501294462
 51
227.0473741574
  0
ARC
  5
28A
100
AcDbEntity
  8
0
100
AcDbCircle
 62
7
  6
CONTINUOUS
 10
4.5556546394
 20
3.9142803574
 40
0.1459232632
100
AcDbArc
 50
266.5075115506
 51
269.9993917907
  0
ARC
  5
28B
100
AcDbEntity
  8
0
100
AcDbCircle
 62
7
  6
CONTINUOUS
 10
4.5978883885
 20
3.6704998424
 40
0.1018034075
100
AcDbArc
 50
41.5148872788
 51
41.8507262432
  0
ARC
  5
28C
100
AcDbEntity
  8
0
100
AcDbCircle
 62
9
  6
CONTINUOUS
 10
4.6143297438
 20
3.7405407708
 40
0.0594343083
100
AcDbArc
 50
353.537720851
 51
354.649113876
  0
ARC
  5
28D
100
AcDbEntity
  8
0
100
AcDbCircle
 62
9
  6
CONTINUOUS
 10
4.6144925713
 20
3.7405257772
 40
0.0592707921
100
AcDbArc
 50
354.6488662909
 51
357.1989022301
  0
ARC
  5
28E
100
AcDbEntity
  8
0
100
AcDbCircle
 62
9
  6
CONTINUOUS
 10
4.61462073
 20
3.7405187217
 40
0.0591424418
100
AcDbArc
 50
357.1996618449
 51
359.9995378549
  0
ARC
  5
28F
100
AcDbEntity
  8
0
100
AcDbCircle
 62
7
  6
CONTINUOUS
 10
4.6606686856
 20
3.784277356
 40
0.0156584212
100
AcDbArc
 50
269.9995081464
 51
0.0003284236
  0
ARC
  5
290
100
AcDbEntity
  8
0
100
AcDbCircle
 62
7
  6
CONTINUOUS
 10
5.2938420668
 20
2.9582465694
 40
0.0098425197
100
AcDbArc
 50
270.0000000004
 51
360.0
  0
ARC
  5
291
100
AcDbEntity
  8
0
100
AcDbCircle
 62
7
  6
CONTINUOUS
 10
5.2938420668
 20
4.0439617058
 40
0.0098425197
100
AcDbArc
 50
0.0
 51
89.9999999996
  0
ARC
  5
292
100
AcDbEntity
  8
0
100
AcDbCircle
 62
7
  6
CONTINUOUS
 10
6.0762873784
 20
4.5552393807
 40
1.3729971771
100
AcDbArc
 50
178.9623307066
 51
179.9219467456
  0
ARC
  5
293
100
AcDbEntity
  8
0
100
AcDbCircle
 62
7
  6
CONTINUOUS
 10
5.543989322
 20
4.5641750058
 40
0.8406248891
100
AcDbArc
 50
178.1224785058
 51
178.9142361135
  0
ARC
  5
294
100
AcDbEntity
  8
0
100
AcDbCircle
 62
7
  6
CONTINUOUS
 10
5.3105539625
 20
4.5723311296
 40
0.6070479913
100
AcDbArc
 50
175.5941260435
 51
178.1700184915
  0
ARC
  5
295
100
AcDbEntity
  8
0
100
AcDbCircle
 62
7
  6
CONTINUOUS
 10
5.3573891019
 20
5.2588511291
 40
0.0733000116
100
AcDbArc
 50
354.0984142995
 51
358.2036388667
  0
ARC
  5
296
100
AcDbEntity
  8
0
100
AcDbCircle
 62
7
  6
CONTINUOUS
 10
4.7574347884
 20
5.1217108534
 40
0.0492125984
100
AcDbArc
 50
298.3755831593
 51
11.5369573151
  0
ARC
  5
297
100
AcDbEntity
  8
0
100
AcDbCircle
 62
9
  6
CONTINUOUS
 10
4.7518330102
 20
5.1135669945
 40
0.0427641705
100
AcDbArc
 50
314.8930187616
 51
315.2005011407
  0
ARC
  5
298
100
AcDbEntity
  8
0
100
AcDbCircle
 62
7
  6
CONTINUOUS
 10
5.3115879516
 20
5.1709234519
 40
0.0393700787
100
AcDbArc
 50
270.0
 51
341.1168657082
  0
ARC
  5
299
100
AcDbEntity
  8
0
100
AcDbCircle
 62
7
  6
CONTINUOUS
 10
4.8343708571
 20
5.2411420486
 40
0.0158346623
100
AcDbArc
 50
269.9193120601
 51
273.5251170836
  0
ARC
  5
29A
100
AcDbEntity
  8
0
100
AcDbCircle
 62
7
  6
CONTINUOUS
 10
4.8343479175
 20
5.2409283259
 40
0.0156249083
100
AcDbArc
 50
270.0023277622
 51
359.9995782625
  0
ARC
  5
29B
100
AcDbEntity
  8
0
100
AcDbCircle
 62
7
  6
CONTINUOUS
 10
4.8343846056
 20
5.2408988584
 40
0.0155910869
100
AcDbArc
 50
273.5296384121
 51
275.0264414082
  0
ARC
  5
29C
100
AcDbEntity
  8
0
100
AcDbCircle
 62
7
  6
CONTINUOUS
 10
4.8344618869
 20
5.2402089143
 40
0.0148970343
100
AcDbArc
 50
274.9628482147
 51
282.7690134077
  0
ARC
  5
29D
100
AcDbEntity
  8
0
100
AcDbCircle
 62
7
  6
CONTINUOUS
 10
4.835246048
 20
5.2400489163
 40
0.0143853442
100
AcDbArc
 50
312.7510647706
 51
314.9497027899
  0
ARC
  5
29E
100
AcDbEntity
  8
0
100
AcDbCircle
 62
7
  6
CONTINUOUS
 10
4.8352307945
 20
5.2400285422
 40
0.0143817234
100
AcDbArc
 50
315.0501747944
 51
317.0456633228
  0
ARC
  5
29F
100
AcDbEntity
  8
0
100
AcDbCircle
 62
9
  6
CONTINUOUS
 10
8.9571105366
 20
4.2172721543
 40
4.280985053
100
AcDbArc
 50
179.4399359935
 51
179.816009423
  0
ARC
  5
2A0
100
AcDbEntity
  8
0
100
AcDbCircle
 62
9
  6
CONTINUOUS
 10
8.6525728663
 20
4.2205829167
 40
3.9764289258
100
AcDbArc
 50
178.9072798988
 51
179.3084946293
  0
ARC
  5
2A1
100
AcDbEntity
  8
0
100
AcDbCircle
 62
9
  6
CONTINUOUS
 10
8.5051924256
 20
4.2232995246
 40
3.8290234817
100
AcDbArc
 50
178.7183153576
 51
178.9058659755
  0
ARC
  5
2A2
100
AcDbEntity
  8
0
100
AcDbCircle
 62
9
  6
CONTINUOUS
 10
8.283711893
 20
4.2286566092
 40
3.6074785576
100
AcDbArc
 50
177.8644831439
 51
178.7246957199
  0
ARC
  5
2A3
100
AcDbEntity
  8
0
100
AcDbCircle
 62
7
  6
CONTINUOUS
 10
8.1701252407
 20
4.2293755851
 40
3.4940680232
100
AcDbArc
 50
167.1450152638
 51
167.51289506
  0
ARC
  5
2A4
100
AcDbEntity
  8
0
100
AcDbCircle
 62
9
  6
CONTINUOUS
 10
8.1690016162
 20
4.229668094
 40
3.4929964088
100
AcDbArc
 50
167.1507694036
 51
167.5188450926
  0
ARC
  5
2A5
100
AcDbEntity
  8
0
100
AcDbCircle
 62
7
  6
CONTINUOUS
 10
8.1688342497
 20
4.2296206696
 40
3.4927545404
100
AcDbArc
 50
167.5699279744
 51
171.12859615
  0
ARC
  5
2A6
100
AcDbEntity
  8
0
100
AcDbCircle
 62
9
  6
CONTINUOUS
 10
8.1680310834
 20
4.2298246853
 40
3.4920149154
100
AcDbArc
 50
167.5703651809
 51
171.130116879
  0
ARC
  5
2A7
100
AcDbEntity
  8
0
100
AcDbCircle
 62
9
  6
CONTINUOUS
 10
8.1457918084
 20
4.2255204193
 40
3.48604248
100
AcDbArc
 50
163.3487064219
 51
166.9967604085
  0
ARC
  5
2A8
100
AcDbEntity
  8
0
100
AcDbCircle
 62
9
  6
CONTINUOUS
 10
8.1594774904
 20
4.2319169606
 40
3.4832106483
100
AcDbArc
 50
163.4296296685
 51
167.0941116626
  0
ARC
  5
2A9
100
AcDbEntity
  8
0
100
AcDbCircle
 62
9
  6
CONTINUOUS
 10
8.1421590715
 20
4.2276894718
 40
3.4820342407
100
AcDbArc
 50
167.4929863776
 51
171.0681752804
  0
ARC
  5
2AA
100
AcDbEntity
  8
0
100
AcDbCircle
 62
7
  6
CONTINUOUS
 10
8.1566877567
 20
4.2326156347
 40
3.4802463258
100
AcDbArc
 50
163.4271093607
 51
167.0950749791
  0
ARC
  5
2AB
100
AcDbEntity
  8
0
100
AcDbCircle
 62
9
  6
CONTINUOUS
 10
8.1442228996
 20
4.233661816
 40
3.4678998029
100
AcDbArc
 50
171.132103349
 51
177.8265105599
  0
ARC
  5
2AC
100
AcDbEntity
  8
0
100
AcDbCircle
 62
9
  6
CONTINUOUS
 10
8.0891646698
 20
4.2391653875
 40
3.4278235459
100
AcDbArc
 50
167.0060189581
 51
167.4884278392
  0
ARC
  5
2AD
100
AcDbEntity
  8
0
100
AcDbCircle
 62
7
  6
CONTINUOUS
 10
9.0023403374
 20
4.8192502235
 40
4.2460629921
100
AcDbArc
 50
177.7062651135
 51
180.9515483435
  0
ARC
  5
2AE
100
AcDbEntity
  8
0
100
AcDbCircle
 62
9
  6
CONTINUOUS
 10
8.9172510852
 20
4.8183066075
 40
4.1806587572
100
AcDbArc
 50
179.163460209
 51
180.9612276979
  0
SPLINE
  5
2AF
100
AcDbEntity
  8
0
100
AcDbSpline
 62
7
  6
CONTINUOUS
 70
0
 71
3
 72
11
 73
7
 74
0
 42
0.0000001
 43
0.0000001
 44
0.0000000001
 40
0.0
 40
0.0
 40
0.0
 40
0.0
 40
0.2637593483
 40
0.5162314185
 40
0.7603456099
 40
1.0
 40
1.0
 40
1.0
 40
1.0
 10
4.6736810085
 20
3.7371558938
 30
0.0
 10
4.6769684919
 20
3.7333974207
 30
0.0
 10
4.6828654107
 20
3.7255424683
 30
0.0
 10
4.6894843091
 20
3.7126780652
 30
0.0
 10
4.6935242978
 20
3.699255092
 30
0.0
 10
4.6944325061
 20
3.6900723384
 30
0.0
 10
4.6944324264
 20
3.6855353194
 30
0.0
  0
SPLINE
  5
2B0
100
AcDbEntity
  8
0
100
AcDbSpline
 62
7
  6
CONTINUOUS
 70
0
 71
3
 72
14
 73
10
 74
0
 42
0.0000001
 43
0.0000001
 44
0.0000000001
 40
0.0
 40
0.0
 40
0.0
 40
0.0
 40
0.292505629
 40
0.4302467514
 40
0.5586531465
 40
0.6771551332
 40
0.7873784711
 40
0.893222163
 40
1.0
 40
1.0
 40
1.0
 40
1.0
 10
4.5556530904
 20
3.6060349384
 30
0.0
 10
4.5387947202
 20
3.6060349384
 30
0.0
 10
4.5136776133
 20
3.6099595316
 30
0.0
 10
4.484193726
 20
3.6232621495
 30
0.0
 10
4.4660695513
 20
3.6363418137
 30
0.0
 10
4.452517133
 20
3.652130823
 30
0.0
 10
4.4443636059
 20
3.6699307493
 30
0.0
 10
4.4422778363
 20
3.6887491671
 30
0.0
 10
4.4450324859
 20
3.7009442878
 30
0.0
 10
4.447268889
 20
3.7066776189
 30
0.0
  0
SPLINE
  5
2B1
100
AcDbEntity
  8
0
100
AcDbSpline
 62
7
  6
CONTINUOUS
 70
0
 71
3
 72
14
 73
10
 74
0
 42
0.0000001
 43
0.0000001
 44
0.0000000001
 40
0.0
 40
0.0
 40
0.0
 40
0.0
 40
0.1067682496
 40
0.2125932351
 40
0.3227894615
 40
0.441263734
 40
0.569656458
 40
0.7074128633
 40
1.0
 40
1.0
 40
1.0
 40
1.0
 10
4.6640262445
 20
3.7067057644
 30
0.0
 10
4.6662658434
 20
3.7009731412
 30
0.0
 10
4.6690265578
 20
3.6887789131
 30
0.0
 10
4.6669509417
 20
3.6699593703
 30
0.0
 10
4.6588056657
 20
3.6521564382
 30
0.0
 10
4.6452591949
 20
3.6363628737
 30
0.0
 10
4.6271376917
 20
3.6232752171
 30
0.0
 10
4.5976460526
 20
3.6099640371
 30
0.0
 10
4.5725190497
 20
3.6060349384
 30
0.0
 10
4.5556530904
 20
3.6060349384
 30
0.0
  0
SPLINE
  5
2B2
100
AcDbEntity
  8
0
100
AcDbSpline
 62
7
  6
CONTINUOUS
 70
0
 71
3
 72
11
 73
7
 74
0
 42
0.0000001
 43
0.0000001
 44
0.0000000001
 40
0.0
 40
0.0
 40
0.0
 40
0.0
 40
0.2396543783
 40
0.4837685892
 40
0.736240687
 40
1.0
 40
1.0
 40
1.0
 40
1.0
 10
4.4168737544
 20
3.6855377138
 30
0.0
 10
4.4168738341
 20
3.6900746014
 30
0.0
 10
4.4177823001
 20
3.6992570564
 30
0.0
 10
4.4218224987
 20
3.7126795375
 30
0.0
 10
4.4284414191
 20
3.7255434522
 30
0.0
 10
4.4343382465
 20
3.7333981131
 30
0.0
 10
4.4376256615
 20
3.7371564533
 30
0.0
  0
SPLINE
  5
2B3
100
AcDbEntity
  8
0
100
AcDbSpline
 62
7
  6
CONTINUOUS
 70
0
 71
3
 72
12
 73
8
 74
0
 42
0.0000001
 43
0.0000001
 44
0.0000000001
 40
0.0
 40
0.0
 40
0.0
 40
0.0
 40
0.2729673167
 40
0.5353022107
 40
0.6599563291
 40
0.7791731269
 40
1.0
 40
1.0
 40
1.0
 40
1.0
 10
4.5556530904
 20
3.5874045715
 30
0.0
 10
4.5426021233
 20
3.5874045715
 30
0.0
 10
4.5169378066
 20
3.5899461754
 30
0.0
 10
4.4865838662
 20
3.5994941579
 30
0.0
 10
4.4650843535
 20
3.6107495765
 30
0.0
 10
4.4468379624
 20
3.6234759811
 30
0.0
 10
4.4354416394
 20
3.6355435948
 30
0.0
 10
4.4296672459
 20
3.6443826519
 30
0.0
  0
SPLINE
  5
2B4
100
AcDbEntity
  8
0
100
AcDbSpline
 62
7
  6
CONTINUOUS
 70
0
 71
3
 72
10
 73
6
 74
0
 42
0.0000001
 43
0.0000001
 44
0.0000000001
 40
0.0
 40
0.0
 40
0.0
 40
0.0
 40
0.5099424559
 40
0.7563711124
 40
1.0
 40
1.0
 40
1.0
 40
1.0
 10
4.4296672459
 20
3.6443826519
 30
0.0
 10
4.4256119859
 20
3.6505901741
 30
0.0
 10
4.4207261092
 20
3.6606547432
 30
0.0
 10
4.4174242914
 20
3.6748562129
 30
0.0
 10
4.4168736921
 20
3.6819952622
 30
0.0
 10
4.4168737544
 20
3.6855377138
 30
0.0
  0
SPLINE
  5
2B5
100
AcDbEntity
  8
0
100
AcDbSpline
 62
7
  6
CONTINUOUS
 70
0
 71
3
 72
10
 73
6
 74
0
 42
0.0000001
 43
0.0000001
 44
0.0000000001
 40
0.0
 40
0.0
 40
0.0
 40
0.0
 40
0.2436325442
 40
0.4900631877
 40
1.0
 40
1.0
 40
1.0
 40
1.0
 10
4.6944324264
 20
3.6855353194
 30
0.0
 10
4.6944323642
 20
3.6819940978
 30
0.0
 10
4.6938819132
 20
3.6748575797
 30
0.0
 10
4.690581934
 20
3.6606611352
 30
0.0
 10
4.6856991175
 20
3.650599775
 30
0.0
 10
4.681646317
 20
3.6443939523
 30
0.0
  0
SPLINE
  5
2B6
100
AcDbEntity
  8
0
100
AcDbSpline
 62
7
  6
CONTINUOUS
 70
0
 71
3
 72
12
 73
8
 74
0
 42
0.0000001
 43
0.0000001
 44
0.0000000001
 40
0.0
 40
0.0
 40
0.0
 40
0.0
 40
0.2208214337
 40
0.3400365621
 40
0.4646900965
 40
0.7270273574
 40
1.0
 40
1.0
 40
1.0
 40
1.0
 10
4.681646317
 20
3.6443939523
 30
0.0
 10
4.6758728744
 20
3.6355534084
 30
0.0
 10
4.664477061
 20
3.6234834883
 30
0.0
 10
4.6462303014
 20
3.6107546147
 30
0.0
 10
4.6247294546
 20
3.5994968069
 30
0.0
 10
4.5943726255
 20
3.5899467321
 30
0.0
 10
4.5687055296
 20
3.5874045715
 30
0.0
 10
4.5556530904
 20
3.5874045715
 30
0.0
  0
SPLINE
  5
2B7
100
AcDbEntity
  8
0
100
AcDbSpline
 62
7
  6
CONTINUOUS
 70
0
 71
3
 72
14
 73
10
 74
0
 42
0.0000001
 43
0.0000001
 44
0.0000000001
 40
0.0
 40
0.0
 40
0.0
 40
0.0
 40
0.1060189552
 40
0.2151568614
 40
0.32992725
 40
0.4517998721
 40
0.5810486383
 40
0.7168470897
 40
1.0
 40
1.0
 40
1.0
 40
1.0
 10
4.6737633266
 20
3.7405182446
 30
0.0
 10
4.6737633266
 20
3.7348556519
 30
0.0
 10
4.6721413798
 20
3.7233057112
 30
0.0
 10
4.6650625341
 20
3.7069667546
 30
0.0
 10
4.6537734248
 20
3.6921471363
 30
0.0
 10
4.6388323132
 20
3.6793573251
 30
0.0
 10
4.620839467
 20
3.6689728559
 30
0.0
 10
4.5933527051
 20
3.6586281573
 30
0.0
 10
4.5707766087
 20
3.655560292
 30
0.0
 10
4.5556530904
 20
3.655560292
 30
0.0
  0
SPLINE
  5
2B8
100
AcDbEntity
  8
0
100
AcDbSpline
 62
7
  6
CONTINUOUS
 70
0
 71
3
 72
14
 73
10
 74
0
 42
0.0000001
 43
0.0000001
 44
0.0000000001
 40
0.0
 40
0.0
 40
0.0
 40
0.0
 40
0.2831533517
 40
0.4189518104
 40
0.5482004443
 40
0.6700728629
 40
0.7848430617
 40
0.8939808823
 40
1.0
 40
1.0
 40
1.0
 40
1.0
 10
4.5556530904
 20
3.655560292
 30
0.0
 10
4.5405295485
 20
3.655560292
 30
0.0
 10
4.517953428
 20
3.658628168
 30
0.0
 10
4.4904666541
 20
3.668972883
 30
0.0
 10
4.472473829
 20
3.6793573535
 30
0.0
 10
4.4575327441
 20
3.692147152
 30
0.0
 10
4.4462436524
 20
3.7069667502
 30
0.0
 10
4.4391648021
 20
3.7233056978
 30
0.0
 10
4.4375428542
 20
3.7348556432
 30
0.0
 10
4.4375428542
 20
3.7405182446
 30
0.0
  0
SPLINE
  5
2B9
100
AcDbEntity
  8
0
100
AcDbSpline
 62
9
  6
CONTINUOUS
 70
0
 71
3
 72
9
 73
5
 74
0
 42
0.0000001
 43
0.0000001
 44
0.0000000001
 40
0.0
 40
0.0
 40
0.0
 40
0.0
 40
0.2575208445
 40
1.0
 40
1.0
 40
1.0
 40
1.0
 10
4.5556530904
 20
3.7544376694
 30
0.0
 10
4.5498431023
 20
3.7544376694
 30
0.0
 10
4.52731131
 20
3.7556072327
 30
0.0
 10
4.5049107989
 20
3.7614439936
 30
0.0
 10
4.4897806546
 20
3.7686330813
 30
0.0
  0
SPLINE
  5
2BA
100
AcDbEntity
  8
0
100
AcDbSpline
 62
9
  6
CONTINUOUS
 70
0
 71
3
 72
14
 73
10
 74
0
 42
0.0000001
 43
0.0000001
 44
0.0000000001
 40
0.0
 40
0.0
 40
0.0
 40
0.0
 40
0.2844670318
 40
0.4210951606
 40
0.5512369464
 40
0.6737925593
 40
0.7885921724
 40
0.8966047266
 40
1.0
 40
1.0
 40
1.0
 40
1.0
 10
4.5557206065
 20
3.6570017093
 30
0.0
 10
4.5701779027
 20
3.6570075531
 30
0.0
 10
4.5917454615
 20
3.6597858218
 30
0.0
 10
4.6182361641
 20
3.6691249798
 30
0.0
 10
4.6357642881
 20
3.6784959425
 30
0.0
 10
4.6505875232
 20
3.6900225854
 30
0.0
 10
4.662195752
 20
3.7033580121
 30
0.0
 10
4.6701426549
 20
3.7180731957
 30
0.0
 10
4.6727950156
 20
3.7286300845
 30
0.0
 10
4.6733864165
 20
3.7338514948
 30
0.0
  0
SPLINE
  5
2BB
100
AcDbEntity
  8
0
100
AcDbSpline
 62
9
  6
CONTINUOUS
 70
0
 71
3
 72
13
 73
9
 74
0
 42
0.0000001
 43
0.0000001
 44
0.0000000001
 40
0.0
 40
0.0
 40
0.0
 40
0.0
 40
0.1055505005
 40
0.2167787838
 40
0.3344108887
 40
0.4584693933
 40
0.7225435404
 40
1.0
 40
1.0
 40
1.0
 40
1.0
 10
4.4663409443
 20
3.68481018
 30
0.0
 10
4.4678278986
 20
3.6813893622
 30
0.0
 10
4.4716378922
 20
3.6746741549
 30
0.0
 10
4.4793316149
 20
3.6656273805
 30
0.0
 10
4.4889274487
 20
3.6575762834
 30
0.0
 10
4.5042345301
 20
3.6482415524
 30
0.0
 10
4.5266462485
 20
3.6402678333
 30
0.0
 10
4.5458481413
 20
3.6381567323
 30
0.0
 10
4.5556530904
 20
3.638153269
 30
0.0
  0
SPLINE
  5
2BC
100
AcDbEntity
  8
0
100
AcDbSpline
 62
9
  6
CONTINUOUS
 70
0
 71
3
 72
9
 73
5
 74
0
 42
0.0000001
 43
0.0000001
 44
0.0000000001
 40
0.0
 40
0.0
 40
0.0
 40
0.0
 40
0.2370385477
 40
1.0
 40
1.0
 40
1.0
 40
1.0
 10
4.4957251857
 20
3.667247801
 30
0.0
 10
4.4998762417
 20
3.6645513155
 30
0.0
 10
4.5183699172
 20
3.6547084653
 30
0.0
 10
4.5397204761
 20
3.6507379545
 30
0.0
 10
4.5556530904
 20
3.6507379545
 30
0.0
  0
SPLINE
  5
2BD
100
AcDbEntity
  8
0
100
AcDbSpline
 62
9
  6
CONTINUOUS
 70
0
 71
3
 72
9
 73
5
 74
0
 42
0.0000001
 43
0.0000001
 44
0.0000000001
 40
0.0
 40
0.0
 40
0.0
 40
0.0
 40
0.2454387445
 40
1.0
 40
1.0
 40
1.0
 40
1.0
 10
4.6027424945
 20
3.7686524696
 30
0.0
 10
4.5990304647
 20
3.7674516541
 30
0.0
 10
4.5837063831
 20
3.7631927445
 30
0.0
 10
4.5677152078
 20
3.7614024782
 30
0.0
 10
4.5557209138
 20
3.7613973962
 30
0.0
  0
SPLINE
  5
2BE
100
AcDbEntity
  8
0
100
AcDbSpline
 62
9
  6
CONTINUOUS
 70
0
 71
3
 72
9
 73
5
 74
0
 42
0.0000001
 43
0.0000001
 44
0.0000000001
 40
0.0
 40
0.0
 40
0.0
 40
0.0
 40
0.2539302705
 40
1.0
 40
1.0
 40
1.0
 40
1.0
 10
4.5557209138
 20
3.7613973962
 30
0.0
 10
4.5516736837
 20
3.7613956814
 30
0.0
 10
4.5357434754
 20
3.7619921038
 30
0.0
 10
4.5198820245
 20
3.764991462
 30
0.0
 10
4.5085680438
 20
3.7686510597
 30
0.0
  0
SPLINE
  5
2BF
100
AcDbEntity
  8
0
100
AcDbSpline
 62
9
  6
CONTINUOUS
 70
0
 71
3
 72
13
 73
9
 74
0
 42
0.0000001
 43
0.0000001
 44
0.0000000001
 40
0.0
 40
0.0
 40
0.0
 40
0.0
 40
0.2774546983
 40
0.5415298664
 40
0.6655889897
 40
0.7832215129
 40
0.8944498282
 40
1.0
 40
1.0
 40
1.0
 40
1.0
 10
4.5556530904
 20
3.638153269
 30
0.0
 10
4.5654583383
 20
3.638153269
 30
0.0
 10
4.5846609147
 20
3.6402695288
 30
0.0
 10
4.6070733786
 20
3.6482420897
 30
0.0
 10
4.6223808599
 20
3.6575777945
 30
0.0
 10
4.6319767966
 20
3.665629517
 30
0.0
 10
4.6396703806
 20
3.6746770138
 30
0.0
 10
4.6434800641
 20
3.6813927178
 30
0.0
 10
4.6449668328
 20
3.6848137532
 30
0.0
  0
SPLINE
  5
2C0
100
AcDbEntity
  8
0
100
AcDbSpline
 62
9
  6
CONTINUOUS
 70
0
 71
3
 72
9
 73
5
 74
0
 42
0.0000001
 43
0.0000001
 44
0.0000000001
 40
0.0
 40
0.0
 40
0.0
 40
0.0
 40
0.2618563742
 40
1.0
 40
1.0
 40
1.0
 40
1.0
 10
4.5556530904
 20
3.6507379545
 30
0.0
 10
4.5611188275
 20
3.6507379545
 30
0.0
 10
4.5819358535
 20
3.6520858628
 30
0.0
 10
4.6026635854
 20
3.6588560578
 30
0.0
 10
4.6155838253
 20
3.6672496394
 30
0.0
  0
SPLINE
  5
2C1
100
AcDbEntity
  8
0
100
AcDbSpline
 62
9
  6
CONTINUOUS
 70
0
 71
3
 72
9
 73
5
 74
0
 42
0.0000001
 43
0.0000001
 44
0.0000000001
 40
0.0
 40
0.0
 40
0.0
 40
0.0
 40
0.241521522
 40
1.0
 40
1.0
 40
1.0
 40
1.0
 10
4.6215256414
 20
3.7686331352
 30
0.0
 10
4.6166080728
 20
3.7662965474
 30
0.0
 10
4.5956489824
 20
3.7579057755
 30
0.0
 10
4.5728217338
 20
3.7544449288
 30
0.0
 10
4.5557238627
 20
3.7544376844
 30
0.0
  0
SPLINE
  5
2C2
100
AcDbEntity
  8
0
100
AcDbSpline
 62
9
  6
CONTINUOUS
 70
0
 71
3
 72
14
 73
10
 74
0
 42
0.0000001
 43
0.0000001
 44
0.0000000001
 40
0.0
 40
0.0
 40
0.0
 40
0.0
 40
0.103362636
 40
0.2104787945
 40
0.3242053899
 40
0.4460290016
 40
0.5760499927
 40
0.7132109583
 40
1.0
 40
1.0
 40
1.0
 40
1.0
 10
4.437543009
 20
3.7405182446
 30
0.0
 10
4.4375430111
 20
3.7350347285
 30
0.0
 10
4.4391342345
 20
3.7238116906
 30
0.0
 10
4.4460977584
 20
3.7078859457
 30
0.0
 10
4.4572680651
 20
3.6933432298
 30
0.0
 10
4.472141263
 20
3.6807054775
 30
0.0
 10
4.4901387073
 20
3.6703886142
 30
0.0
 10
4.5177485847
 20
3.660063821
 30
0.0
 10
4.5404385757
 20
3.6570016957
 30
0.0
 10
4.5556530904
 20
3.6570016957
 30
0.0
  0
SPLINE
  5
2C3
100
AcDbEntity
  8
0
100
AcDbSpline
 62
7
  6
CONTINUOUS
 70
0
 71
3
 72
11
 73
7
 74
0
 42
0.0000001
 43
0.0000001
 44
0.0000000001
 40
0.0
 40
0.0
 40
0.0
 40
0.0
 40
0.2087552329
 40
0.3700042206
 40
0.5320457325
 40
1.0
 40
1.0
 40
1.0
 40
1.0
 10
5.3488391589
 20
5.1581817624
 30
0.0
 10
5.3523122987
 20
5.1683356747
 30
0.0
 10
5.3606945872
 20
5.1839857558
 30
0.0
 10
5.3774097508
 20
5.1999939509
 30
0.0
 10
5.4073096874
 20
5.2148443331
 30
0.0
 10
5.4296925933
 20
5.2269683115
 30
0.0
 10
5.4306530904
 20
5.2565533731
 30
0.0
  0
SPLINE
  5
2C4
100
AcDbEntity
  8
0
100
AcDbSpline
 62
7
  6
CONTINUOUS
 70
0
 71
3
 72
11
 73
7
 74
0
 42
0.0000001
 43
0.0000001
 44
0.0000000001
 40
0.0
 40
0.0
 40
0.0
 40
0.0
 40
0.4679546375
 40
0.6299962774
 40
0.7912453926
 40
1.0
 40
1.0
 40
1.0
 40
1.0
 10
3.6806530904
 20
5.2565533731
 30
0.0
 10
3.6816135875
 20
5.2269683115
 30
0.0
 10
3.7039964934
 20
5.2148443331
 30
0.0
 10
3.73389643
 20
5.1999939509
 30
0.0
 10
3.7506115688
 20
5.1839857796
 30
0.0
 10
3.7589938462
 20
5.1683357415
 30
0.0
 10
3.7624669824
 20
5.1581818778
 30
0.0
  0
SPLINE
  5
2C5
100
AcDbEntity
  8
0
100
AcDbSpline
 62
9
  6
CONTINUOUS
 70
0
 71
3
 72
12
 73
8
 74
0
 42
0.0000001
 43
0.0000001
 44
0.0000000001
 40
0.0
 40
0.0
 40
0.0
 40
0.0
 40
0.1189237057
 40
0.2093328066
 40
0.3240306817
 40
0.6242195524
 40
1.0
 40
1.0
 40
1.0
 40
1.0
 10
3.7997182192
 20
5.1315533731
 30
0.0
 10
3.7985560803
 20
5.1315536021
 30
0.0
 10
3.7967344071
 20
5.1331209878
 30
0.0
 10
3.7951981638
 20
5.135806439
 30
0.0
 10
3.793306279
 20
5.1404180897
 30
0.0
 10
3.7915656515
 20
5.1479597423
 30
0.0
 10
3.7907182928
 20
5.1545229955
 30
0.0
 10
3.7904054113
 20
5.1581818208
 30
0.0
  0
SPLINE
  5
2C6
100
AcDbEntity
  8
0
100
AcDbSpline
 62
9
  6
CONTINUOUS
 70
0
 71
3
 72
12
 73
8
 74
0
 42
0.0000001
 43
0.0000001
 44
0.0000000001
 40
0.0
 40
0.0
 40
0.0
 40
0.0
 40
0.1244825201
 40
0.2220343355
 40
0.3460784172
 40
0.6574781641
 40
1.0
 40
1.0
 40
1.0
 40
1.0
 10
3.7624670408
 20
5.1581817147
 30
0.0
 10
3.7628599136
 20
5.1570331506
 30
0.0
 10
3.764966976
 20
5.1556585343
 30
0.0
 10
3.7682196858
 20
5.1550114333
 30
0.0
 10
3.7734532493
 20
5.1547113746
 30
0.0
 10
3.7810103798
 20
5.1556638392
 30
0.0
 10
3.7872116884
 20
5.1572037271
 30
0.0
 10
3.7904054232
 20
5.1581817166
 30
0.0
  0
SPLINE
  5
2C7
100
AcDbEntity
  8
0
100
AcDbSpline
 62
9
  6
CONTINUOUS
 70
0
 71
3
 72
21
 73
17
 74
0
 42
0.0000001
 43
0.0000001
 44
0.0000000001
 40
0.0
 40
0.0
 40
0.0
 40
0.0
 40
0.126641657
 40
0.2483270588
 40
0.3667803008
 40
0.4833536898
 40
0.5404444343
 40
0.5961906879
 40
0.650379029
 40
0.7036688578
 40
0.7314199396
 40
0.7617347407
 40
0.7960008693
 40
0.8339716948
 40
0.9164798643
 40
1.0
 40
1.0
 40
1.0
 40
1.0
 10
3.7904054002
 20
5.1581818245
 30
0.0
 10
3.7880995818
 20
5.163463125
 30
0.0
 10
3.7824927029
 20
5.1733980145
 30
0.0
 10
3.7712005509
 20
5.1858498204
 30
0.0
 10
3.7580138152
 20
5.1955093713
 30
0.0
 10
3.7459833644
 20
5.2012435628
 30
0.0
 10
3.7364621426
 20
5.2055114711
 30
0.0
 10
3.7295756169
 20
5.2087386007
 30
0.0
 10
3.7230796551
 20
5.2123431565
 30
0.0
 10
3.7182255553
 20
5.2162750511
 30
0.0
 10
3.7153480343
 20
5.2204984538
 30
0.0
 10
3.7138196424
 20
5.2244437631
 30
0.0
 10
3.7128535106
 20
5.2290183727
 30
0.0
 10
3.7118735201
 20
5.2359916234
 30
0.0
 10
3.7107423729
 20
5.2452065731
 30
0.0
 10
3.7102432838
 20
5.2527536658
 30
0.0
 10
3.7101651165
 20
5.2565533735
 30
0.0
  0
SPLINE
  5
2C8
100
AcDbEntity
  8
0
100
AcDbSpline
 62
9
  6
CONTINUOUS
 70
0
 71
3
 72
19
 73
15
 74
0
 42
0.0000001
 43
0.0000001
 44
0.0000000001
 40
0.0
 40
0.0
 40
0.0
 40
0.0
 40
0.0739505555
 40
0.1453396742
 40
0.2100834486
 40
0.2649028053
 40
0.3142870925
 40
0.3653636342
 40
0.4198190979
 40
0.4777002572
 40
0.6009593533
 40
0.729022035
 40
0.861468958
 40
1.0
 40
1.0
 40
1.0
 40
1.0
 10
5.4011410755
 20
5.2565533731
 30
0.0
 10
5.400972243
 20
5.2531938014
 30
0.0
 10
5.4005857044
 20
5.2465951362
 30
0.0
 10
5.3996464591
 20
5.2370726387
 30
0.0
 10
5.3984272485
 20
5.2285004583
 30
0.0
 10
5.3965683471
 20
5.2209181383
 30
0.0
 10
5.3921054165
 20
5.2152023314
 30
0.0
 10
5.3862676548
 20
5.2111816458
 30
0.0
 10
5.379688464
 20
5.2077120202
 30
0.0
 10
5.3699175075
 20
5.2033089076
 30
0.0
 10
5.357034188
 20
5.1976228884
 30
0.0
 10
5.3423663905
 20
5.1879383901
 30
0.0
 10
5.3296396242
 20
5.1747583402
 30
0.0
 10
5.3234658394
 20
5.1639375189
 30
0.0
 10
5.320900763
 20
5.1581818201
 30
0.0
  0
SPLINE
  5
2C9
100
AcDbEntity
  8
0
100
AcDbSpline
 62
9
  6
CONTINUOUS
 70
0
 71
3
 72
12
 73
8
 74
0
 42
0.0000001
 43
0.0000001
 44
0.0000000001
 40
0.0
 40
0.0
 40
0.0
 40
0.0
 40
0.119346083
 40
0.2104165986
 40
0.3257535874
 40
0.6254438929
 40
1.0
 40
1.0
 40
1.0
 40
1.0
 10
5.3115879516
 20
5.1315533731
 30
0.0
 10
5.3127542999
 20
5.1315534876
 30
0.0
 10
5.3145876767
 20
5.1331278779
 30
0.0
 10
5.3161209548
 20
5.1358347888
 30
0.0
 10
5.318009919
 20
5.140455617
 30
0.0
 10
5.319755906
 20
5.1479858509
 30
0.0
 10
5.3205897893
 20
5.1545345843
 30
0.0
 10
5.3209007873
 20
5.1581818201
 30
0.0
  0
SPLINE
  5
2CA
100
AcDbEntity
  8
0
100
AcDbSpline
 62
9
  6
CONTINUOUS
 70
0
 71
3
 72
12
 73
8
 74
0
 42
0.0000001
 43
0.0000001
 44
0.0000000001
 40
0.0
 40
0.0
 40
0.0
 40
0.0
 40
0.3425219857
 40
0.6539217911
 40
0.7779658507
 40
0.875517607
 40
1.0
 40
1.0
 40
1.0
 40
1.0
 10
5.3209007982
 20
5.1581817147
 30
0.0
 10
5.3240945304
 20
5.1572037261
 30
0.0
 10
5.3302958333
 20
5.1556638394
 30
0.0
 10
5.3378529563
 20
5.1547113744
 30
0.0
 10
5.3430865132
 20
5.1550114335
 30
0.0
 10
5.346339217
 20
5.1556585336
 30
0.0
 10
5.3484462737
 20
5.1570331534
 30
0.0
 10
5.3488391407
 20
5.1581817166
 30
0.0
  0
SPLINE
  5
2CB
100
AcDbEntity
  8
0
100
AcDbSpline
 62
9
  6
CONTINUOUS
 70
0
 71
3
 72
13
 73
9
 74
0
 42
0.0000001
 43
0.0000001
 44
0.0000000001
 40
0.0
 40
0.0
 40
0.0
 40
0.0
 40
0.217422984
 40
0.461114618
 40
0.5922323567
 40
0.7273827262
 40
0.8642230175
 40
1.0
 40
1.0
 40
1.0
 40
1.0
 10
4.7821774777
 20
5.0834341624
 30
0.0
 10
4.7848238191
 20
5.0860990875
 30
0.0
 10
4.7896913982
 20
5.0925232618
 30
0.0
 10
4.7937926425
 20
5.1019950739
 30
0.0
 10
4.7959352359
 20
5.1105572871
 30
0.0
 10
4.7967766355
 20
5.1174850989
 30
0.0
 10
4.7968903603
 20
5.1245441025
 30
0.0
 10
4.7963576324
 20
5.1292340208
 30
0.0
 10
4.7960094289
 20
5.1315533721
 30
0.0
  0
SPLINE
  5
2CC
100
AcDbEntity
  8
0
100
AcDbSpline
 62
9
  6
CONTINUOUS
 70
0
 71
3
 72
12
 73
8
 74
0
 42
0.0000001
 43
0.0000001
 44
0.0000000001
 40
0.0
 40
0.0
 40
0.0
 40
0.0
 40
0.2171849142
 40
0.4608165542
 40
0.7268895375
 40
0.8640000579
 40
1.0
 40
1.0
 40
1.0
 40
1.0
 10
4.3293183244
 20
5.0832464156
 30
0.0
 10
4.3266486057
 20
5.0859068731
 30
0.0
 10
4.3217234692
 20
5.0923291959
 30
0.0
 10
4.3166091312
 20
5.1039774242
 30
0.0
 10
4.3145377627
 20
5.1151228653
 30
0.0
 10
4.3144362144
 20
5.1244965251
 30
0.0
 10
4.3149381253
 20
5.1292206496
 30
0.0
 10
4.3152967475
 20
5.1315533762
 30
0.0
  0
SPLINE
  5
2CD
100
AcDbEntity
  8
0
100
AcDbSpline
 62
7
  6
CONTINUOUS
 70
0
 71
3
 72
11
 73
7
 74
0
 42
0.0000001
 43
0.0000001
 44
0.0000000001
 40
0.0
 40
0.0
 40
0.0
 40
0.0
 40
0.2510817217
 40
0.5006492895
 40
0.748763255
 40
1.0
 40
1.0
 40
1.0
 40
1.0
 10
4.7053300809
 20
4.6193500955
 30
0.0
 10
4.7059022906
 20
4.6266040522
 30
0.0
 10
4.7073430921
 20
4.6410474332
 30
0.0
 10
4.7105719483
 20
4.6625150111
 30
0.0
 10
4.7150903786
 20
4.6837634015
 30
0.0
 10
4.7191592215
 20
4.6976599998
 30
0.0
 10
4.7212702546
 20
4.7046282315
 30
0.0
  0
SPLINE
  5
2CE
100
AcDbEntity
  8
0
100
AcDbSpline
 62
7
  6
CONTINUOUS
 70
0
 71
3
 72
11
 73
7
 74
0
 42
0.0000001
 43
0.0000001
 44
0.0000000001
 40
0.0
 40
0.0
 40
0.0
 40
0.0
 40
0.2524021033
 40
0.5000995761
 40
0.7493188921
 40
1.0
 40
1.0
 40
1.0
 40
1.0
 10
4.3890294947
 20
4.7079414147
 30
0.0
 10
4.3912455913
 20
4.700643146
 30
0.0
 10
4.3956278716
 20
4.6861716173
 30
0.0
 10
4.4004755525
 20
4.6640297301
 30
0.0
 10
4.4038999614
 20
4.641688238
 30
0.0
 10
4.4054043317
 20
4.6266500648
 30
0.0
 10
4.4059961091
 20
4.6190979145
 30
0.0
  0
LINE
  5
2CF
100
AcDbEntity
  8
0
100
AcDbLine
 62
9
  6
CONTINUOUS
 10
4.6836065709
 20
4.0813942623
 11
4.6836058463
 21
4.0715130188
  0
LINE
  5
2D0
100
AcDbEntity
  8
0
100
AcDbLine
 62
9
  6
CONTINUOUS
 10
4.4276996262
 20
4.0715130189
 11
4.4277003345
 21
4.0813942623
  0
LINE
  5
2D1
100
AcDbEntity
  8
0
100
AcDbLine
 62
9
  6
CONTINUOUS
 10
4.3889413881
 20
4.7079207345
 11
4.4017162852
 21
4.7118962188
  0
SPLINE
  5
2D2
100
AcDbEntity
  8
0
100
AcDbSpline
 62
9
  6
CONTINUOUS
 70
0
 71
3
 72
13
 73
9
 74
0
 42
0.0000001
 43
0.0000001
 44
0.0000000001
 40
0.0
 40
0.0
 40
0.0
 40
0.0
 40
0.0200494958
 40
0.0666338018
 40
0.1442621592
 40
0.2553760548
 40
0.573220173
 40
1.0
 40
1.0
 40
1.0
 40
1.0
 10
4.4074904555
 20
4.591716459
 30
0.0
 10
4.4074935986
 20
4.5917751997
 30
0.0
 10
4.407708987
 20
4.5918874901
 30
0.0
 10
4.4080806103
 20
4.5919948641
 30
0.0
 10
4.4087775533
 20
4.592137474
 30
0.0
 10
4.4102358403
 20
4.5923520684
 30
0.0
 10
4.4127430132
 20
4.5926157807
 30
0.0
 10
4.4149180629
 20
4.5927833006
 30
0.0
 10
4.4161672642
 20
4.5928693637
 30
0.0
  0
SPLINE
  5
2D3
100
AcDbEntity
  8
0
100
AcDbSpline
 62
9
  6
CONTINUOUS
 70
0
 71
3
 72
14
 73
10
 74
0
 42
0.0000001
 43
0.0000001
 44
0.0000000001
 40
0.0
 40
0.0
 40
0.0
 40
0.0
 40
0.0201724866
 40
0.0678034946
 40
0.1482127238
 40
0.262971496
 40
0.4096911658
 40
0.5853585024
 40
1.0
 40
1.0
 40
1.0
 40
1.0
 10
4.4080146842
 20
4.5571098055
 30
0.0
 10
4.4080155945
 20
4.5571889451
 30
0.0
 10
4.4083119954
 20
4.5573459981
 30
0.0
 10
4.4088252375
 20
4.557473809
 30
0.0
 10
4.4097932665
 20
4.5576455335
 30
0.0
 10
4.4111131562
 20
4.5577960567
 30
0.0
 10
4.4128267608
 20
4.5579479437
 30
0.0
 10
4.4157102147
 20
4.5581349997
 30
0.0
 10
4.418025683
 20
4.5582290718
 30
0.0
 10
4.4196516999
 20
4.5582797204
 30
0.0
  0
SPLINE
  5
2D4
100
AcDbEntity
  8
0
100
AcDbSpline
 62
9
  6
CONTINUOUS
 70
0
 71
3
 72
14
 73
10
 74
0
 42
0.0000001
 43
0.0000001
 44
0.0000000001
 40
0.0
 40
0.0
 40
0.0
 40
0.0
 40
0.0204918401
 40
0.0692833463
 40
0.1520040884
 40
0.2693304982
 40
0.4182745995
 40
0.5949152677
 40
1.0
 40
1.0
 40
1.0
 40
1.0
 10
4.4080152951
 20
4.5367221465
 30
0.0
 10
4.4080153715
 20
4.5368149626
 30
0.0
 10
4.4083666629
 20
4.5370007278
 30
0.0
 10
4.4089740687
 20
4.5371477526
 30
0.0
 10
4.4101211847
 20
4.5373454942
 30
0.0
 10
4.4116771836
 20
4.5375149269
 30
0.0
 10
4.4136826833
 20
4.5376810063
 30
0.0
 10
4.4169841213
 20
4.537873024
 30
0.0
 10
4.4196190506
 20
4.5379628332
 30
0.0
 10
4.4214533657
 20
4.5380049971
 30
0.0
  0
SPLINE
  5
2D5
100
AcDbEntity
  8
0
100
AcDbSpline
 62
9
  6
CONTINUOUS
 70
0
 71
3
 72
14
 73
10
 74
0
 42
0.0000001
 43
0.0000001
 44
0.0000000001
 40
0.0
 40
0.0
 40
0.0
 40
0.0
 40
0.0222530504
 40
0.0766832581
 40
0.1689885336
 40
0.2967535554
 40
0.4545640453
 40
0.6319878117
 40
1.0
 40
1.0
 40
1.0
 40
1.0
 10
4.4080152951
 20
4.4630862389
 30
0.0
 10
4.4080152787
 20
4.4632300549
 30
0.0
 10
4.408583137
 20
4.4635101507
 30
0.0
 10
4.4095423935
 20
4.4637289171
 30
0.0
 10
4.4113564168
 20
4.4640156354
 30
0.0
 10
4.4137615353
 20
4.4642493135
 30
0.0
 10
4.4167568489
 20
4.4644520986
 30
0.0
 10
4.4212937862
 20
4.4646511691
 30
0.0
 10
4.4248206937
 20
4.4647088755
 30
0.0
 10
4.4271990602
 20
4.4647139797
 30
0.0
  0
SPLINE
  5
2D6
100
AcDbEntity
  8
0
100
AcDbSpline
 62
9
  6
CONTINUOUS
 70
0
 71
3
 72
14
 73
10
 74
0
 42
0.0000001
 43
0.0000001
 44
0.0000000001
 40
0.0
 40
0.0
 40
0.0
 40
0.0
 40
0.0215961371
 40
0.0763852358
 40
0.1696595673
 40
0.2986561576
 40
0.4575000779
 40
0.6351167822
 40
1.0
 40
1.0
 40
1.0
 40
1.0
 10
4.4080152951
 20
4.2604626198
 30
0.0
 10
4.4080152951
 20
4.2606055891
 30
0.0
 10
4.4086238024
 20
4.2608588293
 30
0.0
 10
4.4095956687
 20
4.2610685688
 30
0.0
 10
4.4114861744
 20
4.2613332616
 30
0.0
 10
4.4139683171
 20
4.2615514233
 30
0.0
 10
4.4170559959
 20
4.2617371168
 30
0.0
 10
4.4216911103
 20
4.2619161801
 30
0.0
 10
4.4252847592
 20
4.2619640747
 30
0.0
 10
4.4277003345
 20
4.2619640747
 30
0.0
  0
LINE
  5
2D7
100
AcDbEntity
  8
0
100
AcDbLine
 62
9
  6
CONTINUOUS
 10
4.4080152951
 20
4.0813295366
 11
4.4277003345
 21
4.0813942622
  0
SPLINE
  5
2D8
100
AcDbEntity
  8
0
100
AcDbSpline
 62
9
  6
CONTINUOUS
 70
0
 71
3
 72
9
 73
5
 74
0
 42
0.0000001
 43
0.0000001
 44
0.0000000001
 40
0.0
 40
0.0
 40
0.0
 40
0.0
 40
0.4999938278
 40
1.0
 40
1.0
 40
1.0
 40
1.0
 10
4.399410298
 20
4.7285592448
 30
0.0
 10
4.3970677044
 20
4.7311661831
 30
0.0
 10
4.3916602163
 20
4.7357796051
 30
0.0
 10
4.3852025335
 20
4.7387452167
 30
0.0
 10
4.3818543943
 20
4.73978177
 30
0.0
  0
LINE
  5
2D9
100
AcDbEntity
  8
0
100
AcDbLine
 62
9
  6
CONTINUOUS
 10
4.4080152951
 20
4.0715622313
 11
4.4089725053
 21
4.071547072
  0
LINE
  5
2DA
100
AcDbEntity
  8
0
100
AcDbLine
 62
9
  6
CONTINUOUS
 10
4.4089725053
 20
4.071547072
 11
4.4277003345
 21
4.0715130188
  0
SPLINE
  5
2DB
100
AcDbEntity
  8
0
100
AcDbSpline
 62
9
  6
CONTINUOUS
 70
0
 71
3
 72
9
 73
5
 74
0
 42
0.0000001
 43
0.0000001
 44
0.0000000001
 40
0.0
 40
0.0
 40
0.0
 40
0.0
 40
0.4997283512
 40
1.0
 40
1.0
 40
1.0
 40
1.0
 10
4.3818543943
 20
4.73978177
 30
0.0
 10
4.3796427923
 20
4.740483873
 30
0.0
 10
4.3755298011
 20
4.7433906433
 30
0.0
 10
4.3741568274
 20
4.7482013982
 30
0.0
 10
4.3741643479
 20
4.750524282
 30
0.0
  0
LINE
  5
2DC
100
AcDbEntity
  8
0
100
AcDbLine
 62
9
  6
CONTINUOUS
 10
4.7032908857
 20
4.0715622314
 11
4.7023336755
 21
4.071547072
  0
LINE
  5
2DD
100
AcDbEntity
  8
0
100
AcDbLine
 62
9
  6
CONTINUOUS
 10
4.7023336755
 20
4.071547072
 11
4.6836058463
 21
4.0715130188
  0
LINE
  5
2DE
100
AcDbEntity
  8
0
100
AcDbLine
 62
9
  6
CONTINUOUS
 10
4.7032908857
 20
4.0813295366
 11
4.6836065709
 21
4.0813942622
  0
SPLINE
  5
2DF
100
AcDbEntity
  8
0
100
AcDbSpline
 62
9
  6
CONTINUOUS
 70
0
 71
3
 72
14
 73
10
 74
0
 42
0.0000001
 43
0.0000001
 44
0.0000000001
 40
0.0
 40
0.0
 40
0.0
 40
0.0
 40
0.0215951587
 40
0.076383244
 40
0.1696569268
 40
0.2986533412
 40
0.4574975877
 40
0.6351149871
 40
1.0
 40
1.0
 40
1.0
 40
1.0
 10
4.7032908857
 20
4.260462607
 30
0.0
 10
4.7032908998
 20
4.2606055698
 30
0.0
 10
4.7026824002
 20
4.26085883
 30
0.0
 10
4.7017105593
 20
4.2610685512
 30
0.0
 10
4.6998200598
 20
4.2613332554
 30
0.0
 10
4.6973379221
 20
4.2615514137
 30
0.0
 10
4.6942502357
 20
4.2617371102
 30
0.0
 10
4.6896151013
 20
4.2619161743
 30
0.0
 10
4.6860214344
 20
4.2619640695
 30
0.0
 10
4.6836058463
 20
4.2619640695
 30
0.0
  0
SPLINE
  5
2E0
100
AcDbEntity
  8
0
100
AcDbSpline
 62
9
  6
CONTINUOUS
 70
0
 71
3
 72
14
 73
10
 74
0
 42
0.0000001
 43
0.0000001
 44
0.0000000001
 40
0.0
 40
0.0
 40
0.0
 40
0.0
 40
0.0222431845
 40
0.0766353772
 40
0.1688832325
 40
0.2965868976
 40
0.4543536638
 40
0.6317834534
 40
1.0
 40
1.0
 40
1.0
 40
1.0
 10
4.7032908858
 20
4.4630861684
 30
0.0
 10
4.7032909933
 20
4.4632297226
 30
0.0
 10
4.702724541
 20
4.4635097484
 30
0.0
 10
4.7017671189
 20
4.4637281862
 30
0.0
 10
4.6999567588
 20
4.4640147781
 30
0.0
 10
4.697555985
 20
4.4642483437
 30
0.0
 10
4.6945654726
 20
4.4644511933
 30
0.0
 10
4.6900337266
 20
4.4646505289
 30
0.0
 10
4.6865103247
 20
4.4647085404
 30
0.0
 10
4.6841339151
 20
4.4647139115
 30
0.0
  0
SPLINE
  5
2E1
100
AcDbEntity
  8
0
100
AcDbSpline
 62
9
  6
CONTINUOUS
 70
0
 71
3
 72
14
 73
10
 74
0
 42
0.0000001
 43
0.0000001
 44
0.0000000001
 40
0.0
 40
0.0
 40
0.0
 40
0.0
 40
0.0204756288
 40
0.0692954348
 40
0.1520919956
 40
0.2695085742
 40
0.4185399207
 40
0.595220867
 40
1.0
 40
1.0
 40
1.0
 40
1.0
 10
4.7032908736
 20
4.5367220703
 30
0.0
 10
4.7032908765
 20
4.5368152346
 30
0.0
 10
4.7029373967
 20
4.5370015083
 30
0.0
 10
4.7023271216
 20
4.5371488469
 30
0.0
 10
4.7011735979
 20
4.5373470807
 30
0.0
 10
4.699609424
 20
4.5375168488
 30
0.0
 10
4.6975937314
 20
4.537683108
 30
0.0
 10
4.6942780588
 20
4.5378750084
 30
0.0
 10
4.6916323351
 20
4.5379645568
 30
0.0
 10
4.6897910628
 20
4.5380064071
 30
0.0
  0
SPLINE
  5
2E2
100
AcDbEntity
  8
0
100
AcDbSpline
 62
9
  6
CONTINUOUS
 70
0
 71
3
 72
14
 73
10
 74
0
 42
0.0000001
 43
0.0000001
 44
0.0000000001
 40
0.0
 40
0.0
 40
0.0
 40
0.0
 40
0.0201769657
 40
0.0678146931
 40
0.1482300955
 40
0.262993724
 40
0.4097143208
 40
0.5853755453
 40
1.0
 40
1.0
 40
1.0
 40
1.0
 10
4.7032914753
 20
4.5571098035
 30
0.0
 10
4.7032905692
 20
4.5571889308
 30
0.0
 10
4.7029942424
 20
4.557345971
 30
0.0
 10
4.7024811328
 20
4.5574737612
 30
0.0
 10
4.7015134064
 20
4.5576454617
 30
0.0
 10
4.7001939694
 20
4.5577959567
 30
0.0
 10
4.6984810162
 20
4.557947818
 30
0.0
 10
4.6955987403
 20
4.5581348541
 30
0.0
 10
4.6932842381
 20
4.5582289236
 30
0.0
 10
4.6916589024
 20
4.5582795818
 30
0.0
  0
SPLINE
  5
2E3
100
AcDbEntity
  8
0
100
AcDbSpline
 62
9
  6
CONTINUOUS
 70
0
 71
3
 72
13
 73
9
 74
0
 42
0.0000001
 43
0.0000001
 44
0.0000000001
 40
0.0
 40
0.0
 40
0.0
 40
0.0
 40
0.0196740647
 40
0.0654479195
 40
0.1420972575
 40
0.252309972
 40
0.5697438407
 40
1.0
 40
1.0
 40
1.0
 40
1.0
 10
4.7038155707
 20
4.5917163764
 30
0.0
 10
4.7038124679
 20
4.5917743287
 30
0.0
 10
4.7036009081
 20
4.5918863349
 30
0.0
 10
4.7032323612
 20
4.5919929811
 30
0.0
 10
4.7025401163
 20
4.5921354629
 30
0.0
 10
4.7010804839
 20
4.5923508767
 30
0.0
 10
4.6985535257
 20
4.5926170056
 30
0.0
 10
4.6963576445
 20
4.5927855979
 30
0.0
 10
4.6950914433
 20
4.5928725941
 30
0.0
  0
LINE
  5
2E4
100
AcDbEntity
  8
0
100
AcDbLine
 62
9
  6
CONTINUOUS
 10
4.3760324309
 20
4.7211306009
 11
4.38185441
 21
4.7397817633
  0
SPLINE
  5
2E5
100
AcDbEntity
  8
0
100
AcDbSpline
 62
9
  6
CONTINUOUS
 70
0
 71
3
 72
18
 73
14
 74
0
 42
0.0000001
 43
0.0000001
 44
0.0000000001
 40
0.0
 40
0.0
 40
0.0
 40
0.0
 40
0.0046219711
 40
0.0183496274
 40
0.0417164779
 40
0.0751839734
 40
0.1189926688
 40
0.1725302458
 40
0.3054873819
 40
0.4664110042
 40
0.6435243061
 40
0.8246321255
 40
1.0
 40
1.0
 40
1.0
 40
1.0
 10
4.3544824053
 20
4.7510973007
 30
0.0
 10
4.3544819335
 20
4.7510669608
 30
0.0
 10
4.3546683389
 20
4.7510817524
 30
0.0
 10
4.3548758108
 20
4.7510230771
 30
0.0
 10
4.3553761266
 20
4.7510119279
 30
0.0
 10
4.3560186822
 20
4.7509691192
 30
0.0
 10
4.3568835565
 20
4.7509358866
 30
0.0
 10
4.3583912286
 20
4.7508780395
 30
0.0
 10
4.3606730417
 20
4.7508086449
 30
0.0
 10
4.3637632928
 20
4.7507281128
 30
0.0
 10
4.3671709212
 20
4.7506516302
 30
0.0
 10
4.3706732309
 20
4.7505829928
 30
0.0
 10
4.373013193
 20
4.7505427624
 30
0.0
 10
4.374164348
 20
4.7505242869
 30
0.0
  0
LINE
  5
2E6
100
AcDbEntity
  8
0
100
AcDbLine
 62
9
  6
CONTINUOUS
 10
4.7213569799
 20
4.7046122725
 11
4.7090937287
 21
4.7084679414
  0
LINE
  5
2E7
100
AcDbEntity
  8
0
100
AcDbLine
 62
9
  6
CONTINUOUS
 10
4.7568629183
 20
4.7487336187
 11
4.7371806443
 21
4.7481727853
  0
LINE
  5
2E8
100
AcDbEntity
  8
0
100
AcDbLine
 62
9
  6
CONTINUOUS
 10
4.7353934771
 20
4.7188258956
 11
4.7295320918
 21
4.7374858614
  0
SPLINE
  5
2E9
100
AcDbEntity
  8
0
100
AcDbSpline
 62
9
  6
CONTINUOUS
 70
0
 71
3
 72
9
 73
5
 74
0
 42
0.0000001
 43
0.0000001
 44
0.0000000001
 40
0.0
 40
0.0
 40
0.0
 40
0.0
 40
0.5002238482
 40
1.0
 40
1.0
 40
1.0
 40
1.0
 10
4.7371808322
 20
4.7481727164
 30
0.0
 10
4.737193276
 20
4.7458625299
 30
0.0
 10
4.7358171403
 20
4.7410789594
 30
0.0
 10
4.7317316363
 20
4.7381855603
 30
0.0
 10
4.7295320933
 20
4.7374858618
 30
0.0
  0
SPLINE
  5
2EA
100
AcDbEntity
  8
0
100
AcDbSpline
 62
9
  6
CONTINUOUS
 70
0
 71
3
 72
9
 73
5
 74
0
 42
0.0000001
 43
0.0000001
 44
0.0000000001
 40
0.0
 40
0.0
 40
0.0
 40
0.0
 40
0.5000124424
 40
1.0
 40
1.0
 40
1.0
 40
1.0
 10
4.7295320933
 20
4.7374858618
 30
0.0
 10
4.7261211978
 20
4.7364198582
 30
0.0
 10
4.7195346753
 20
4.7334183109
 30
0.0
 10
4.7139742742
 20
4.7287776594
 30
0.0
 10
4.7115492404
 20
4.726153062
 30
0.0
  0
SPLINE
  5
2EB
100
AcDbEntity
  8
0
100
AcDbSpline
 62
7
  6
CONTINUOUS
 70
0
 71
3
 72
9
 73
5
 74
0
 42
0.0000001
 43
0.0000001
 44
0.0000000001
 40
0.0
 40
0.0
 40
0.0
 40
0.0
 40
0.7439001098
 40
1.0
 40
1.0
 40
1.0
 40
1.0
 10
4.8377544456
 20
5.2256802982
 30
0.0
 10
4.8398640377
 20
5.2261585114
 30
0.0
 10
4.8424956632
 20
5.227401911
 30
0.0
 10
4.8445254099
 20
5.2290366816
 30
0.0
 10
4.8450110266
 20
5.2294856157
 30
0.0
  0
SPLINE
  5
2EC
100
AcDbEntity
  8
0
100
AcDbSpline
 62
7
  6
CONTINUOUS
 70
0
 71
3
 72
10
 73
6
 74
0
 42
0.0000001
 43
0.0000001
 44
0.0000000001
 40
0.0
 40
0.0
 40
0.0
 40
0.0
 40
0.1881198556
 40
0.7645445462
 40
1.0
 40
1.0
 40
1.0
 40
1.0
 10
4.8457567348
 20
5.2302286163
 30
0.0
 10
4.8462188415
 20
5.230724943
 30
0.0
 10
4.8479669569
 20
5.2328877547
 30
0.0
 10
4.8496699359
 20
5.2366139932
 30
0.0
 10
4.8499709797
 20
5.2399576098
 30
0.0
 10
4.8499697167
 20
5.2409282069
 30
0.0
  0
SPLINE
  5
2ED
100
AcDbEntity
  8
0
100
AcDbSpline
 62
7
  6
CONTINUOUS
 70
0
 71
3
 72
10
 73
6
 74
0
 42
0.0000001
 43
0.0000001
 44
0.0000000001
 40
0.0
 40
0.0
 40
0.0
 40
0.0
 40
0.214198496
 40
0.8706704571
 40
1.0
 40
1.0
 40
1.0
 40
1.0
 10
4.2662795255
 20
5.2295200904
 30
0.0
 10
4.2667757624
 20
5.2290580949
 30
0.0
 10
4.2689384973
 20
5.2273100936
 30
0.0
 10
4.2722103749
 20
5.2258147683
 30
0.0
 10
4.2750113587
 20
5.2254209169
 30
0.0
 10
4.2754756791
 20
5.2253769868
 30
0.0
  0
SPLINE
  5
2EE
100
AcDbEntity
  8
0
100
AcDbSpline
 62
7
  6
CONTINUOUS
 70
0
 71
3
 72
10
 73
6
 74
0
 42
0.0000001
 43
0.0000001
 44
0.0000000001
 40
0.0
 40
0.0
 40
0.0
 40
0.0
 40
0.1299749846
 40
0.7860557123
 40
1.0
 40
1.0
 40
1.0
 40
1.0
 10
4.2614268465
 20
5.2394328716
 30
0.0
 10
4.2614707873
 20
5.2389659184
 30
0.0
 10
4.2618642817
 20
5.2361621458
 30
0.0
 10
4.2633604987
 20
5.2328883172
 30
0.0
 10
4.2651081809
 20
5.2307257971
 30
0.0
 10
4.2655698655
 20
5.2302298112
 30
0.0
  0
SPLINE
  5
2EF
100
AcDbEntity
  8
0
100
AcDbSpline
 62
7
  6
CONTINUOUS
 70
0
 71
3
 72
11
 73
7
 74
0
 42
0.0000001
 43
0.0000001
 44
0.0000000001
 40
0.0
 40
0.0
 40
0.0
 40
0.0
 40
0.0688338917
 40
0.5189341397
 40
0.9690343877
 40
1.0
 40
1.0
 40
1.0
 40
1.0
 10
4.6762200347
 20
4.2310178281
 30
0.0
 10
4.6762602084
 20
4.243350018
 30
0.0
 10
4.6768612313
 20
4.3363398807
 30
0.0
 10
4.6845784661
 20
4.5103878476
 30
0.0
 10
4.7038487616
 20
4.6771082131
 30
0.0
 10
4.7170036807
 20
4.7627530334
 30
0.0
 10
4.7178636779
 20
4.768263772
 30
0.0
  0
LINE
  5
2F0
100
AcDbEntity
  8
0
100
AcDbLine
 62
7
  6
CONTINUOUS
 10
4.4327273013
 20
4.3572763176
 11
4.4326509749
 21
4.3593744561
  0
LINE
  5
2F1
100
AcDbEntity
  8
0
100
AcDbLine
 62
7
  6
CONTINUOUS
 10
4.3540187936
 20
4.978505827
 11
4.353694401
 21
4.9799821361
  0
LINE
  5
2F2
100
AcDbEntity
  8
0
100
AcDbLine
 62
7
  6
CONTINUOUS
 10
4.353694401
 20
4.9799821361
 11
4.353328816
 21
4.9816422721
  0
LINE
  5
2F3
100
AcDbEntity
  8
0
100
AcDbLine
 62
7
  6
CONTINUOUS
 10
4.353328816
 20
4.9816422721
 11
4.3531573698
 21
4.9824194944
  0
LINE
  5
2F4
100
AcDbEntity
  8
0
100
AcDbLine
 62
7
  6
CONTINUOUS
 10
4.3531573698
 20
4.9824194944
 11
4.3530037452
 21
4.9831152118
  0
LINE
  5
2F5
100
AcDbEntity
  8
0
100
AcDbLine
 62
7
  6
CONTINUOUS
 10
4.3475293671
 20
5.0074812546
 11
4.3473769461
 21
5.0081482093
  0
LINE
  5
2F6
100
AcDbEntity
  8
0
100
AcDbLine
 62
7
  6
CONTINUOUS
 10
4.3473769461
 20
5.0081482093
 11
4.346978671
 21
5.0098881262
  0
LINE
  5
2F7
100
AcDbEntity
  8
0
100
AcDbLine
 62
7
  6
CONTINUOUS
 10
4.6763307918
 20
4.1125534892
 11
4.6762200347
 21
4.2310178281
  0
SPLINE
  5
2F8
100
AcDbEntity
  8
0
100
AcDbSpline
 62
7
  6
CONTINUOUS
 70
0
 71
3
 72
11
 73
7
 74
0
 42
0.0000001
 43
0.0000001
 44
0.0000000001
 40
0.0
 40
0.0
 40
0.0
 40
0.0
 40
0.3089320203
 40
0.6299216424
 40
0.9509112645
 40
1.0
 40
1.0
 40
1.0
 40
1.0
 10
4.3533079088
 20
4.9817370964
 30
0.0
 10
4.3700892979
 20
4.9056303514
 30
0.0
 10
4.3991549412
 20
4.7491248553
 30
0.0
 10
4.4267492466
 20
4.5103878476
 30
0.0
 10
4.4344664786
 20
4.3363399439
 30
0.0
 10
4.4350675035
 20
4.243350144
 30
0.0
 10
4.4351076774
 20
4.2310180171
 30
0.0
  0
LINE
  5
2F9
100
AcDbEntity
  8
0
100
AcDbLine
 62
7
  6
CONTINUOUS
 10
4.4351076774
 20
4.2310180171
 11
4.4349969203
 21
4.1125520766
  0
LINE
  5
2FA
100
AcDbEntity
  8
0
100
AcDbLine
 62
7
  6
CONTINUOUS
 10
4.4350164343
 20
4.1359173753
 11
4.4350178353
 21
4.1369577895
  0
LINE
  5
2FB
100
AcDbEntity
  8
0
100
AcDbLine
 62
7
  6
CONTINUOUS
 10
4.4337287789
 20
4.3256713456
 11
4.4335569285
 21
4.3317765227
  0
LINE
  5
2FC
100
AcDbEntity
  8
0
100
AcDbLine
 62
7
  6
CONTINUOUS
 10
4.6762542404
 20
4.1650880835
 11
4.6763099595
 21
4.1368978156
  0
LINE
  5
2FD
100
AcDbEntity
  8
0
100
AcDbLine
 62
7
  6
CONTINUOUS
 10
4.6763099595
 20
4.1368978156
 11
4.6763112784
 21
4.1359173748
  0
LINE
  5
2FE
100
AcDbEntity
  8
0
100
AcDbLine
 62
7
  6
CONTINUOUS
 10
4.758018464
 20
4.9817310196
 11
4.7587104639
 21
4.9848625609
  0
LINE
  5
2FF
100
AcDbEntity
  8
0
100
AcDbLine
 62
7
  6
CONTINUOUS
 10
4.7636315146
 20
5.0067505554
 11
4.764276952
 21
5.0095734956
  0
LINE
  5
300
100
AcDbEntity
  8
0
100
AcDbLine
 62
7
  6
CONTINUOUS
 10
4.764276952
 20
5.0095734956
 11
4.7643454909
 21
5.0098726319
  0
LINE
  5
301
100
AcDbEntity
  8
0
100
AcDbLine
 62
7
  6
CONTINUOUS
 10
4.7579518362
 20
4.9814287836
 11
4.758018464
 21
4.9817310196
  0
SPLINE
  5
302
100
AcDbEntity
  8
0
100
AcDbSpline
 62
9
  6
CONTINUOUS
 70
0
 71
3
 72
11
 73
7
 74
0
 42
0.0000001
 43
0.0000001
 44
0.0000000001
 40
0.0
 40
0.0
 40
0.0
 40
0.0
 40
0.2097308938
 40
0.4445400066
 40
0.7119153161
 40
1.0
 40
1.0
 40
1.0
 40
1.0
 10
4.4350341597
 20
3.7842767758
 30
0.0
 10
4.4350343056
 20
3.7828116935
 30
0.0
 10
4.4360132485
 20
3.7796808749
 30
0.0
 10
4.4396193794
 20
3.7760560071
 30
0.0
 10
4.4447493522
 20
3.7737789848
 30
0.0
 10
4.4486467345
 20
3.7732286192
 30
0.0
 10
4.4506591598
 20
3.7732286193
 30
0.0
  0
SPLINE
  5
303
100
AcDbEntity
  8
0
100
AcDbSpline
 62
9
  6
CONTINUOUS
 70
0
 71
3
 72
10
 73
6
 74
0
 42
0.0000001
 43
0.0000001
 44
0.0000000001
 40
0.0
 40
0.0
 40
0.0
 40
0.0
 40
0.6365554452
 40
0.8585721094
 40
1.0
 40
1.0
 40
1.0
 40
1.0
 10
4.3051486129
 20
5.2253035929
 30
0.0
 10
4.3020418115
 20
5.2244698341
 30
0.0
 10
4.297672624
 20
5.223660675
 30
0.0
 10
4.2926769661
 20
5.2239672237
 30
0.0
 10
4.2908289207
 20
5.224729081
 30
0.0
 10
4.2904036169
 20
5.2253034409
 30
0.0
  0
SPLINE
  5
304
100
AcDbEntity
  8
0
100
AcDbSpline
 62
9
  6
CONTINUOUS
 70
0
 71
3
 72
11
 73
7
 74
0
 42
0.0000001
 43
0.0000001
 44
0.0000000001
 40
0.0
 40
0.0
 40
0.0
 40
0.0
 40
0.2886644531
 40
0.5563354536
 40
0.7909350385
 40
1.0
 40
1.0
 40
1.0
 40
1.0
 10
4.6606685409
 20
3.894562319
 30
0.0
 10
4.662680489
 20
3.8945623179
 30
0.0
 10
4.6665750737
 20
3.8951088767
 30
0.0
 10
4.67170244
 20
3.8973700024
 30
0.0
 10
4.6753104481
 20
3.9009706223
 30
0.0
 10
4.6762929709
 20
3.9040875125
 30
0.0
 10
4.6762935525
 20
3.9055446639
 30
0.0
  0
LINE
  5
305
100
AcDbEntity
  8
0
100
AcDbLine
 62
9
  6
CONTINUOUS
 10
4.6763300057
 20
4.2591179496
 11
4.6764335439
 21
4.2685734533
  0
LINE
  5
306
100
AcDbEntity
  8
0
100
AcDbLine
 62
9
  6
CONTINUOUS
 10
4.6787387767
 20
4.363082701
 11
4.6788180031
 21
4.3651834748
  0
SPLINE
  5
307
100
AcDbEntity
  8
0
100
AcDbSpline
 62
7
  6
CONTINUOUS
 70
0
 71
3
 72
12
 73
8
 74
0
 42
0.0000001
 43
0.0000001
 44
0.0000000001
 40
0.0
 40
0.0
 40
0.0
 40
0.0
 40
0.2490609796
 40
0.4991594354
 40
0.6243631072
 40
0.7495780072
 40
1.0
 40
1.0
 40
1.0
 40
1.0
 10
4.7023515422
 20
4.7683066139
 30
0.0
 10
4.6953935399
 20
4.7240688817
 30
0.0
 10
4.6831607773
 20
4.6351288923
 30
0.0
 10
4.6723652475
 20
4.5233576409
 30
0.0
 10
4.6662807591
 20
4.4335642326
 30
0.0
 10
4.6621394976
 20
4.3436016353
 30
0.0
 10
4.6609056135
 20
4.2760579331
 30
0.0
 10
4.6606688955
 20
4.2310322536
 30
0.0
  0
LINE
  5
308
100
AcDbEntity
  8
0
100
AcDbLine
 62
9
  6
CONTINUOUS
 10
4.8061908124
 20
5.2253002889
 11
4.8059315337
 21
5.2244325866
  0
LINE
  5
309
100
AcDbEntity
  8
0
100
AcDbLine
 62
9
  6
CONTINUOUS
 10
4.3054042648
 20
5.2244333503
 11
4.3051447499
 21
5.2253023308
  0
SPLINE
  5
30A
100
AcDbEntity
  8
0
100
AcDbSpline
 62
9
  6
CONTINUOUS
 70
0
 71
3
 72
10
 73
6
 74
0
 42
0.0000001
 43
0.0000001
 44
0.0000000001
 40
0.0
 40
0.0
 40
0.0
 40
0.0
 40
0.2524554929
 40
0.5037663634
 40
1.0
 40
1.0
 40
1.0
 40
1.0
 10
4.4506313469
 20
4.2310304228
 30
0.0
 10
4.4506313862
 20
4.2946889238
 30
0.0
 10
4.4472305845
 20
4.4217536548
 30
0.0
 10
4.4265308871
 20
4.6731412063
 30
0.0
 10
4.3956658136
 20
4.8595951446
 30
0.0
 10
4.368548918
 20
4.9817504834
 30
0.0
  0
SPLINE
  5
30B
100
AcDbEntity
  8
0
100
AcDbSpline
 62
9
  6
CONTINUOUS
 70
0
 71
3
 72
11
 73
7
 74
0
 42
0.0000001
 43
0.0000001
 44
0.0000000001
 40
0.0
 40
0.0
 40
0.0
 40
0.0
 40
0.2880846806
 40
0.5554599913
 40
0.7902691066
 40
1.0
 40
1.0
 40
1.0
 40
1.0
 10
4.6606685516
 20
3.7732286221
 30
0.0
 10
4.662680977
 20
3.773228622
 30
0.0
 10
4.6665783593
 20
3.7737789873
 30
0.0
 10
4.6717083323
 20
3.7760560094
 30
0.0
 10
4.6753144636
 20
3.7796808768
 30
0.0
 10
4.6762934069
 20
3.7828116953
 30
0.0
 10
4.676293553
 20
3.7842767776
 30
0.0
  0
LINE
  5
30C
100
AcDbEntity
  8
0
100
AcDbLine
 62
9
  6
CONTINUOUS
 10
4.7641901693
 20
5.0095932869
 11
4.7642588546
 21
5.0098930756
  0
LINE
  5
30D
100
AcDbEntity
  8
0
100
AcDbLine
 62
9
  6
CONTINUOUS
 10
4.7578652156
 20
4.9814475672
 11
4.75793192
 21
4.9817501682
  0
LINE
  5
30E
100
AcDbEntity
  8
0
100
AcDbLine
 62
9
  6
CONTINUOUS
 10
4.75793192
 20
4.9817501682
 11
4.7585546912
 21
4.9845692027
  0
LINE
  5
30F
100
AcDbEntity
  8
0
100
AcDbLine
 62
9
  6
CONTINUOUS
 10
4.7634746162
 20
5.0064626384
 11
4.7641902477
 21
5.0095933784
  0
SPLINE
  5
310
100
AcDbEntity
  8
0
100
AcDbSpline
 62
9
  6
CONTINUOUS
 70
0
 71
3
 72
11
 73
7
 74
0
 42
0.0000001
 43
0.0000001
 44
0.0000000001
 40
0.0
 40
0.0
 40
0.0
 40
0.0
 40
0.2886740871
 40
0.5563473343
 40
0.7909395007
 40
1.0
 40
1.0
 40
1.0
 40
1.0
 10
4.4506605225
 20
3.8945596106
 30
0.0
 10
4.4486480059
 20
3.8945594805
 30
0.0
 10
4.4447523232
 20
3.8951061044
 30
0.0
 10
4.4396237301
 20
3.8973681239
 30
0.0
 10
4.4360154652
 20
3.9009703583
 30
0.0
 10
4.4350339595
 20
3.9040884946
 30
0.0
 10
4.4350341597
 20
3.905545978
 30
0.0
  0
SPLINE
  5
311
100
AcDbEntity
  8
0
100
AcDbSpline
 62
7
  6
CONTINUOUS
 70
0
 71
3
 72
11
 73
7
 74
0
 42
0.0000001
 43
0.0000001
 44
0.0000000001
 40
0.0
 40
0.0
 40
0.0
 40
0.0
 40
0.2682993227
 40
0.5219279096
 40
0.7640981664
 40
1.0
 40
1.0
 40
1.0
 40
1.0
 10
4.6737789185
 20
3.7645770203
 30
0.0
 10
4.6812319771
 20
3.7592092422
 30
0.0
 10
4.6948416084
 20
3.7474260737
 30
0.0
 10
4.7107154603
 20
3.7263607938
 30
0.0
 10
4.7206904658
 20
3.7031001512
 30
0.0
 10
4.722975925
 20
3.6866525552
 30
0.0
 10
4.722975925
 20
3.6785768041
 30
0.0
  0
SPLINE
  5
312
100
AcDbEntity
  8
0
100
AcDbSpline
 62
7
  6
CONTINUOUS
 70
0
 71
3
 72
11
 73
7
 74
0
 42
0.0000001
 43
0.0000001
 44
0.0000000001
 40
0.0
 40
0.0
 40
0.0
 40
0.0
 40
0.2359001274
 40
0.4780702646
 40
0.7316996178
 40
1.0
 40
1.0
 40
1.0
 40
1.0
 10
4.3883302557
 20
3.6785768041
 30
0.0
 10
4.3883302557
 20
3.6866526279
 30
0.0
 10
4.3906157662
 20
3.7031004292
 30
0.0
 10
4.4005910225
 20
3.7263613789
 30
0.0
 10
4.416465332
 20
3.7474269332
 30
0.0
 10
4.4300753596
 20
3.7592101891
 30
0.0
 10
4.4375286227
 20
3.7645780005
 30
0.0
  0
SPLINE
  5
313
100
AcDbEntity
  8
0
100
AcDbSpline
 62
7
  6
CONTINUOUS
 70
0
 71
3
 72
8
 73
4
 74
0
 42
0.0000001
 43
0.0000001
 44
0.0000000001
 40
0.0
 40
0.0
 40
0.0
 40
0.0
 40
1.0
 40
1.0
 40
1.0
 40
1.0
 10
3.8125861784
 20
2.9496981176
 30
0.0
 10
3.8140469197
 20
2.9488637862
 30
0.0
 10
3.815781891
 20
2.9484040497
 30
0.0
 10
3.817464114
 20
2.9484040497
 30
0.0
  0
SPLINE
  5
314
100
AcDbEntity
  8
0
100
AcDbSpline
 62
7
  6
CONTINUOUS
 70
0
 71
3
 72
8
 73
4
 74
0
 42
0.0000001
 43
0.0000001
 44
0.0000000001
 40
0.0
 40
0.0
 40
0.0
 40
0.0
 40
1.0
 40
1.0
 40
1.0
 40
1.0
 10
3.8125861784
 20
4.0525101576
 30
0.0
 10
3.8140469197
 20
4.053344489
 30
0.0
 10
3.815781891
 20
4.0538042255
 30
0.0
 10
3.817464114
 20
4.0538042255
 30
0.0
  0
SPLINE
  5
315
100
AcDbEntity
  8
0
100
AcDbSpline
 62
7
  6
CONTINUOUS
 70
0
 71
3
 72
9
 73
5
 74
0
 42
0.0000001
 43
0.0000001
 44
0.0000000001
 40
0.0
 40
0.0
 40
0.0
 40
0.0
 40
0.4892925153
 40
1.0
 40
1.0
 40
1.0
 40
1.0
 10
4.4158893109
 20
3.6855365166
 30
0.0
 10
4.4158893109
 20
3.6783589562
 30
0.0
 10
4.418208882
 20
3.6636090958
 30
0.0
 10
4.4247430445
 20
3.6502375746
 30
0.0
 10
4.4288511231
 20
3.6439726491
 30
0.0
  0
SPLINE
  5
316
100
AcDbEntity
  8
0
100
AcDbSpline
 62
7
  6
CONTINUOUS
 70
0
 71
3
 72
15
 73
11
 74
0
 42
0.0000001
 43
0.0000001
 44
0.0000000001
 40
0.0
 40
0.0
 40
0.0
 40
0.0
 40
0.1104931862
 40
0.232246572
 40
0.3634672267
 40
0.4999931969
 40
0.636519571
 40
0.7677420312
 40
0.8895002169
 40
1.0
 40
1.0
 40
1.0
 40
1.0
 10
4.4288511231
 20
3.6439726491
 30
0.0
 10
4.4346770601
 20
3.6350879454
 30
0.0
 10
4.450325231
 20
3.6185591374
 30
0.0
 10
4.4806895998
 20
3.6005853526
 30
0.0
 10
4.5167033813
 20
3.5892641005
 30
0.0
 10
4.5556440362
 20
3.5854075485
 30
0.0
 10
4.594585213
 20
3.5892605451
 30
0.0
 10
4.6306007204
 20
3.6005784482
 30
0.0
 10
4.6609682686
 20
3.6185492169
 30
0.0
 10
4.6766196184
 20
3.6350764737
 30
0.0
 10
4.6824472899
 20
3.6439607984
 30
0.0
  0
SPLINE
  5
317
100
AcDbEntity
  8
0
100
AcDbSpline
 62
7
  6
CONTINUOUS
 70
0
 71
3
 72
9
 73
5
 74
0
 42
0.0000001
 43
0.0000001
 44
0.0000000001
 40
0.0
 40
0.0
 40
0.0
 40
0.0
 40
0.510714789
 40
1.0
 40
1.0
 40
1.0
 40
1.0
 10
4.6824472899
 20
3.6439607984
 30
0.0
 10
4.6865577151
 20
3.6502271695
 30
0.0
 10
4.6930957946
 20
3.6636021716
 30
0.0
 10
4.6954168699
 20
3.678356775
 30
0.0
 10
4.6954168699
 20
3.6855365166
 30
0.0
  0
SPLINE
  5
318
100
AcDbEntity
  8
0
100
AcDbSpline
 62
9
  6
CONTINUOUS
 70
0
 71
3
 72
11
 73
7
 74
0
 42
0.0000001
 43
0.0000001
 44
0.0000000001
 40
0.0
 40
0.0
 40
0.0
 40
0.0
 40
0.2879697432
 40
0.5553440702
 40
0.7905331502
 40
1.0
 40
1.0
 40
1.0
 40
1.0
 10
3.817464114
 20
2.9930451314
 30
0.0
 10
3.8161962327
 20
2.9930451314
 30
0.0
 10
3.8137357547
 20
2.9933766121
 30
0.0
 10
3.8105140522
 20
2.9948331837
 30
0.0
 10
3.8082205268
 20
2.9971016607
 30
0.0
 10
3.8076215943
 20
2.9990825973
 30
0.0
 10
3.8076215943
 20
3.0000048439
 30
0.0
  0
SPLINE
  5
319
100
AcDbEntity
  8
0
100
AcDbSpline
 62
9
  6
CONTINUOUS
 70
0
 71
3
 72
11
 73
7
 74
0
 42
0.0000001
 43
0.0000001
 44
0.0000000001
 40
0.0
 40
0.0
 40
0.0
 40
0.0
 40
0.2094668498
 40
0.4446559298
 40
0.7120302568
 40
1.0
 40
1.0
 40
1.0
 40
1.0
 10
3.8076215943
 20
3.0000048439
 30
0.0
 10
3.8076215943
 20
3.0009270904
 30
0.0
 10
3.8082205268
 20
3.002908027
 30
0.0
 10
3.8105140522
 20
3.005176504
 30
0.0
 10
3.8137357547
 20
3.0066330756
 30
0.0
 10
3.8161962327
 20
3.0069645563
 30
0.0
 10
3.817464114
 20
3.0069645563
 30
0.0
  0
SPLINE
  5
31A
100
AcDbEntity
  8
0
100
AcDbSpline
 62
7
  6
CONTINUOUS
 70
0
 71
3
 72
13
 73
9
 74
0
 42
0.0000001
 43
0.0000001
 44
0.0000000001
 40
0.0
 40
0.0
 40
0.0
 40
0.0
 40
0.2870495203
 40
0.5535670004
 40
0.6755016543
 40
0.7893316527
 40
0.8965447119
 40
1.0
 40
1.0
 40
1.0
 40
1.0
 10
4.5556530904
 20
3.4106278762
 30
0.0
 10
4.5772070825
 20
3.4106278762
 30
0.0
 10
4.6189853945
 20
3.4162402628
 30
0.0
 10
4.6661079668
 20
3.4375462303
 30
0.0
 10
4.6950317472
 20
3.4621096705
 30
0.0
 10
4.7108562198
 20
3.4827144369
 30
0.0
 10
4.7207211959
 20
3.5052752924
 30
0.0
 10
4.7229755987
 20
3.5211746491
 30
0.0
 10
4.7229756032
 20
3.5289429062
 30
0.0
  0
SPLINE
  5
31B
100
AcDbEntity
  8
0
100
AcDbSpline
 62
9
  6
CONTINUOUS
 70
0
 71
3
 72
13
 73
9
 74
0
 42
0.0000001
 43
0.0000001
 44
0.0000000001
 40
0.0
 40
0.0
 40
0.0
 40
0.0
 40
0.1034747813
 40
0.2106987701
 40
0.3245271931
 40
0.4464495801
 40
0.7129383396
 40
1.0
 40
1.0
 40
1.0
 40
1.0
 10
4.7229759248
 20
3.6785768041
 30
0.0
 10
4.7229758922
 20
3.6708177788
 30
0.0
 10
4.7207271326
 20
3.6549381821
 30
0.0
 10
4.7108857982
 20
3.6324021611
 30
0.0
 10
4.6950977196
 20
3.6118152709
 30
0.0
 10
4.6662369301
 20
3.5872637487
 30
0.0
 10
4.6192029333
 20
3.565942471
 30
0.0
 10
4.5774908978
 20
3.5602903349
 30
0.0
 10
4.5559656844
 20
3.5602618996
 30
0.0
  0
SPLINE
  5
31C
100
AcDbEntity
  8
0
100
AcDbSpline
 62
7
  6
CONTINUOUS
 70
0
 71
3
 72
13
 73
9
 74
0
 42
0.0000001
 43
0.0000001
 44
0.0000000001
 40
0.0
 40
0.0
 40
0.0
 40
0.0
 40
0.1034548066
 40
0.2106664644
 40
0.3244945684
 40
0.4464277402
 40
0.7129459835
 40
1.0
 40
1.0
 40
1.0
 40
1.0
 10
4.3883305776
 20
3.5289430684
 30
0.0
 10
4.3883305732
 20
3.5211748427
 30
0.0
 10
4.3905849091
 20
3.5052756141
 30
0.0
 10
4.4004496819
 20
3.4827149697
 30
0.0
 10
4.4162738081
 20
3.4621103802
 30
0.0
 10
4.4451972554
 20
3.4375468196
 30
0.0
 10
4.4923199997
 20
3.4162404061
 30
0.0
 10
4.5340987474
 20
3.4106278762
 30
0.0
 10
4.5556530904
 20
3.4106278762
 30
0.0
  0
SPLINE
  5
31D
100
AcDbEntity
  8
0
100
AcDbSpline
 62
9
  6
CONTINUOUS
 70
0
 71
3
 72
11
 73
7
 74
0
 42
0.0000001
 43
0.0000001
 44
0.0000000001
 40
0.0
 40
0.0
 40
0.0
 40
0.0
 40
0.2879697432
 40
0.5553440702
 40
0.7905331502
 40
1.0
 40
1.0
 40
1.0
 40
1.0
 10
5.2938420668
 20
2.951286857
 30
0.0
 10
5.2951099481
 20
2.951286857
 30
0.0
 10
5.2975704261
 20
2.9516183376
 30
0.0
 10
5.3007921286
 20
2.9530749092
 30
0.0
 10
5.3030856539
 20
2.9553433862
 30
0.0
 10
5.3036845865
 20
2.9573243228
 30
0.0
 10
5.3036845865
 20
2.9582465694
 30
0.0
  0
SPLINE
  5
31E
100
AcDbEntity
  8
0
100
AcDbSpline
 62
9
  6
CONTINUOUS
 70
0
 71
3
 72
11
 73
7
 74
0
 42
0.0000001
 43
0.0000001
 44
0.0000000001
 40
0.0
 40
0.0
 40
0.0
 40
0.0
 40
0.2094668498
 40
0.4446559298
 40
0.7120302568
 40
1.0
 40
1.0
 40
1.0
 40
1.0
 10
3.8076215943
 20
2.9582465694
 30
0.0
 10
3.8076215943
 20
2.9573243228
 30
0.0
 10
3.8082205268
 20
2.9553433862
 30
0.0
 10
3.8105140522
 20
2.9530749092
 30
0.0
 10
3.8137357547
 20
2.9516183376
 30
0.0
 10
3.8161962327
 20
2.951286857
 30
0.0
 10
3.817464114
 20
2.951286857
 30
0.0
  0
SPLINE
  5
31F
100
AcDbEntity
  8
0
100
AcDbSpline
 62
9
  6
CONTINUOUS
 70
0
 71
3
 72
11
 73
7
 74
0
 42
0.0000001
 43
0.0000001
 44
0.0000000001
 40
0.0
 40
0.0
 40
0.0
 40
0.0
 40
0.2879697432
 40
0.5553440702
 40
0.7905331502
 40
1.0
 40
1.0
 40
1.0
 40
1.0
 10
3.817464114
 20
4.0509214183
 30
0.0
 10
3.8161962327
 20
4.0509214183
 30
0.0
 10
3.8137357547
 20
4.0505899376
 30
0.0
 10
3.8105140522
 20
4.049133366
 30
0.0
 10
3.8082205268
 20
4.046864889
 30
0.0
 10
3.8076215943
 20
4.0448839524
 30
0.0
 10
3.8076215943
 20
4.0439617058
 30
0.0
  0
SPLINE
  5
320
100
AcDbEntity
  8
0
100
AcDbSpline
 62
9
  6
CONTINUOUS
 70
0
 71
3
 72
11
 73
7
 74
0
 42
0.0000001
 43
0.0000001
 44
0.0000000001
 40
0.0
 40
0.0
 40
0.0
 40
0.0
 40
0.2879697432
 40
0.5553440702
 40
0.7905331502
 40
1.0
 40
1.0
 40
1.0
 40
1.0
 10
5.2938420668
 20
3.0069645563
 30
0.0
 10
5.2951099481
 20
3.0069645563
 30
0.0
 10
5.2975704261
 20
3.0066330756
 30
0.0
 10
5.3007921286
 20
3.005176504
 30
0.0
 10
5.3030856539
 20
3.002908027
 30
0.0
 10
5.3036845865
 20
3.0009270904
 30
0.0
 10
5.3036845865
 20
3.0000048439
 30
0.0
  0
SPLINE
  5
321
100
AcDbEntity
  8
0
100
AcDbSpline
 62
9
  6
CONTINUOUS
 70
0
 71
3
 72
11
 73
7
 74
0
 42
0.0000001
 43
0.0000001
 44
0.0000000001
 40
0.0
 40
0.0
 40
0.0
 40
0.0
 40
0.2094668498
 40
0.4446559298
 40
0.7120302568
 40
1.0
 40
1.0
 40
1.0
 40
1.0
 10
5.3036845865
 20
4.0439617058
 30
0.0
 10
5.3036845865
 20
4.0448839524
 30
0.0
 10
5.3030856539
 20
4.046864889
 30
0.0
 10
5.3007921286
 20
4.049133366
 30
0.0
 10
5.2975704261
 20
4.0505899376
 30
0.0
 10
5.2951099481
 20
4.0509214183
 30
0.0
 10
5.2938420668
 20
4.0509214183
 30
0.0
  0
SPLINE
  5
322
100
AcDbEntity
  8
0
100
AcDbSpline
 62
9
  6
CONTINUOUS
 70
0
 71
3
 72
11
 73
7
 74
0
 42
0.0000001
 43
0.0000001
 44
0.0000000001
 40
0.0
 40
0.0
 40
0.0
 40
0.0
 40
0.2094668498
 40
0.4446559298
 40
0.7120302568
 40
1.0
 40
1.0
 40
1.0
 40
1.0
 10
5.3036845865
 20
3.0000048439
 30
0.0
 10
5.3036845865
 20
2.9990825973
 30
0.0
 10
5.3030856539
 20
2.9971016607
 30
0.0
 10
5.3007921286
 20
2.9948331837
 30
0.0
 10
5.2975704261
 20
2.9933766121
 30
0.0
 10
5.2951099481
 20
2.9930451314
 30
0.0
 10
5.2938420668
 20
2.9930451314
 30
0.0
  0
SPLINE
  5
323
100
AcDbEntity
  8
0
100
AcDbSpline
 62
7
  6
CONTINUOUS
 70
0
 71
3
 72
9
 73
5
 74
0
 42
0.0000001
 43
0.0000001
 44
0.0000000001
 40
0.0
 40
0.0
 40
0.0
 40
0.0
 40
0.4832530532
 40
1.0
 40
1.0
 40
1.0
 40
1.0
 10
4.6954168699
 20
3.6855365166
 30
0.0
 10
4.6954168699
 20
3.6948088647
 30
0.0
 10
4.6914296962
 20
3.7141547437
 30
0.0
 10
4.6806888954
 20
3.7305524186
 30
0.0
 10
4.6741171029
 20
3.7379766301
 30
0.0
  0
LINE
  5
324
100
AcDbEntity
  8
0
100
AcDbLine
 62
7
  6
CONTINUOUS
 10
4.4375940644
 20
3.7384312997
 11
4.4373951548
 21
3.738208626
  0
SPLINE
  5
325
100
AcDbEntity
  8
0
100
AcDbSpline
 62
7
  6
CONTINUOUS
 70
0
 71
3
 72
9
 73
5
 74
0
 42
0.0000001
 43
0.0000001
 44
0.0000000001
 40
0.0
 40
0.0
 40
0.0
 40
0.0
 40
0.5168888816
 40
1.0
 40
1.0
 40
1.0
 40
1.0
 10
4.4373951548
 20
3.738208626
 30
0.0
 10
4.4307638427
 20
3.7307631378
 30
0.0
 10
4.4199195017
 20
3.7143051868
 30
0.0
 10
4.4158893109
 20
3.6948554025
 30
0.0
 10
4.4158893109
 20
3.6855365166
 30
0.0
  0
SPLINE
  5
326
100
AcDbEntity
  8
0
100
AcDbSpline
 62
9
  6
CONTINUOUS
 70
0
 71
3
 72
15
 73
11
 74
0
 42
0.0000001
 43
0.0000001
 44
0.0000000001
 40
0.0
 40
0.0
 40
0.0
 40
0.0
 40
0.1219005993
 40
0.2331912569
 40
0.2869522098
 40
0.3406632796
 40
0.4515894816
 40
0.5729311447
 40
0.7067829337
 40
1.0
 40
1.0
 40
1.0
 40
1.0
 10
4.6737741696
 20
3.7591817375
 30
0.0
 10
4.6831980395
 20
3.7516233708
 30
0.0
 10
4.6994804175
 20
3.7346367733
 30
0.0
 10
4.7112640143
 20
3.7079591124
 30
0.0
 10
4.7136715625
 20
3.686271177
 30
0.0
 10
4.7116706512
 20
3.6645800648
 30
0.0
 10
4.7003759814
 20
3.6377724124
 30
0.0
 10
4.6752430436
 20
3.6107859152
 30
0.0
 10
4.6282711579
 20
3.5825058941
 30
0.0
 10
4.5850034515
 20
3.5742195584
 30
0.0
 10
4.5559453279
 20
3.5741811719
 30
0.0
  0
SPLINE
  5
327
100
AcDbEntity
  8
0
100
AcDbSpline
 62
9
  6
CONTINUOUS
 70
0
 71
3
 72
15
 73
11
 74
0
 42
0.0000001
 43
0.0000001
 44
0.0000000001
 40
0.0
 40
0.0
 40
0.0
 40
0.0
 40
0.2932285201
 40
0.4271140097
 40
0.5484843837
 40
0.6594178996
 40
0.713123062
 40
0.7668727332
 40
0.8781311192
 40
1.0
 40
1.0
 40
1.0
 40
1.0
 10
4.5556523148
 20
3.5741811719
 30
0.0
 10
4.5265665721
 20
3.5741811719
 30
0.0
 10
4.4832446289
 20
3.582427045
 30
0.0
 10
4.4361906048
 20
3.6106809135
 30
0.0
 10
4.4109968204
 20
3.6376660355
 30
0.0
 10
4.3996581423
 20
3.6644877471
 30
0.0
 10
4.3976331373
 20
3.6861957708
 30
0.0
 10
4.4000233627
 20
3.7079008866
 30
0.0
 10
4.4117995732
 20
3.7346040292
 30
0.0
 10
4.4280888812
 20
3.7516058069
 30
0.0
 10
4.4375178345
 20
3.7591703873
 30
0.0
  0
SPLINE
  5
328
100
AcDbEntity
  8
0
100
AcDbSpline
 62
9
  6
CONTINUOUS
 70
0
 71
3
 72
13
 73
9
 74
0
 42
0.0000001
 43
0.0000001
 44
0.0000000001
 40
0.0
 40
0.0
 40
0.0
 40
0.0
 40
0.2870489067
 40
0.5535682885
 40
0.6755020149
 40
0.7893310816
 40
0.8965440085
 40
1.0
 40
1.0
 40
1.0
 40
1.0
 10
4.5556530904
 20
3.5602616931
 30
0.0
 10
4.5340991098
 20
3.5602616931
 30
0.0
 10
4.4923206384
 20
3.5658740627
 30
0.0
 10
4.4451979344
 20
3.5871800528
 30
0.0
 10
4.416274117
 20
3.6117435412
 30
0.0
 10
4.4004496872
 20
3.6323482029
 30
0.0
 10
4.3905846857
 20
3.6549090526
 30
0.0
 10
4.3883302233
 20
3.6708084818
 30
0.0
 10
4.388330256
 20
3.6785768041
 30
0.0
  0
ENDSEC
  0
SECTION
  2
OBJECTS
  0
DICTIONARY
  5
C
100
AcDbDictionary
280
0
281
1
  3
ACAD_GROUP
350
D
  3
ACAD_MLINESTYLE
350
17
  3
ACAD_LAYOUT
350
1A
  3
ACAD_PLOTSETTINGS
350
19
  3
ACAD_PLOTSTYLENAME
350
E
  0
DICTIONARY
  5
D
102
{ACAD_REACTORS
330
C
102
}
100
AcDbDictionary
280
0
281
1
  0
ACDBDICTIONARYWDFLT
  5
E
102
{ACAD_REACTORS
330
C
102
}
100
AcDbDictionary
281
1
  3
Normal
350
F
100
AcDbDictionaryWithDefault
340
F
  0
DICTIONARY
  5
17
102
{ACAD_REACTORS
330
C
102
}
100
AcDbDictionary
280
0
281
1
  3
Standard
350
18
  0
DICTIONARY
  5
19
102
{ACAD_REACTORS
330
C
102
}
100
AcDbDictionary
281
1
  0
DICTIONARY
  5
1A
102
{ACAD_REACTORS
330
C
102
}
100
AcDbDictionary
281
1
  3
Model
350
329
  3
Layout1
350
32A
  0
ACDBPLACEHOLDER
  5
F
102
{ACAD_REACTORS
330
E
102
}
  0
MLINESTYLE
  5
18
102
{ACAD_REACTORS
330
17
102
}
100
AcDbMlineStyle
  2
STANDARD
 70
0
  3

 62
256
 51
90.0
 52
90.0
 71
2
 49
0.5
 62
256
  6
BYLAYER
 49
-0.5
 62
256
  6
BYLAYER
  0
LAYOUT
  5
329
102
{ACAD_REACTORS
330
1A
102
}
100
AcDbPlotSettings
  1

  2
none_device
  4
ANSI_A_(11.00_x_8.50_Inches)
  6

 40
0.0
 41
0.0
 42
0.0
 43
0.0
 44
279.4
 45
215.9
 46
0.0
 47
0.0
 48
0.0
 49
0.0
140
0.0
141
0.0
142
1.0
143
1.0
 70
1024
 72
0
 73
0
 74
0
  7

 75
0
147
1.0
148
0.0
149
0.0
100
AcDbLayout
  1
Model
 70
0
 71
0
 10
0.0
 20
0.0
 11
11.0
 21
8.5
 12
0.0
 22
0.0
 32
0.0
 14
0.0
 24
0.0
 34
0.0
 15
0.0
 25
0.0
 35
0.0
146
0.0
 13
0.0
 23
0.0
 33
0.0
 16
1.0
 26
0.0
 36
0.0
 17
0.0
 27
1.0
 37
0.0
 76
0
330
213
345
0
346
0
  0
LAYOUT
  5
32A
102
{ACAD_REACTORS
330
1A
102
}
100
AcDbPlotSettings
  1

  2
none_device
  4
ANSI_A_(11.00_x_8.50_Inches)
  6

 40
0.0
 41
0.0
 42
0.0
 43
0.0
 44
279.4
 45
215.9
 46
0.0
 47
0.0
 48
0.0
 49
0.0
140
0.0
141
0.0
142
1.0
143
1.0
 70
0
 72
0
 73
0
 74
0
  7

 75
0
147
1.0
148
0.0
149
0.0
100
AcDbLayout
  1
Layout1
 70
0
 71
1
 10
0.0
 20
0.0
 11
11.0
 21
8.5
 12
0.0
 22
0.0
 32
0.0
 14
0.0
 24
0.0
 34
0.0
 15
0.0
 25
0.0
 35
0.0
146
0.0
 13
0.0
 23
0.0
 33
0.0
 16
1.0
 26
0.0
 36
0.0
 17
0.0
 27
1.0
 37
0.0
 76
0
330
214
345
0
346
0
  0
ENDSEC
  0
EOF
