999
DXF file: 3-8104bp_top.dxf
999
Pro/ENGINEER 2013150 by Parametric Technology Corporation
  0
SECTION
  2
HEADER
  9
$ACADVER
  1
AC1021
  9
$DWGCODEPAGE
  3
ANSI_1252
  9
$EXTMAX
 10
11.0
 20
8.5
 30
0.0
  9
$EXTMIN
 10
0.0
 20
0.0
 30
0.0
  9
$LIMMIN
 10
0.0
 20
0.0
  9
$LIMMAX
 10
11.0
 20
8.5
  9
$VIEWCTR
 10
5.5
 20
4.25
  9
$VIEWSIZE
 40
8.5
  9
$CLAYER
  8
0
  9
$LTSCALE
 40
0.605
  9
$CELTYPE
  6
BYLAYER
  9
$DIMSCALE
 40
1.0
  9
$DIMASZ
 40
0.1
  9
$DIMEXO
 40
0.0625
  9
$DIMDLI
 40
0.418
  9
$DIMEXE
 40
0.125
  9
$DIMCEN
 40
0.099
  9
$DIMLFAC
 40
1.0
  9
$DIMBLK
  1
_FILLED
  9
$DIMTXT
 40
0.08
  9
$DIMTOL
 70
1
  9
$DIMLIM
 70
0
  9
$DIMTFAC
 40
1.0
  9
$DIMTP
 40
0.001
  9
$DIMTM
 40
0.001
  9
$DIMGAP
 40
0.09
  9
$DIMDSEP
 70
46
  9
$PDMODE
 70
3
  9
$PDSIZE
 40
0.06
  9
$HANDSEED
  5
2F7
  9
$TILEMODE
 70
1
  9
$MEASUREMENT
 70
0
  9
$INSUNITS
 70
1
  0
ENDSEC
  0
SECTION
  2
CLASSES
  0
CLASS
  1
ACDBDICTIONARYWDFLT
  2
AcDbDictionaryWithDefault
  3
AutoCAD 2000
 90
0
 91
1
280
0
281
0
  0
CLASS
  1
ACDBPLACEHOLDER
  2
AcDbPlaceHolder
  3
AutoCAD 2000
 90
0
 91
1
280
0
281
0
  0
CLASS
  1
LAYOUT
  2
AcDbLayout
  3
AutoCAD 2000
 90
0
 91
0
280
0
281
0
  0
ENDSEC
  0
SECTION
  2
TABLES
  0
TABLE
  2
VPORT
  5
8
100
AcDbSymbolTable
 70
2
  0
VPORT
  5
1F4
100
AcDbSymbolTableRecord
100
AcDbViewportTableRecord
  2
*ACTIVE
 70
0
 10
0.0
 20
0.0
 11
1.0
 21
1.0
 12
5.5
 22
4.25
 13
0.0
 23
0.0
 14
1.0
 24
1.0
 15
0.0
 25
0.0
 16
0.0
 26
0.0
 36
1.0
 17
0.0
 27
0.0
 37
0.0
 40
8.5
 41
1.2941176471
 42
50.0
 43
0.0
 44
0.0
 50
0.0
 51
0.0
 71
0
 72
100
 73
1
 74
1
 75
0
 76
0
 77
0
 78
0
  0
ENDTAB
  0
TABLE
  2
LTYPE
  5
5
100
AcDbSymbolTable
 70
6
  0
LTYPE
  5
14
100
AcDbSymbolTableRecord
100
AcDbLinetypeTableRecord
  2
BYBLOCK
 70
0
  3

 72
65
 73
0
 40
0.0
  0
LTYPE
  5
15
100
AcDbSymbolTableRecord
100
AcDbLinetypeTableRecord
  2
BYLAYER
 70
0
  3

 72
65
 73
0
 40
0.0
  0
LTYPE
  5
16
100
AcDbSymbolTableRecord
100
AcDbLinetypeTableRecord
  2
CONTINUOUS
 70
64
  3
Solid line
 72
65
 73
0
 40
0.0
  0
LTYPE
  5
1F5
100
AcDbSymbolTableRecord
100
AcDbLinetypeTableRecord
  2
CENTER
 70
64
  3
____ _ ____ _ ____ _ ____ _ ____ _ ____ _ ____
 72
65
 73
4
 40
0.6
 49
0.375
 74
0
 49
-0.075
 74
0
 49
0.075
 74
0
 49
-0.075
 74
0
  0
LTYPE
  5
1F6
100
AcDbSymbolTableRecord
100
AcDbLinetypeTableRecord
  2
HIDDEN
 70
64
  3
- - - - - - - - - - - - - - - - - - - -
 72
65
 73
2
 40
0.2
 49
0.1
 74
0
 49
-0.1
 74
0
  0
LTYPE
  5
1F7
100
AcDbSymbolTableRecord
100
AcDbLinetypeTableRecord
  2
PHANTOM
 70
64
  3
_____ _ _ _____ _ _ _____ _ _ _____
 72
65
 73
6
 40
0.8
 49
0.45
 74
0
 49
-0.05
 74
0
 49
0.1
 74
0
 49
-0.05
 74
0
 49
0.1
 74
0
 49
-0.05
 74
0
  0
LTYPE
  5
1F8
100
AcDbSymbolTableRecord
100
AcDbLinetypeTableRecord
  2
DOT
 70
64
  3
. . . . . . . . . . . . . . . . . . . .
 72
65
 73
2
 40
0.2
 49
0.1
 74
0
 49
-0.1
 74
0
  0
LTYPE
  5
1F9
100
AcDbSymbolTableRecord
100
AcDbLinetypeTableRecord
  2
DASHED
 70
64
  3
- - - - - - - - - - - - - - - - - - - -
 72
65
 73
2
 40
0.2
 49
0.1
 74
0
 49
-0.1
 74
0
  0
ENDTAB
  0
TABLE
  2
LAYER
  5
2
100
AcDbSymbolTable
 70
36
  0
LAYER
  5
10
100
AcDbSymbolTableRecord
100
AcDbLayerTableRecord
  2
0
 70
0
 62
7
  6
CONTINUOUS
370
-3
390
F
  0
LAYER
  5
1FA
100
AcDbSymbolTableRecord
100
AcDbLayerTableRecord
  2
DEFAULT_1
 70
0
 62
7
  6
CENTER
370
-3
390
F
  0
LAYER
  5
1FB
100
AcDbSymbolTableRecord
100
AcDbLayerTableRecord
  2
DEFAULT_2
 70
0
 62
8
  6
HIDDEN
370
-3
390
F
  0
LAYER
  5
1FC
100
AcDbSymbolTableRecord
100
AcDbLayerTableRecord
  2
DEFAULT_3
 70
0
 62
7
  6
PHANTOM
370
-3
390
F
  0
LAYER
  5
1FD
100
AcDbSymbolTableRecord
100
AcDbLayerTableRecord
  2
ALL_FEATURES
 70
0
 62
7
  6
CONTINUOUS
370
-3
390
F
  0
LAYER
  5
1FE
100
AcDbSymbolTableRecord
100
AcDbLayerTableRecord
  2
AXES_FEATURES
 70
0
 62
7
  6
CONTINUOUS
370
-3
390
F
  0
LAYER
  5
1FF
100
AcDbSymbolTableRecord
100
AcDbLayerTableRecord
  2
CTCB0231_1
 70
0
 62
7
  6
CONTINUOUS
370
-3
390
F
  0
LAYER
  5
200
100
AcDbSymbolTableRecord
100
AcDbLayerTableRecord
  2
CTCB0486_1
 70
0
 62
7
  6
CONTINUOUS
370
-3
390
F
  0
LAYER
  5
201
100
AcDbSymbolTableRecord
100
AcDbLayerTableRecord
  2
DEFAULT_COORDINATE_SYSTEM
 70
0
 62
7
  6
CONTINUOUS
370
-3
390
F
  0
LAYER
  5
202
100
AcDbSymbolTableRecord
100
AcDbLayerTableRecord
  2
DEFAULT_DATUM_AXES
 70
0
 62
7
  6
CONTINUOUS
370
-3
390
F
  0
LAYER
  5
203
100
AcDbSymbolTableRecord
100
AcDbLayerTableRecord
  2
DEFAULT_DATUM_CURVES
 70
0
 62
7
  6
CONTINUOUS
370
-3
390
F
  0
LAYER
  5
204
100
AcDbSymbolTableRecord
100
AcDbLayerTableRecord
  2
DEFAULT_DATUM_PLANES
 70
0
 62
7
  6
CONTINUOUS
370
-3
390
F
  0
LAYER
  5
205
100
AcDbSymbolTableRecord
100
AcDbLayerTableRecord
  2
DEFAULT_SURFACES
 70
0
 62
7
  6
CONTINUOUS
370
-3
390
F
  0
LAYER
  5
206
100
AcDbSymbolTableRecord
100
AcDbLayerTableRecord
  2
DIMENSIONS
 70
0
 62
7
  6
CONTINUOUS
370
-3
390
F
  0
LAYER
  5
207
100
AcDbSymbolTableRecord
100
AcDbLayerTableRecord
  2
PLATE-A_ASM_2
 70
0
 62
7
  6
CONTINUOUS
370
-3
390
F
  0
LAYER
  5
208
100
AcDbSymbolTableRecord
100
AcDbLayerTableRecord
  2
___SHELL
 70
0
 62
7
  6
CONTINUOUS
370
-3
390
F
  0
ENDTAB
  0
TABLE
  2
STYLE
  5
3
100
AcDbSymbolTable
 70
1
  0
STYLE
  5
11
100
AcDbSymbolTableRecord
100
AcDbTextStyleTableRecord
  2
STANDARD
 70
0
 40
0.0
 41
0.8
 50
0.0
 71
0
 42
0.2
  3
txt
  4

  0
STYLE
  5
209
100
AcDbSymbolTableRecord
100
AcDbTextStyleTableRecord
  2
TEXTSTYLE_1
 70
0
 40
0.0
 41
0.8
 50
0.0
 71
0
 42
0.2
  3
gdt
  4

  0
ENDTAB
  0
TABLE
  2
VIEW
  5
6
100
AcDbSymbolTable
 70
0
  0
ENDTAB
  0
TABLE
  2
UCS
  5
7
100
AcDbSymbolTable
 70
0
  0
ENDTAB
  0
TABLE
  2
APPID
  5
9
100
AcDbSymbolTable
 70
1
  0
APPID
  5
20A
100
AcDbSymbolTableRecord
100
AcDbRegAppTableRecord
  2
ACAD
 70
0
  0
ENDTAB
  0
TABLE
  2
BLOCK_RECORD
  5
1
100
AcDbSymbolTable
 70
0
  0
BLOCK_RECORD
  5
20B
100
AcDbSymbolTableRecord
100
AcDbBlockTableRecord
  2
*Model_Space
  0
BLOCK_RECORD
  5
20C
100
AcDbSymbolTableRecord
100
AcDbBlockTableRecord
  2
*Paper_Space
  0
ENDTAB
  0
TABLE
  2
DIMSTYLE
  5
A
100
AcDbSymbolTable
 70
1
100
AcDbDimStyleTable
 71
0
  0
DIMSTYLE
105
20D
100
AcDbSymbolTableRecord
100
AcDbDimStyleTableRecord
  2
STANDARD
 70
0
  3

  4

 40
1.0
 41
0.1
 42
0.0625
 43
0.38
 44
0.125
 45
0.0
 46
0.0
 47
0.001
 48
0.001
140
0.08
141
0.09
142
0.0
143
25.4
144
1.0
145
0.0
146
1.0
147
0.09
 71
1.0
 72
0.0
 73
1
 74
1
 75
0
 76
0
 77
0
 78
4
170
0
171
2
172
0
173
0
174
0
175
0
176
0
177
0
178
0
270
2
271
3
272
3
273
2
274
2
275
0
280
0
281
0
282
0
283
1
284
4
285
0
286
0
287
3
288
0
340
11
278
46
  0
ENDTAB
  0
ENDSEC
  0
SECTION
  2
BLOCKS
  0
BLOCK
  5
20
100
AcDbEntity
  8
0
100
AcDbBlockBegin
  2
*Model_Space
 70
0
 10
0.0
 20
0.0
 30
0.0
  3
*Model_Space
  1

  0
ENDBLK
  5
21
100
AcDbEntity
  8
0
100
AcDbBlockEnd
  0
BLOCK
  5
1C
100
AcDbEntity
  8
0
100
AcDbBlockBegin
  2
*Paper_Space
 70
0
 10
0.0
 20
0.0
 30
0.0
  3
*Paper_Space
  1

  0
ENDBLK
  5
1D
100
AcDbEntity
  8
0
100
AcDbBlockEnd
  0
ENDSEC
  0
SECTION
  2
ENTITIES
  0
LINE
  5
20E
100
AcDbEntity
  8
0
100
AcDbLine
 62
7
  6
CONTINUOUS
 10
0.0
 20
0.0
 11
0.0
 21
8.5
  0
LINE
  5
20F
100
AcDbEntity
  8
0
100
AcDbLine
 62
7
  6
CONTINUOUS
 10
0.0
 20
0.0
 11
11.0
 21
0.0
  0
LINE
  5
210
100
AcDbEntity
  8
0
100
AcDbLine
 62
7
  6
CONTINUOUS
 10
0.0
 20
8.5
 11
11.0
 21
8.5
  0
LINE
  5
211
100
AcDbEntity
  8
0
100
AcDbLine
 62
7
  6
CONTINUOUS
 10
11.0
 20
0.0
 11
11.0
 21
8.5
  0
LINE
  5
212
100
AcDbEntity
  8
0
100
AcDbLine
 62
7
  6
CONTINUOUS
 10
5.0515723387
 20
3.5335027936
 11
3.575194386
 21
3.5335027936
  0
LINE
  5
213
100
AcDbEntity
  8
0
100
AcDbLine
 62
9
  6
CONTINUOUS
 10
3.575194386
 20
3.5363856008
 11
5.0515723387
 21
3.5363856008
  0
LINE
  5
214
100
AcDbEntity
  8
0
100
AcDbLine
 62
9
  6
CONTINUOUS
 10
5.0515723387
 20
3.5781438753
 11
3.575194386
 21
3.5781438753
  0
LINE
  5
215
100
AcDbEntity
  8
0
100
AcDbLine
 62
9
  6
CONTINUOUS
 10
3.575194386
 20
3.5920633001
 11
5.0515723387
 21
3.5920633001
  0
LINE
  5
216
100
AcDbEntity
  8
0
100
AcDbLine
 62
7
  6
CONTINUOUS
 10
3.5653518663
 20
3.5433453133
 11
3.5653518663
 21
4.6290604497
  0
LINE
  5
217
100
AcDbEntity
  8
0
100
AcDbLine
 62
9
  6
CONTINUOUS
 10
3.575194386
 20
4.6389029694
 11
3.575194386
 21
3.5335027936
  0
LINE
  5
218
100
AcDbEntity
  8
0
100
AcDbLine
 62
7
  6
CONTINUOUS
 10
4.34712182
 20
4.3082177075
 11
4.2796449047
 21
4.3082177075
  0
LINE
  5
219
100
AcDbEntity
  8
0
100
AcDbLine
 62
7
  6
CONTINUOUS
 10
4.0190842395
 20
5.8260271157
 11
4.0190842395
 21
5.841652117
  0
LINE
  5
21A
100
AcDbEntity
  8
0
100
AcDbLine
 62
7
  6
CONTINUOUS
 10
4.2083894326
 20
4.3537512326
 11
4.418398824
 21
4.3537512326
  0
LINE
  5
21B
100
AcDbEntity
  8
0
100
AcDbLine
 62
9
  6
CONTINUOUS
 10
4.418398824
 20
4.358327338
 11
4.2083894326
 21
4.358327338
  0
LINE
  5
21C
100
AcDbEntity
  8
0
100
AcDbLine
 62
7
  6
CONTINUOUS
 10
4.1460605277
 20
4.263675548
 11
4.1460605277
 21
4.1140417311
  0
LINE
  5
21D
100
AcDbEntity
  8
0
100
AcDbLine
 62
9
  6
CONTINUOUS
 10
4.0660841917
 20
5.8104021615
 11
4.0660842395
 21
5.841652117
  0
LINE
  5
21E
100
AcDbEntity
  8
0
100
AcDbLine
 62
7
  6
CONTINUOUS
 10
4.1927627525
 20
4.6138571549
 11
4.1927255002
 21
4.6772435249
  0
LINE
  5
21F
100
AcDbEntity
  8
0
100
AcDbLine
 62
9
  6
CONTINUOUS
 10
4.1559031237
 20
4.2706358088
 11
4.1559031237
 21
4.2704286173
  0
LINE
  5
220
100
AcDbEntity
  8
0
100
AcDbLine
 62
7
  6
CONTINUOUS
 10
4.1746038348
 20
4.2706352604
 11
4.1746038348
 21
4.2592280607
  0
LINE
  5
221
100
AcDbEntity
  8
0
100
AcDbLine
 62
7
  6
CONTINUOUS
 10
4.1952731261
 20
4.3608400502
 11
4.1952731454
 21
4.3255692474
  0
LINE
  5
222
100
AcDbEntity
  8
0
100
AcDbLine
 62
9
  6
CONTINUOUS
 10
4.2083894326
 20
4.353751233
 11
4.2083893893
 21
4.8161291667
  0
LINE
  5
223
100
AcDbEntity
  8
0
100
AcDbLine
 62
7
  6
CONTINUOUS
 10
4.1927832724
 20
4.4906428182
 11
4.1927644316
 21
4.3693754979
  0
LINE
  5
224
100
AcDbEntity
  8
0
100
AcDbLine
 62
7
  6
CONTINUOUS
 10
4.1927832724
 20
4.4906428182
 11
4.1927276476
 21
4.6983665861
  0
LINE
  5
225
100
AcDbEntity
  8
0
100
AcDbLine
 62
7
  6
CONTINUOUS
 10
4.1927276476
 20
4.6983665861
 11
4.1927467062
 21
4.7210161192
  0
LINE
  5
226
100
AcDbEntity
  8
0
100
AcDbLine
 62
7
  6
CONTINUOUS
 10
4.2796449047
 20
4.3430162695
 11
4.2796449047
 21
4.3082177075
  0
LINE
  5
227
100
AcDbEntity
  8
0
100
AcDbLine
 62
9
  6
CONTINUOUS
 10
4.2083893897
 20
4.6976627425
 11
4.1927644316
 21
4.6976508065
  0
LINE
  5
228
100
AcDbEntity
  8
0
100
AcDbLine
 62
9
  6
CONTINUOUS
 10
5.0515723387
 20
4.6360201621
 11
4.4340410743
 21
4.6360201621
  0
LINE
  5
229
100
AcDbEntity
  8
0
100
AcDbLine
 62
9
  6
CONTINUOUS
 10
4.1927471818
 20
4.6360201621
 11
3.575194386
 21
4.6360201621
  0
LINE
  5
22A
100
AcDbEntity
  8
0
100
AcDbLine
 62
7
  6
CONTINUOUS
 10
5.0515723387
 20
4.6389029694
 11
4.434043143
 21
4.6389029694
  0
LINE
  5
22B
100
AcDbEntity
  8
0
100
AcDbLine
 62
7
  6
CONTINUOUS
 10
4.1927451158
 20
4.6389029694
 11
3.575194386
 21
4.6389029694
  0
LINE
  5
22C
100
AcDbEntity
  8
0
100
AcDbLine
 62
9
  6
CONTINUOUS
 10
4.4183968988
 20
4.6976641483
 11
4.434023825
 21
4.6976522182
  0
LINE
  5
22D
100
AcDbEntity
  8
0
100
AcDbLine
 62
7
  6
CONTINUOUS
 10
4.434023825
 20
4.3693754968
 11
4.4340049838
 21
4.4906454346
  0
LINE
  5
22E
100
AcDbEntity
  8
0
100
AcDbLine
 62
7
  6
CONTINUOUS
 10
4.4340415504
 20
4.7210161186
 11
4.43406233
 21
4.6932307319
  0
LINE
  5
22F
100
AcDbEntity
  8
0
100
AcDbLine
 62
7
  6
CONTINUOUS
 10
4.34712182
 20
4.3082177075
 11
4.34712182
 21
4.3430162695
  0
LINE
  5
230
100
AcDbEntity
  8
0
100
AcDbLine
 62
9
  6
CONTINUOUS
 10
4.418398824
 20
4.3537512378
 11
4.4183988231
 21
4.8161309993
  0
LINE
  5
231
100
AcDbEntity
  8
0
100
AcDbLine
 62
7
  6
CONTINUOUS
 10
4.4314935986
 20
4.3607913676
 11
4.4314935986
 21
4.3256169885
  0
LINE
  5
232
100
AcDbEntity
  8
0
100
AcDbLine
 62
7
  6
CONTINUOUS
 10
4.4340049838
 20
4.4906454346
 11
4.4340610637
 21
4.6976522331
  0
LINE
  5
233
100
AcDbEntity
  8
0
100
AcDbLine
 62
7
  6
CONTINUOUS
 10
4.4340328785
 20
4.6246535926
 11
4.4340256578
 21
4.6140940728
  0
LINE
  5
234
100
AcDbEntity
  8
0
100
AcDbLine
 62
9
  6
CONTINUOUS
 10
4.4419357742
 20
4.9766914871
 11
4.4419357742
 21
5.0259040869
  0
LINE
  5
235
100
AcDbEntity
  8
0
100
AcDbLine
 62
7
  6
CONTINUOUS
 10
4.4517782939
 20
5.0259040855
 11
4.4517782939
 21
4.9865340068
  0
LINE
  5
236
100
AcDbEntity
  8
0
100
AcDbLine
 62
7
  6
CONTINUOUS
 10
4.4521628899
 20
4.2706352604
 11
4.4521628899
 21
4.2592042939
  0
LINE
  5
237
100
AcDbEntity
  8
0
100
AcDbLine
 62
9
  6
CONTINUOUS
 10
4.470863601
 20
4.270634712
 11
4.470863601
 21
4.2708419036
  0
LINE
  5
238
100
AcDbEntity
  8
0
100
AcDbLine
 62
7
  6
CONTINUOUS
 10
4.480705905
 20
4.2638965854
 11
4.480706197
 21
4.1140417311
  0
LINE
  5
239
100
AcDbEntity
  8
0
100
AcDbLine
 62
9
  6
CONTINUOUS
 10
4.2083893539
 20
4.8161313891
 11
4.1927644316
 21
4.8161165395
  0
LINE
  5
23A
100
AcDbEntity
  8
0
100
AcDbLine
 62
9
  6
CONTINUOUS
 10
4.4338778282
 20
4.8161180742
 11
4.4183991679
 21
4.8161310843
  0
LINE
  5
23B
100
AcDbEntity
  8
0
100
AcDbLine
 62
9
  6
CONTINUOUS
 10
4.4339870608
 20
4.8161164431
 11
4.4338778284
 21
4.8161181508
  0
LINE
  5
23C
100
AcDbEntity
  8
0
100
AcDbLine
 62
9
  6
CONTINUOUS
 10
4.5607040169
 20
5.841652117
 11
4.5607040518
 21
5.8104021615
  0
LINE
  5
23D
100
AcDbEntity
  8
0
100
AcDbLine
 62
7
  6
CONTINUOUS
 10
4.607703347
 20
5.841652117
 11
4.607703347
 21
5.8260271193
  0
LINE
  5
23E
100
AcDbEntity
  8
0
100
AcDbLine
 62
7
  6
CONTINUOUS
 10
4.4419357742
 20
4.9766914871
 11
4.4377497956
 21
4.9766914871
  0
LINE
  5
23F
100
AcDbEntity
  8
0
100
AcDbLine
 62
9
  6
CONTINUOUS
 10
4.4382174935
 20
4.9865340068
 11
4.4517782939
 21
4.9865340068
  0
LINE
  5
240
100
AcDbEntity
  8
0
100
AcDbLine
 62
9
  6
CONTINUOUS
 10
4.4517782939
 20
5.0259040855
 11
4.4403575014
 21
5.0259040869
  0
LINE
  5
241
100
AcDbEntity
  8
0
100
AcDbLine
 62
9
  6
CONTINUOUS
 10
4.4755072709
 20
5.3533609104
 11
4.4600789572
 21
5.3534054185
  0
LINE
  5
242
100
AcDbEntity
  8
0
100
AcDbLine
 62
9
  6
CONTINUOUS
 10
4.4756108616
 20
5.3533598597
 11
4.4755072681
 21
5.3533608931
  0
LINE
  5
243
100
AcDbEntity
  8
0
100
AcDbLine
 62
9
  6
CONTINUOUS
 10
5.0515723387
 20
3.5335027936
 11
5.0515723387
 21
4.6389029694
  0
LINE
  5
244
100
AcDbEntity
  8
0
100
AcDbLine
 62
7
  6
CONTINUOUS
 10
5.0614148584
 20
4.6290604497
 11
5.0614148584
 21
3.5433453133
  0
LINE
  5
245
100
AcDbEntity
  8
0
100
AcDbLine
 62
9
  6
CONTINUOUS
 10
4.5504981817
 20
5.6627316115
 11
4.5384394012
 21
5.6627316115
  0
LINE
  5
246
100
AcDbEntity
  8
0
100
AcDbLine
 62
7
  6
CONTINUOUS
 10
5.087228125
 20
5.716652117
 11
4.5522759349
 21
5.716652117
  0
LINE
  5
247
100
AcDbEntity
  8
0
100
AcDbLine
 62
7
  6
CONTINUOUS
 10
4.0745075083
 20
5.716652117
 11
3.5751867305
 21
5.716652117
  0
LINE
  5
248
100
AcDbEntity
  8
0
100
AcDbLine
 62
9
  6
CONTINUOUS
 10
5.0959821953
 20
5.7432210717
 11
4.5595741863
 21
5.7432210717
  0
LINE
  5
249
100
AcDbEntity
  8
0
100
AcDbLine
 62
9
  6
CONTINUOUS
 10
4.0672851994
 20
5.7432210717
 11
3.5664326792
 21
5.7432210717
  0
LINE
  5
24A
100
AcDbEntity
  8
0
100
AcDbLine
 62
7
  6
CONTINUOUS
 10
4.0347092391
 20
5.810402117
 11
4.5920790176
 21
5.810402117
  0
LINE
  5
24B
100
AcDbEntity
  8
0
100
AcDbLine
 62
9
  6
CONTINUOUS
 10
4.5607040172
 20
5.8149667746
 11
4.0660842412
 21
5.8149667746
  0
LINE
  5
24C
100
AcDbEntity
  8
0
100
AcDbLine
 62
9
  6
CONTINUOUS
 10
4.0190847928
 20
5.826027117
 11
4.607703347
 21
5.8260271193
  0
LINE
  5
24D
100
AcDbEntity
  8
0
100
AcDbLine
 62
7
  6
CONTINUOUS
 10
3.4562073398
 20
5.841652117
 11
5.2062074772
 21
5.841652117
  0
ARC
  5
24E
100
AcDbEntity
  8
0
100
AcDbCircle
 62
7
  6
CONTINUOUS
 10
4.3133818133
 20
4.4993791013
 40
0.1459232632
100
AcDbArc
 50
266.5075115506
 51
273.4924884494
  0
ARC
  5
24F
100
AcDbEntity
  8
0
100
AcDbCircle
 62
7
  6
CONTINUOUS
 10
4.4183989576
 20
4.3693760999
 40
0.0156584212
100
AcDbArc
 50
269.9995081464
 51
0.0003284236
  0
ARC
  5
250
100
AcDbEntity
  8
0
100
AcDbCircle
 62
7
  6
CONTINUOUS
 10
4.2083892988
 20
4.3693760996
 40
0.0156584209
100
AcDbArc
 50
179.9996704553
 51
270.000492716
  0
ARC
  5
251
100
AcDbEntity
  8
0
100
AcDbCircle
 62
7
  6
CONTINUOUS
 10
3.5751941808
 20
3.5433454813
 40
0.0098423145
100
AcDbArc
 50
180.0009784092
 51
240.2914853118
  0
ARC
  5
252
100
AcDbEntity
  8
0
100
AcDbCircle
 62
7
  6
CONTINUOUS
 10
3.5751941808
 20
4.6290602817
 40
0.0098423145
100
AcDbArc
 50
119.7085146882
 51
179.9990215916
  0
ARC
  5
253
100
AcDbEntity
  8
0
100
AcDbCircle
 62
7
  6
CONTINUOUS
 10
0.5267993118
 20
4.8109872158
 40
3.6660190229
100
AcDbArc
 50
0.6504551424
 51
1.055618405
  0
ARC
  5
254
100
AcDbEntity
  8
0
100
AcDbCircle
 62
7
  6
CONTINUOUS
 10
0.5442114791
 20
4.8112939274
 40
3.6486041602
100
AcDbArc
 50
1.0558402079
 51
1.1909295022
  0
ARC
  5
255
100
AcDbEntity
  8
0
100
AcDbCircle
 62
7
  6
CONTINUOUS
 10
0.5603995575
 20
4.8116416434
 40
3.6324123517
100
AcDbArc
 50
1.190753067
 51
1.5637945963
  0
ARC
  5
256
100
AcDbEntity
  8
0
100
AcDbCircle
 62
7
  6
CONTINUOUS
 10
0.5913632678
 20
4.8125163602
 40
3.6014362554
100
AcDbArc
 50
1.6604936351
 51
2.0663891254
  0
ARC
  5
257
100
AcDbEntity
  8
0
100
AcDbCircle
 62
7
  6
CONTINUOUS
 10
0.6989102726
 20
4.8144692087
 40
3.4940910703
100
AcDbArc
 50
12.4577618207
 51
12.867274883
  0
ARC
  5
258
100
AcDbEntity
  8
0
100
AcDbCircle
 62
7
  6
CONTINUOUS
 10
0.6989389679
 20
4.8144755323
 40
3.4940616868
100
AcDbArc
 50
12.4346198055
 51
12.9077667631
  0
ARC
  5
259
100
AcDbEntity
  8
0
100
AcDbCircle
 62
7
  6
CONTINUOUS
 10
0.7000457644
 20
4.8147283248
 40
3.4929263887
100
AcDbArc
 50
12.9077801512
 51
13.0917339615
  0
ARC
  5
25A
100
AcDbEntity
  8
0
100
AcDbCircle
 62
9
  6
CONTINUOUS
 10
0.7187134805
 20
4.8093642547
 40
3.4907718214
100
AcDbArc
 50
13.0063579742
 51
16.6495889186
  0
ARC
  5
25B
100
AcDbEntity
  8
0
100
AcDbCircle
 62
7
  6
CONTINUOUS
 10
0.7110891649
 20
4.8174083832
 40
3.4815629606
100
AcDbArc
 50
13.0899409681
 51
16.1628853286
  0
ARC
  5
25C
100
AcDbEntity
  8
0
100
AcDbCircle
 62
7
  6
CONTINUOUS
 10
0.7123713072
 20
4.8177146741
 40
3.4802452071
100
AcDbArc
 50
12.9051862381
 51
16.5728910435
  0
ARC
  5
25D
100
AcDbEntity
  8
0
100
AcDbCircle
 62
7
  6
CONTINUOUS
 10
0.7304443492
 20
4.8228738059
 40
3.4614514038
100
AcDbArc
 50
16.165177618
 51
16.5763712692
  0
ARC
  5
25E
100
AcDbEntity
  8
0
100
AcDbCircle
 62
9
  6
CONTINUOUS
 10
0.7878501624
 20
4.8257412699
 40
3.419720204
100
AcDbArc
 50
12.5162895822
 51
12.99970666
  0
ARC
  5
25F
100
AcDbEntity
  8
0
100
AcDbCircle
 62
7
  6
CONTINUOUS
 10
4.4419357742
 20
4.9865340068
 40
0.0098425197
100
AcDbArc
 50
270.0
 51
360.0
  0
ARC
  5
260
100
AcDbEntity
  8
0
100
AcDbCircle
 62
7
  6
CONTINUOUS
 10
3.4684841663
 20
5.7271371705
 40
0.0699342508
100
AcDbArc
 50
48.1549599302
 51
48.6490060329
  0
ARC
  5
261
100
AcDbEntity
  8
0
100
AcDbCircle
 62
7
  6
CONTINUOUS
 10
4.5329891257
 20
5.7068095973
 40
0.0492125984
100
AcDbArc
 50
296.4060670607
 51
11.5369573151
  0
ARC
  5
262
100
AcDbEntity
  8
0
100
AcDbCircle
 62
9
  6
CONTINUOUS
 10
4.5643064691
 20
5.6217307173
 40
0.0429193421
100
AcDbArc
 50
130.7462848566
 51
130.924158397
  0
ARC
  5
263
100
AcDbEntity
  8
0
100
AcDbCircle
 62
7
  6
CONTINUOUS
 10
3.4978264828
 20
5.8378768297
 40
0.0410585577
100
AcDbArc
 50
219.8111566101
 51
222.0037197044
  0
ARC
  5
264
100
AcDbEntity
  8
0
100
AcDbCircle
 62
7
  6
CONTINUOUS
 10
3.4970349477
 20
5.83721732
 40
0.0400282757
100
AcDbArc
 50
217.1624430454
 51
219.8114134502
  0
ARC
  5
265
100
AcDbEntity
  8
0
100
AcDbCircle
 62
7
  6
CONTINUOUS
 10
4.5723845018
 20
5.6274692228
 40
0.0393700787
100
AcDbArc
 50
116.406067061
 51
164.6184582429
  0
ARC
  5
266
100
AcDbEntity
  8
0
100
AcDbCircle
 62
7
  6
CONTINUOUS
 10
3.5751867305
 20
5.755902117
 40
0.03925
100
AcDbArc
 50
198.849540195
 51
270.0
  0
ARC
  5
267
100
AcDbEntity
  8
0
100
AcDbCircle
 62
7
  6
CONTINUOUS
 10
4.592101129
 20
5.8262407925
 40
0.0158346623
100
AcDbArc
 50
269.9193120602
 51
273.5251170835
  0
ARC
  5
268
100
AcDbEntity
  8
0
100
AcDbCircle
 62
7
  6
CONTINUOUS
 10
4.0348400578
 20
5.8260029655
 40
0.0157518081
100
AcDbArc
 50
179.912755707
 51
185.3597162494
  0
ARC
  5
269
100
AcDbEntity
  8
0
100
AcDbCircle
 62
7
  6
CONTINUOUS
 10
4.0346850472
 20
5.8261565439
 40
0.0157504168
100
AcDbArc
 50
264.6115062367
 51
270.0877848208
  0
ARC
  5
26A
100
AcDbEntity
  8
0
100
AcDbCircle
 62
7
  6
CONTINUOUS
 10
4.0347100671
 20
5.8260270698
 40
0.0156249083
100
AcDbArc
 50
180.0004217375
 51
269.9967621905
  0
ARC
  5
26B
100
AcDbEntity
  8
0
100
AcDbCircle
 62
7
  6
CONTINUOUS
 10
4.5920781895
 20
5.8260270698
 40
0.0156249083
100
AcDbArc
 50
270.0023277622
 51
359.9995782625
  0
ARC
  5
26C
100
AcDbEntity
  8
0
100
AcDbCircle
 62
7
  6
CONTINUOUS
 10
4.5921148775
 20
5.8259976023
 40
0.0155910869
100
AcDbArc
 50
273.5296384123
 51
275.026441408
  0
ARC
  5
26D
100
AcDbEntity
  8
0
100
AcDbCircle
 62
7
  6
CONTINUOUS
 10
4.5921921589
 20
5.8253076582
 40
0.0148970343
100
AcDbArc
 50
274.9628482146
 51
282.7690134078
  0
ARC
  5
26E
100
AcDbEntity
  8
0
100
AcDbCircle
 62
7
  6
CONTINUOUS
 10
4.5929763199
 20
5.8251476602
 40
0.0143853442
100
AcDbArc
 50
312.751064771
 51
314.9497027895
  0
ARC
  5
26F
100
AcDbEntity
  8
0
100
AcDbCircle
 62
7
  6
CONTINUOUS
 10
4.0338272685
 20
5.8251273627
 40
0.0143818329
100
AcDbArc
 50
222.9478429806
 51
224.9498203358
  0
ARC
  5
270
100
AcDbEntity
  8
0
100
AcDbCircle
 62
7
  6
CONTINUOUS
 10
4.0338094284
 20
5.8251450878
 40
0.0143817516
100
AcDbArc
 50
225.0501294463
 51
227.0473741574
  0
ARC
  5
271
100
AcDbEntity
  8
0
100
AcDbCircle
 62
7
  6
CONTINUOUS
 10
4.5929610665
 20
5.8251272861
 40
0.0143817233
100
AcDbArc
 50
315.0501747942
 51
317.045663323
  0
ARC
  5
272
100
AcDbEntity
  8
0
100
AcDbCircle
 62
7
  6
CONTINUOUS
 10
5.0515723387
 20
3.5433453133
 40
0.0098425197
100
AcDbArc
 50
270.0000000004
 51
360.0
  0
ARC
  5
273
100
AcDbEntity
  8
0
100
AcDbCircle
 62
7
  6
CONTINUOUS
 10
5.0515723387
 20
4.6290604497
 40
0.0098425197
100
AcDbArc
 50
0.0
 51
89.9999999996
  0
ARC
  5
274
100
AcDbEntity
  8
0
100
AcDbCircle
 62
9
  6
CONTINUOUS
 10
8.7148408086
 20
4.8023708982
 40
4.280985053
100
AcDbArc
 50
179.4399359935
 51
179.816009423
  0
ARC
  5
275
100
AcDbEntity
  8
0
100
AcDbCircle
 62
9
  6
CONTINUOUS
 10
8.4103031383
 20
4.8056816606
 40
3.976428926
100
AcDbArc
 50
178.9072798988
 51
179.3084946293
  0
ARC
  5
276
100
AcDbEntity
  8
0
100
AcDbCircle
 62
9
  6
CONTINUOUS
 10
8.2629226979
 20
4.8083982685
 40
3.829023482
100
AcDbArc
 50
178.7183153576
 51
178.9058659755
  0
ARC
  5
277
100
AcDbEntity
  8
0
100
AcDbCircle
 62
9
  6
CONTINUOUS
 10
8.041442165
 20
4.8137553531
 40
3.6074785576
100
AcDbArc
 50
177.8644831439
 51
178.7246957199
  0
ARC
  5
278
100
AcDbEntity
  8
0
100
AcDbCircle
 62
7
  6
CONTINUOUS
 10
7.9278555127
 20
4.814474329
 40
3.4940680231
100
AcDbArc
 50
167.1450152638
 51
167.51289506
  0
ARC
  5
279
100
AcDbEntity
  8
0
100
AcDbCircle
 62
9
  6
CONTINUOUS
 10
7.9267318882
 20
4.8147668379
 40
3.4929964088
100
AcDbArc
 50
167.1507694036
 51
167.5188450926
  0
ARC
  5
27A
100
AcDbEntity
  8
0
100
AcDbCircle
 62
7
  6
CONTINUOUS
 10
7.9265645216
 20
4.8147194135
 40
3.4927545404
100
AcDbArc
 50
167.5699279744
 51
171.12859615
  0
ARC
  5
27B
100
AcDbEntity
  8
0
100
AcDbCircle
 62
9
  6
CONTINUOUS
 10
7.9257613554
 20
4.8149234292
 40
3.4920149154
100
AcDbArc
 50
167.5703651809
 51
171.130116879
  0
ARC
  5
27C
100
AcDbEntity
  8
0
100
AcDbCircle
 62
9
  6
CONTINUOUS
 10
7.9035220804
 20
4.8106191631
 40
3.48604248
100
AcDbArc
 50
163.3487064219
 51
166.9967604085
  0
ARC
  5
27D
100
AcDbEntity
  8
0
100
AcDbCircle
 62
9
  6
CONTINUOUS
 10
7.9172077624
 20
4.8170157045
 40
3.4832106483
100
AcDbArc
 50
163.4296296685
 51
167.0941116626
  0
ARC
  5
27E
100
AcDbEntity
  8
0
100
AcDbCircle
 62
9
  6
CONTINUOUS
 10
7.8998893435
 20
4.8127882157
 40
3.4820342407
100
AcDbArc
 50
167.4929863776
 51
171.0681752804
  0
ARC
  5
27F
100
AcDbEntity
  8
0
100
AcDbCircle
 62
7
  6
CONTINUOUS
 10
7.9144180287
 20
4.8177143786
 40
3.4802463258
100
AcDbArc
 50
163.4271093607
 51
167.0950749791
  0
ARC
  5
280
100
AcDbEntity
  8
0
100
AcDbCircle
 62
9
  6
CONTINUOUS
 10
7.9019531716
 20
4.8187605599
 40
3.4678998029
100
AcDbArc
 50
171.132103349
 51
177.8265105599
  0
ARC
  5
281
100
AcDbEntity
  8
0
100
AcDbCircle
 62
9
  6
CONTINUOUS
 10
7.8468949419
 20
4.8242641313
 40
3.4278235459
100
AcDbArc
 50
167.0060189581
 51
167.4884278392
  0
ARC
  5
282
100
AcDbEntity
  8
0
100
AcDbCircle
 62
7
  6
CONTINUOUS
 10
6.7591043093
 20
5.0259040855
 40
2.3073260154
100
AcDbArc
 50
164.6184582377
 51
166.8682391379
  0
ARC
  5
283
100
AcDbEntity
  8
0
100
AcDbCircle
 62
7
  6
CONTINUOUS
 10
6.7591043093
 20
5.0259040855
 40
2.3073260154
100
AcDbArc
 50
172.6214971508
 51
179.999999863
  0
ARC
  5
284
100
AcDbEntity
  8
0
100
AcDbCircle
 62
7
  6
CONTINUOUS
 10
5.1648592721
 20
5.8376453009
 40
0.0407022169
100
AcDbArc
 50
318.753707187
 51
320.8737900104
  0
ARC
  5
285
100
AcDbEntity
  8
0
100
AcDbCircle
 62
7
  6
CONTINUOUS
 10
5.1655150847
 20
5.8371114033
 40
0.0398565594
100
AcDbArc
 50
320.8742749599
 51
323.2207018172
  0
ARC
  5
286
100
AcDbEntity
  8
0
100
AcDbCircle
 62
7
  6
CONTINUOUS
 10
5.087228125
 20
5.755902117
 40
0.03925
100
AcDbArc
 50
270.0
 51
341.1504597986
  0
SPLINE
  5
287
100
AcDbEntity
  8
0
100
AcDbSpline
 62
7
  6
CONTINUOUS
 70
0
 71
3
 72
9
 73
5
 74
0
 42
0.0000001
 43
0.0000001
 44
0.0000000001
 40
0.0
 40
0.0
 40
0.0
 40
0.0
 40
0.5043662593
 40
1.0
 40
1.0
 40
1.0
 40
1.0
 10
4.4217609463
 20
4.2917941911
 30
0.0
 10
4.423084186
 20
4.288405511
 30
0.0
 10
4.4251210068
 20
4.2814390921
 30
0.0
 10
4.4258155724
 20
4.2742101473
 30
0.0
 10
4.4258155724
 20
4.2706352604
 30
0.0
  0
SPLINE
  5
288
100
AcDbEntity
  8
0
100
AcDbSpline
 62
7
  6
CONTINUOUS
 70
0
 71
3
 72
21
 73
17
 74
0
 42
0.0000001
 43
0.0000001
 44
0.0000000001
 40
0.0
 40
0.0
 40
0.0
 40
0.0
 40
0.0516930536
 40
0.1052602916
 40
0.1621348326
 40
0.2230592099
 40
0.356225963
 40
0.4274318654
 40
0.5000114684
 40
0.5725901309
 40
0.6437937569
 40
0.776957541
 40
0.8378817385
 40
0.8947532294
 40
0.9483151829
 40
1.0
 40
1.0
 40
1.0
 40
1.0
 10
4.4258155724
 20
4.2706352604
 30
0.0
 10
4.4258155724
 20
4.265415115
 30
0.0
 10
4.4243006142
 20
4.254731289
 30
0.0
 10
4.417671691
 20
4.239571622
 30
0.0
 10
4.4070369201
 20
4.2257257073
 30
0.0
 10
4.387609519
 20
4.2092229041
 30
0.0
 10
4.3626601535
 20
4.1979523734
 30
0.0
 10
4.3352546366
 20
4.1921381785
 30
0.0
 10
4.3133800327
 20
4.1906263435
 30
0.0
 10
4.291505694
 20
4.1921389345
 30
0.0
 10
4.26410109
 20
4.1979543345
 30
0.0
 10
4.2391525954
 20
4.2092256384
 30
0.0
 10
4.2197268718
 20
4.2257294083
 30
0.0
 10
4.2090930856
 20
4.2395749972
 30
0.0
 10
4.2024658864
 20
4.254733556
 30
0.0
 10
4.2009511524
 20
4.2654159468
 30
0.0
 10
4.2009511524
 20
4.2706352604
 30
0.0
  0
SPLINE
  5
289
100
AcDbEntity
  8
0
100
AcDbSpline
 62
7
  6
CONTINUOUS
 70
0
 71
3
 72
11
 73
7
 74
0
 42
0.0000001
 43
0.0000001
 44
0.0000000001
 40
0.0
 40
0.0
 40
0.0
 40
0.0
 40
0.239648941
 40
0.4837590403
 40
0.7362333068
 40
1.0
 40
1.0
 40
1.0
 40
1.0
 10
4.1746038348
 20
4.2706352604
 30
0.0
 10
4.1746038348
 20
4.2751738174
 30
0.0
 10
4.1755128115
 20
4.2843597123
 30
0.0
 10
4.1795557856
 20
4.2977869913
 30
0.0
 10
4.1861792817
 20
4.3106550571
 30
0.0
 10
4.192079972
 20
4.3185118882
 30
0.0
 10
4.1953696305
 20
4.3222710428
 30
0.0
  0
SPLINE
  5
28A
100
AcDbEntity
  8
0
100
AcDbSpline
 62
7
  6
CONTINUOUS
 70
0
 71
3
 72
11
 73
7
 74
0
 42
0.0000001
 43
0.0000001
 44
0.0000000001
 40
0.0
 40
0.0
 40
0.0
 40
0.0
 40
0.2637674334
 40
0.5162419465
 40
0.7603519219
 40
1.0
 40
1.0
 40
1.0
 40
1.0
 10
4.4313950877
 20
4.3222733341
 30
0.0
 10
4.4346850413
 20
4.3185140645
 30
0.0
 10
4.4405862872
 20
4.3106569681
 30
0.0
 10
4.4472104385
 20
4.2977883443
 30
0.0
 10
4.4512538177
 20
4.2843604121
 30
0.0
 10
4.4521628899
 20
4.2751740434
 30
0.0
 10
4.4521628899
 20
4.2706352604
 30
0.0
  0
SPLINE
  5
28B
100
AcDbEntity
  8
0
100
AcDbSpline
 62
7
  6
CONTINUOUS
 70
0
 71
3
 72
9
 73
5
 74
0
 42
0.0000001
 43
0.0000001
 44
0.0000000001
 40
0.0
 40
0.0
 40
0.0
 40
0.0
 40
0.4956325067
 40
1.0
 40
1.0
 40
1.0
 40
1.0
 10
4.2009511524
 20
4.2706352604
 30
0.0
 10
4.2009511524
 20
4.2742102716
 30
0.0
 10
4.2016458115
 20
4.2814394969
 30
0.0
 10
4.2036830437
 20
4.2884060896
 30
0.0
 10
4.2050064986
 20
4.2917948408
 30
0.0
  0
SPLINE
  5
28C
100
AcDbEntity
  8
0
100
AcDbSpline
 62
7
  6
CONTINUOUS
 70
0
 71
3
 72
10
 73
6
 74
0
 42
0.0000001
 43
0.0000001
 44
0.0000000001
 40
0.0
 40
0.0
 40
0.0
 40
0.0
 40
0.2436670454
 40
0.4901508993
 40
1.0
 40
1.0
 40
1.0
 40
1.0
 10
4.4521628899
 20
4.2706352604
 30
0.0
 10
4.4521628899
 20
4.2671097525
 30
0.0
 10
4.4516171282
 20
4.2600047575
 30
0.0
 10
4.4483468501
 20
4.2458703432
 30
0.0
 10
4.4435066006
 20
4.2358472718
 30
0.0
 10
4.4394869368
 20
4.2296618762
 30
0.0
  0
SPLINE
  5
28D
100
AcDbEntity
  8
0
100
AcDbSpline
 62
7
  6
CONTINUOUS
 70
0
 71
3
 72
19
 73
15
 74
0
 42
0.0000001
 43
0.0000001
 44
0.0000000001
 40
0.0
 40
0.0
 40
0.0
 40
0.0
 40
0.0539357666
 40
0.1106352074
 40
0.1701922844
 40
0.2324735819
 40
0.3635669381
 40
0.4999932016
 40
0.6364204013
 40
0.7675168298
 40
0.8298003207
 40
0.8893598202
 40
0.9460617823
 40
1.0
 40
1.0
 40
1.0
 40
1.0
 10
4.4394869368
 20
4.2296618762
 30
0.0
 10
4.4366706379
 20
4.2253281997
 30
0.0
 10
4.4301021818
 20
4.2169344516
 30
0.0
 10
4.4181416017
 20
4.2057667135
 30
0.0
 10
4.4040833029
 20
4.1959238475
 30
0.0
 10
4.382572412
 20
4.1846396056
 30
0.0
 10
4.3521608413
 20
4.1750538475
 30
0.0
 10
4.3133921773
 20
4.1712037145
 30
0.0
 10
4.2746228816
 20
4.1750504079
 30
0.0
 10
4.2442098388
 20
4.1846333769
 30
0.0
 10
4.2226970537
 20
4.1959155768
 30
0.0
 10
4.2086370049
 20
4.2057571233
 30
0.0
 10
4.1966744119
 20
4.2169237312
 30
0.0
 10
4.1901044139
 20
4.2253168685
 30
0.0
 10
4.1872873111
 20
4.2296503026
 30
0.0
  0
SPLINE
  5
28E
100
AcDbEntity
  8
0
100
AcDbSpline
 62
7
  6
CONTINUOUS
 70
0
 71
3
 72
10
 73
6
 74
0
 42
0.0000001
 43
0.0000001
 44
0.0000000001
 40
0.0
 40
0.0
 40
0.0
 40
0.0
 40
0.5098543014
 40
0.7563366675
 40
1.0
 40
1.0
 40
1.0
 40
1.0
 10
4.1872873111
 20
4.2296503026
 30
0.0
 10
4.18326537
 20
4.2358370902
 30
0.0
 10
4.1784222087
 20
4.2458628301
 30
0.0
 10
4.1751499345
 20
4.260001518
 30
0.0
 10
4.1746038348
 20
4.2671086913
 30
0.0
 10
4.1746038348
 20
4.2706352604
 30
0.0
  0
SPLINE
  5
28F
100
AcDbEntity
  8
0
100
AcDbSpline
 62
7
  6
CONTINUOUS
 70
0
 71
3
 72
21
 73
17
 74
0
 42
0.0000001
 43
0.0000001
 44
0.0000000001
 40
0.0
 40
0.0
 40
0.0
 40
0.0
 40
0.0530177813
 40
0.1075947391
 40
0.1649875077
 40
0.225930691
 40
0.3580172169
 40
0.4283514621
 40
0.4999733599
 40
0.5715970697
 40
0.6419365723
 40
0.7740412476
 40
0.8349947641
 40
0.8923966611
 40
0.9469799121
 40
1.0
 40
1.0
 40
1.0
 40
1.0
 10
4.4314935986
 20
4.3256169885
 30
0.0
 10
4.4314935986
 20
4.3199554106
 30
0.0
 10
4.4298721856
 20
4.3084074918
 30
0.0
 10
4.4227962
 20
4.2920717914
 30
0.0
 10
4.4115092889
 20
4.2772519437
 30
0.0
 10
4.3910767786
 20
4.2597594709
 30
0.0
 10
4.3649191435
 20
4.2478428608
 30
0.0
 10
4.33625026
 20
4.2417189599
 30
0.0
 10
4.3134165566
 20
4.240126738
 30
0.0
 10
4.2905816768
 20
4.2417098416
 30
0.0
 10
4.2619075827
 20
4.2478223098
 30
0.0
 10
4.2357414755
 20
4.259728253
 30
0.0
 10
4.2152959616
 20
4.2772115177
 30
0.0
 10
4.203997632
 20
4.2920259886
 30
0.0
 10
4.196908638
 20
4.3083580037
 30
0.0
 10
4.1952777327
 20
4.319905487
 30
0.0
 10
4.1952731463
 20
4.3255673094
 30
0.0
  0
SPLINE
  5
290
100
AcDbEntity
  8
0
100
AcDbSpline
 62
7
  6
CONTINUOUS
 70
0
 71
3
 72
18
 73
14
 74
0
 42
0.0000001
 43
0.0000001
 44
0.0000000001
 40
0.0
 40
0.0
 40
0.0
 40
0.0
 40
0.2547082462
 40
0.3820581533
 40
0.5093813224
 40
0.6365907262
 40
0.7633879022
 40
0.8263678862
 40
0.8886024423
 40
0.9191339502
 40
0.9488045879
 40
0.9765554641
 40
1.0
 40
1.0
 40
1.0
 40
1.0
 10
4.3133833681
 20
4.3464961257
 30
0.0
 10
4.3163177133
 20
4.3464961257
 30
0.0
 10
4.3207192138
 20
4.3465009122
 30
0.0
 10
4.3265874038
 20
4.3464629521
 30
0.0
 10
4.3309863416
 20
4.3463780674
 30
0.0
 10
4.3353756226
 20
4.3461880483
 30
0.0
 10
4.339017156
 20
4.3458794987
 30
0.0
 10
4.3418907038
 20
4.3454605001
 30
0.0
 10
4.3436493743
 20
4.3450902301
 30
0.0
 10
4.3450005764
 20
4.3446847633
 30
0.0
 10
4.3459421371
 20
4.344295614
 30
0.0
 10
4.3467433517
 20
4.3438355292
 30
0.0
 10
4.34712182
 20
4.3432863604
 30
0.0
 10
4.34712182
 20
4.3430162695
 30
0.0
  0
SPLINE
  5
291
100
AcDbEntity
  8
0
100
AcDbSpline
 62
7
  6
CONTINUOUS
 70
0
 71
3
 72
9
 73
5
 74
0
 42
0.0000001
 43
0.0000001
 44
0.0000000001
 40
0.0
 40
0.0
 40
0.0
 40
0.0
 40
0.249356021
 40
1.0
 40
1.0
 40
1.0
 40
1.0
 10
4.34712182
 20
4.3082177075
 30
0.0
 10
4.3416119328
 20
4.3070563958
 30
0.0
 10
4.3192824898
 20
4.3035869111
 30
0.0
 10
4.2962314851
 20
4.3047217756
 30
0.0
 10
4.2796449047
 20
4.3082177075
 30
0.0
  0
SPLINE
  5
292
100
AcDbEntity
  8
0
100
AcDbSpline
 62
9
  6
CONTINUOUS
 70
0
 71
3
 72
9
 73
5
 74
0
 42
0.0000001
 43
0.0000001
 44
0.0000000001
 40
0.0
 40
0.0
 40
0.0
 40
0.0
 40
0.2439291041
 40
1.0
 40
1.0
 40
1.0
 40
1.0
 10
4.3792586571
 20
4.3537331923
 30
0.0
 10
4.3767674769
 20
4.352549415
 30
0.0
 10
4.3664012263
 20
4.348023133
 30
0.0
 10
4.3554870152
 20
4.3447793908
 30
0.0
 10
4.34712182
 20
4.3430162695
 30
0.0
  0
SPLINE
  5
293
100
AcDbEntity
  8
0
100
AcDbSpline
 62
9
  6
CONTINUOUS
 70
0
 71
3
 72
9
 73
5
 74
0
 42
0.0000001
 43
0.0000001
 44
0.0000000001
 40
0.0
 40
0.0
 40
0.0
 40
0.0
 40
0.2454380023
 40
1.0
 40
1.0
 40
1.0
 40
1.0
 10
4.3604713827
 20
4.3537507658
 30
0.0
 10
4.3567542122
 20
4.3525483286
 30
0.0
 10
4.3414085995
 20
4.3482845567
 30
0.0
 10
4.3253942827
 20
4.3464961262
 30
0.0
 10
4.3133833681
 20
4.3464961257
 30
0.0
  0
SPLINE
  5
294
100
AcDbEntity
  8
0
100
AcDbSpline
 62
9
  6
CONTINUOUS
 70
0
 71
3
 72
9
 73
5
 74
0
 42
0.0000001
 43
0.0000001
 44
0.0000000001
 40
0.0
 40
0.0
 40
0.0
 40
0.0
 40
0.2539314375
 40
1.0
 40
1.0
 40
1.0
 40
1.0
 10
4.3133833681
 20
4.3464961257
 30
0.0
 10
4.3093417097
 20
4.3464961256
 30
0.0
 10
4.2934337371
 20
4.3470976388
 30
0.0
 10
4.2775952596
 20
4.3500955939
 30
0.0
 10
4.266296961
 20
4.3537502419
 30
0.0
  0
SPLINE
  5
295
100
AcDbEntity
  8
0
100
AcDbSpline
 62
9
  6
CONTINUOUS
 70
0
 71
3
 72
21
 73
17
 74
0
 42
0.0000001
 43
0.0000001
 44
0.0000000001
 40
0.0
 40
0.0
 40
0.0
 40
0.0
 40
0.0516933262
 40
0.1052646429
 40
0.1621456948
 40
0.2230760839
 40
0.356249661
 40
0.4274546327
 40
0.5000313352
 40
0.5726060049
 40
0.6438050759
 40
0.7769578658
 40
0.8378760777
 40
0.8947460694
 40
0.9483095363
 40
1.0
 40
1.0
 40
1.0
 40
1.0
 10
4.1952731454
 20
4.3255692474
 30
0.0
 10
4.195277578
 20
4.3200862595
 30
0.0
 10
4.1968776374
 20
4.3088654184
 30
0.0
 10
4.2038515446
 20
4.2929463726
 30
0.0
 10
4.2150305084
 20
4.2784080968
 30
0.0
 10
4.2354449529
 20
4.2610820113
 30
0.0
 10
4.26165467
 20
4.2492515977
 30
0.0
 10
4.2904416411
 20
4.2431510587
 30
0.0
 10
4.3134170083
 20
4.2415679584
 30
0.0
 10
4.33639113
 20
4.2431602609
 30
0.0
 10
4.3651725545
 20
4.2492721778
 30
0.0
 10
4.3913733471
 20
4.2611130614
 30
0.0
 10
4.4117744034
 20
4.2784478768
 30
0.0
 10
4.4229418097
 20
4.2929910001
 30
0.0
 10
4.4299028441
 20
4.3089132659
 30
0.0
 10
4.4314935986
 20
4.3201343024
 30
0.0
 10
4.4314935986
 20
4.3256169885
 30
0.0
  0
SPLINE
  5
296
100
AcDbEntity
  8
0
100
AcDbSpline
 62
7
  6
CONTINUOUS
 70
0
 71
3
 72
18
 73
14
 74
0
 42
0.0000001
 43
0.0000001
 44
0.0000000001
 40
0.0
 40
0.0
 40
0.0
 40
0.0
 40
0.2547082396
 40
0.3820581433
 40
0.5093813091
 40
0.6365907097
 40
0.7633878829
 40
0.8263678658
 40
0.8886024212
 40
0.9191339297
 40
0.9488045682
 40
0.976555453
 40
1.0
 40
1.0
 40
1.0
 40
1.0
 10
4.3133833681
 20
4.3464961257
 30
0.0
 10
4.310449022
 20
4.3464961257
 30
0.0
 10
4.3060475202
 20
4.3465009122
 30
0.0
 10
4.3001793284
 20
4.3464629522
 30
0.0
 10
4.2957803893
 20
4.3463780676
 30
0.0
 10
4.2913911069
 20
4.3461880486
 30
0.0
 10
4.2877495724
 20
4.3458794991
 30
0.0
 10
4.2848760236
 20
4.3454605006
 30
0.0
 10
4.2831173526
 20
4.3450902306
 30
0.0
 10
4.2817661499
 20
4.3446847639
 30
0.0
 10
4.2808245887
 20
4.3442956145
 30
0.0
 10
4.2800233735
 20
4.3438355298
 30
0.0
 10
4.2796449047
 20
4.3432863606
 30
0.0
 10
4.2796449047
 20
4.3430162695
 30
0.0
  0
SPLINE
  5
297
100
AcDbEntity
  8
0
100
AcDbSpline
 62
9
  6
CONTINUOUS
 70
0
 71
3
 72
11
 73
7
 74
0
 42
0.0000001
 43
0.0000001
 44
0.0000000001
 40
0.0
 40
0.0
 40
0.0
 40
0.0
 40
0.2416306984
 40
0.500012715
 40
0.7583877521
 40
1.0
 40
1.0
 40
1.0
 40
1.0
 10
4.253340503
 20
4.2524211747
 30
0.0
 10
4.261833121
 20
4.2468848977
 30
0.0
 10
4.2814991931
 20
4.2385230539
 30
0.0
 10
4.3133961391
 20
4.234447047
 30
0.0
 10
4.3452914986
 20
4.238529421
 30
0.0
 10
4.3649547592
 20
4.2468954281
 30
0.0
 10
4.373445235
 20
4.2524335731
 30
0.0
  0
SPLINE
  5
298
100
AcDbEntity
  8
0
100
AcDbSpline
 62
9
  6
CONTINUOUS
 70
0
 71
3
 72
9
 73
5
 74
0
 42
0.0000001
 43
0.0000001
 44
0.0000000001
 40
0.0
 40
0.0
 40
0.0
 40
0.0
 40
0.2558641759
 40
1.0
 40
1.0
 40
1.0
 40
1.0
 10
4.2796449047
 20
4.3430162695
 30
0.0
 10
4.2768141435
 20
4.3436129054
 30
0.0
 10
4.2658186801
 20
4.3462500116
 30
0.0
 10
4.2551074711
 20
4.3501220595
 30
0.0
 10
4.2475081625
 20
4.3537331476
 30
0.0
  0
SPLINE
  5
299
100
AcDbEntity
  8
0
100
AcDbSpline
 62
9
  6
CONTINUOUS
 70
0
 71
3
 72
19
 73
15
 74
0
 42
0.0000001
 43
0.0000001
 44
0.0000000001
 40
0.0
 40
0.0
 40
0.0
 40
0.0
 40
0.0527679905
 40
0.1083742331
 40
0.1671848754
 40
0.229211693
 40
0.3612542574
 40
0.4999950257
 40
0.6387362719
 40
0.7707804583
 40
0.8328087396
 40
0.8916213038
 40
0.9472298002
 40
1.0
 40
1.0
 40
1.0
 40
1.0
 10
4.2240477768
 20
4.2699626696
 30
0.0
 10
4.2255316174
 20
4.2665389809
 30
0.0
 10
4.2293362893
 20
4.2598173313
 30
0.0
 10
4.2370259904
 20
4.2507609239
 30
0.0
 10
4.2466213728
 20
4.2427006896
 30
0.0
 10
4.2619309112
 20
4.2333541737
 30
0.0
 10
4.284363113
 20
4.2253717606
 30
0.0
 10
4.3133782737
 20
4.2221665004
 30
0.0
 10
4.3423938093
 20
4.2253693636
 30
0.0
 10
4.3648269479
 20
4.2333498264
 30
0.0
 10
4.3801377463
 20
4.2426949344
 30
0.0
 10
4.3897343685
 20
4.2507543229
 30
0.0
 10
4.3974254469
 20
4.2598100965
 30
0.0
 10
4.4012314623
 20
4.266531386
 30
0.0
 10
4.4027156572
 20
4.2699550913
 30
0.0
  0
SPLINE
  5
29A
100
AcDbEntity
  8
0
100
AcDbSpline
 62
7
  6
CONTINUOUS
 70
0
 71
3
 72
8
 73
4
 74
0
 42
0.0000001
 43
0.0000001
 44
0.0000000001
 40
0.0
 40
0.0
 40
0.0
 40
0.0
 40
1.0
 40
1.0
 40
1.0
 40
1.0
 10
5.1964331224
 20
5.8119594595
 30
0.0
 10
5.2020299964
 20
5.8188403175
 30
0.0
 10
5.2057668362
 20
5.8280810778
 30
0.0
 10
5.2062074278
 20
5.8416521202
 30
0.0
  0
SPLINE
  5
29B
100
AcDbEntity
  8
0
100
AcDbSpline
 62
7
  6
CONTINUOUS
 70
0
 71
3
 72
10
 73
6
 74
0
 42
0.0000001
 43
0.0000001
 44
0.0000000001
 40
0.0
 40
0.0
 40
0.0
 40
0.0
 40
0.1328543199
 40
0.4711647352
 40
1.0
 40
1.0
 40
1.0
 40
1.0
 10
5.1470932307
 20
5.7790703214
 30
0.0
 10
5.1491286644
 20
5.7809059941
 30
0.0
 10
5.1566528246
 20
5.7869247772
 30
0.0
 10
5.1747524812
 20
5.7959143219
 30
0.0
 10
5.189828732
 20
5.8038399497
 30
0.0
 10
5.1964331224
 20
5.8119594595
 30
0.0
  0
SPLINE
  5
29C
100
AcDbEntity
  8
0
100
AcDbSpline
 62
7
  6
CONTINUOUS
 70
0
 71
3
 72
9
 73
5
 74
0
 42
0.0000001
 43
0.0000001
 44
0.0000000001
 40
0.0
 40
0.0
 40
0.0
 40
0.0
 40
0.6818044174
 40
1.0
 40
1.0
 40
1.0
 40
1.0
 10
5.1243731817
 20
5.7432210585
 30
0.0
 10
5.1278481858
 20
5.7533999584
 30
0.0
 10
5.1347951499
 20
5.7663798767
 30
0.0
 10
5.1439708305
 20
5.776254359
 30
0.0
 10
5.1470932307
 20
5.7790703214
 30
0.0
  0
SPLINE
  5
29D
100
AcDbEntity
  8
0
100
AcDbSpline
 62
7
  6
CONTINUOUS
 70
0
 71
3
 72
9
 73
5
 74
0
 42
0.0000001
 43
0.0000001
 44
0.0000000001
 40
0.0
 40
0.0
 40
0.0
 40
0.0
 40
0.322391133
 40
1.0
 40
1.0
 40
1.0
 40
1.0
 10
3.5151391202
 20
5.7792343366
 30
0.0
 10
3.5183303134
 20
5.7763765196
 30
0.0
 10
3.527576692
 20
5.7664602444
 30
0.0
 10
3.5345666696
 20
5.7533999584
 30
0.0
 10
3.5380416737
 20
5.7432210585
 30
0.0
  0
SPLINE
  5
29E
100
AcDbEntity
  8
0
100
AcDbSpline
 62
7
  6
CONTINUOUS
 70
0
 71
3
 72
8
 73
4
 74
0
 42
0.0000001
 43
0.0000001
 44
0.0000000001
 40
0.0
 40
0.0
 40
0.0
 40
0.0
 40
1.0
 40
1.0
 40
1.0
 40
1.0
 10
3.4562074275
 20
5.8416521227
 30
0.0
 10
3.456656019
 20
5.8278346574
 30
0.0
 10
3.4605216517
 20
5.8185061603
 30
0.0
 10
3.4662884465
 20
5.8115869564
 30
0.0
  0
SPLINE
  5
29F
100
AcDbEntity
  8
0
100
AcDbSpline
 62
7
  6
CONTINUOUS
 70
0
 71
3
 72
10
 73
6
 74
0
 42
0.0000001
 43
0.0000001
 44
0.0000000001
 40
0.0
 40
0.0
 40
0.0
 40
0.0
 40
0.5270770319
 40
0.8695323102
 40
1.0
 40
1.0
 40
1.0
 40
1.0
 10
3.4662884465
 20
5.8115869564
 30
0.0
 10
3.4728691411
 20
5.8036912067
 30
0.0
 10
3.4878096628
 20
5.7958411682
 30
0.0
 10
3.5056902525
 20
5.7869604273
 30
0.0
 10
3.5131594603
 20
5.7810071863
 30
0.0
 10
3.5151391202
 20
5.7792343366
 30
0.0
  0
SPLINE
  5
2A0
100
AcDbEntity
  8
0
100
AcDbSpline
 62
9
  6
CONTINUOUS
 70
0
 71
3
 72
16
 73
12
 74
0
 42
0.0000001
 43
0.0000001
 44
0.0000000001
 40
0.0
 40
0.0
 40
0.0
 40
0.0
 40
0.1600072445
 40
0.3110391862
 40
0.4515716403
 40
0.5807568499
 40
0.6985231574
 40
0.8058681887
 40
0.9050948061
 40
0.9528571596
 40
1.0
 40
1.0
 40
1.0
 40
1.0
 10
3.4893341511
 20
5.8115857731
 30
0.0
 10
3.4881542058
 20
5.8110055068
 30
0.0
 10
3.4858106677
 20
5.8099746738
 30
0.0
 10
3.4822799061
 20
5.808812331
 30
0.0
 10
3.478889136
 20
5.8080955342
 30
0.0
 10
3.4757048904
 20
5.8078394623
 30
0.0
 10
3.4727873127
 20
5.8080535126
 30
0.0
 10
3.4701934865
 20
5.8087398644
 30
0.0
 10
3.4683224858
 20
5.8097210403
 30
0.0
 10
3.4670764027
 20
5.8107233703
 30
0.0
 10
3.4665360955
 20
5.8112896478
 30
0.0
 10
3.4662880792
 20
5.8115872626
 30
0.0
  0
SPLINE
  5
2A1
100
AcDbEntity
  8
0
100
AcDbSpline
 62
9
  6
CONTINUOUS
 70
0
 71
3
 72
15
 73
11
 74
0
 42
0.0000001
 43
0.0000001
 44
0.0000000001
 40
0.0
 40
0.0
 40
0.0
 40
0.0
 40
0.1518361507
 40
0.2957786829
 40
0.4312195575
 40
0.5581503341
 40
0.6770422333
 40
0.7890124456
 40
0.8958905858
 40
1.0
 40
1.0
 40
1.0
 40
1.0
 10
3.5351522695
 20
5.7792304382
 30
0.0
 10
3.5341913517
 20
5.778753083
 30
0.0
 10
3.5322765631
 20
5.7779058745
 30
0.0
 10
3.5293751168
 20
5.7769567414
 30
0.0
 10
3.5265562709
 20
5.7763755241
 30
0.0
 10
3.5238613567
 20
5.7761719183
 30
0.0
 10
3.5213291739
 20
5.7763519478
 30
0.0
 10
3.5189973043
 20
5.7769167117
 30
0.0
 10
3.5169049736
 20
5.777862053
 30
0.0
 10
3.5156870865
 20
5.7787433886
 30
0.0
 10
3.515139035
 20
5.7792341862
 30
0.0
  0
SPLINE
  5
2A2
100
AcDbEntity
  8
0
100
AcDbSpline
 62
9
  6
CONTINUOUS
 70
0
 71
3
 72
20
 73
16
 74
0
 42
0.0000001
 43
0.0000001
 44
0.0000000001
 40
0.0
 40
0.0
 40
0.0
 40
0.0
 40
0.1806805553
 40
0.3527384038
 40
0.5111494846
 40
0.5838483102
 40
0.6515627801
 40
0.7139135096
 40
0.77060933
 40
0.8214941457
 40
0.866576118
 40
0.9061059487
 40
0.9406903119
 40
0.9714312858
 40
1.0
 40
1.0
 40
1.0
 40
1.0
 10
3.5664326824
 20
5.7432210337
 30
0.0
 10
3.5647127908
 20
5.7426951709
 30
0.0
 10
3.5613255468
 20
5.7417616917
 30
0.0
 10
3.5563453678
 20
5.7407054861
 30
0.0
 10
3.5523679121
 20
5.7401397704
 30
0.0
 10
3.5494013339
 20
5.7399107295
 30
0.0
 10
3.5473829737
 20
5.7398522051
 30
0.0
 10
3.5455234941
 20
5.7399018022
 30
0.0
 10
3.5438378476
 20
5.7400593043
 30
0.0
 10
3.5423392538
 20
5.740323187
 30
0.0
 10
3.5410388261
 20
5.7406918866
 30
0.0
 10
3.5399454915
 20
5.741163712
 30
0.0
 10
3.53906655
 20
5.7417391837
 30
0.0
 10
3.5384125752
 20
5.7424202131
 30
0.0
 10
3.5381335613
 20
5.742951972
 30
0.0
 10
3.5380416882
 20
5.7432210942
 30
0.0
  0
SPLINE
  5
2A3
100
AcDbEntity
  8
0
100
AcDbSpline
 62
9
  6
CONTINUOUS
 70
0
 71
3
 72
22
 73
18
 74
0
 42
0.0000001
 43
0.0000001
 44
0.0000000001
 40
0.0
 40
0.0
 40
0.0
 40
0.0
 40
0.0123603939
 40
0.0248784618
 40
0.051779353
 40
0.082881172
 40
0.1191527298
 40
0.1612141939
 40
0.2094083739
 40
0.2638221916
 40
0.3244140427
 40
0.3910486381
 40
0.4634985247
 40
0.5414729109
 40
0.6246224428
 40
0.8047256816
 40
1.0
 40
1.0
 40
1.0
 40
1.0
 10
5.087228125
 20
5.716652117
 30
0.0
 10
5.0873481444
 20
5.7166521753
 30
0.0
 10
5.0875901835
 20
5.71667175
 30
0.0
 10
5.0880800918
 20
5.7167931607
 30
0.0
 10
5.0886968855
 20
5.7171111273
 30
0.0
 10
5.0893985118
 20
5.7177073056
 30
0.0
 10
5.0900823672
 20
5.7185257183
 30
0.0
 10
5.0907468455
 20
5.7195617985
 30
0.0
 10
5.0913925344
 20
5.720811124
 30
0.0
 10
5.0920147187
 20
5.722269784
 30
0.0
 10
5.0926097375
 20
5.7239309899
 30
0.0
 10
5.0931746112
 20
5.7257863977
 30
0.0
 10
5.093705314
 20
5.7278266547
 30
0.0
 10
5.0941982892
 20
5.7300408505
 30
0.0
 10
5.0948187376
 20
5.7332960178
 30
0.0
 10
5.095463992
 20
5.7377033688
 30
0.0
 10
5.0958312225
 20
5.7413309778
 30
0.0
 10
5.0959821953
 20
5.7432210717
 30
0.0
  0
SPLINE
  5
2A4
100
AcDbEntity
  8
0
100
AcDbSpline
 62
9
  6
CONTINUOUS
 70
0
 71
3
 72
20
 73
16
 74
0
 42
0.0000001
 43
0.0000001
 44
0.0000000001
 40
0.0
 40
0.0
 40
0.0
 40
0.0
 40
0.1806801772
 40
0.3527377763
 40
0.5111487599
 40
0.5838475942
 40
0.6515621094
 40
0.7139129179
 40
0.7706088459
 40
0.8214937911
 40
0.866575903
 40
0.9061058687
 40
0.9406903349
 40
0.9714313441
 40
1.0
 40
1.0
 40
1.0
 40
1.0
 10
5.0959820662
 20
5.7432210664
 30
0.0
 10
5.0977019588
 20
5.7426951964
 30
0.0
 10
5.1010892066
 20
5.741761704
 30
0.0
 10
5.1060693951
 20
5.7407054848
 30
0.0
 10
5.1100468616
 20
5.7401397612
 30
0.0
 10
5.1130134503
 20
5.7399107156
 30
0.0
 10
5.1150318194
 20
5.7398521884
 30
0.0
 10
5.1168913085
 20
5.7399017833
 30
0.0
 10
5.1185769647
 20
5.7400592836
 30
0.0
 10
5.1200755684
 20
5.7403231647
 30
0.0
 10
5.121376006
 20
5.7406918627
 30
0.0
 10
5.1224693503
 20
5.7411636862
 30
0.0
 10
5.1233483012
 20
5.7417391555
 30
0.0
 10
5.1240022855
 20
5.7424201816
 30
0.0
 10
5.1242813063
 20
5.7429519391
 30
0.0
 10
5.1243731825
 20
5.7432210608
 30
0.0
  0
SPLINE
  5
2A5
100
AcDbEntity
  8
0
100
AcDbSpline
 62
9
  6
CONTINUOUS
 70
0
 71
3
 72
15
 73
11
 74
0
 42
0.0000001
 43
0.0000001
 44
0.0000000001
 40
0.0
 40
0.0
 40
0.0
 40
0.0
 40
0.1520474782
 40
0.2961646781
 40
0.4317226645
 40
0.5586982869
 40
0.6775541342
 40
0.7894090076
 40
0.8961073437
 40
1.0
 40
1.0
 40
1.0
 40
1.0
 10
5.1269979733
 20
5.7790681118
 30
0.0
 10
5.1279641641
 20
5.7785876125
 30
0.0
 10
5.1298893138
 20
5.7777347586
 30
0.0
 10
5.1328061784
 20
5.7767789682
 30
0.0
 10
5.1356392355
 20
5.7761933939
 30
0.0
 10
5.1383466035
 20
5.7759878734
 30
0.0
 10
5.1408890007
 20
5.7761685311
 30
0.0
 10
5.1432284049
 20
5.7767365253
 30
0.0
 10
5.145325109
 20
5.7776877158
 30
0.0
 10
5.146543574
 20
5.7785747299
 30
0.0
 10
5.1470910947
 20
5.7790685574
 30
0.0
  0
SPLINE
  5
2A6
100
AcDbEntity
  8
0
100
AcDbSpline
 62
9
  6
CONTINUOUS
 70
0
 71
3
 72
16
 73
12
 74
0
 42
0.0000001
 43
0.0000001
 44
0.0000000001
 40
0.0
 40
0.0
 40
0.0
 40
0.0
 40
0.1606726591
 40
0.3123179909
 40
0.4533165285
 40
0.5827369216
 40
0.7004421579
 40
0.8074007482
 40
0.9059473956
 40
0.9532955353
 40
1.0
 40
1.0
 40
1.0
 40
1.0
 10
5.1731589785
 20
5.8119563503
 30
0.0
 10
5.1743572826
 20
5.8113698553
 30
0.0
 10
5.1767366472
 20
5.810327938
 30
0.0
 10
5.1803191448
 20
5.8091527297
 30
0.0
 10
5.183756199
 20
5.8084277601
 30
0.0
 10
5.1869788947
 20
5.8081685982
 30
0.0
 10
5.1899251689
 20
5.8083848535
 30
0.0
 10
5.1925364675
 20
5.809078782
 30
0.0
 10
5.1944127295
 20
5.8100721774
 30
0.0
 10
5.1956541071
 20
5.8110867904
 30
0.0
 10
5.1961891937
 20
5.8116596026
 30
0.0
 10
5.1964338587
 20
5.8119604898
 30
0.0
  0
SPLINE
  5
2A7
100
AcDbEntity
  8
0
100
AcDbSpline
 62
9
  6
CONTINUOUS
 70
0
 71
3
 72
22
 73
18
 74
0
 42
0.0000001
 43
0.0000001
 44
0.0000000001
 40
0.0
 40
0.0
 40
0.0
 40
0.0
 40
0.1952644271
 40
0.3753613606
 40
0.4585106372
 40
0.5364867595
 40
0.6089386076
 40
0.6755747919
 40
0.7361682271
 40
0.7905839388
 40
0.8387786013
 40
0.8808392782
 40
0.9171158939
 40
0.9482168666
 40
0.9751049929
 40
0.987625429
 40
1.0
 40
1.0
 40
1.0
 40
1.0
 10
3.5664326792
 20
5.7432210717
 30
0.0
 10
3.5665836986
 20
5.7413310747
 30
0.0
 10
3.5669506488
 20
5.7377035887
 30
0.0
 10
3.5675961045
 20
5.733296418
 30
0.0
 10
3.5682164802
 20
5.7300412814
 30
0.0
 10
3.5687094076
 20
5.7278270354
 30
0.0
 10
3.5692401732
 20
5.7257867381
 30
0.0
 10
3.5698050047
 20
5.7239312639
 30
0.0
 10
3.5703999856
 20
5.7222699864
 30
0.0
 10
3.5710222939
 20
5.720811332
 30
0.0
 10
3.5716679468
 20
5.7195619809
 30
0.0
 10
3.5723322672
 20
5.718525729
 30
0.0
 10
3.5730163344
 20
5.7177074359
 30
0.0
 10
3.5737178271
 20
5.7171112798
 30
0.0
 10
3.5743344072
 20
5.7167931119
 30
0.0
 10
3.5748243732
 20
5.7166717388
 30
0.0
 10
3.5750665732
 20
5.7166521825
 30
0.0
 10
3.5751867305
 20
5.716652117
 30
0.0
  0
SPLINE
  5
2A8
100
AcDbEntity
  8
0
100
AcDbSpline
 62
9
  6
CONTINUOUS
 70
0
 71
3
 72
16
 73
12
 74
0
 42
0.0000001
 43
0.0000001
 44
0.0000000001
 40
0.0
 40
0.0
 40
0.0
 40
0.0
 40
0.0597308936
 40
0.119720218
 40
0.2405469366
 40
0.3627162021
 40
0.4864351724
 40
0.6119109267
 40
0.7392893887
 40
0.8686649953
 40
1.0
 40
1.0
 40
1.0
 40
1.0
 10
3.5351551003
 20
5.7792286373
 30
0.0
 10
3.5359721775
 20
5.778716594
 30
0.0
 10
3.5375948022
 20
5.7776658833
 30
0.0
 10
3.540781963
 20
5.7754463768
 30
0.0
 10
3.5446505994
 20
5.7724464061
 30
0.0
 10
3.549061463
 20
5.7684899542
 30
0.0
 10
3.5532133375
 20
5.7641570597
 30
0.0
 10
3.5570711779
 20
5.7594507223
 30
0.0
 10
3.5605946936
 20
5.7543770595
 30
0.0
 10
3.5637522058
 20
5.7489586245
 30
0.0
 10
3.5655834573
 20
5.7451637101
 30
0.0
 10
3.5664327965
 20
5.7432210635
 30
0.0
  0
SPLINE
  5
2A9
100
AcDbEntity
  8
0
100
AcDbSpline
 62
9
  6
CONTINUOUS
 70
0
 71
3
 72
16
 73
12
 74
0
 42
0.0000001
 43
0.0000001
 44
0.0000000001
 40
0.0
 40
0.0
 40
0.0
 40
0.0
 40
0.1312960766
 40
0.2606396746
 40
0.3880099992
 40
0.5134893069
 40
0.6372213503
 40
0.7594096519
 40
0.8802566814
 40
0.9402572197
 40
1.0
 40
1.0
 40
1.0
 40
1.0
 10
5.0959820648
 20
5.7432210635
 30
0.0
 10
5.0968257225
 20
5.7451506576
 30
0.0
 10
5.098643652
 20
5.7489206271
 30
0.0
 10
5.1017760016
 20
5.7543055571
 30
0.0
 10
5.1052696428
 20
5.7593508567
 30
0.0
 10
5.109094098
 20
5.7640341079
 30
0.0
 10
5.1132095513
 20
5.7683492246
 30
0.0
 10
5.1175819536
 20
5.7722927316
 30
0.0
 10
5.1214170844
 20
5.7752858561
 30
0.0
 10
5.1245771732
 20
5.7775017802
 30
0.0
 10
5.1261860857
 20
5.7785514958
 30
0.0
 10
5.126996405
 20
5.7790630148
 30
0.0
  0
SPLINE
  5
2AA
100
AcDbEntity
  8
0
100
AcDbSpline
 62
9
  6
CONTINUOUS
 70
0
 71
3
 72
16
 73
12
 74
0
 42
0.0000001
 43
0.0000001
 44
0.0000000001
 40
0.0
 40
0.0
 40
0.0
 40
0.0
 40
0.1085092236
 40
0.1655090525
 40
0.2241654253
 40
0.2843278563
 40
0.3458291368
 40
0.4721181762
 40
0.6016754362
 40
0.7333742499
 40
1.0
 40
1.0
 40
1.0
 40
1.0
 10
5.173159994
 20
5.8119562918
 30
0.0
 10
5.1733697727
 20
5.8130164151
 30
0.0
 10
5.1736580835
 20
5.8146399246
 30
0.0
 10
5.1739842033
 20
5.8168485907
 30
0.0
 10
5.174214451
 20
5.8185844649
 30
0.0
 10
5.174438401
 20
5.8203663148
 30
0.0
 10
5.1747398628
 20
5.8228172936
 30
0.0
 10
5.1751077704
 20
5.8259564115
 30
0.0
 10
5.1755126585
 20
5.8297949895
 30
0.0
 10
5.1759692544
 20
5.8350326352
 30
0.0
 10
5.1761685894
 20
5.8389972622
 30
0.0
 10
5.1762231104
 20
5.8416521175
 30
0.0
  0
SPLINE
  5
2AB
100
AcDbEntity
  8
0
100
AcDbSpline
 62
9
  6
CONTINUOUS
 70
0
 71
3
 72
17
 73
13
 74
0
 42
0.0000001
 43
0.0000001
 44
0.0000000001
 40
0.0
 40
0.0
 40
0.0
 40
0.0
 40
0.2672440321
 40
0.3991959271
 40
0.5289218646
 40
0.5925949489
 40
0.6552507082
 40
0.7167020042
 40
0.7767654831
 40
0.8352716829
 40
0.8920636534
 40
1.0
 40
1.0
 40
1.0
 40
1.0
 10
3.4861917076
 20
5.8416521152
 30
0.0
 10
3.486246631
 20
5.8389573687
 30
0.0
 10
3.4864522225
 20
5.834933792
 30
0.0
 10
3.4869191096
 20
5.8296196606
 30
0.0
 10
3.4872646859
 20
5.8263563929
 30
0.0
 10
3.4875600931
 20
5.8237908874
 30
0.0
 10
3.4877856496
 20
5.8219104919
 30
0.0
 10
3.4880127838
 20
5.8200669661
 30
0.0
 10
3.4882399532
 20
5.8182656191
 30
0.0
 10
3.4884772564
 20
5.8165129256
 30
0.0
 10
3.4888152818
 20
5.8142869515
 30
0.0
 10
3.4891125069
 20
5.8126516652
 30
0.0
 10
3.4893337589
 20
5.8115857878
 30
0.0
  0
SPLINE
  5
2AC
100
AcDbEntity
  8
0
100
AcDbSpline
 62
9
  6
CONTINUOUS
 70
0
 71
3
 72
25
 73
21
 74
0
 42
0.0000001
 43
0.0000001
 44
0.0000000001
 40
0.0
 40
0.0
 40
0.0
 40
0.0
 40
0.0610483644
 40
0.1177632741
 40
0.1451781024
 40
0.1723542255
 40
0.2268552995
 40
0.2825848993
 40
0.3400542626
 40
0.3993618262
 40
0.4604777753
 40
0.5233643514
 40
0.5878851246
 40
0.6538949711
 40
0.7212647119
 40
0.7898693508
 40
0.8595118264
 40
0.894501646
 40
0.9295786843
 40
1.0
 40
1.0
 40
1.0
 40
1.0
 10
3.4893342366
 20
5.8115854253
 30
0.0
 10
3.4895759022
 20
5.8104283178
 30
0.0
 10
3.4901690249
 20
5.8082194883
 30
0.0
 10
3.4912924786
 20
5.8056268716
 30
0.0
 10
3.4924233005
 20
5.8037885235
 30
0.0
 10
3.4936911036
 20
5.8020957115
 30
0.0
 10
3.4955531203
 20
5.8001791887
 30
0.0
 10
3.4981070029
 20
5.7981638821
 30
0.0
 10
3.5009118653
 20
5.7963440907
 30
0.0
 10
3.5039149782
 20
5.7946541437
 30
0.0
 10
3.5070791822
 20
5.7930444779
 30
0.0
 10
3.5103778775
 20
5.791480633
 30
0.0
 10
3.5137852928
 20
5.789926355
 30
0.0
 10
3.5172792641
 20
5.7883529158
 30
0.0
 10
3.5208405921
 20
5.7867363093
 30
0.0
 10
3.5244476948
 20
5.7850511587
 30
0.0
 10
3.527465539
 20
5.7835854138
 30
0.0
 10
3.5298589394
 20
5.7823240626
 30
0.0
 10
3.53223942
 20
5.7810073448
 30
0.0
 10
3.5339943981
 20
5.7799602027
 30
0.0
 10
3.5351495936
 20
5.7792357546
 30
0.0
  0
SPLINE
  5
2AD
100
AcDbEntity
  8
0
100
AcDbSpline
 62
9
  6
CONTINUOUS
 70
0
 71
3
 72
21
 73
17
 74
0
 42
0.0000001
 43
0.0000001
 44
0.0000000001
 40
0.0
 40
0.0
 40
0.0
 40
0.0
 40
0.0769069189
 40
0.1527443428
 40
0.2270169648
 40
0.2990963798
 40
0.434006408
 40
0.5544719574
 40
0.6098689465
 40
0.6631891863
 40
0.7156514828
 40
0.7684290958
 40
0.8226095181
 40
0.8789875491
 40
0.938137226
 40
1.0
 40
1.0
 40
1.0
 40
1.0
 10
3.4893342366
 20
5.8115854253
 30
0.0
 10
3.4905985406
 20
5.810872229
 30
0.0
 10
3.4931276146
 20
5.8094871668
 30
0.0
 10
3.496944937
 20
5.8075403097
 30
0.0
 10
3.5006921601
 20
5.8056573543
 30
0.0
 10
3.5054219338
 20
5.8032466202
 30
0.0
 10
3.5108515573
 20
5.8002886523
 30
0.0
 10
3.5158212857
 20
5.7971619881
 30
0.0
 10
3.5193367125
 20
5.7946394267
 30
0.0
 10
3.5217369201
 20
5.7927690295
 30
0.0
 10
3.5240313091
 20
5.7908465184
 30
0.0
 10
3.5262690275
 20
5.7888340251
 30
0.0
 10
3.5284923447
 20
5.7866974701
 30
0.0
 10
3.5307196418
 20
5.7843942988
 30
0.0
 10
3.5329533126
 20
5.7818991017
 30
0.0
 10
3.5344163802
 20
5.7801444762
 30
0.0
 10
3.5351495936
 20
5.7792357546
 30
0.0
  0
SPLINE
  5
2AE
100
AcDbEntity
  8
0
100
AcDbSpline
 62
9
  6
CONTINUOUS
 70
0
 71
3
 72
24
 73
20
 74
0
 42
0.0000001
 43
0.0000001
 44
0.0000000001
 40
0.0
 40
0.0
 40
0.0
 40
0.0
 40
0.0619010099
 40
0.1210389915
 40
0.1773466091
 40
0.2313999369
 40
0.2839966319
 40
0.3362490057
 40
0.3893618987
 40
0.4445749981
 40
0.564903554
 40
0.6307124693
 40
0.7000427599
 40
0.7723127747
 40
0.8093334338
 40
0.8468216009
 40
0.8846907927
 40
0.9228606699
 40
1.0
 40
1.0
 40
1.0
 40
1.0
 10
5.1270024698
 20
5.7790709016
 30
0.0
 10
5.1277378038
 20
5.7799948667
 30
0.0
 10
5.1292047172
 20
5.7817786952
 30
0.0
 10
5.1314449051
 20
5.7843149484
 30
0.0
 10
5.1336792856
 20
5.7866533615
 30
0.0
 10
5.1359093341
 20
5.7888200436
 30
0.0
 10
5.1381524419
 20
5.7908598493
 30
0.0
 10
5.1404521097
 20
5.7928080807
 30
0.0
 10
5.1428584708
 20
5.7947048119
 30
0.0
 10
5.1463892949
 20
5.7972678706
 30
0.0
 10
5.1502785075
 20
5.7997411758
 30
0.0
 10
5.1545090015
 20
5.802161124
 30
0.0
 10
5.1579943124
 20
5.8040349459
 30
0.0
 10
5.1610254858
 20
5.8055916632
 30
0.0
 10
5.1635232623
 20
5.8068570885
 30
0.0
 10
5.1654362187
 20
5.8078247758
 30
0.0
 10
5.1673643708
 20
5.8088109915
 30
0.0
 10
5.169951426
 20
5.8101698046
 30
0.0
 10
5.1718771649
 20
5.8112334734
 30
0.0
 10
5.1731592484
 20
5.8119557838
 30
0.0
  0
SPLINE
  5
2AF
100
AcDbEntity
  8
0
100
AcDbSpline
 62
9
  6
CONTINUOUS
 70
0
 71
3
 72
26
 73
22
 74
0
 42
0.0000001
 43
0.0000001
 44
0.0000000001
 40
0.0
 40
0.0
 40
0.0
 40
0.0
 40
0.0703978104
 40
0.1404266544
 40
0.2100421834
 40
0.2786489716
 40
0.3459918862
 40
0.4119749198
 40
0.4764525591
 40
0.5392712647
 40
0.6003127309
 40
0.6595099368
 40
0.7168523349
 40
0.7724516895
 40
0.8268594747
 40
0.8540284978
 40
0.8814884185
 40
0.9095389091
 40
0.9384887007
 40
0.9685968395
 40
1.0
 40
1.0
 40
1.0
 40
1.0
 10
5.1270024698
 20
5.7790709016
 30
0.0
 10
5.1281684892
 20
5.7798078258
 30
0.0
 10
5.1305287995
 20
5.7812239399
 30
0.0
 10
5.1341459636
 20
5.7831898912
 30
0.0
 10
5.137813552
 20
5.7849801213
 30
0.0
 10
5.1414632095
 20
5.786684062
 30
0.0
 10
5.1450650598
 20
5.788321814
 30
0.0
 10
5.1485993326
 20
5.7899124803
 30
0.0
 10
5.1520451204
 20
5.7914838064
 30
0.0
 10
5.1553792894
 20
5.7930659929
 30
0.0
 10
5.1585764278
 20
5.7946934782
 30
0.0
 10
5.1616070095
 20
5.7964061291
 30
0.0
 10
5.1644336996
 20
5.7982525756
 30
0.0
 10
5.1670013046
 20
5.8003025334
 30
0.0
 10
5.1688644093
 20
5.8022569005
 30
0.0
 10
5.1701243808
 20
5.8039856359
 30
0.0
 10
5.1709548462
 20
5.8053794064
 30
0.0
 10
5.1716669385
 20
5.806875786
 30
0.0
 10
5.1722659595
 20
5.8084759125
 30
0.0
 10
5.1727673732
 20
5.8101772734
 30
0.0
 10
5.1730370318
 20
5.8113527327
 30
0.0
 10
5.1731592484
 20
5.8119557838
 30
0.0
  0
LINE
  5
2B0
100
AcDbEntity
  8
0
100
AcDbLine
 62
9
  6
CONTINUOUS
 10
4.5504981817
 20
5.6627316115
 11
4.5538369436
 21
5.6650666364
  0
SPLINE
  5
2B1
100
AcDbEntity
  8
0
100
AcDbSpline
 62
9
  6
CONTINUOUS
 70
0
 71
3
 72
13
 73
9
 74
0
 42
0.0000001
 43
0.0000001
 44
0.0000000001
 40
0.0
 40
0.0
 40
0.0
 40
0.0
 40
0.2115376979
 40
0.4522382612
 40
0.5839504491
 40
0.7211030789
 40
0.8609660032
 40
1.0
 40
1.0
 40
1.0
 40
1.0
 10
4.5538369436
 20
5.6650666364
 30
0.0
 10
4.5570025725
 20
5.6675440672
 30
0.0
 10
4.5629971303
 20
5.6738863271
 30
0.0
 10
4.5681713371
 20
5.6838523428
 30
0.0
 10
4.5709988228
 20
5.6931371827
 30
0.0
 10
4.5722202199
 20
5.7008301306
 30
0.0
 10
4.5725216204
 20
5.7087538199
 30
0.0
 10
4.5719560185
 20
5.7140393603
 30
0.0
 10
4.5715637662
 20
5.716652116
 30
0.0
  0
LINE
  5
2B2
100
AcDbEntity
  8
0
100
AcDbLine
 62
9
  6
CONTINUOUS
 10
4.4421066512
 20
5.0534238687
 11
4.4420844785
 21
5.051754477
  0
LINE
  5
2B3
100
AcDbEntity
  8
0
100
AcDbLine
 62
9
  6
CONTINUOUS
 10
4.4420844785
 20
5.051754477
 11
4.4419357742
 21
5.0259040885
  0
SPLINE
  5
2B4
100
AcDbEntity
  8
0
100
AcDbSpline
 62
9
  6
CONTINUOUS
 70
0
 71
3
 72
10
 73
6
 74
0
 42
0.0000001
 43
0.0000001
 44
0.0000000001
 40
0.0
 40
0.0
 40
0.0
 40
0.0
 40
0.3715565564
 40
0.655703746
 40
1.0
 40
1.0
 40
1.0
 40
1.0
 10
4.5319680622
 20
5.6369662271
 30
0.0
 10
4.5323064761
 20
5.6369819971
 30
0.0
 10
4.53290945
 20
5.6370427226
 30
0.0
 10
4.5337767686
 20
5.6372386745
 30
0.0
 10
4.5343413035
 20
5.6376092179
 30
0.0
 10
4.5344246047
 20
5.6379118896
 30
0.0
  0
SPLINE
  5
2B5
100
AcDbEntity
  8
0
100
AcDbSpline
 62
9
  6
CONTINUOUS
 70
0
 71
3
 72
9
 73
5
 74
0
 42
0.0000001
 43
0.0000001
 44
0.0000000001
 40
0.0
 40
0.0
 40
0.0
 40
0.0
 40
0.5079781013
 40
1.0
 40
1.0
 40
1.0
 40
1.0
 10
4.5362925583
 20
5.6542467246
 30
0.0
 10
4.5384225543
 20
5.6560818091
 30
0.0
 10
4.5429694215
 20
5.6592927683
 30
0.0
 10
4.5479594324
 20
5.6617465256
 30
0.0
 10
4.5504981817
 20
5.6627316115
 30
0.0
  0
SPLINE
  5
2B6
100
AcDbEntity
  8
0
100
AcDbSpline
 62
9
  6
CONTINUOUS
 70
0
 71
3
 72
9
 73
5
 74
0
 42
0.0000001
 43
0.0000001
 44
0.0000000001
 40
0.0
 40
0.0
 40
0.0
 40
0.0
 40
0.5427810998
 40
1.0
 40
1.0
 40
1.0
 40
1.0
 10
4.5504981834
 20
5.6627316244
 30
0.0
 10
4.5512508675
 20
5.6624318058
 30
0.0
 10
4.5527502043
 20
5.6620900236
 30
0.0
 10
4.5542641716
 20
5.6624280945
 30
0.0
 10
4.5548754466
 20
5.6627316171
 30
0.0
  0
SPLINE
  5
2B7
100
AcDbEntity
  8
0
100
AcDbSpline
 62
7
  6
CONTINUOUS
 70
0
 71
3
 72
9
 73
5
 74
0
 42
0.0000001
 43
0.0000001
 44
0.0000000001
 40
0.0
 40
0.0
 40
0.0
 40
0.0
 40
0.7439001098
 40
1.0
 40
1.0
 40
1.0
 40
1.0
 10
4.5954847176
 20
5.8107790421
 30
0.0
 10
4.5975943097
 20
5.8112572553
 30
0.0
 10
4.6002259352
 20
5.8125006549
 30
0.0
 10
4.6022556818
 20
5.8141354254
 30
0.0
 10
4.6027412986
 20
5.8145843596
 30
0.0
  0
SPLINE
  5
2B8
100
AcDbEntity
  8
0
100
AcDbSpline
 62
7
  6
CONTINUOUS
 70
0
 71
3
 72
10
 73
6
 74
0
 42
0.0000001
 43
0.0000001
 44
0.0000000001
 40
0.0
 40
0.0
 40
0.0
 40
0.0
 40
0.1881198556
 40
0.7645445462
 40
1.0
 40
1.0
 40
1.0
 40
1.0
 10
4.6034870067
 20
5.8153273602
 30
0.0
 10
4.6039491134
 20
5.8158236868
 30
0.0
 10
4.6056972289
 20
5.8179864985
 30
0.0
 10
4.6074002079
 20
5.8217127371
 30
0.0
 10
4.6077012516
 20
5.8250563537
 30
0.0
 10
4.6076999886
 20
5.8260269508
 30
0.0
  0
SPLINE
  5
2B9
100
AcDbEntity
  8
0
100
AcDbSpline
 62
7
  6
CONTINUOUS
 70
0
 71
3
 72
10
 73
6
 74
0
 42
0.0000001
 43
0.0000001
 44
0.0000000001
 40
0.0
 40
0.0
 40
0.0
 40
0.0
 40
0.214198496
 40
0.8706704571
 40
1.0
 40
1.0
 40
1.0
 40
1.0
 10
4.0240097975
 20
5.8146188343
 30
0.0
 10
4.0245060344
 20
5.8141568388
 30
0.0
 10
4.0266687692
 20
5.8124088375
 30
0.0
 10
4.0299406468
 20
5.8109135122
 30
0.0
 10
4.0327416307
 20
5.8105196608
 30
0.0
 10
4.033205951
 20
5.8104757307
 30
0.0
  0
SPLINE
  5
2BA
100
AcDbEntity
  8
0
100
AcDbSpline
 62
7
  6
CONTINUOUS
 70
0
 71
3
 72
10
 73
6
 74
0
 42
0.0000001
 43
0.0000001
 44
0.0000000001
 40
0.0
 40
0.0
 40
0.0
 40
0.0
 40
0.1299749846
 40
0.7860557123
 40
1.0
 40
1.0
 40
1.0
 40
1.0
 10
4.0191571184
 20
5.8245316155
 30
0.0
 10
4.0192010593
 20
5.8240646623
 30
0.0
 10
4.0195945536
 20
5.8212608897
 30
0.0
 10
4.0210907707
 20
5.8179870611
 30
0.0
 10
4.0228384528
 20
5.815824541
 30
0.0
 10
4.0233001374
 20
5.8153285551
 30
0.0
  0
SPLINE
  5
2BB
100
AcDbEntity
  8
0
100
AcDbSpline
 62
7
  6
CONTINUOUS
 70
0
 71
3
 72
11
 73
7
 74
0
 42
0.0000001
 43
0.0000001
 44
0.0000000001
 40
0.0
 40
0.0
 40
0.0
 40
0.0
 40
0.0688338917
 40
0.5189341397
 40
0.9690343877
 40
1.0
 40
1.0
 40
1.0
 40
1.0
 10
4.4339503066
 20
4.816116572
 30
0.0
 10
4.4339904803
 20
4.8284487619
 30
0.0
 10
4.4345915032
 20
4.9214386246
 30
0.0
 10
4.442308738
 20
5.0954865914
 30
0.0
 10
4.4615790336
 20
5.262206957
 30
0.0
 10
4.4747339527
 20
5.3478517772
 30
0.0
 10
4.4755939498
 20
5.3533625159
 30
0.0
  0
LINE
  5
2BC
100
AcDbEntity
  8
0
100
AcDbLine
 62
7
  6
CONTINUOUS
 10
4.1904575733
 20
4.9423750615
 11
4.1903812468
 21
4.9444732
  0
LINE
  5
2BD
100
AcDbEntity
  8
0
100
AcDbLine
 62
7
  6
CONTINUOUS
 10
4.1117490656
 20
5.5636045708
 11
4.1114246729
 21
5.56508088
  0
LINE
  5
2BE
100
AcDbEntity
  8
0
100
AcDbLine
 62
7
  6
CONTINUOUS
 10
4.1114246729
 20
5.56508088
 11
4.1110590879
 21
5.566741016
  0
LINE
  5
2BF
100
AcDbEntity
  8
0
100
AcDbLine
 62
7
  6
CONTINUOUS
 10
4.1110590879
 20
5.566741016
 11
4.1108876418
 21
5.5675182383
  0
LINE
  5
2C0
100
AcDbEntity
  8
0
100
AcDbLine
 62
7
  6
CONTINUOUS
 10
4.1108876418
 20
5.5675182383
 11
4.1107340172
 21
5.5682139557
  0
LINE
  5
2C1
100
AcDbEntity
  8
0
100
AcDbLine
 62
7
  6
CONTINUOUS
 10
4.105259639
 20
5.5925799985
 11
4.105107218
 21
5.5932469531
  0
LINE
  5
2C2
100
AcDbEntity
  8
0
100
AcDbLine
 62
7
  6
CONTINUOUS
 10
4.105107218
 20
5.5932469531
 11
4.1047089429
 21
5.5949868701
  0
LINE
  5
2C3
100
AcDbEntity
  8
0
100
AcDbLine
 62
7
  6
CONTINUOUS
 10
4.4340610637
 20
4.6976522331
 11
4.4339503066
 21
4.816116572
  0
SPLINE
  5
2C4
100
AcDbEntity
  8
0
100
AcDbSpline
 62
7
  6
CONTINUOUS
 70
0
 71
3
 72
11
 73
7
 74
0
 42
0.0000001
 43
0.0000001
 44
0.0000000001
 40
0.0
 40
0.0
 40
0.0
 40
0.0
 40
0.3089320203
 40
0.6299216424
 40
0.9509112645
 40
1.0
 40
1.0
 40
1.0
 40
1.0
 10
4.1110381807
 20
5.5668358403
 30
0.0
 10
4.1278195699
 20
5.4907290953
 30
0.0
 10
4.1568852131
 20
5.3342235992
 30
0.0
 10
4.1844795186
 20
5.0954865914
 30
0.0
 10
4.1921967506
 20
4.9214386878
 30
0.0
 10
4.1927977755
 20
4.8284488879
 30
0.0
 10
4.1928379494
 20
4.816116761
 30
0.0
  0
LINE
  5
2C5
100
AcDbEntity
  8
0
100
AcDbLine
 62
7
  6
CONTINUOUS
 10
4.1928379494
 20
4.816116761
 11
4.1927271923
 21
4.6976508205
  0
LINE
  5
2C6
100
AcDbEntity
  8
0
100
AcDbLine
 62
7
  6
CONTINUOUS
 10
4.1927467062
 20
4.7210161192
 11
4.1927481073
 21
4.7220565334
  0
LINE
  5
2C7
100
AcDbEntity
  8
0
100
AcDbLine
 62
7
  6
CONTINUOUS
 10
4.1914590508
 20
4.9107700895
 11
4.1912872004
 21
4.9168752665
  0
LINE
  5
2C8
100
AcDbEntity
  8
0
100
AcDbLine
 62
7
  6
CONTINUOUS
 10
4.4339845123
 20
4.7501868274
 11
4.4340402315
 21
4.7219965595
  0
LINE
  5
2C9
100
AcDbEntity
  8
0
100
AcDbLine
 62
7
  6
CONTINUOUS
 10
4.4340402315
 20
4.7219965595
 11
4.4340415504
 21
4.7210161186
  0
LINE
  5
2CA
100
AcDbEntity
  8
0
100
AcDbLine
 62
7
  6
CONTINUOUS
 10
4.515748736
 20
5.5668297635
 11
4.5164407358
 21
5.5699613048
  0
LINE
  5
2CB
100
AcDbEntity
  8
0
100
AcDbLine
 62
7
  6
CONTINUOUS
 10
4.5213617866
 20
5.5918492992
 11
4.522007224
 21
5.5946722395
  0
LINE
  5
2CC
100
AcDbEntity
  8
0
100
AcDbLine
 62
7
  6
CONTINUOUS
 10
4.522007224
 20
5.5946722395
 11
4.5220757628
 21
5.5949713758
  0
LINE
  5
2CD
100
AcDbEntity
  8
0
100
AcDbLine
 62
7
  6
CONTINUOUS
 10
4.5156821081
 20
5.5665275275
 11
4.515748736
 21
5.5668297635
  0
SPLINE
  5
2CE
100
AcDbEntity
  8
0
100
AcDbSpline
 62
9
  6
CONTINUOUS
 70
0
 71
3
 72
11
 73
7
 74
0
 42
0.0000001
 43
0.0000001
 44
0.0000000001
 40
0.0
 40
0.0
 40
0.0
 40
0.0
 40
0.2097308938
 40
0.4445400066
 40
0.7119153161
 40
1.0
 40
1.0
 40
1.0
 40
1.0
 10
4.1927644316
 20
4.3693755197
 30
0.0
 10
4.1927645775
 20
4.3679104374
 30
0.0
 10
4.1937435205
 20
4.3647796188
 30
0.0
 10
4.1973496514
 20
4.361154751
 30
0.0
 10
4.2024796242
 20
4.3588777286
 30
0.0
 10
4.2063770064
 20
4.3583273631
 30
0.0
 10
4.2083894318
 20
4.3583273632
 30
0.0
  0
SPLINE
  5
2CF
100
AcDbEntity
  8
0
100
AcDbSpline
 62
9
  6
CONTINUOUS
 70
0
 71
3
 72
10
 73
6
 74
0
 42
0.0000001
 43
0.0000001
 44
0.0000000001
 40
0.0
 40
0.0
 40
0.0
 40
0.0
 40
0.6365554452
 40
0.8585721094
 40
1.0
 40
1.0
 40
1.0
 40
1.0
 10
4.0628788848
 20
5.8104023367
 30
0.0
 10
4.0597720834
 20
5.809568578
 30
0.0
 10
4.0554028959
 20
5.8087594189
 30
0.0
 10
4.050407238
 20
5.8090659675
 30
0.0
 10
4.0485591926
 20
5.8098278249
 30
0.0
 10
4.0481338889
 20
5.8104021848
 30
0.0
  0
SPLINE
  5
2D0
100
AcDbEntity
  8
0
100
AcDbSpline
 62
9
  6
CONTINUOUS
 70
0
 71
3
 72
11
 73
7
 74
0
 42
0.0000001
 43
0.0000001
 44
0.0000000001
 40
0.0
 40
0.0
 40
0.0
 40
0.0
 40
0.2886644531
 40
0.5563354536
 40
0.7909350385
 40
1.0
 40
1.0
 40
1.0
 40
1.0
 10
4.4183988129
 20
4.4796610629
 30
0.0
 10
4.420410761
 20
4.4796610618
 30
0.0
 10
4.4243053456
 20
4.4802076206
 30
0.0
 10
4.4294327119
 20
4.4824687463
 30
0.0
 10
4.43304072
 20
4.4860693662
 30
0.0
 10
4.4340232429
 20
4.4891862564
 30
0.0
 10
4.4340238244
 20
4.4906434078
 30
0.0
  0
LINE
  5
2D1
100
AcDbEntity
  8
0
100
AcDbLine
 62
9
  6
CONTINUOUS
 10
4.4340602777
 20
4.8442166935
 11
4.4341638159
 21
4.8536721972
  0
LINE
  5
2D2
100
AcDbEntity
  8
0
100
AcDbLine
 62
9
  6
CONTINUOUS
 10
4.4364690487
 20
4.9481814449
 11
4.4365482751
 21
4.9502822187
  0
SPLINE
  5
2D3
100
AcDbEntity
  8
0
100
AcDbSpline
 62
7
  6
CONTINUOUS
 70
0
 71
3
 72
12
 73
8
 74
0
 42
0.0000001
 43
0.0000001
 44
0.0000000001
 40
0.0
 40
0.0
 40
0.0
 40
0.0
 40
0.2490609796
 40
0.4991594354
 40
0.6243631072
 40
0.7495780072
 40
1.0
 40
1.0
 40
1.0
 40
1.0
 10
4.4600818141
 20
5.3534053577
 30
0.0
 10
4.4531238119
 20
5.3091676256
 30
0.0
 10
4.4408910493
 20
5.2202276362
 30
0.0
 10
4.4300955195
 20
5.1084563848
 30
0.0
 10
4.424011031
 20
5.0186629764
 30
0.0
 10
4.4198697696
 20
4.9287003792
 30
0.0
 10
4.4186358855
 20
4.861156677
 30
0.0
 10
4.4183991675
 20
4.8161309975
 30
0.0
  0
LINE
  5
2D4
100
AcDbEntity
  8
0
100
AcDbLine
 62
9
  6
CONTINUOUS
 10
4.5639210843
 20
5.8103990328
 11
4.5636618057
 21
5.8095313305
  0
LINE
  5
2D5
100
AcDbEntity
  8
0
100
AcDbLine
 62
9
  6
CONTINUOUS
 10
4.0631345368
 20
5.8095320942
 11
4.0628750218
 21
5.8104010747
  0
SPLINE
  5
2D6
100
AcDbEntity
  8
0
100
AcDbSpline
 62
9
  6
CONTINUOUS
 70
0
 71
3
 72
10
 73
6
 74
0
 42
0.0000001
 43
0.0000001
 44
0.0000000001
 40
0.0
 40
0.0
 40
0.0
 40
0.0
 40
0.2524554929
 40
0.5037663634
 40
1.0
 40
1.0
 40
1.0
 40
1.0
 10
4.2083616188
 20
4.8161291667
 30
0.0
 10
4.2083616582
 20
4.8797876676
 30
0.0
 10
4.2049608565
 20
5.0068523987
 30
0.0
 10
4.184261159
 20
5.2582399501
 30
0.0
 10
4.1533960855
 20
5.4446938885
 30
0.0
 10
4.12627919
 20
5.5668492273
 30
0.0
  0
SPLINE
  5
2D7
100
AcDbEntity
  8
0
100
AcDbSpline
 62
9
  6
CONTINUOUS
 70
0
 71
3
 72
11
 73
7
 74
0
 42
0.0000001
 43
0.0000001
 44
0.0000000001
 40
0.0
 40
0.0
 40
0.0
 40
0.0
 40
0.2880846806
 40
0.5554599913
 40
0.7902691066
 40
1.0
 40
1.0
 40
1.0
 40
1.0
 10
4.4183988236
 20
4.358327366
 30
0.0
 10
4.4204112489
 20
4.3583273659
 30
0.0
 10
4.4243086313
 20
4.3588777312
 30
0.0
 10
4.4294386042
 20
4.3611547532
 30
0.0
 10
4.4330447355
 20
4.3647796207
 30
0.0
 10
4.4340236789
 20
4.3679104392
 30
0.0
 10
4.434023825
 20
4.3693755215
 30
0.0
  0
LINE
  5
2D8
100
AcDbEntity
  8
0
100
AcDbLine
 62
9
  6
CONTINUOUS
 10
4.5219204412
 20
5.5946920307
 11
4.5219891265
 21
5.5949918195
  0
LINE
  5
2D9
100
AcDbEntity
  8
0
100
AcDbLine
 62
9
  6
CONTINUOUS
 10
4.5155954875
 20
5.566546311
 11
4.5156621919
 21
5.5668489121
  0
LINE
  5
2DA
100
AcDbEntity
  8
0
100
AcDbLine
 62
9
  6
CONTINUOUS
 10
4.5156621919
 20
5.5668489121
 11
4.5162849632
 21
5.5696679466
  0
LINE
  5
2DB
100
AcDbEntity
  8
0
100
AcDbLine
 62
9
  6
CONTINUOUS
 10
4.5212048881
 20
5.5915613823
 11
4.5219205196
 21
5.5946921223
  0
SPLINE
  5
2DC
100
AcDbEntity
  8
0
100
AcDbSpline
 62
9
  6
CONTINUOUS
 70
0
 71
3
 72
11
 73
7
 74
0
 42
0.0000001
 43
0.0000001
 44
0.0000000001
 40
0.0
 40
0.0
 40
0.0
 40
0.0
 40
0.2886740871
 40
0.5563473343
 40
0.7909395007
 40
1.0
 40
1.0
 40
1.0
 40
1.0
 10
4.2083907944
 20
4.4796583544
 30
0.0
 10
4.2063782779
 20
4.4796582244
 30
0.0
 10
4.2024825951
 20
4.4802048483
 30
0.0
 10
4.197354002
 20
4.4824668678
 30
0.0
 10
4.1937457372
 20
4.4860691021
 30
0.0
 10
4.1927642314
 20
4.4891872384
 30
0.0
 10
4.1927644316
 20
4.4906447219
 30
0.0
  0
SPLINE
  5
2DD
100
AcDbEntity
  8
0
100
AcDbSpline
 62
7
  6
CONTINUOUS
 70
0
 71
3
 72
9
 73
5
 74
0
 42
0.0000001
 43
0.0000001
 44
0.0000000001
 40
0.0
 40
0.0
 40
0.0
 40
0.0
 40
0.4884989676
 40
1.0
 40
1.0
 40
1.0
 40
1.0
 10
4.1736206191
 20
4.2706319257
 30
0.0
 10
4.173620962
 20
4.2631666544
 30
0.0
 10
4.1761402035
 20
4.2477946394
 30
0.0
 10
4.1831985374
 20
4.2339739691
 30
0.0
 10
4.187617963
 20
4.2275264202
 30
0.0
  0
SPLINE
  5
2DE
100
AcDbEntity
  8
0
100
AcDbSpline
 62
7
  6
CONTINUOUS
 70
0
 71
3
 72
11
 73
7
 74
0
 42
0.0000001
 43
0.0000001
 44
0.0000000001
 40
0.0
 40
0.0
 40
0.0
 40
0.0
 40
0.2216346377
 40
0.4653855064
 40
0.7275345297
 40
1.0
 40
1.0
 40
1.0
 40
1.0
 10
4.187617963
 20
4.2275264202
 30
0.0
 10
4.1935658178
 20
4.2188490292
 30
0.0
 10
4.2092877318
 20
4.2027624531
 30
0.0
 10
4.2394421346
 20
4.1852844523
 30
0.0
 10
4.2749996042
 20
4.1742869416
 30
0.0
 10
4.3004504356
 20
4.1718073442
 30
0.0
 10
4.3133833624
 20
4.1718073442
 30
0.0
  0
SPLINE
  5
2DF
100
AcDbEntity
  8
0
100
AcDbSpline
 62
7
  6
CONTINUOUS
 70
0
 71
3
 72
11
 73
7
 74
0
 42
0.0000001
 43
0.0000001
 44
0.0000000001
 40
0.0
 40
0.0
 40
0.0
 40
0.0
 40
0.2358993889
 40
0.4780704368
 40
0.7317011996
 40
1.0
 40
1.0
 40
1.0
 40
1.0
 10
4.1460605277
 20
4.263675548
 30
0.0
 10
4.1460605277
 20
4.2717518379
 30
0.0
 10
4.1483463156
 20
4.2882006541
 30
0.0
 10
4.1583227552
 20
4.3114628645
 30
0.0
 10
4.1741987819
 20
4.33252918
 30
0.0
 10
4.1878100775
 20
4.3443126514
 30
0.0
 10
4.1952639965
 20
4.3496804158
 30
0.0
  0
SPLINE
  5
2E0
100
AcDbEntity
  8
0
100
AcDbSpline
 62
7
  6
CONTINUOUS
 70
0
 71
3
 72
11
 73
7
 74
0
 42
0.0000001
 43
0.0000001
 44
0.0000000001
 40
0.0
 40
0.0
 40
0.0
 40
0.0
 40
0.2682722206
 40
0.5219114496
 40
0.7641030212
 40
1.0
 40
1.0
 40
1.0
 40
1.0
 10
4.4315143954
 20
4.3496720049
 30
0.0
 10
4.4389492601
 20
4.344316982
 30
0.0
 10
4.4525282927
 20
4.3325641307
 30
0.0
 10
4.4683805653
 20
4.3115605924
 30
0.0
 10
4.4783668332
 20
4.2883693825
 30
0.0
 10
4.4806845349
 20
4.2719659634
 30
0.0
 10
4.4807058875
 20
4.2639091276
 30
0.0
  0
SPLINE
  5
2E1
100
AcDbEntity
  8
0
100
AcDbSpline
 62
7
  6
CONTINUOUS
 70
0
 71
3
 72
8
 73
4
 74
0
 42
0.0000001
 43
0.0000001
 44
0.0000000001
 40
0.0
 40
0.0
 40
0.0
 40
0.0
 40
1.0
 40
1.0
 40
1.0
 40
1.0
 10
3.5703164503
 20
3.5347968615
 30
0.0
 10
3.5717771916
 20
3.5339625301
 30
0.0
 10
3.573512163
 20
3.5335027936
 30
0.0
 10
3.575194386
 20
3.5335027936
 30
0.0
  0
SPLINE
  5
2E2
100
AcDbEntity
  8
0
100
AcDbSpline
 62
7
  6
CONTINUOUS
 70
0
 71
3
 72
8
 73
4
 74
0
 42
0.0000001
 43
0.0000001
 44
0.0000000001
 40
0.0
 40
0.0
 40
0.0
 40
0.0
 40
1.0
 40
1.0
 40
1.0
 40
1.0
 10
3.5703164503
 20
4.6376089014
 30
0.0
 10
3.5717771916
 20
4.6384432329
 30
0.0
 10
3.573512163
 20
4.6389029694
 30
0.0
 10
3.575194386
 20
4.6389029694
 30
0.0
  0
SPLINE
  5
2E3
100
AcDbEntity
  8
0
100
AcDbSpline
 62
7
  6
CONTINUOUS
 70
0
 71
3
 72
11
 73
7
 74
0
 42
0.0000001
 43
0.0000001
 44
0.0000000001
 40
0.0
 40
0.0
 40
0.0
 40
0.0
 40
0.2723719266
 40
0.5344771703
 40
0.7782637918
 40
1.0
 40
1.0
 40
1.0
 40
1.0
 10
4.3133833624
 20
4.1718073442
 30
0.0
 10
4.3262869167
 20
4.1718073442
 30
0.0
 10
4.3516817712
 20
4.1742759682
 30
0.0
 10
4.387172448
 20
4.1852252761
 30
0.0
 10
4.4172943069
 20
4.2026301281
 30
0.0
 10
4.4330259887
 20
4.2186513289
 30
0.0
 10
4.4389915152
 20
4.227297785
 30
0.0
  0
SPLINE
  5
2E4
100
AcDbEntity
  8
0
100
AcDbSpline
 62
7
  6
CONTINUOUS
 70
0
 71
3
 72
9
 73
5
 74
0
 42
0.0000001
 43
0.0000001
 44
0.0000000001
 40
0.0
 40
0.0
 40
0.0
 40
0.0
 40
0.5116216383
 40
1.0
 40
1.0
 40
1.0
 40
1.0
 10
4.4389915152
 20
4.227297785
 30
0.0
 10
4.4434588872
 20
4.2337728104
 30
0.0
 10
4.4505974834
 20
4.2476619075
 30
0.0
 10
4.4531464505
 20
4.2631293813
 30
0.0
 10
4.4531461056
 20
4.2706385952
 30
0.0
  0
SPLINE
  5
2E5
100
AcDbEntity
  8
0
100
AcDbSpline
 62
9
  6
CONTINUOUS
 70
0
 71
3
 72
11
 73
7
 74
0
 42
0.0000001
 43
0.0000001
 44
0.0000000001
 40
0.0
 40
0.0
 40
0.0
 40
0.0
 40
0.2879697432
 40
0.5553440702
 40
0.7905331502
 40
1.0
 40
1.0
 40
1.0
 40
1.0
 10
5.0515723387
 20
3.5920633001
 30
0.0
 10
5.05284022
 20
3.5920633001
 30
0.0
 10
5.0553006981
 20
3.5917318195
 30
0.0
 10
5.0585224005
 20
3.5902752479
 30
0.0
 10
5.0608159259
 20
3.5880067709
 30
0.0
 10
5.0614148584
 20
3.5860258343
 30
0.0
 10
5.0614148584
 20
3.5851035877
 30
0.0
  0
SPLINE
  5
2E6
100
AcDbEntity
  8
0
100
AcDbSpline
 62
7
  6
CONTINUOUS
 70
0
 71
3
 72
19
 73
15
 74
0
 42
0.0000001
 43
0.0000001
 44
0.0000000001
 40
0.0
 40
0.0
 40
0.0
 40
0.0
 40
0.0517279373
 40
0.1053346489
 40
0.1622492987
 40
0.2232151541
 40
0.3564758246
 40
0.4999998325
 40
0.6435227331
 40
0.7767820831
 40
0.8377482378
 40
0.894663546
 40
0.9482713067
 40
1.0
 40
1.0
 40
1.0
 40
1.0
 10
4.1460605277
 20
4.1140417311
 30
0.0
 10
4.1460605277
 20
4.1062734239
 30
0.0
 10
4.1483149851
 20
4.0903739788
 30
0.0
 10
4.1581799068
 20
4.0678131198
 30
0.0
 10
4.1740049453
 20
4.0472085999
 30
0.0
 10
4.2029252035
 20
4.0226451293
 30
0.0
 10
4.2500787128
 20
4.0013392203
 30
0.0
 10
4.3133831154
 20
3.9928166378
 30
0.0
 10
4.3766873154
 20
4.0013390934
 30
0.0
 10
4.4238406116
 20
4.0226446267
 30
0.0
 10
4.4527610002
 20
4.0472078447
 30
0.0
 10
4.4685864582
 20
4.0678124317
 30
0.0
 10
4.4784516295
 20
4.0903735991
 30
0.0
 10
4.480706197
 20
4.1062733103
 30
0.0
 10
4.480706197
 20
4.1140417311
 30
0.0
  0
SPLINE
  5
2E7
100
AcDbEntity
  8
0
100
AcDbSpline
 62
9
  6
CONTINUOUS
 70
0
 71
3
 72
11
 73
7
 74
0
 42
0.0000001
 43
0.0000001
 44
0.0000000001
 40
0.0
 40
0.0
 40
0.0
 40
0.0
 40
0.2879697432
 40
0.5553440702
 40
0.7905331502
 40
1.0
 40
1.0
 40
1.0
 40
1.0
 10
3.575194386
 20
3.5781438753
 30
0.0
 10
3.5739265047
 20
3.5781438753
 30
0.0
 10
3.5714660266
 20
3.578475356
 30
0.0
 10
3.5682443242
 20
3.5799319276
 30
0.0
 10
3.5659507988
 20
3.5822004046
 30
0.0
 10
3.5653518663
 20
3.5841813412
 30
0.0
 10
3.5653518663
 20
3.5851035877
 30
0.0
  0
SPLINE
  5
2E8
100
AcDbEntity
  8
0
100
AcDbSpline
 62
9
  6
CONTINUOUS
 70
0
 71
3
 72
11
 73
7
 74
0
 42
0.0000001
 43
0.0000001
 44
0.0000000001
 40
0.0
 40
0.0
 40
0.0
 40
0.0
 40
0.2094668498
 40
0.4446559298
 40
0.7120302568
 40
1.0
 40
1.0
 40
1.0
 40
1.0
 10
3.5653518663
 20
3.5851035877
 30
0.0
 10
3.5653518663
 20
3.5860258343
 30
0.0
 10
3.5659507988
 20
3.5880067709
 30
0.0
 10
3.5682443242
 20
3.5902752479
 30
0.0
 10
3.5714660266
 20
3.5917318195
 30
0.0
 10
3.5739265047
 20
3.5920633001
 30
0.0
 10
3.575194386
 20
3.5920633001
 30
0.0
  0
SPLINE
  5
2E9
100
AcDbEntity
  8
0
100
AcDbSpline
 62
7
  6
CONTINUOUS
 70
0
 71
3
 72
9
 73
5
 74
0
 42
0.0000001
 43
0.0000001
 44
0.0000000001
 40
0.0
 40
0.0
 40
0.0
 40
0.0
 40
0.4829766495
 40
1.0
 40
1.0
 40
1.0
 40
1.0
 10
4.4531461056
 20
4.2706385952
 30
0.0
 10
4.4531456761
 20
4.2799903094
 30
0.0
 10
4.4490835194
 20
4.2995140043
 30
0.0
 10
4.4381666148
 20
4.3160170784
 30
0.0
 10
4.4314904379
 20
4.3234768212
 30
0.0
  0
SPLINE
  5
2EA
100
AcDbEntity
  8
0
100
AcDbSpline
 62
9
  6
CONTINUOUS
 70
0
 71
3
 72
11
 73
7
 74
0
 42
0.0000001
 43
0.0000001
 44
0.0000000001
 40
0.0
 40
0.0
 40
0.0
 40
0.0
 40
0.2879697432
 40
0.5553440702
 40
0.7905331502
 40
1.0
 40
1.0
 40
1.0
 40
1.0
 10
3.575194386
 20
4.6360201621
 30
0.0
 10
3.5739265047
 20
4.6360201621
 30
0.0
 10
3.5714660266
 20
4.6356886815
 30
0.0
 10
3.5682443242
 20
4.6342321099
 30
0.0
 10
3.5659507988
 20
4.6319636328
 30
0.0
 10
3.5653518663
 20
4.6299826963
 30
0.0
 10
3.5653518663
 20
4.6290604497
 30
0.0
  0
SPLINE
  5
2EB
100
AcDbEntity
  8
0
100
AcDbSpline
 62
9
  6
CONTINUOUS
 70
0
 71
3
 72
13
 73
9
 74
0
 42
0.0000001
 43
0.0000001
 44
0.0000000001
 40
0.0
 40
0.0
 40
0.0
 40
0.0
 40
0.1034653794
 40
0.2106838295
 40
0.3245125661
 40
0.4464406162
 40
0.7129446872
 40
1.0
 40
1.0
 40
1.0
 40
1.0
 10
4.480706197
 20
4.263675548
 30
0.0
 10
4.480706197
 20
4.2559118742
 30
0.0
 10
4.4784545869
 20
4.2400223616
 30
0.0
 10
4.4686014225
 20
4.2174739252
 30
0.0
 10
4.4527951727
 20
4.196878146
 30
0.0
 10
4.4239028744
 20
4.1723206329
 30
0.0
 10
4.3768245231
 20
4.151006984
 30
0.0
 10
4.3350792637
 20
4.1453747158
 30
0.0
 10
4.3135396594
 20
4.1453604886
 30
0.0
  0
SPLINE
  5
2EC
100
AcDbEntity
  8
0
100
AcDbSpline
 62
9
  6
CONTINUOUS
 70
0
 71
3
 72
13
 73
9
 74
0
 42
0.0000001
 43
0.0000001
 44
0.0000000001
 40
0.0
 40
0.0
 40
0.0
 40
0.0
 40
0.2869897667
 40
0.553520367
 40
0.6754780112
 40
0.7893323937
 40
0.8965582495
 40
1.0
 40
1.0
 40
1.0
 40
1.0
 10
4.3135396594
 20
4.1453604886
 30
0.0
 10
4.2919961325
 20
4.1453462589
 30
0.0
 10
4.2502296701
 20
4.1509264951
 30
0.0
 10
4.2031027004
 20
4.1721769416
 30
0.0
 10
4.1741484544
 20
4.1966940185
 30
0.0
 10
4.1582887334
 20
4.2172673521
 30
0.0
 10
4.1483760067
 20
4.2398008661
 30
0.0
 10
4.1460813354
 20
4.2556894504
 30
0.0
 10
4.1460608197
 20
4.2634545107
 30
0.0
  0
SPLINE
  5
2ED
100
AcDbEntity
  8
0
100
AcDbSpline
 62
9
  6
CONTINUOUS
 70
0
 71
3
 72
11
 73
7
 74
0
 42
0.0000001
 43
0.0000001
 44
0.0000000001
 40
0.0
 40
0.0
 40
0.0
 40
0.0
 40
0.2879697432
 40
0.5553440702
 40
0.7905331502
 40
1.0
 40
1.0
 40
1.0
 40
1.0
 10
5.0515723387
 20
3.5363856008
 30
0.0
 10
5.05284022
 20
3.5363856008
 30
0.0
 10
5.0553006981
 20
3.5367170815
 30
0.0
 10
5.0585224005
 20
3.5381736531
 30
0.0
 10
5.0608159259
 20
3.5404421301
 30
0.0
 10
5.0614148584
 20
3.5424230667
 30
0.0
 10
5.0614148584
 20
3.5433453133
 30
0.0
  0
SPLINE
  5
2EE
100
AcDbEntity
  8
0
100
AcDbSpline
 62
9
  6
CONTINUOUS
 70
0
 71
3
 72
11
 73
7
 74
0
 42
0.0000001
 43
0.0000001
 44
0.0000000001
 40
0.0
 40
0.0
 40
0.0
 40
0.0
 40
0.2094668498
 40
0.4446559298
 40
0.7120302568
 40
1.0
 40
1.0
 40
1.0
 40
1.0
 10
5.0614148584
 20
4.6290604497
 30
0.0
 10
5.0614148584
 20
4.6299826963
 30
0.0
 10
5.0608159259
 20
4.6319636328
 30
0.0
 10
5.0585224005
 20
4.6342321099
 30
0.0
 10
5.0553006981
 20
4.6356886815
 30
0.0
 10
5.05284022
 20
4.6360201621
 30
0.0
 10
5.0515723387
 20
4.6360201621
 30
0.0
  0
SPLINE
  5
2EF
100
AcDbEntity
  8
0
100
AcDbSpline
 62
9
  6
CONTINUOUS
 70
0
 71
3
 72
11
 73
7
 74
0
 42
0.0000001
 43
0.0000001
 44
0.0000000001
 40
0.0
 40
0.0
 40
0.0
 40
0.0
 40
0.2094668498
 40
0.4446559298
 40
0.7120302568
 40
1.0
 40
1.0
 40
1.0
 40
1.0
 10
5.0614148584
 20
3.5851035877
 30
0.0
 10
5.0614148584
 20
3.5841813412
 30
0.0
 10
5.0608159259
 20
3.5822004046
 30
0.0
 10
5.0585224005
 20
3.5799319276
 30
0.0
 10
5.0553006981
 20
3.578475356
 30
0.0
 10
5.05284022
 20
3.5781438753
 30
0.0
 10
5.0515723387
 20
3.5781438753
 30
0.0
  0
SPLINE
  5
2F0
100
AcDbEntity
  8
0
100
AcDbSpline
 62
9
  6
CONTINUOUS
 70
0
 71
3
 72
11
 73
7
 74
0
 42
0.0000001
 43
0.0000001
 44
0.0000000001
 40
0.0
 40
0.0
 40
0.0
 40
0.0
 40
0.2094668498
 40
0.4446559298
 40
0.7120302568
 40
1.0
 40
1.0
 40
1.0
 40
1.0
 10
3.5653518663
 20
3.5433453133
 30
0.0
 10
3.5653518663
 20
3.5424230667
 30
0.0
 10
3.5659507988
 20
3.5404421301
 30
0.0
 10
3.5682443242
 20
3.5381736531
 30
0.0
 10
3.5714660266
 20
3.5367170815
 30
0.0
 10
3.5739265047
 20
3.5363856008
 30
0.0
 10
3.575194386
 20
3.5363856008
 30
0.0
  0
SPLINE
  5
2F1
100
AcDbEntity
  8
0
100
AcDbSpline
 62
9
  6
CONTINUOUS
 70
0
 71
3
 72
10
 73
6
 74
0
 42
0.0000001
 43
0.0000001
 44
0.0000000001
 40
0.0
 40
0.0
 40
0.0
 40
0.0
 40
0.2345568881
 40
0.476415271
 40
1.0
 40
1.0
 40
1.0
 40
1.0
 10
4.1559031237
 20
4.2706358088
 30
0.0
 10
4.1559031237
 20
4.2773592968
 30
0.0
 10
4.1576918735
 20
4.2910792752
 30
0.0
 10
4.1683881714
 20
4.3179186431
 30
0.0
 10
4.1835545993
 20
4.3348909315
 30
0.0
 10
4.1952626329
 20
4.3442809794
 30
0.0
  0
SPLINE
  5
2F2
100
AcDbEntity
  8
0
100
AcDbSpline
 62
9
  6
CONTINUOUS
 70
0
 71
3
 72
10
 73
6
 74
0
 42
0.0000001
 43
0.0000001
 44
0.0000000001
 40
0.0
 40
0.0
 40
0.0
 40
0.0
 40
0.5235777965
 40
0.765457438
 40
1.0
 40
1.0
 40
1.0
 40
1.0
 10
4.4314975091
 20
4.3442861949
 30
0.0
 10
4.4431795347
 20
4.3349182695
 30
0.0
 10
4.4583166143
 20
4.3179944511
 30
0.0
 10
4.4690295237
 20
4.2912337366
 30
0.0
 10
4.4708458785
 20
4.2775497577
 30
0.0
 10
4.470863601
 20
4.2708419036
 30
0.0
  0
SPLINE
  5
2F3
100
AcDbEntity
  8
0
100
AcDbSpline
 62
9
  6
CONTINUOUS
 70
0
 71
3
 72
19
 73
15
 74
0
 42
0.0000001
 43
0.0000001
 44
0.0000000001
 40
0.0
 40
0.0
 40
0.0
 40
0.0
 40
0.0517220899
 40
0.105320669
 40
0.1622236601
 40
0.2231742842
 40
0.35640007
 40
0.4998979168
 40
0.6434205907
 40
0.7767125673
 40
0.8377030607
 40
0.894642641
 40
0.9482677797
 40
1.0
 40
1.0
 40
1.0
 40
1.0
 10
4.470863601
 20
4.270634712
 30
0.0
 10
4.470863601
 20
4.2633277138
 30
0.0
 10
4.4687443108
 20
4.2483728073
 30
0.0
 10
4.4594706215
 20
4.2271507277
 30
0.0
 10
4.4445933664
 20
4.2077666233
 30
0.0
 10
4.4174037018
 20
4.1846537902
 30
0.0
 10
4.3730654831
 20
4.1645941576
 30
0.0
 10
4.3135274383
 20
4.1565441825
 30
0.0
 10
4.2539700865
 20
4.1645189597
 30
0.0
 10
4.2095866564
 20
4.1845192862
 30
0.0
 10
4.1823390659
 20
4.2075942063
 30
0.0
 10
4.1674115176
 20
4.2269574619
 30
0.0
 10
4.1580821032
 20
4.2481659646
 30
0.0
 10
4.1559224329
 20
4.2631202134
 30
0.0
 10
4.1559031237
 20
4.2704286173
 30
0.0
  0
SPLINE
  5
2F4
100
AcDbEntity
  8
0
100
AcDbSpline
 62
7
  6
CONTINUOUS
 70
0
 71
3
 72
9
 73
5
 74
0
 42
0.0000001
 43
0.0000001
 44
0.0000000001
 40
0.0
 40
0.0
 40
0.0
 40
0.0
 40
0.5170229813
 40
1.0
 40
1.0
 40
1.0
 40
1.0
 10
4.1952728322
 20
4.323473031
 30
0.0
 10
4.1885968642
 20
4.316012765
 30
0.0
 10
4.1776807125
 20
4.2995084891
 30
0.0
 10
4.1736201896
 20
4.2799838878
 30
0.0
 10
4.1736206191
 20
4.2706319257
 30
0.0
  0
ENDSEC
  0
SECTION
  2
OBJECTS
  0
DICTIONARY
  5
C
100
AcDbDictionary
280
0
281
1
  3
ACAD_GROUP
350
D
  3
ACAD_MLINESTYLE
350
17
  3
ACAD_LAYOUT
350
1A
  3
ACAD_PLOTSETTINGS
350
19
  3
ACAD_PLOTSTYLENAME
350
E
  0
DICTIONARY
  5
D
102
{ACAD_REACTORS
330
C
102
}
100
AcDbDictionary
280
0
281
1
  0
ACDBDICTIONARYWDFLT
  5
E
102
{ACAD_REACTORS
330
C
102
}
100
AcDbDictionary
281
1
  3
Normal
350
F
100
AcDbDictionaryWithDefault
340
F
  0
DICTIONARY
  5
17
102
{ACAD_REACTORS
330
C
102
}
100
AcDbDictionary
280
0
281
1
  3
Standard
350
18
  0
DICTIONARY
  5
19
102
{ACAD_REACTORS
330
C
102
}
100
AcDbDictionary
281
1
  0
DICTIONARY
  5
1A
102
{ACAD_REACTORS
330
C
102
}
100
AcDbDictionary
281
1
  3
Model
350
2F5
  3
Layout1
350
2F6
  0
ACDBPLACEHOLDER
  5
F
102
{ACAD_REACTORS
330
E
102
}
  0
MLINESTYLE
  5
18
102
{ACAD_REACTORS
330
17
102
}
100
AcDbMlineStyle
  2
STANDARD
 70
0
  3

 62
256
 51
90.0
 52
90.0
 71
2
 49
0.5
 62
256
  6
BYLAYER
 49
-0.5
 62
256
  6
BYLAYER
  0
LAYOUT
  5
2F5
102
{ACAD_REACTORS
330
1A
102
}
100
AcDbPlotSettings
  1

  2
none_device
  4
ANSI_A_(11.00_x_8.50_Inches)
  6

 40
0.0
 41
0.0
 42
0.0
 43
0.0
 44
279.4
 45
215.9
 46
0.0
 47
0.0
 48
0.0
 49
0.0
140
0.0
141
0.0
142
1.0
143
1.0
 70
1024
 72
0
 73
0
 74
0
  7

 75
0
147
1.0
148
0.0
149
0.0
100
AcDbLayout
  1
Model
 70
0
 71
0
 10
0.0
 20
0.0
 11
11.0
 21
8.5
 12
0.0
 22
0.0
 32
0.0
 14
0.0
 24
0.0
 34
0.0
 15
0.0
 25
0.0
 35
0.0
146
0.0
 13
0.0
 23
0.0
 33
0.0
 16
1.0
 26
0.0
 36
0.0
 17
0.0
 27
1.0
 37
0.0
 76
0
330
20B
345
0
346
0
  0
LAYOUT
  5
2F6
102
{ACAD_REACTORS
330
1A
102
}
100
AcDbPlotSettings
  1

  2
none_device
  4
ANSI_A_(11.00_x_8.50_Inches)
  6

 40
0.0
 41
0.0
 42
0.0
 43
0.0
 44
279.4
 45
215.9
 46
0.0
 47
0.0
 48
0.0
 49
0.0
140
0.0
141
0.0
142
1.0
143
1.0
 70
0
 72
0
 73
0
 74
0
  7

 75
0
147
1.0
148
0.0
149
0.0
100
AcDbLayout
  1
Layout1
 70
0
 71
1
 10
0.0
 20
0.0
 11
11.0
 21
8.5
 12
0.0
 22
0.0
 32
0.0
 14
0.0
 24
0.0
 34
0.0
 15
0.0
 25
0.0
 35
0.0
146
0.0
 13
0.0
 23
0.0
 33
0.0
 16
1.0
 26
0.0
 36
0.0
 17
0.0
 27
1.0
 37
0.0
 76
0
330
20C
345
0
346
0
  0
ENDSEC
  0
EOF
