999
DXF file: 3-8202bp_front.dxf
999
Pro/ENGINEER 2013150 by Parametric Technology Corporation
  0
SECTION
  2
HEADER
  9
$ACADVER
  1
AC1021
  9
$DWGCODEPAGE
  3
ANSI_1252
  9
$EXTMAX
 10
11.0
 20
8.5
 30
0.0
  9
$EXTMIN
 10
0.0
 20
0.0
 30
0.0
  9
$LIMMIN
 10
0.0
 20
0.0
  9
$LIMMAX
 10
11.0
 20
8.5
  9
$VIEWCTR
 10
5.5
 20
4.25
  9
$VIEWSIZE
 40
8.5
  9
$CLAYER
  8
0
  9
$LTSCALE
 40
0.605
  9
$CELTYPE
  6
BYLAYER
  9
$DIMSCALE
 40
1.0
  9
$DIMASZ
 40
0.1
  9
$DIMEXO
 40
0.0625
  9
$DIMDLI
 40
0.418
  9
$DIMEXE
 40
0.125
  9
$DIMCEN
 40
0.099
  9
$DIMLFAC
 40
1.0
  9
$DIMBLK
  1
_FILLED
  9
$DIMTXT
 40
0.08
  9
$DIMTOL
 70
1
  9
$DIMLIM
 70
0
  9
$DIMTFAC
 40
1.0
  9
$DIMTP
 40
0.001
  9
$DIMTM
 40
0.001
  9
$DIMGAP
 40
0.09
  9
$DIMDSEP
 70
46
  9
$PDMODE
 70
3
  9
$PDSIZE
 40
0.06
  9
$HANDSEED
  5
5F6
  9
$TILEMODE
 70
1
  9
$MEASUREMENT
 70
0
  9
$INSUNITS
 70
1
  0
ENDSEC
  0
SECTION
  2
CLASSES
  0
CLASS
  1
ACDBDICTIONARYWDFLT
  2
AcDbDictionaryWithDefault
  3
AutoCAD 2000
 90
0
 91
1
280
0
281
0
  0
CLASS
  1
ACDBPLACEHOLDER
  2
AcDbPlaceHolder
  3
AutoCAD 2000
 90
0
 91
1
280
0
281
0
  0
CLASS
  1
LAYOUT
  2
AcDbLayout
  3
AutoCAD 2000
 90
0
 91
0
280
0
281
0
  0
ENDSEC
  0
SECTION
  2
TABLES
  0
TABLE
  2
VPORT
  5
8
100
AcDbSymbolTable
 70
2
  0
VPORT
  5
1F4
100
AcDbSymbolTableRecord
100
AcDbViewportTableRecord
  2
*ACTIVE
 70
0
 10
0.0
 20
0.0
 11
1.0
 21
1.0
 12
5.5
 22
4.25
 13
0.0
 23
0.0
 14
1.0
 24
1.0
 15
0.0
 25
0.0
 16
0.0
 26
0.0
 36
1.0
 17
0.0
 27
0.0
 37
0.0
 40
8.5
 41
1.2941176471
 42
50.0
 43
0.0
 44
0.0
 50
0.0
 51
0.0
 71
0
 72
100
 73
1
 74
1
 75
0
 76
0
 77
0
 78
0
  0
ENDTAB
  0
TABLE
  2
LTYPE
  5
5
100
AcDbSymbolTable
 70
6
  0
LTYPE
  5
14
100
AcDbSymbolTableRecord
100
AcDbLinetypeTableRecord
  2
BYBLOCK
 70
0
  3

 72
65
 73
0
 40
0.0
  0
LTYPE
  5
15
100
AcDbSymbolTableRecord
100
AcDbLinetypeTableRecord
  2
BYLAYER
 70
0
  3

 72
65
 73
0
 40
0.0
  0
LTYPE
  5
16
100
AcDbSymbolTableRecord
100
AcDbLinetypeTableRecord
  2
CONTINUOUS
 70
64
  3
Solid line
 72
65
 73
0
 40
0.0
  0
LTYPE
  5
1F5
100
AcDbSymbolTableRecord
100
AcDbLinetypeTableRecord
  2
CENTER
 70
64
  3
____ _ ____ _ ____ _ ____ _ ____ _ ____ _ ____
 72
65
 73
4
 40
0.6
 49
0.375
 74
0
 49
-0.075
 74
0
 49
0.075
 74
0
 49
-0.075
 74
0
  0
LTYPE
  5
1F6
100
AcDbSymbolTableRecord
100
AcDbLinetypeTableRecord
  2
HIDDEN
 70
64
  3
- - - - - - - - - - - - - - - - - - - -
 72
65
 73
2
 40
0.2
 49
0.1
 74
0
 49
-0.1
 74
0
  0
LTYPE
  5
1F7
100
AcDbSymbolTableRecord
100
AcDbLinetypeTableRecord
  2
PHANTOM
 70
64
  3
_____ _ _ _____ _ _ _____ _ _ _____
 72
65
 73
6
 40
0.8
 49
0.45
 74
0
 49
-0.05
 74
0
 49
0.1
 74
0
 49
-0.05
 74
0
 49
0.1
 74
0
 49
-0.05
 74
0
  0
LTYPE
  5
1F8
100
AcDbSymbolTableRecord
100
AcDbLinetypeTableRecord
  2
DOT
 70
64
  3
. . . . . . . . . . . . . . . . . . . .
 72
65
 73
2
 40
0.2
 49
0.1
 74
0
 49
-0.1
 74
0
  0
LTYPE
  5
1F9
100
AcDbSymbolTableRecord
100
AcDbLinetypeTableRecord
  2
DASHED
 70
64
  3
- - - - - - - - - - - - - - - - - - - -
 72
65
 73
2
 40
0.2
 49
0.1
 74
0
 49
-0.1
 74
0
  0
ENDTAB
  0
TABLE
  2
LAYER
  5
2
100
AcDbSymbolTable
 70
36
  0
LAYER
  5
10
100
AcDbSymbolTableRecord
100
AcDbLayerTableRecord
  2
0
 70
0
 62
7
  6
CONTINUOUS
370
-3
390
F
  0
LAYER
  5
1FA
100
AcDbSymbolTableRecord
100
AcDbLayerTableRecord
  2
DEFAULT_1
 70
0
 62
7
  6
CENTER
370
-3
390
F
  0
LAYER
  5
1FB
100
AcDbSymbolTableRecord
100
AcDbLayerTableRecord
  2
DEFAULT_2
 70
0
 62
8
  6
HIDDEN
370
-3
390
F
  0
LAYER
  5
1FC
100
AcDbSymbolTableRecord
100
AcDbLayerTableRecord
  2
DEFAULT_3
 70
0
 62
7
  6
PHANTOM
370
-3
390
F
  0
LAYER
  5
1FD
100
AcDbSymbolTableRecord
100
AcDbLayerTableRecord
  2
2-217_ASSY_DATUMS
 70
0
 62
7
  6
CONTINUOUS
370
-3
390
F
  0
LAYER
  5
1FE
100
AcDbSymbolTableRecord
100
AcDbLayerTableRecord
  2
ALL_ASSEMBLY_MEMBERS
 70
0
 62
7
  6
CONTINUOUS
370
-3
390
F
  0
LAYER
  5
1FF
100
AcDbSymbolTableRecord
100
AcDbLayerTableRecord
  2
ALL_FEATURES
 70
0
 62
7
  6
CONTINUOUS
370
-3
390
F
  0
LAYER
  5
200
100
AcDbSymbolTableRecord
100
AcDbLayerTableRecord
  2
AXES_FEATURES
 70
0
 62
7
  6
CONTINUOUS
370
-3
390
F
  0
LAYER
  5
201
100
AcDbSymbolTableRecord
100
AcDbLayerTableRecord
  2
CHAMFER_FEATURES
 70
0
 62
7
  6
CONTINUOUS
370
-3
390
F
  0
LAYER
  5
202
100
AcDbSymbolTableRecord
100
AcDbLayerTableRecord
  2
CUT_FEATURES
 70
0
 62
7
  6
CONTINUOUS
370
-3
390
F
  0
LAYER
  5
203
100
AcDbSymbolTableRecord
100
AcDbLayerTableRecord
  2
DEFAULT_COORDINATE_SYSTEM
 70
0
 62
7
  6
CONTINUOUS
370
-3
390
F
  0
LAYER
  5
204
100
AcDbSymbolTableRecord
100
AcDbLayerTableRecord
  2
DEFAULT_DATUM_AXES
 70
0
 62
7
  6
CONTINUOUS
370
-3
390
F
  0
LAYER
  5
205
100
AcDbSymbolTableRecord
100
AcDbLayerTableRecord
  2
DEFAULT_DATUM_CURVES
 70
0
 62
7
  6
CONTINUOUS
370
-3
390
F
  0
LAYER
  5
206
100
AcDbSymbolTableRecord
100
AcDbLayerTableRecord
  2
DEFAULT_DATUM_PLANES
 70
0
 62
7
  6
CONTINUOUS
370
-3
390
F
  0
LAYER
  5
207
100
AcDbSymbolTableRecord
100
AcDbLayerTableRecord
  2
DIMENSIONS
 70
0
 62
7
  6
CONTINUOUS
370
-3
390
F
  0
LAYER
  5
208
100
AcDbSymbolTableRecord
100
AcDbLayerTableRecord
  2
PART_REFERENCE_DIMENSIONS
 70
0
 62
7
  6
CONTINUOUS
370
-3
390
F
  0
LAYER
  5
209
100
AcDbSymbolTableRecord
100
AcDbLayerTableRecord
  2
PLATED_AREA
 70
0
 62
7
  6
CONTINUOUS
370
-3
390
F
  0
LAYER
  5
20A
100
AcDbSymbolTableRecord
100
AcDbLayerTableRecord
  2
PROTRUSION_FEATURES
 70
0
 62
7
  6
CONTINUOUS
370
-3
390
F
  0
LAYER
  5
20B
100
AcDbSymbolTableRecord
100
AcDbLayerTableRecord
  2
QUILTS
 70
0
 62
7
  6
CONTINUOUS
370
-3
390
F
  0
LAYER
  5
20C
100
AcDbSymbolTableRecord
100
AcDbLayerTableRecord
  2
REFERENCE_DIMENSIONS
 70
0
 62
7
  6
CONTINUOUS
370
-3
390
F
  0
LAYER
  5
20D
100
AcDbSymbolTableRecord
100
AcDbLayerTableRecord
  2
ROUND_FEATURES
 70
0
 62
7
  6
CONTINUOUS
370
-3
390
F
  0
ENDTAB
  0
TABLE
  2
STYLE
  5
3
100
AcDbSymbolTable
 70
1
  0
STYLE
  5
11
100
AcDbSymbolTableRecord
100
AcDbTextStyleTableRecord
  2
STANDARD
 70
0
 40
0.0
 41
0.8
 50
0.0
 71
0
 42
0.2
  3
txt
  4

  0
STYLE
  5
20E
100
AcDbSymbolTableRecord
100
AcDbTextStyleTableRecord
  2
TEXTSTYLE_1
 70
0
 40
0.0
 41
0.8
 50
0.0
 71
0
 42
0.2
  3
gdt
  4

  0
ENDTAB
  0
TABLE
  2
VIEW
  5
6
100
AcDbSymbolTable
 70
0
  0
ENDTAB
  0
TABLE
  2
UCS
  5
7
100
AcDbSymbolTable
 70
0
  0
ENDTAB
  0
TABLE
  2
APPID
  5
9
100
AcDbSymbolTable
 70
1
  0
APPID
  5
20F
100
AcDbSymbolTableRecord
100
AcDbRegAppTableRecord
  2
ACAD
 70
0
  0
ENDTAB
  0
TABLE
  2
BLOCK_RECORD
  5
1
100
AcDbSymbolTable
 70
0
  0
BLOCK_RECORD
  5
210
100
AcDbSymbolTableRecord
100
AcDbBlockTableRecord
  2
*Model_Space
  0
BLOCK_RECORD
  5
211
100
AcDbSymbolTableRecord
100
AcDbBlockTableRecord
  2
*Paper_Space
  0
ENDTAB
  0
TABLE
  2
DIMSTYLE
  5
A
100
AcDbSymbolTable
 70
1
100
AcDbDimStyleTable
 71
0
  0
DIMSTYLE
105
212
100
AcDbSymbolTableRecord
100
AcDbDimStyleTableRecord
  2
STANDARD
 70
0
  3

  4

 40
1.0
 41
0.1
 42
0.0625
 43
0.38
 44
0.125
 45
0.0
 46
0.0
 47
0.001
 48
0.001
140
0.08
141
0.09
142
0.0
143
25.4
144
1.0
145
0.0
146
1.0
147
0.09
 71
1.0
 72
0.0
 73
1
 74
1
 75
0
 76
0
 77
0
 78
4
170
0
171
2
172
0
173
0
174
0
175
0
176
0
177
0
178
0
270
2
271
3
272
3
273
2
274
2
275
0
280
0
281
0
282
0
283
1
284
4
285
0
286
0
287
3
288
0
340
11
278
46
  0
ENDTAB
  0
ENDSEC
  0
SECTION
  2
BLOCKS
  0
BLOCK
  5
20
100
AcDbEntity
  8
0
100
AcDbBlockBegin
  2
*Model_Space
 70
0
 10
0.0
 20
0.0
 30
0.0
  3
*Model_Space
  1

  0
ENDBLK
  5
21
100
AcDbEntity
  8
0
100
AcDbBlockEnd
  0
BLOCK
  5
1C
100
AcDbEntity
  8
0
100
AcDbBlockBegin
  2
*Paper_Space
 70
0
 10
0.0
 20
0.0
 30
0.0
  3
*Paper_Space
  1

  0
ENDBLK
  5
1D
100
AcDbEntity
  8
0
100
AcDbBlockEnd
  0
ENDSEC
  0
SECTION
  2
ENTITIES
  0
LINE
  5
213
100
AcDbEntity
  8
0
100
AcDbLine
 62
7
  6
CONTINUOUS
 10
0.0
 20
0.0
 11
0.0
 21
8.5
  0
LINE
  5
214
100
AcDbEntity
  8
0
100
AcDbLine
 62
7
  6
CONTINUOUS
 10
0.0
 20
0.0
 11
11.0
 21
0.0
  0
LINE
  5
215
100
AcDbEntity
  8
0
100
AcDbLine
 62
7
  6
CONTINUOUS
 10
0.0
 20
8.5
 11
11.0
 21
8.5
  0
LINE
  5
216
100
AcDbEntity
  8
0
100
AcDbLine
 62
7
  6
CONTINUOUS
 10
11.0
 20
0.0
 11
11.0
 21
8.5
  0
LINE
  5
217
100
AcDbEntity
  8
0
100
AcDbLine
 62
7
  6
CONTINUOUS
 10
4.1722479106
 20
1.5303207007
 11
4.6053187767
 21
1.5303207007
  0
LINE
  5
218
100
AcDbEntity
  8
0
100
AcDbLine
 62
9
  6
CONTINUOUS
 10
4.4734681531
 20
6.2729148806
 11
4.4711878867
 21
6.2707393412
  0
LINE
  5
219
100
AcDbEntity
  8
0
100
AcDbLine
 62
7
  6
CONTINUOUS
 10
4.4218209143
 20
6.6617265225
 11
4.4226483879
 21
6.6631597488
  0
LINE
  5
21A
100
AcDbEntity
  8
0
100
AcDbLine
 62
7
  6
CONTINUOUS
 10
4.4562068723
 20
6.6437847488
 11
4.4553793987
 21
6.6423515225
  0
LINE
  5
21B
100
AcDbEntity
  8
0
100
AcDbLine
 62
9
  6
CONTINUOUS
 10
4.4454953467
 20
6.2823237455
 11
4.4404841624
 21
6.2734165007
  0
LINE
  5
21C
100
AcDbEntity
  8
0
100
AcDbLine
 62
7
  6
CONTINUOUS
 10
4.4379959421
 20
3.2744151889
 11
4.3395707452
 21
3.2744151889
  0
LINE
  5
21D
100
AcDbEntity
  8
0
100
AcDbLine
 62
9
  6
CONTINUOUS
 10
4.3346494854
 20
3.2793364487
 11
4.4429172019
 21
3.2793364487
  0
LINE
  5
21E
100
AcDbEntity
  8
0
100
AcDbLine
 62
7
  6
CONTINUOUS
 10
4.9595235607
 20
3.4807537716
 11
4.9647609948
 21
3.48195058
  0
LINE
  5
21F
100
AcDbEntity
  8
0
100
AcDbLine
 62
7
  6
CONTINUOUS
 10
4.863154849
 20
3.4807537716
 11
4.8683922831
 21
3.48195058
  0
LINE
  5
220
100
AcDbEntity
  8
0
100
AcDbLine
 62
7
  6
CONTINUOUS
 10
4.8149704931
 20
3.4807537716
 11
4.8202079242
 21
3.48195058
  0
LINE
  5
221
100
AcDbEntity
  8
0
100
AcDbLine
 62
7
  6
CONTINUOUS
 10
4.8547749628
 20
3.5370037716
 11
4.8495375348
 21
3.5358069632
  0
LINE
  5
222
100
AcDbEntity
  8
0
100
AcDbLine
 62
7
  6
CONTINUOUS
 10
4.8055431205
 20
3.5370037716
 11
4.8003056901
 21
3.5358069632
  0
LINE
  5
223
100
AcDbEntity
  8
0
100
AcDbLine
 62
7
  6
CONTINUOUS
 10
4.8055431205
 20
3.4807537716
 11
4.8149704931
 21
3.4807537716
  0
LINE
  5
224
100
AcDbEntity
  8
0
100
AcDbLine
 62
7
  6
CONTINUOUS
 10
4.8547749628
 20
3.4807537716
 11
4.863154849
 21
3.4807537716
  0
LINE
  5
225
100
AcDbEntity
  8
0
100
AcDbLine
 62
7
  6
CONTINUOUS
 10
4.8882945134
 20
3.4807537716
 11
4.9260040161
 21
3.4807537716
  0
LINE
  5
226
100
AcDbEntity
  8
0
100
AcDbLine
 62
7
  6
CONTINUOUS
 10
4.9343838963
 20
3.4807537716
 11
4.9595235607
 21
3.4807537716
  0
LINE
  5
227
100
AcDbEntity
  8
0
100
AcDbLine
 62
7
  6
CONTINUOUS
 10
4.1033450248
 20
5.718576279
 11
4.1066419475
 21
5.7303408978
  0
LINE
  5
228
100
AcDbEntity
  8
0
100
AcDbLine
 62
7
  6
CONTINUOUS
 10
4.0880111717
 20
5.6501183454
 11
4.0913080945
 21
5.6618829643
  0
LINE
  5
229
100
AcDbEntity
  8
0
100
AcDbLine
 62
7
  6
CONTINUOUS
 10
4.1478455996
 20
5.780333073
 11
4.1511425224
 21
5.7920976919
  0
LINE
  5
22A
100
AcDbEntity
  8
0
100
AcDbLine
 62
7
  6
CONTINUOUS
 10
4.1033450248
 20
5.5816604118
 11
4.1066419475
 21
5.5934250307
  0
LINE
  5
22B
100
AcDbEntity
  8
0
100
AcDbLine
 62
7
  6
CONTINUOUS
 10
4.1506705981
 20
5.6501183454
 11
4.1539675209
 21
5.6618829643
  0
LINE
  5
22C
100
AcDbEntity
  8
0
100
AcDbLine
 62
7
  6
CONTINUOUS
 10
4.1697492574
 20
5.7179404198
 11
4.1730461802
 21
5.7297050387
  0
LINE
  5
22D
100
AcDbEntity
  8
0
100
AcDbLine
 62
7
  6
CONTINUOUS
 10
4.2171568699
 20
5.8293435423
 11
4.2204537927
 21
5.8411081611
  0
LINE
  5
22E
100
AcDbEntity
  8
0
100
AcDbLine
 62
7
  6
CONTINUOUS
 10
4.1478455996
 20
5.5199036178
 11
4.1511425224
 21
5.5316682366
  0
LINE
  5
22F
100
AcDbEntity
  8
0
100
AcDbLine
 62
7
  6
CONTINUOUS
 10
4.1697492574
 20
5.582296271
 11
4.1730461802
 21
5.5940608898
  0
LINE
  5
230
100
AcDbEntity
  8
0
100
AcDbLine
 62
7
  6
CONTINUOUS
 10
4.2240806825
 20
5.7754371982
 11
4.2273776052
 21
5.7872018171
  0
LINE
  5
231
100
AcDbEntity
  8
0
100
AcDbLine
 62
7
  6
CONTINUOUS
 10
4.2133300245
 20
5.6501183454
 11
4.2166269473
 21
5.6618829643
  0
LINE
  5
232
100
AcDbEntity
  8
0
100
AcDbLine
 62
7
  6
CONTINUOUS
 10
4.2385143386
 20
5.7165787034
 11
4.2418112613
 21
5.7283433222
  0
LINE
  5
233
100
AcDbEntity
  8
0
100
AcDbLine
 62
7
  6
CONTINUOUS
 10
4.9595235607
 20
3.4879346226
 11
4.9406688124
 21
3.4879346226
  0
LINE
  5
234
100
AcDbEntity
  8
0
100
AcDbLine
 62
7
  6
CONTINUOUS
 10
4.9260040161
 20
3.4879346226
 11
4.8945794356
 21
3.4879346226
  0
LINE
  5
235
100
AcDbEntity
  8
0
100
AcDbLine
 62
7
  6
CONTINUOUS
 10
4.863154849
 20
3.4879346226
 11
4.8547749628
 21
3.4879346226
  0
LINE
  5
236
100
AcDbEntity
  8
0
100
AcDbLine
 62
7
  6
CONTINUOUS
 10
4.8149704931
 20
3.4879346226
 11
4.8055431205
 21
3.4879346226
  0
LINE
  5
237
100
AcDbEntity
  8
0
100
AcDbLine
 62
7
  6
CONTINUOUS
 10
4.8296352984
 20
3.4951154737
 11
4.8233503823
 21
3.4951154737
  0
LINE
  5
238
100
AcDbEntity
  8
0
100
AcDbLine
 62
7
  6
CONTINUOUS
 10
4.8233503823
 20
3.5226420678
 11
4.8296352984
 21
3.5226420678
  0
LINE
  5
239
100
AcDbEntity
  8
0
100
AcDbLine
 62
7
  6
CONTINUOUS
 10
4.8055431205
 20
3.5298229214
 11
4.8149704931
 21
3.5298229214
  0
LINE
  5
23A
100
AcDbEntity
  8
0
100
AcDbLine
 62
7
  6
CONTINUOUS
 10
4.8547749628
 20
3.5298229214
 11
4.863154849
 21
3.5298229214
  0
LINE
  5
23B
100
AcDbEntity
  8
0
100
AcDbLine
 62
7
  6
CONTINUOUS
 10
4.9406688124
 20
3.5298229214
 11
4.9595235607
 21
3.5298229214
  0
LINE
  5
23C
100
AcDbEntity
  8
0
100
AcDbLine
 62
7
  6
CONTINUOUS
 10
4.9595235607
 20
3.5370037716
 11
4.9343838963
 21
3.5370037716
  0
LINE
  5
23D
100
AcDbEntity
  8
0
100
AcDbLine
 62
7
  6
CONTINUOUS
 10
4.8945794356
 20
3.5370037716
 11
4.8882945134
 21
3.5370037716
  0
LINE
  5
23E
100
AcDbEntity
  8
0
100
AcDbLine
 62
7
  6
CONTINUOUS
 10
4.863154849
 20
3.5370037716
 11
4.8547749628
 21
3.5370037716
  0
LINE
  5
23F
100
AcDbEntity
  8
0
100
AcDbLine
 62
7
  6
CONTINUOUS
 10
4.8149704931
 20
3.5370037716
 11
4.8055431205
 21
3.5370037716
  0
LINE
  5
240
100
AcDbEntity
  8
0
100
AcDbLine
 62
7
  6
CONTINUOUS
 10
4.8003056901
 20
3.48195058
 11
4.8055431205
 21
3.4807537716
  0
LINE
  5
241
100
AcDbEntity
  8
0
100
AcDbLine
 62
7
  6
CONTINUOUS
 10
4.8495375348
 20
3.48195058
 11
4.8547749628
 21
3.4807537716
  0
LINE
  5
242
100
AcDbEntity
  8
0
100
AcDbLine
 62
7
  6
CONTINUOUS
 10
4.8202079242
 20
3.5358069632
 11
4.8149704931
 21
3.5370037716
  0
LINE
  5
243
100
AcDbEntity
  8
0
100
AcDbLine
 62
7
  6
CONTINUOUS
 10
4.8683922831
 20
3.5358069632
 11
4.863154849
 21
3.5370037716
  0
LINE
  5
244
100
AcDbEntity
  8
0
100
AcDbLine
 62
7
  6
CONTINUOUS
 10
4.8055431205
 20
3.4879346226
 11
4.8013531759
 21
3.489131431
  0
LINE
  5
245
100
AcDbEntity
  8
0
100
AcDbLine
 62
7
  6
CONTINUOUS
 10
4.8547749628
 20
3.4879346226
 11
4.8505850168
 21
3.489131431
  0
LWPOLYLINE
  5
246
100
AcDbEntity
  8
0
100
AcDbPolyline
 62
7
  6
CONTINUOUS
 90
12
 70
0
 10
4.33125714
 20
3.6378136408
 10
4.3318146892
 20
3.6375929737
 10
4.3323486761
 20
3.637301482
 10
4.3328458496
 20
3.6369436883
 10
4.333290805
 20
3.6365310223
 10
4.3336784382
 20
3.6360709714
 10
4.3340096733
 20
3.6355624252
 10
4.3342755416
 20
3.6350175832
 10
4.3344712432
 20
3.6344483761
 10
4.3345971551
 20
3.6338516721
 10
4.3346484456
 20
3.6332370616
 10
4.3346494854
 20
3.6331359043
  0
LWPOLYLINE
  5
247
100
AcDbEntity
  8
0
100
AcDbPolyline
 62
7
  6
CONTINUOUS
 90
5
 70
0
 10
4.1671218288
 20
1.7815210967
 10
4.167120777
 20
1.7815325165
 10
4.1671454693
 20
1.7811675865
 10
4.1671947409
 20
1.7803706004
 10
4.1672592208
 20
1.7792305027
  0
LINE
  5
248
100
AcDbEntity
  8
0
100
AcDbLine
 62
7
  6
CONTINUOUS
 10
3.9950825563
 20
5.6710596429
 11
3.9950825563
 21
5.8728913029
  0
LINE
  5
249
100
AcDbEntity
  8
0
100
AcDbLine
 62
7
  6
CONTINUOUS
 10
4.3044941657
 20
5.8608102005
 11
4.3077910884
 21
5.8725748194
  0
LINE
  5
24A
100
AcDbEntity
  8
0
100
AcDbLine
 62
7
  6
CONTINUOUS
 10
4.2385143386
 20
5.5836579874
 11
4.2418112613
 21
5.5954226063
  0
LINE
  5
24B
100
AcDbEntity
  8
0
100
AcDbLine
 62
7
  6
CONTINUOUS
 10
4.2240806825
 20
5.5247994926
 11
4.2273776052
 21
5.5365641114
  0
LINE
  5
24C
100
AcDbEntity
  8
0
100
AcDbLine
 62
7
  6
CONTINUOUS
 10
4.3053934063
 20
5.8138553173
 11
4.308690329
 21
5.8256199362
  0
LINE
  5
24D
100
AcDbEntity
  8
0
100
AcDbLine
 62
7
  6
CONTINUOUS
 10
4.2171568699
 20
5.4708931485
 11
4.2204537927
 21
5.4826577674
  0
LINE
  5
24E
100
AcDbEntity
  8
0
100
AcDbLine
 62
7
  6
CONTINUOUS
 10
4.3073191641
 20
5.7652310621
 11
4.3106160869
 21
5.776995681
  0
LINE
  5
24F
100
AcDbEntity
  8
0
100
AcDbLine
 62
7
  6
CONTINUOUS
 10
4.4013083037
 20
5.871652872
 11
4.4046052265
 21
5.8834174909
  0
LINE
  5
250
100
AcDbEntity
  8
0
100
AcDbLine
 62
7
  6
CONTINUOUS
 10
4.3073191641
 20
5.5350056287
 11
4.3106160869
 21
5.5467702475
  0
LINE
  5
251
100
AcDbEntity
  8
0
100
AcDbLine
 62
7
  6
CONTINUOUS
 10
4.3053934063
 20
5.4863813735
 11
4.308690329
 21
5.4981459924
  0
LINE
  5
252
100
AcDbEntity
  8
0
100
AcDbLine
 62
7
  6
CONTINUOUS
 10
4.4013083037
 20
5.8273459667
 11
4.4046052265
 21
5.8391105855
  0
LINE
  5
253
100
AcDbEntity
  8
0
100
AcDbLine
 62
7
  6
CONTINUOUS
 10
4.3044941657
 20
5.4394264903
 11
4.3077910884
 21
5.4511911091
  0
LINE
  5
254
100
AcDbEntity
  8
0
100
AcDbLine
 62
7
  6
CONTINUOUS
 10
4.4013083037
 20
5.7830390614
 11
4.4046052265
 21
5.7948036802
  0
LINE
  5
255
100
AcDbEntity
  8
0
100
AcDbLine
 62
7
  6
CONTINUOUS
 10
4.9647609948
 20
3.5358069632
 11
4.9595235607
 21
3.5370037716
  0
LINE
  5
256
100
AcDbEntity
  8
0
100
AcDbLine
 62
7
  6
CONTINUOUS
 10
4.8149704931
 20
3.5298229214
 11
4.8191604392
 21
3.528626113
  0
LINE
  5
257
100
AcDbEntity
  8
0
100
AcDbLine
 62
7
  6
CONTINUOUS
 10
4.863154849
 20
3.5298229214
 11
4.8673447951
 21
3.528626113
  0
LINE
  5
258
100
AcDbEntity
  8
0
100
AcDbLine
 62
7
  6
CONTINUOUS
 10
4.9595235607
 20
3.5298229214
 11
4.9637135128
 21
3.528626113
  0
LINE
  5
259
100
AcDbEntity
  8
0
100
AcDbLine
 62
7
  6
CONTINUOUS
 10
4.7961157456
 20
3.4843441971
 11
4.8003056901
 21
3.48195058
  0
LINE
  5
25A
100
AcDbEntity
  8
0
100
AcDbLine
 62
7
  6
CONTINUOUS
 10
4.8453475887
 20
3.4843441971
 11
4.8495375348
 21
3.48195058
  0
LINE
  5
25B
100
AcDbEntity
  8
0
100
AcDbLine
 62
7
  6
CONTINUOUS
 10
4.8243978673
 20
3.5334133465
 11
4.8202079242
 21
3.5358069632
  0
LINE
  5
25C
100
AcDbEntity
  8
0
100
AcDbLine
 62
7
  6
CONTINUOUS
 10
4.1672592208
 20
1.7792305027
 11
4.1674245622
 21
1.7759102391
  0
LINE
  5
25D
100
AcDbEntity
  8
0
100
AcDbLine
 62
7
  6
CONTINUOUS
 10
4.1674245622
 20
1.7759102391
 11
4.1676208706
 21
1.7713331464
  0
LINE
  5
25E
100
AcDbEntity
  8
0
100
AcDbLine
 62
7
  6
CONTINUOUS
 10
4.1676208706
 20
1.7713331464
 11
4.1678370596
 21
1.7655663986
  0
LINE
  5
25F
100
AcDbEntity
  8
0
100
AcDbLine
 62
7
  6
CONTINUOUS
 10
4.1678370596
 20
1.7655663986
 11
4.168065878
 21
1.7586747474
  0
LINE
  5
260
100
AcDbEntity
  8
0
100
AcDbLine
 62
7
  6
CONTINUOUS
 10
4.168065878
 20
1.7586747474
 11
4.1683035062
 21
1.7506929456
  0
LINE
  5
261
100
AcDbEntity
  8
0
100
AcDbLine
 62
7
  6
CONTINUOUS
 10
4.1683035062
 20
1.7506929456
 11
4.1685476193
 21
1.7416445657
  0
LINE
  5
262
100
AcDbEntity
  8
0
100
AcDbLine
 62
7
  6
CONTINUOUS
 10
4.1685476193
 20
1.7416445657
 11
4.1687965925
 21
1.7315639897
  0
LINE
  5
263
100
AcDbEntity
  8
0
100
AcDbLine
 62
7
  6
CONTINUOUS
 10
4.1687965925
 20
1.7315639897
 11
4.1690494082
 21
1.7204850999
  0
LINE
  5
264
100
AcDbEntity
  8
0
100
AcDbLine
 62
7
  6
CONTINUOUS
 10
4.1690494082
 20
1.7204850999
 11
4.169305326
 21
1.7084554798
  0
LINE
  5
265
100
AcDbEntity
  8
0
100
AcDbLine
 62
7
  6
CONTINUOUS
 10
4.169305326
 20
1.7084554798
 11
4.1695638342
 21
1.6955324439
  0
LINE
  5
266
100
AcDbEntity
  8
0
100
AcDbLine
 62
7
  6
CONTINUOUS
 10
4.1695638342
 20
1.6955324439
 11
4.1699559177
 21
1.6746196438
  0
LINE
  5
267
100
AcDbEntity
  8
0
100
AcDbLine
 62
7
  6
CONTINUOUS
 10
4.1699559177
 20
1.6746196438
 11
4.1703903054
 21
1.6499438292
  0
LINE
  5
268
100
AcDbEntity
  8
0
100
AcDbLine
 62
7
  6
CONTINUOUS
 10
4.1703903132
 20
1.649943376
 11
4.1707842016
 21
1.6265471491
  0
LINE
  5
269
100
AcDbEntity
  8
0
100
AcDbLine
 62
7
  6
CONTINUOUS
 10
4.1707842016
 20
1.6265471491
 11
4.171255034
 21
1.5973240026
  0
LINE
  5
26A
100
AcDbEntity
  8
0
100
AcDbLine
 62
7
  6
CONTINUOUS
 10
4.171255034
 20
1.5973240026
 11
4.1717009895
 21
1.5682182321
  0
LWPOLYLINE
  5
26B
100
AcDbEntity
  8
0
100
AcDbPolyline
 62
7
  6
CONTINUOUS
 90
3
 70
0
 10
4.1717009895
 20
1.5682182321
 10
4.1721228186
 20
1.5392237566
 10
4.1722479106
 20
1.5303207007
  0
LINE
  5
26C
100
AcDbEntity
  8
0
100
AcDbLine
 62
9
  6
CONTINUOUS
 10
4.1703842749
 20
1.6506468577
 11
4.1703903054
 21
1.6499438292
  0
LINE
  5
26D
100
AcDbEntity
  8
0
100
AcDbLine
 62
7
  6
CONTINUOUS
 10
4.4013083037
 20
5.5171976294
 11
4.4046052265
 21
5.5289622483
  0
LINE
  5
26E
100
AcDbEntity
  8
0
100
AcDbLine
 62
7
  6
CONTINUOUS
 10
4.4981224418
 20
5.8608102005
 11
4.5014193646
 21
5.8725748194
  0
LINE
  5
26F
100
AcDbEntity
  8
0
100
AcDbLine
 62
7
  6
CONTINUOUS
 10
4.4013083037
 20
5.4728907241
 11
4.4046052265
 21
5.484655343
  0
LINE
  5
270
100
AcDbEntity
  8
0
100
AcDbLine
 62
7
  6
CONTINUOUS
 10
4.4972232012
 20
5.8138553173
 11
4.500520124
 21
5.8256199362
  0
LINE
  5
271
100
AcDbEntity
  8
0
100
AcDbLine
 62
7
  6
CONTINUOUS
 10
4.4952974434
 20
5.7652310621
 11
4.4985943661
 21
5.776995681
  0
LINE
  5
272
100
AcDbEntity
  8
0
100
AcDbLine
 62
7
  6
CONTINUOUS
 10
4.4013083037
 20
5.4285838188
 11
4.4046052265
 21
5.4403484376
  0
LINE
  5
273
100
AcDbEntity
  8
0
100
AcDbLine
 62
7
  6
CONTINUOUS
 10
4.4952974434
 20
5.5350056287
 11
4.4985943661
 21
5.5467702475
  0
LINE
  5
274
100
AcDbEntity
  8
0
100
AcDbLine
 62
7
  6
CONTINUOUS
 10
4.5854597376
 20
5.8293435423
 11
4.5887566603
 21
5.8411081611
  0
LINE
  5
275
100
AcDbEntity
  8
0
100
AcDbLine
 62
7
  6
CONTINUOUS
 10
4.4972232012
 20
5.4863813735
 11
4.500520124
 21
5.4981459924
  0
LINE
  5
276
100
AcDbEntity
  8
0
100
AcDbLine
 62
7
  6
CONTINUOUS
 10
4.578535925
 20
5.7754371982
 11
4.5818328478
 21
5.7872018171
  0
LINE
  5
277
100
AcDbEntity
  8
0
100
AcDbLine
 62
7
  6
CONTINUOUS
 10
4.5641022689
 20
5.7165787034
 11
4.5673991917
 21
5.7283433222
  0
LINE
  5
278
100
AcDbEntity
  8
0
100
AcDbLine
 62
7
  6
CONTINUOUS
 10
4.4981224418
 20
5.4394264903
 11
4.5014193646
 21
5.4511911091
  0
LINE
  5
279
100
AcDbEntity
  8
0
100
AcDbLine
 62
7
  6
CONTINUOUS
 10
4.5641022689
 20
5.5836579874
 11
4.5673991917
 21
5.5954226063
  0
LINE
  5
27A
100
AcDbEntity
  8
0
100
AcDbLine
 62
7
  6
CONTINUOUS
 10
4.589286583
 20
5.6501183454
 11
4.5925835058
 21
5.6618829643
  0
LINE
  5
27B
100
AcDbEntity
  8
0
100
AcDbLine
 62
7
  6
CONTINUOUS
 10
4.578535925
 20
5.5247994926
 11
4.5818328478
 21
5.5365641114
  0
LINE
  5
27C
100
AcDbEntity
  8
0
100
AcDbLine
 62
7
  6
CONTINUOUS
 10
4.6328673501
 20
5.7179404198
 11
4.6361642729
 21
5.7297050387
  0
LINE
  5
27D
100
AcDbEntity
  8
0
100
AcDbLine
 62
7
  6
CONTINUOUS
 10
4.6547710079
 20
5.780333073
 11
4.6580679307
 21
5.7920976919
  0
LINE
  5
27E
100
AcDbEntity
  8
0
100
AcDbLine
 62
7
  6
CONTINUOUS
 10
4.380126624
 20
4.3933069632
 11
4.37579827
 21
4.3909133465
  0
LINE
  5
27F
100
AcDbEntity
  8
0
100
AcDbLine
 62
7
  6
CONTINUOUS
 10
4.8725822232
 20
3.5334133465
 11
4.8683922831
 21
3.5358069632
  0
LINE
  5
280
100
AcDbEntity
  8
0
100
AcDbLine
 62
7
  6
CONTINUOUS
 10
4.9689509349
 20
3.5334133465
 11
4.9647609948
 21
3.5358069632
  0
LINE
  5
281
100
AcDbEntity
  8
0
100
AcDbLine
 62
7
  6
CONTINUOUS
 10
4.8013531759
 20
3.489131431
 11
4.7982107178
 21
3.4915250486
  0
LINE
  5
282
100
AcDbEntity
  8
0
100
AcDbLine
 62
7
  6
CONTINUOUS
 10
4.8505850168
 20
3.489131431
 11
4.8474425587
 21
3.4915250486
  0
LINE
  5
283
100
AcDbEntity
  8
0
100
AcDbLine
 62
7
  6
CONTINUOUS
 10
4.8191604392
 20
3.528626113
 11
4.8223028973
 21
3.5262324963
  0
LINE
  5
284
100
AcDbEntity
  8
0
100
AcDbLine
 62
7
  6
CONTINUOUS
 10
4.8673447951
 20
3.528626113
 11
4.8704872531
 21
3.5262324963
  0
LINE
  5
285
100
AcDbEntity
  8
0
100
AcDbLine
 62
7
  6
CONTINUOUS
 10
4.9637135128
 20
3.528626113
 11
4.9668559708
 21
3.5262324963
  0
LINE
  5
286
100
AcDbEntity
  8
0
100
AcDbLine
 62
7
  6
CONTINUOUS
 10
4.7919258017
 20
3.489131431
 11
4.7961157456
 21
3.4843441971
  0
LINE
  5
287
100
AcDbEntity
  8
0
100
AcDbLine
 62
7
  6
CONTINUOUS
 10
4.2706731075
 20
6.1547596556
 11
4.2706731075
 21
6.1448083777
  0
LINE
  5
288
100
AcDbEntity
  8
0
100
AcDbLine
 62
7
  6
CONTINUOUS
 10
4.2755943673
 20
6.1786163479
 11
4.2755943673
 21
6.2138980108
  0
LINE
  5
289
100
AcDbEntity
  8
0
100
AcDbLine
 62
7
  6
CONTINUOUS
 10
4.2874053909
 20
6.5657537716
 11
4.2874053909
 21
6.2332203042
  0
LINE
  5
28A
100
AcDbEntity
  8
0
100
AcDbLine
 62
7
  6
CONTINUOUS
 10
4.3162833437
 20
4.3382537716
 11
4.3162833437
 21
4.3945037716
  0
LINE
  5
28B
100
AcDbEntity
  8
0
100
AcDbLine
 62
7
  6
CONTINUOUS
 10
4.3227758809
 20
4.3945037716
 11
4.3227758809
 21
4.3717644092
  0
LINE
  5
28C
100
AcDbEntity
  8
0
100
AcDbLine
 62
7
  6
CONTINUOUS
 10
4.3227758809
 20
4.364583559
 11
4.3227758809
 21
4.3382537716
  0
LINE
  5
28D
100
AcDbEntity
  8
0
100
AcDbLine
 62
7
  6
CONTINUOUS
 10
4.3248069657
 20
5.6766644439
 11
4.3248069657
 21
5.6640999305
  0
LINE
  5
28E
100
AcDbEntity
  8
0
100
AcDbLine
 62
7
  6
CONTINUOUS
 10
4.3346494854
 20
3.6330336883
 11
4.3346494854
 21
3.2793364487
  0
LINE
  5
28F
100
AcDbEntity
  8
0
100
AcDbLine
 62
7
  6
CONTINUOUS
 10
4.3530743867
 20
4.3945037716
 11
4.3530743867
 21
4.3717644092
  0
LINE
  5
290
100
AcDbEntity
  8
0
100
AcDbLine
 62
7
  6
CONTINUOUS
 10
4.3530743867
 20
4.364583559
 11
4.3530743867
 21
4.3382537716
  0
LINE
  5
291
100
AcDbEntity
  8
0
100
AcDbLine
 62
7
  6
CONTINUOUS
 10
4.3595669239
 20
4.3945037716
 11
4.3595669239
 21
4.3382537716
  0
LINE
  5
292
100
AcDbEntity
  8
0
100
AcDbLine
 62
7
  6
CONTINUOUS
 10
4.3682236412
 20
4.3753548343
 11
4.3682236412
 21
4.3574027071
  0
LINE
  5
293
100
AcDbEntity
  8
0
100
AcDbLine
 62
7
  6
CONTINUOUS
 10
4.3747161784
 20
4.3753548343
 11
4.3747161784
 21
4.3574027071
  0
LINE
  5
294
100
AcDbEntity
  8
0
100
AcDbLine
 62
9
  6
CONTINUOUS
 10
4.3887833432
 20
1.530320682
 11
4.3887833437
 21
2.0913443252
  0
LINE
  5
295
100
AcDbEntity
  8
0
100
AcDbLine
 62
9
  6
CONTINUOUS
 10
4.3887833399
 20
3.6238247269
 11
4.3887833428
 21
3.6287459722
  0
LINE
  5
296
100
AcDbEntity
  8
0
100
AcDbLine
 62
7
  6
CONTINUOUS
 10
4.4050146873
 20
4.3753548343
 11
4.4050146873
 21
4.3574027071
  0
LINE
  5
297
100
AcDbEntity
  8
0
100
AcDbLine
 62
7
  6
CONTINUOUS
 10
4.4115072245
 20
4.3753548343
 11
4.4115072245
 21
4.3574027071
  0
LINE
  5
298
100
AcDbEntity
  8
0
100
AcDbLine
 62
7
  6
CONTINUOUS
 10
4.3693057328
 20
4.3813388795
 11
4.3682236412
 21
4.3753548343
  0
LINE
  5
299
100
AcDbEntity
  8
0
100
AcDbLine
 62
7
  6
CONTINUOUS
 10
4.4104251329
 20
4.3514186653
 11
4.4115072245
 21
4.3574027071
  0
LINE
  5
29A
100
AcDbEntity
  8
0
100
AcDbLine
 62
7
  6
CONTINUOUS
 10
4.3747161784
 20
4.3753548343
 11
4.37579827
 21
4.3801420678
  0
LINE
  5
29B
100
AcDbEntity
  8
0
100
AcDbLine
 62
7
  6
CONTINUOUS
 10
4.4050146873
 20
4.3574027071
 11
4.4039325957
 21
4.3526154737
  0
LINE
  5
29C
100
AcDbEntity
  8
0
100
AcDbLine
 62
7
  6
CONTINUOUS
 10
4.5854597376
 20
5.4708931485
 11
4.5887566603
 21
5.4826577674
  0
LINE
  5
29D
100
AcDbEntity
  8
0
100
AcDbLine
 62
7
  6
CONTINUOUS
 10
4.6328673501
 20
5.582296271
 11
4.6361642729
 21
5.5940608898
  0
LINE
  5
29E
100
AcDbEntity
  8
0
100
AcDbLine
 62
7
  6
CONTINUOUS
 10
4.6519460094
 20
5.6501183454
 11
4.6552429322
 21
5.6618829643
  0
LINE
  5
29F
100
AcDbEntity
  8
0
100
AcDbLine
 62
7
  6
CONTINUOUS
 10
4.6992715827
 20
5.718576279
 11
4.7025685055
 21
5.7303408978
  0
LINE
  5
2A0
100
AcDbEntity
  8
0
100
AcDbLine
 62
7
  6
CONTINUOUS
 10
4.6547710079
 20
5.5199036178
 11
4.6580679307
 21
5.5316682366
  0
LINE
  5
2A1
100
AcDbEntity
  8
0
100
AcDbLine
 62
7
  6
CONTINUOUS
 10
4.7146054358
 20
5.6501183454
 11
4.7179023586
 21
5.6618829643
  0
LINE
  5
2A2
100
AcDbEntity
  8
0
100
AcDbLine
 62
7
  6
CONTINUOUS
 10
4.6992715827
 20
5.5816604118
 11
4.7025685055
 21
5.5934250307
  0
LINE
  5
2A3
100
AcDbEntity
  8
0
100
AcDbLine
 62
7
  6
CONTINUOUS
 10
4.3714699098
 20
4.386126113
 11
4.3693057328
 21
4.3813388795
  0
LINE
  5
2A4
100
AcDbEntity
  8
0
100
AcDbLine
 62
7
  6
CONTINUOUS
 10
4.4082609559
 20
4.346631431
 11
4.4104251329
 21
4.3514186653
  0
LINE
  5
2A5
100
AcDbEntity
  8
0
100
AcDbLine
 62
7
  6
CONTINUOUS
 10
4.37579827
 20
4.3801420678
 11
4.377962447
 21
4.3837324963
  0
LINE
  5
2A6
100
AcDbEntity
  8
0
100
AcDbLine
 62
7
  6
CONTINUOUS
 10
4.4039325957
 20
4.3526154737
 11
4.4017684187
 21
4.3490250486
  0
LINE
  5
2A7
100
AcDbEntity
  8
0
100
AcDbLine
 62
7
  6
CONTINUOUS
 10
4.37579827
 20
4.3909133465
 11
4.3714699098
 21
4.386126113
  0
LINE
  5
2A8
100
AcDbEntity
  8
0
100
AcDbLine
 62
7
  6
CONTINUOUS
 10
4.4039325957
 20
4.3418441971
 11
4.4082609559
 21
4.346631431
  0
LINE
  5
2A9
100
AcDbEntity
  8
0
100
AcDbLine
 62
7
  6
CONTINUOUS
 10
4.377962447
 20
4.3837324963
 11
4.3812087156
 21
4.386126113
  0
LINE
  5
2AA
100
AcDbEntity
  8
0
100
AcDbLine
 62
7
  6
CONTINUOUS
 10
4.4017684187
 20
4.3490250486
 11
4.3985221501
 21
4.346631431
  0
LINE
  5
2AB
100
AcDbEntity
  8
0
100
AcDbLine
 62
7
  6
CONTINUOUS
 10
4.3996042355
 20
4.33945058
 11
4.4039325957
 21
4.3418441971
  0
LINE
  5
2AC
100
AcDbEntity
  8
0
100
AcDbLine
 62
7
  6
CONTINUOUS
 10
4.7981772831
 20
4.0957537716
 11
4.8075712225
 21
4.0957537716
  0
LINE
  5
2AD
100
AcDbEntity
  8
0
100
AcDbLine
 62
7
  6
CONTINUOUS
 10
4.8263591014
 20
4.0957537716
 11
4.8357530383
 21
4.0957537716
  0
LINE
  5
2AE
100
AcDbEntity
  8
0
100
AcDbLine
 62
7
  6
CONTINUOUS
 10
4.8545409155
 20
4.0957537716
 11
4.8615863699
 21
4.0957537716
  0
LINE
  5
2AF
100
AcDbEntity
  8
0
100
AcDbLine
 62
7
  6
CONTINUOUS
 10
4.8944651591
 20
4.0957537716
 11
4.9015106135
 21
4.0957537716
  0
LINE
  5
2B0
100
AcDbEntity
  8
0
100
AcDbLine
 62
7
  6
CONTINUOUS
 10
4.9109045571
 20
4.0957537716
 11
4.9179500115
 21
4.0957537716
  0
LINE
  5
2B1
100
AcDbEntity
  8
0
100
AcDbLine
 62
7
  6
CONTINUOUS
 10
4.9473060669
 20
4.0957537716
 11
4.9555257592
 21
4.0957537716
  0
LINE
  5
2B2
100
AcDbEntity
  8
0
100
AcDbLine
 62
7
  6
CONTINUOUS
 10
4.9649197028
 20
4.0957537716
 11
4.9719651571
 21
4.0957537716
  0
LINE
  5
2B3
100
AcDbEntity
  8
0
100
AcDbLine
 62
7
  6
CONTINUOUS
 10
4.9884045551
 20
4.0957537716
 11
4.9977984853
 21
4.0957537716
  0
LINE
  5
2B4
100
AcDbEntity
  8
0
100
AcDbLine
 62
7
  6
CONTINUOUS
 10
5.0142378833
 20
4.0957537716
 11
5.0212833377
 21
4.0957537716
  0
LINE
  5
2B5
100
AcDbEntity
  8
0
100
AcDbLine
 62
7
  6
CONTINUOUS
 10
4.8662833417
 20
4.1101154737
 11
4.8897681873
 21
4.1101154737
  0
LINE
  5
2B6
100
AcDbEntity
  8
0
100
AcDbLine
 62
7
  6
CONTINUOUS
 10
4.8885939494
 20
4.1149027071
 11
4.8674575863
 21
4.1149027071
  0
LINE
  5
2B7
100
AcDbEntity
  8
0
100
AcDbLine
 62
7
  6
CONTINUOUS
 10
4.9179500115
 20
4.1208867507
 11
4.9379121232
 21
4.1208867507
  0
LINE
  5
2B8
100
AcDbEntity
  8
0
100
AcDbLine
 62
7
  6
CONTINUOUS
 10
4.9402606125
 20
4.1280676009
 11
4.9179500115
 21
4.1280676009
  0
LINE
  5
2B9
100
AcDbEntity
  8
0
100
AcDbLine
 62
7
  6
CONTINUOUS
 10
4.9179500115
 20
4.1460197297
 11
4.9402606125
 21
4.1460197297
  0
LINE
  5
2BA
100
AcDbEntity
  8
0
100
AcDbLine
 62
7
  6
CONTINUOUS
 10
5.0212833377
 20
4.1520037716
 11
5.0107151562
 21
4.1520037716
  0
LINE
  5
2BB
100
AcDbEntity
  8
0
100
AcDbLine
 62
7
  6
CONTINUOUS
 10
4.9754878843
 20
4.1520037716
 11
4.9649197028
 21
4.1520037716
  0
LINE
  5
2BC
100
AcDbEntity
  8
0
100
AcDbLine
 62
7
  6
CONTINUOUS
 10
4.9390863746
 20
4.1520037716
 11
4.9109045571
 21
4.1520037716
  0
LINE
  5
2BD
100
AcDbEntity
  8
0
100
AcDbLine
 62
7
  6
CONTINUOUS
 10
4.882722733
 20
4.1520037716
 11
4.873328796
 21
4.1520037716
  0
LINE
  5
2BE
100
AcDbEntity
  8
0
100
AcDbLine
 62
7
  6
CONTINUOUS
 10
4.8451469786
 20
4.1520037716
 11
4.8381015242
 21
4.1520037716
  0
LINE
  5
2BF
100
AcDbEntity
  8
0
100
AcDbLine
 62
7
  6
CONTINUOUS
 10
4.8216621296
 20
4.1520037716
 11
4.812268191
 21
4.1520037716
  0
LINE
  5
2C0
100
AcDbEntity
  8
0
100
AcDbLine
 62
7
  6
CONTINUOUS
 10
4.795828798
 20
4.1520037716
 11
4.7887833437
 21
4.1520037716
  0
LINE
  5
2C1
100
AcDbEntity
  8
0
100
AcDbLine
 62
7
  6
CONTINUOUS
 10
4.8411576426
 20
3.489131431
 11
4.8453475887
 21
3.4843441971
  0
LINE
  5
2C2
100
AcDbEntity
  8
0
100
AcDbLine
 62
7
  6
CONTINUOUS
 10
4.8285878134
 20
3.528626113
 11
4.8243978673
 21
3.5334133465
  0
LINE
  5
2C3
100
AcDbEntity
  8
0
100
AcDbLine
 62
7
  6
CONTINUOUS
 10
4.8767721692
 20
3.528626113
 11
4.8725822232
 21
3.5334133465
  0
LINE
  5
2C4
100
AcDbEntity
  8
0
100
AcDbLine
 62
7
  6
CONTINUOUS
 10
4.9731408869
 20
3.528626113
 11
4.9689509349
 21
3.5334133465
  0
LINE
  5
2C5
100
AcDbEntity
  8
0
100
AcDbLine
 62
7
  6
CONTINUOUS
 10
4.7982107178
 20
3.4915250486
 11
4.7961157456
 21
3.4951154737
  0
LINE
  5
2C6
100
AcDbEntity
  8
0
100
AcDbLine
 62
7
  6
CONTINUOUS
 10
4.37579827
 20
4.3526154737
 11
4.3747161784
 21
4.3574027071
  0
LINE
  5
2C7
100
AcDbEntity
  8
0
100
AcDbLine
 62
7
  6
CONTINUOUS
 10
4.3682236412
 20
4.3574027071
 11
4.3693057328
 21
4.3514186653
  0
LINE
  5
2C8
100
AcDbEntity
  8
0
100
AcDbLine
 62
7
  6
CONTINUOUS
 10
4.4201639387
 20
4.3945037716
 11
4.4201639387
 21
4.3885197297
  0
LINE
  5
2C9
100
AcDbEntity
  8
0
100
AcDbLine
 62
7
  6
CONTINUOUS
 10
4.4374773671
 20
4.3382537716
 11
4.4374773671
 21
4.3885197297
  0
LINE
  5
2CA
100
AcDbEntity
  8
0
100
AcDbLine
 62
7
  6
CONTINUOUS
 10
4.4429172019
 20
3.6330336533
 11
4.4429172019
 21
3.2793364487
  0
LINE
  5
2CB
100
AcDbEntity
  8
0
100
AcDbLine
 62
7
  6
CONTINUOUS
 10
4.4439699043
 20
4.3885197297
 11
4.4439699043
 21
4.3382537716
  0
LINE
  5
2CC
100
AcDbEntity
  8
0
100
AcDbLine
 62
7
  6
CONTINUOUS
 10
4.4527597216
 20
5.6766609713
 11
4.4527597216
 21
5.6640999305
  0
LINE
  5
2CD
100
AcDbEntity
  8
0
100
AcDbLine
 62
7
  6
CONTINUOUS
 10
4.461283345
 20
4.3945037716
 11
4.461283345
 21
4.3885197297
  0
LINE
  5
2CE
100
AcDbEntity
  8
0
100
AcDbLine
 62
9
  6
CONTINUOUS
 10
4.4711864598
 20
6.2707379064
 11
4.4711864598
 21
6.2697045213
  0
LINE
  5
2CF
100
AcDbEntity
  8
0
100
AcDbLine
 62
7
  6
CONTINUOUS
 10
4.4901612964
 20
6.5657537716
 11
4.4901612964
 21
6.2341099998
  0
LINE
  5
2D0
100
AcDbEntity
  8
0
100
AcDbLine
 62
7
  6
CONTINUOUS
 10
4.5019723201
 20
6.2138980107
 11
4.5019723201
 21
6.1786163479
  0
LINE
  5
2D1
100
AcDbEntity
  8
0
100
AcDbLine
 62
7
  6
CONTINUOUS
 10
4.5068935799
 20
6.1547596556
 11
4.5068935799
 21
6.144804563
  0
LWPOLYLINE
  5
2D2
100
AcDbEntity
  8
0
100
AcDbPolyline
 62
7
  6
CONTINUOUS
 90
12
 70
0
 10
4.4429172019
 20
3.6331359043
 10
4.4429182419
 20
3.6332370691
 10
4.442969534
 20
3.6338516841
 10
4.4430954486
 20
3.634448392
 10
4.4432911537
 20
3.6350176024
 10
4.4435570264
 20
3.6355624471
 10
4.4438882668
 20
3.6360709951
 10
4.4442759058
 20
3.6365310469
 10
4.4447208675
 20
3.6369437126
 10
4.4452180477
 20
3.6373015049
 10
4.4457520412
 20
3.6375929939
 10
4.4463095965
 20
3.6378136569
  0
LINE
  5
2D3
100
AcDbEntity
  8
0
100
AcDbLine
 62
7
  6
CONTINUOUS
 10
4.3985221501
 20
4.346631431
 11
4.39419379
 21
4.3454346226
  0
LINE
  5
2D4
100
AcDbEntity
  8
0
100
AcDbLine
 62
7
  6
CONTINUOUS
 10
4.3812087156
 20
4.386126113
 11
4.3855370758
 21
4.3873229214
  0
LINE
  5
2D5
100
AcDbEntity
  8
0
100
AcDbLine
 62
7
  6
CONTINUOUS
 10
4.39419379
 20
4.3382537716
 11
4.3996042355
 21
4.33945058
  0
LINE
  5
2D6
100
AcDbEntity
  8
0
100
AcDbLine
 62
7
  6
CONTINUOUS
 10
4.3855370758
 20
4.3945037716
 11
4.380126624
 21
4.3933069632
  0
LINE
  5
2D7
100
AcDbEntity
  8
0
100
AcDbLine
 62
7
  6
CONTINUOUS
 10
4.3162833437
 20
4.3382537716
 11
4.3227758809
 21
4.3382537716
  0
LINE
  5
2D8
100
AcDbEntity
  8
0
100
AcDbLine
 62
7
  6
CONTINUOUS
 10
4.3530743867
 20
4.3382537716
 11
4.3595669239
 21
4.3382537716
  0
LINE
  5
2D9
100
AcDbEntity
  8
0
100
AcDbLine
 62
7
  6
CONTINUOUS
 10
4.3855370758
 20
4.3382537716
 11
4.39419379
 21
4.3382537716
  0
LINE
  5
2DA
100
AcDbEntity
  8
0
100
AcDbLine
 62
7
  6
CONTINUOUS
 10
4.4374773671
 20
4.3382537716
 11
4.4439699043
 21
4.3382537716
  0
LINE
  5
2DB
100
AcDbEntity
  8
0
100
AcDbLine
 62
7
  6
CONTINUOUS
 10
4.39419379
 20
4.3454346226
 11
4.3855370758
 21
4.3454346226
  0
LINE
  5
2DC
100
AcDbEntity
  8
0
100
AcDbLine
 62
7
  6
CONTINUOUS
 10
4.3227758809
 20
4.364583559
 11
4.3530743867
 21
4.364583559
  0
LINE
  5
2DD
100
AcDbEntity
  8
0
100
AcDbLine
 62
7
  6
CONTINUOUS
 10
4.3530743867
 20
4.3717644092
 11
4.3227758809
 21
4.3717644092
  0
LINE
  5
2DE
100
AcDbEntity
  8
0
100
AcDbLine
 62
7
  6
CONTINUOUS
 10
4.3855370758
 20
4.3873229214
 11
4.39419379
 21
4.3873229214
  0
LINE
  5
2DF
100
AcDbEntity
  8
0
100
AcDbLine
 62
7
  6
CONTINUOUS
 10
4.4201639387
 20
4.3885197297
 11
4.4374773671
 21
4.3885197297
  0
LINE
  5
2E0
100
AcDbEntity
  8
0
100
AcDbLine
 62
7
  6
CONTINUOUS
 10
4.4439699043
 20
4.3885197297
 11
4.461283345
 21
4.3885197297
  0
LINE
  5
2E1
100
AcDbEntity
  8
0
100
AcDbLine
 62
7
  6
CONTINUOUS
 10
4.461283345
 20
4.3945037716
 11
4.4201639387
 21
4.3945037716
  0
LINE
  5
2E2
100
AcDbEntity
  8
0
100
AcDbLine
 62
7
  6
CONTINUOUS
 10
4.39419379
 20
4.3945037716
 11
4.3855370758
 21
4.3945037716
  0
LINE
  5
2E3
100
AcDbEntity
  8
0
100
AcDbLine
 62
7
  6
CONTINUOUS
 10
4.3595669239
 20
4.3945037716
 11
4.3530743867
 21
4.3945037716
  0
LINE
  5
2E4
100
AcDbEntity
  8
0
100
AcDbLine
 62
7
  6
CONTINUOUS
 10
4.3227758809
 20
4.3945037716
 11
4.3162833437
 21
4.3945037716
  0
LINE
  5
2E5
100
AcDbEntity
  8
0
100
AcDbLine
 62
7
  6
CONTINUOUS
 10
4.9449575776
 20
4.1508069632
 11
4.9390863746
 21
4.1520037716
  0
LINE
  5
2E6
100
AcDbEntity
  8
0
100
AcDbLine
 62
7
  6
CONTINUOUS
 10
4.380126624
 20
4.33945058
 11
4.3855370758
 21
4.3382537716
  0
LINE
  5
2E7
100
AcDbEntity
  8
0
100
AcDbLine
 62
7
  6
CONTINUOUS
 10
4.3996042355
 20
4.3933069632
 11
4.39419379
 21
4.3945037716
  0
LINE
  5
2E8
100
AcDbEntity
  8
0
100
AcDbLine
 62
7
  6
CONTINUOUS
 10
4.3855370758
 20
4.3454346226
 11
4.3812087156
 21
4.346631431
  0
LINE
  5
2E9
100
AcDbEntity
  8
0
100
AcDbLine
 62
7
  6
CONTINUOUS
 10
4.39419379
 20
4.3873229214
 11
4.3985221501
 21
4.386126113
  0
LINE
  5
2EA
100
AcDbEntity
  8
0
100
AcDbLine
 62
7
  6
CONTINUOUS
 10
4.9402606125
 20
4.1460197297
 11
4.9437833397
 21
4.1448229214
  0
LINE
  5
2EB
100
AcDbEntity
  8
0
100
AcDbLine
 62
7
  6
CONTINUOUS
 10
4.37579827
 20
4.3418441971
 11
4.380126624
 21
4.33945058
  0
LINE
  5
2EC
100
AcDbEntity
  8
0
100
AcDbLine
 62
7
  6
CONTINUOUS
 10
4.4039325957
 20
4.3909133465
 11
4.3996042355
 21
4.3933069632
  0
LINE
  5
2ED
100
AcDbEntity
  8
0
100
AcDbLine
 62
7
  6
CONTINUOUS
 10
4.3812087156
 20
4.346631431
 11
4.377962447
 21
4.3490250486
  0
LINE
  5
2EE
100
AcDbEntity
  8
0
100
AcDbLine
 62
7
  6
CONTINUOUS
 10
4.3985221501
 20
4.386126113
 11
4.4017684187
 21
4.3837324963
  0
LINE
  5
2EF
100
AcDbEntity
  8
0
100
AcDbLine
 62
7
  6
CONTINUOUS
 10
4.3714699098
 20
4.346631431
 11
4.37579827
 21
4.3418441971
  0
LINE
  5
2F0
100
AcDbEntity
  8
0
100
AcDbLine
 62
7
  6
CONTINUOUS
 10
4.4082609559
 20
4.386126113
 11
4.4039325957
 21
4.3909133465
  0
LINE
  5
2F1
100
AcDbEntity
  8
0
100
AcDbLine
 62
7
  6
CONTINUOUS
 10
4.377962447
 20
4.3490250486
 11
4.37579827
 21
4.3526154737
  0
LINE
  5
2F2
100
AcDbEntity
  8
0
100
AcDbLine
 62
7
  6
CONTINUOUS
 10
4.4017684187
 20
4.3837324963
 11
4.4039325957
 21
4.3801420678
  0
LINE
  5
2F3
100
AcDbEntity
  8
0
100
AcDbLine
 62
7
  6
CONTINUOUS
 10
4.8474425587
 20
3.4915250486
 11
4.8453475887
 21
3.4951154737
  0
LINE
  5
2F4
100
AcDbEntity
  8
0
100
AcDbLine
 62
7
  6
CONTINUOUS
 10
4.8704872531
 20
3.5262324963
 11
4.8725822232
 21
3.5226420678
  0
LINE
  5
2F5
100
AcDbEntity
  8
0
100
AcDbLine
 62
7
  6
CONTINUOUS
 10
4.9668559708
 20
3.5262324963
 11
4.9689509349
 21
3.5226420678
  0
LINE
  5
2F6
100
AcDbEntity
  8
0
100
AcDbLine
 62
7
  6
CONTINUOUS
 10
4.3693057328
 20
4.3514186653
 11
4.3714699098
 21
4.346631431
  0
LINE
  5
2F7
100
AcDbEntity
  8
0
100
AcDbLine
 62
7
  6
CONTINUOUS
 10
4.4104251329
 20
4.3813388795
 11
4.4082609559
 21
4.386126113
  0
LINE
  5
2F8
100
AcDbEntity
  8
0
100
AcDbLine
 62
7
  6
CONTINUOUS
 10
4.7898308297
 20
3.4939186653
 11
4.7919258017
 21
3.489131431
  0
LINE
  5
2F9
100
AcDbEntity
  8
0
100
AcDbLine
 62
7
  6
CONTINUOUS
 10
4.8390626726
 20
3.4939186653
 11
4.8411576426
 21
3.489131431
  0
LINE
  5
2FA
100
AcDbEntity
  8
0
100
AcDbLine
 62
7
  6
CONTINUOUS
 10
4.8788671393
 20
3.5238388795
 11
4.8767721692
 21
3.528626113
  0
LINE
  5
2FB
100
AcDbEntity
  8
0
100
AcDbLine
 62
7
  6
CONTINUOUS
 10
4.0782951046
 20
5.5816604118
 11
4.0749981818
 21
5.5934250307
  0
LINE
  5
2FC
100
AcDbEntity
  8
0
100
AcDbLine
 62
7
  6
CONTINUOUS
 10
4.0629612515
 20
5.6501183454
 11
4.0596643288
 21
5.6618829643
  0
LINE
  5
2FD
100
AcDbEntity
  8
0
100
AcDbLine
 62
7
  6
CONTINUOUS
 10
4.1227956795
 20
5.5199036178
 11
4.1194987567
 21
5.5316682366
  0
LINE
  5
2FE
100
AcDbEntity
  8
0
100
AcDbLine
 62
7
  6
CONTINUOUS
 10
4.0782951046
 20
5.718576279
 11
4.0749981818
 21
5.7303408978
  0
LINE
  5
2FF
100
AcDbEntity
  8
0
100
AcDbLine
 62
7
  6
CONTINUOUS
 10
4.1256206779
 20
5.6501183454
 11
4.1223237552
 21
5.6618829643
  0
LINE
  5
300
100
AcDbEntity
  8
0
100
AcDbLine
 62
7
  6
CONTINUOUS
 10
4.1446993373
 20
5.582296271
 11
4.1414024145
 21
5.5940608898
  0
LINE
  5
301
100
AcDbEntity
  8
0
100
AcDbLine
 62
7
  6
CONTINUOUS
 10
4.1921069498
 20
5.4708931485
 11
4.188810027
 21
5.4826577674
  0
LINE
  5
302
100
AcDbEntity
  8
0
100
AcDbLine
 62
7
  6
CONTINUOUS
 10
4.1227956795
 20
5.780333073
 11
4.1194987567
 21
5.7920976919
  0
LINE
  5
303
100
AcDbEntity
  8
0
100
AcDbLine
 62
7
  6
CONTINUOUS
 10
4.1446993373
 20
5.7179404198
 11
4.1414024145
 21
5.7297050387
  0
LINE
  5
304
100
AcDbEntity
  8
0
100
AcDbLine
 62
7
  6
CONTINUOUS
 10
4.1990307623
 20
5.5247994926
 11
4.1957338395
 21
5.5365641114
  0
LINE
  5
305
100
AcDbEntity
  8
0
100
AcDbLine
 62
7
  6
CONTINUOUS
 10
4.1882801044
 20
5.6501183454
 11
4.1849831816
 21
5.6618829643
  0
LINE
  5
306
100
AcDbEntity
  8
0
100
AcDbLine
 62
7
  6
CONTINUOUS
 10
4.2134644184
 20
5.5836579874
 11
4.2101674956
 21
5.5954226063
  0
LINE
  5
307
100
AcDbEntity
  8
0
100
AcDbLine
 62
7
  6
CONTINUOUS
 10
4.4039325957
 20
4.3801420678
 11
4.4050146873
 21
4.3753548343
  0
LINE
  5
308
100
AcDbEntity
  8
0
100
AcDbLine
 62
7
  6
CONTINUOUS
 10
4.4115072245
 20
4.3753548343
 11
4.4104251329
 21
4.3813388795
  0
LINE
  5
309
100
AcDbEntity
  8
0
100
AcDbLine
 62
7
  6
CONTINUOUS
 10
4.7824841311
 20
5.6710596429
 11
4.7824841311
 21
5.8728913029
  0
LINE
  5
30A
100
AcDbEntity
  8
0
100
AcDbLine
 62
9
  6
CONTINUOUS
 10
4.6071763826
 20
1.6499438653
 11
4.6071824124
 21
1.6506468577
  0
LINE
  5
30B
100
AcDbEntity
  8
0
100
AcDbLine
 62
7
  6
CONTINUOUS
 10
4.6053187767
 20
1.5303207007
 11
4.6056517783
 21
1.5537051202
  0
LINE
  5
30C
100
AcDbEntity
  8
0
100
AcDbLine
 62
7
  6
CONTINUOUS
 10
4.6056517783
 20
1.5537051202
 11
4.6060856316
 21
1.5827580053
  0
LINE
  5
30D
100
AcDbEntity
  8
0
100
AcDbLine
 62
7
  6
CONTINUOUS
 10
4.6060856316
 20
1.5827580053
 11
4.6065439116
 21
1.6119204864
  0
LINE
  5
30E
100
AcDbEntity
  8
0
100
AcDbLine
 62
7
  6
CONTINUOUS
 10
4.6065439116
 20
1.6119204864
 11
4.6070273797
 21
1.6411990437
  0
LINE
  5
30F
100
AcDbEntity
  8
0
100
AcDbLine
 62
7
  6
CONTINUOUS
 10
4.6070273797
 20
1.6411990437
 11
4.6074855278
 21
1.6676484759
  0
LINE
  5
310
100
AcDbEntity
  8
0
100
AcDbLine
 62
7
  6
CONTINUOUS
 10
4.6074855278
 20
1.6676484759
 11
4.6078871331
 21
1.6895151305
  0
LINE
  5
311
100
AcDbEntity
  8
0
100
AcDbLine
 62
7
  6
CONTINUOUS
 10
4.6078871331
 20
1.6895151305
 11
4.6081526505
 21
1.7031115752
  0
LINE
  5
312
100
AcDbEntity
  8
0
100
AcDbLine
 62
7
  6
CONTINUOUS
 10
4.6081526505
 20
1.7031115752
 11
4.6084159104
 21
1.7158150704
  0
LINE
  5
313
100
AcDbEntity
  8
0
100
AcDbLine
 62
7
  6
CONTINUOUS
 10
4.6084159104
 20
1.7158150704
 11
4.6086762862
 21
1.7275499209
  0
LINE
  5
314
100
AcDbEntity
  8
0
100
AcDbLine
 62
7
  6
CONTINUOUS
 10
4.6086762862
 20
1.7275499209
 11
4.6089329812
 21
1.7382545467
  0
LINE
  5
315
100
AcDbEntity
  8
0
100
AcDbLine
 62
7
  6
CONTINUOUS
 10
4.6089329812
 20
1.7382545467
 11
4.6091846911
 21
1.7478759792
  0
LINE
  5
316
100
AcDbEntity
  8
0
100
AcDbLine
 62
7
  6
CONTINUOUS
 10
4.6091846911
 20
1.7478759792
 11
4.6094298475
 21
1.7563780138
  0
LINE
  5
317
100
AcDbEntity
  8
0
100
AcDbLine
 62
7
  6
CONTINUOUS
 10
4.6094298475
 20
1.7563780138
 11
4.6096662211
 21
1.7637363247
  0
LINE
  5
318
100
AcDbEntity
  8
0
100
AcDbLine
 62
7
  6
CONTINUOUS
 10
4.6096662211
 20
1.7637363247
 11
4.6098895116
 21
1.7699027755
  0
LINE
  5
319
100
AcDbEntity
  8
0
100
AcDbLine
 62
7
  6
CONTINUOUS
 10
4.6098895116
 20
1.7699027755
 11
4.6100939458
 21
1.7748475481
  0
LWPOLYLINE
  5
31A
100
AcDbEntity
  8
0
100
AcDbPolyline
 62
7
  6
CONTINUOUS
 90
4
 70
0
 10
4.6100939458
 20
1.7748475481
 10
4.6102695546
 20
1.7785167708
 10
4.6103402944
 20
1.7798232406
 10
4.6103970176
 20
1.7807854345
  0
LINE
  5
31B
100
AcDbEntity
  8
0
100
AcDbLine
 62
7
  6
CONTINUOUS
 10
4.9449575776
 20
4.1232803674
 11
4.9496545561
 21
4.1256739841
  0
LINE
  5
31C
100
AcDbEntity
  8
0
100
AcDbLine
 62
7
  6
CONTINUOUS
 10
4.9437833397
 20
4.1292644092
 11
4.9402606125
 21
4.1280676009
  0
LINE
  5
31D
100
AcDbEntity
  8
0
100
AcDbLine
 62
7
  6
CONTINUOUS
 10
4.9496545561
 20
4.1472165381
 11
4.9449575776
 21
4.1508069632
  0
LINE
  5
31E
100
AcDbEntity
  8
0
100
AcDbLine
 62
7
  6
CONTINUOUS
 10
4.9437833397
 20
4.1448229214
 11
4.946131829
 21
4.1424293046
  0
LINE
  5
31F
100
AcDbEntity
  8
0
100
AcDbLine
 62
7
  6
CONTINUOUS
 10
4.975235851
 20
3.5238388795
 11
4.9731408869
 21
3.528626113
  0
LINE
  5
320
100
AcDbEntity
  8
0
100
AcDbLine
 62
7
  6
CONTINUOUS
 10
4.8223028973
 20
3.5262324963
 11
4.8233503823
 21
3.5226420678
  0
LINE
  5
321
100
AcDbEntity
  8
0
100
AcDbLine
 62
7
  6
CONTINUOUS
 10
4.2794442455
 20
5.4394264903
 11
4.2761473227
 21
5.4511911091
  0
LINE
  5
322
100
AcDbEntity
  8
0
100
AcDbLine
 62
7
  6
CONTINUOUS
 10
4.2134644184
 20
5.7165787034
 11
4.2101674956
 21
5.7283433222
  0
LINE
  5
323
100
AcDbEntity
  8
0
100
AcDbLine
 62
7
  6
CONTINUOUS
 10
4.1990307623
 20
5.7754371982
 11
4.1957338395
 21
5.7872018171
  0
LINE
  5
324
100
AcDbEntity
  8
0
100
AcDbLine
 62
7
  6
CONTINUOUS
 10
4.2803434861
 20
5.4863813735
 11
4.2770465633
 21
5.4981459924
  0
LINE
  5
325
100
AcDbEntity
  8
0
100
AcDbLine
 62
7
  6
CONTINUOUS
 10
4.1921069498
 20
5.8293435423
 11
4.188810027
 21
5.8411081611
  0
LINE
  5
326
100
AcDbEntity
  8
0
100
AcDbLine
 62
7
  6
CONTINUOUS
 10
4.282269244
 20
5.5350056287
 11
4.2789723212
 21
5.5467702475
  0
LINE
  5
327
100
AcDbEntity
  8
0
100
AcDbLine
 62
7
  6
CONTINUOUS
 10
4.3762583836
 20
5.4285838188
 11
4.3729614608
 21
5.4403484376
  0
LINE
  5
328
100
AcDbEntity
  8
0
100
AcDbLine
 62
7
  6
CONTINUOUS
 10
4.282269244
 20
5.7652310621
 11
4.2789723212
 21
5.776995681
  0
LINE
  5
329
100
AcDbEntity
  8
0
100
AcDbLine
 62
7
  6
CONTINUOUS
 10
4.2803434861
 20
5.8138553173
 11
4.2770465633
 21
5.8256199362
  0
LINE
  5
32A
100
AcDbEntity
  8
0
100
AcDbLine
 62
7
  6
CONTINUOUS
 10
4.3762583836
 20
5.4728907241
 11
4.3729614608
 21
5.484655343
  0
LINE
  5
32B
100
AcDbEntity
  8
0
100
AcDbLine
 62
7
  6
CONTINUOUS
 10
4.2794442455
 20
5.8608102005
 11
4.2761473227
 21
5.8725748194
  0
LINE
  5
32C
100
AcDbEntity
  8
0
100
AcDbLine
 62
7
  6
CONTINUOUS
 10
4.3762583836
 20
5.5171976294
 11
4.3729614608
 21
5.5289622483
  0
LINE
  5
32D
100
AcDbEntity
  8
0
100
AcDbLine
 62
7
  6
CONTINUOUS
 10
4.7961157456
 20
3.4951154737
 11
4.7950682598
 21
3.4999027071
  0
LINE
  5
32E
100
AcDbEntity
  8
0
100
AcDbLine
 62
7
  6
CONTINUOUS
 10
4.8453475887
 20
3.4951154737
 11
4.8443001007
 21
3.4999027071
  0
LINE
  5
32F
100
AcDbEntity
  8
0
100
AcDbLine
 62
7
  6
CONTINUOUS
 10
4.8725822232
 20
3.5226420678
 11
4.8736297112
 21
3.5178548343
  0
LINE
  5
330
100
AcDbEntity
  8
0
100
AcDbLine
 62
7
  6
CONTINUOUS
 10
4.7887833437
 20
3.4999027071
 11
4.7898308297
 21
3.4939186653
  0
LINE
  5
331
100
AcDbEntity
  8
0
100
AcDbLine
 62
7
  6
CONTINUOUS
 10
4.8296352984
 20
3.5226420678
 11
4.8285878134
 21
3.528626113
  0
LINE
  5
332
100
AcDbEntity
  8
0
100
AcDbLine
 62
7
  6
CONTINUOUS
 10
4.8380151875
 20
3.4999027071
 11
4.8390626726
 21
3.4939186653
  0
LINE
  5
333
100
AcDbEntity
  8
0
100
AcDbLine
 62
7
  6
CONTINUOUS
 10
4.8799146273
 20
3.5178548343
 11
4.8788671393
 21
3.5238388795
  0
LINE
  5
334
100
AcDbEntity
  8
0
100
AcDbLine
 62
7
  6
CONTINUOUS
 10
4.7887833437
 20
4.1520037716
 11
4.7981772831
 21
4.0957537716
  0
LINE
  5
335
100
AcDbEntity
  8
0
100
AcDbLine
 62
7
  6
CONTINUOUS
 10
4.8028742524
 20
4.1089186653
 11
4.795828798
 21
4.1520037716
  0
LINE
  5
336
100
AcDbEntity
  8
0
100
AcDbLine
 62
7
  6
CONTINUOUS
 10
4.7887833437
 20
3.5178548343
 11
4.7887833437
 21
3.4999027071
  0
LINE
  5
337
100
AcDbEntity
  8
0
100
AcDbLine
 62
7
  6
CONTINUOUS
 10
4.7950682598
 20
3.5178548343
 11
4.7950682598
 21
3.4999027071
  0
LINE
  5
338
100
AcDbEntity
  8
0
100
AcDbLine
 62
7
  6
CONTINUOUS
 10
4.8380151875
 20
3.5178548343
 11
4.8380151875
 21
3.4999027071
  0
LINE
  5
339
100
AcDbEntity
  8
0
100
AcDbLine
 62
7
  6
CONTINUOUS
 10
4.8443001007
 20
3.5178548343
 11
4.8443001007
 21
3.4999027071
  0
LINE
  5
33A
100
AcDbEntity
  8
0
100
AcDbLine
 62
7
  6
CONTINUOUS
 10
4.8736297112
 20
3.5178548343
 11
4.8736297112
 21
3.4999027071
  0
LINE
  5
33B
100
AcDbEntity
  8
0
100
AcDbLine
 62
7
  6
CONTINUOUS
 10
4.8799146273
 20
3.5178548343
 11
4.8799146273
 21
3.4999027071
  0
LINE
  5
33C
100
AcDbEntity
  8
0
100
AcDbLine
 62
7
  6
CONTINUOUS
 10
4.8882945134
 20
3.5370037716
 11
4.8882945134
 21
3.4807537716
  0
LINE
  5
33D
100
AcDbEntity
  8
0
100
AcDbLine
 62
7
  6
CONTINUOUS
 10
4.8945794356
 20
3.5370037716
 11
4.8945794356
 21
3.4879346226
  0
LINE
  5
33E
100
AcDbEntity
  8
0
100
AcDbLine
 62
7
  6
CONTINUOUS
 10
4.9109045571
 20
4.1520037716
 11
4.9109045571
 21
4.0957537716
  0
LINE
  5
33F
100
AcDbEntity
  8
0
100
AcDbLine
 62
7
  6
CONTINUOUS
 10
4.9179500115
 20
4.1460197297
 11
4.9179500115
 21
4.1280676009
  0
LINE
  5
340
100
AcDbEntity
  8
0
100
AcDbLine
 62
7
  6
CONTINUOUS
 10
4.9179500115
 20
4.1208867507
 11
4.9179500115
 21
4.0957537716
  0
LINE
  5
341
100
AcDbEntity
  8
0
100
AcDbLine
 62
7
  6
CONTINUOUS
 10
4.9260040161
 20
3.4879346226
 11
4.9260040161
 21
3.4807537716
  0
LINE
  5
342
100
AcDbEntity
  8
0
100
AcDbLine
 62
7
  6
CONTINUOUS
 10
4.9343838963
 20
3.5370037716
 11
4.9343838963
 21
3.4807537716
  0
LINE
  5
343
100
AcDbEntity
  8
0
100
AcDbLine
 62
7
  6
CONTINUOUS
 10
4.9406688124
 20
3.5298229214
 11
4.9406688124
 21
3.4879346226
  0
LINE
  5
344
100
AcDbEntity
  8
0
100
AcDbLine
 62
7
  6
CONTINUOUS
 10
4.9473060669
 20
4.1388388795
 11
4.9473060669
 21
4.1352484511
  0
LINE
  5
345
100
AcDbEntity
  8
0
100
AcDbLine
 62
7
  6
CONTINUOUS
 10
4.9543515212
 20
4.1388388795
 11
4.9543515212
 21
4.1340516427
  0
LINE
  5
346
100
AcDbEntity
  8
0
100
AcDbLine
 62
7
  6
CONTINUOUS
 10
4.9649197028
 20
4.1520037716
 11
4.9649197028
 21
4.0957537716
  0
LINE
  5
347
100
AcDbEntity
  8
0
100
AcDbLine
 62
7
  6
CONTINUOUS
 10
4.9699984289
 20
3.5178548343
 11
4.9699984289
 21
3.4999027071
  0
LINE
  5
348
100
AcDbEntity
  8
0
100
AcDbLine
 62
7
  6
CONTINUOUS
 10
4.9719651571
 20
4.1400356879
 11
4.9719651571
 21
4.0957537716
  0
LINE
  5
349
100
AcDbEntity
  8
0
100
AcDbLine
 62
7
  6
CONTINUOUS
 10
4.8381015242
 20
4.1520037716
 11
4.8310560699
 21
4.1089186653
  0
LINE
  5
34A
100
AcDbEntity
  8
0
100
AcDbLine
 62
7
  6
CONTINUOUS
 10
4.8357530383
 20
4.0957537716
 11
4.8451469786
 21
4.1520037716
  0
LINE
  5
34B
100
AcDbEntity
  8
0
100
AcDbLine
 62
7
  6
CONTINUOUS
 10
4.7898308297
 20
3.5238388795
 11
4.7887833437
 21
3.5178548343
  0
LINE
  5
34C
100
AcDbEntity
  8
0
100
AcDbLine
 62
7
  6
CONTINUOUS
 10
4.8285878134
 20
3.489131431
 11
4.8296352984
 21
3.4951154737
  0
LINE
  5
34D
100
AcDbEntity
  8
0
100
AcDbLine
 62
7
  6
CONTINUOUS
 10
4.8390626726
 20
3.5238388795
 11
4.8380151875
 21
3.5178548343
  0
LINE
  5
34E
100
AcDbEntity
  8
0
100
AcDbLine
 62
7
  6
CONTINUOUS
 10
4.8075712225
 20
4.0957537716
 11
4.8169651611
 21
4.1412324963
  0
LINE
  5
34F
100
AcDbEntity
  8
0
100
AcDbLine
 62
7
  6
CONTINUOUS
 10
4.812268191
 20
4.1520037716
 11
4.8028742524
 21
4.1089186653
  0
LINE
  5
350
100
AcDbEntity
  8
0
100
AcDbLine
 62
7
  6
CONTINUOUS
 10
4.7950682598
 20
3.5178548343
 11
4.7961157456
 21
3.5226420678
  0
LINE
  5
351
100
AcDbEntity
  8
0
100
AcDbLine
 62
7
  6
CONTINUOUS
 10
4.8674575863
 20
4.1149027071
 11
4.8780257679
 21
4.1472165381
  0
LINE
  5
352
100
AcDbEntity
  8
0
100
AcDbLine
 62
7
  6
CONTINUOUS
 10
4.8615863699
 20
4.0957537716
 11
4.8662833417
 21
4.1101154737
  0
LINE
  5
353
100
AcDbEntity
  8
0
100
AcDbLine
 62
7
  6
CONTINUOUS
 10
4.9473060669
 20
4.1352484511
 11
4.946131829
 21
4.131658026
  0
LINE
  5
354
100
AcDbEntity
  8
0
100
AcDbLine
 62
7
  6
CONTINUOUS
 10
4.9531772833
 20
4.1304612176
 11
4.9543515212
 21
4.1340516427
  0
LINE
  5
355
100
AcDbEntity
  8
0
100
AcDbLine
 62
7
  6
CONTINUOUS
 10
4.873328796
 20
4.1520037716
 11
4.8545409155
 21
4.0957537716
  0
LINE
  5
356
100
AcDbEntity
  8
0
100
AcDbLine
 62
7
  6
CONTINUOUS
 10
4.9496545561
 20
4.1256739841
 11
4.9531772833
 21
4.1304612176
  0
LINE
  5
357
100
AcDbEntity
  8
0
100
AcDbLine
 62
7
  6
CONTINUOUS
 10
4.946131829
 20
4.131658026
 11
4.9437833397
 21
4.1292644092
  0
LINE
  5
358
100
AcDbEntity
  8
0
100
AcDbLine
 62
7
  6
CONTINUOUS
 10
4.9531772833
 20
4.1424293046
 11
4.9496545561
 21
4.1472165381
  0
LINE
  5
359
100
AcDbEntity
  8
0
100
AcDbLine
 62
7
  6
CONTINUOUS
 10
4.9555257592
 20
4.0957537716
 11
4.9449575776
 21
4.1232803674
  0
LINE
  5
35A
100
AcDbEntity
  8
0
100
AcDbLine
 62
7
  6
CONTINUOUS
 10
4.9379121232
 20
4.1208867507
 11
4.9473060669
 21
4.0957537716
  0
LINE
  5
35B
100
AcDbEntity
  8
0
100
AcDbLine
 62
7
  6
CONTINUOUS
 10
4.9719651571
 20
4.1400356879
 11
4.9884045551
 21
4.0957537716
  0
LINE
  5
35C
100
AcDbEntity
  8
0
100
AcDbLine
 62
7
  6
CONTINUOUS
 10
4.9931015202
 20
4.1017378143
 11
4.9754878843
 21
4.1520037716
  0
LINE
  5
35D
100
AcDbEntity
  8
0
100
AcDbLine
 62
7
  6
CONTINUOUS
 10
4.9015106135
 20
4.0957537716
 11
4.882722733
 21
4.1520037716
  0
LINE
  5
35E
100
AcDbEntity
  8
0
100
AcDbLine
 62
7
  6
CONTINUOUS
 10
4.8897681873
 20
4.1101154737
 11
4.8944651591
 21
4.0957537716
  0
LINE
  5
35F
100
AcDbEntity
  8
0
100
AcDbLine
 62
7
  6
CONTINUOUS
 10
4.8780257679
 20
4.1472165381
 11
4.8885939494
 21
4.1149027071
  0
LINE
  5
360
100
AcDbEntity
  8
0
100
AcDbLine
 62
7
  6
CONTINUOUS
 10
4.946131829
 20
4.1424293046
 11
4.9473060669
 21
4.1388388795
  0
LINE
  5
361
100
AcDbEntity
  8
0
100
AcDbLine
 62
7
  6
CONTINUOUS
 10
4.9543515212
 20
4.1388388795
 11
4.9531772833
 21
4.1424293046
  0
LINE
  5
362
100
AcDbEntity
  8
0
100
AcDbLine
 62
7
  6
CONTINUOUS
 10
4.3762583836
 20
5.7830390614
 11
4.3729614608
 21
5.7948036802
  0
LINE
  5
363
100
AcDbEntity
  8
0
100
AcDbLine
 62
7
  6
CONTINUOUS
 10
4.4730725217
 20
5.4394264903
 11
4.4697755989
 21
5.4511911091
  0
LINE
  5
364
100
AcDbEntity
  8
0
100
AcDbLine
 62
7
  6
CONTINUOUS
 10
4.3762583836
 20
5.8273459667
 11
4.3729614608
 21
5.8391105855
  0
LINE
  5
365
100
AcDbEntity
  8
0
100
AcDbLine
 62
7
  6
CONTINUOUS
 10
4.4721732811
 20
5.4863813735
 11
4.4688763583
 21
5.4981459924
  0
LINE
  5
366
100
AcDbEntity
  8
0
100
AcDbLine
 62
7
  6
CONTINUOUS
 10
4.4702475232
 20
5.5350056287
 11
4.4669506004
 21
5.5467702475
  0
LINE
  5
367
100
AcDbEntity
  8
0
100
AcDbLine
 62
7
  6
CONTINUOUS
 10
4.3762583836
 20
5.871652872
 11
4.3729614608
 21
5.8834174909
  0
LINE
  5
368
100
AcDbEntity
  8
0
100
AcDbLine
 62
7
  6
CONTINUOUS
 10
4.4702475232
 20
5.7652310621
 11
4.4669506004
 21
5.776995681
  0
LINE
  5
369
100
AcDbEntity
  8
0
100
AcDbLine
 62
7
  6
CONTINUOUS
 10
4.5604098174
 20
5.4708931485
 11
4.5571128946
 21
5.4826577674
  0
LINE
  5
36A
100
AcDbEntity
  8
0
100
AcDbLine
 62
7
  6
CONTINUOUS
 10
4.4721732811
 20
5.8138553173
 11
4.4688763583
 21
5.8256199362
  0
LINE
  5
36B
100
AcDbEntity
  8
0
100
AcDbLine
 62
7
  6
CONTINUOUS
 10
4.5534860049
 20
5.5247994926
 11
4.5501890821
 21
5.5365641114
  0
LINE
  5
36C
100
AcDbEntity
  8
0
100
AcDbLine
 62
7
  6
CONTINUOUS
 10
4.5390523488
 20
5.5836579874
 11
4.535755426
 21
5.5954226063
  0
LINE
  5
36D
100
AcDbEntity
  8
0
100
AcDbLine
 62
7
  6
CONTINUOUS
 10
4.4730725217
 20
5.8608102005
 11
4.4697755989
 21
5.8725748194
  0
LINE
  5
36E
100
AcDbEntity
  8
0
100
AcDbLine
 62
7
  6
CONTINUOUS
 10
4.5390523488
 20
5.7165787034
 11
4.535755426
 21
5.7283433222
  0
LINE
  5
36F
100
AcDbEntity
  8
0
100
AcDbLine
 62
7
  6
CONTINUOUS
 10
4.5642366628
 20
5.6501183454
 11
4.5609397401
 21
5.6618829643
  0
LINE
  5
370
100
AcDbEntity
  8
0
100
AcDbLine
 62
7
  6
CONTINUOUS
 10
4.5534860049
 20
5.7754371982
 11
4.5501890821
 21
5.7872018171
  0
LINE
  5
371
100
AcDbEntity
  8
0
100
AcDbLine
 62
7
  6
CONTINUOUS
 10
4.6078174299
 20
5.582296271
 11
4.6045205072
 21
5.5940608898
  0
LINE
  5
372
100
AcDbEntity
  8
0
100
AcDbLine
 62
7
  6
CONTINUOUS
 10
4.9689509349
 20
3.5226420678
 11
4.9699984289
 21
3.5178548343
  0
LINE
  5
373
100
AcDbEntity
  8
0
100
AcDbLine
 62
7
  6
CONTINUOUS
 10
4.8310560699
 20
4.1089186653
 11
4.8216621296
 21
4.1520037716
  0
LINE
  5
374
100
AcDbEntity
  8
0
100
AcDbLine
 62
7
  6
CONTINUOUS
 10
4.8169651611
 20
4.1412324963
 11
4.8263591014
 21
4.0957537716
  0
LINE
  5
375
100
AcDbEntity
  8
0
100
AcDbLine
 62
7
  6
CONTINUOUS
 10
4.976283345
 20
3.5178548343
 11
4.975235851
 21
3.5238388795
  0
LINE
  5
376
100
AcDbEntity
  8
0
100
AcDbLine
 62
7
  6
CONTINUOUS
 10
4.976283345
 20
3.5178548343
 11
4.976283345
 21
3.4999027071
  0
LINE
  5
377
100
AcDbEntity
  8
0
100
AcDbLine
 62
7
  6
CONTINUOUS
 10
5.0142378833
 20
4.1400356879
 11
5.0142378833
 21
4.0957537716
  0
LINE
  5
378
100
AcDbEntity
  8
0
100
AcDbLine
 62
7
  6
CONTINUOUS
 10
5.0212833377
 20
4.1520037716
 11
5.0212833377
 21
4.0957537716
  0
LINE
  5
379
100
AcDbEntity
  8
0
100
AcDbLine
 62
7
  6
CONTINUOUS
 10
4.8788671393
 20
3.4939186653
 11
4.8799146273
 21
3.4999027071
  0
LINE
  5
37A
100
AcDbEntity
  8
0
100
AcDbLine
 62
7
  6
CONTINUOUS
 10
4.975235851
 20
3.4939186653
 11
4.976283345
 21
3.4999027071
  0
LINE
  5
37B
100
AcDbEntity
  8
0
100
AcDbLine
 62
7
  6
CONTINUOUS
 10
4.8443001007
 20
3.5178548343
 11
4.8453475887
 21
3.5226420678
  0
LINE
  5
37C
100
AcDbEntity
  8
0
100
AcDbLine
 62
7
  6
CONTINUOUS
 10
4.8736297112
 20
3.4999027071
 11
4.8725822232
 21
3.4951154737
  0
LINE
  5
37D
100
AcDbEntity
  8
0
100
AcDbLine
 62
7
  6
CONTINUOUS
 10
4.9699984289
 20
3.4999027071
 11
4.9689509349
 21
3.4951154737
  0
LINE
  5
37E
100
AcDbEntity
  8
0
100
AcDbLine
 62
7
  6
CONTINUOUS
 10
4.8233503823
 20
3.4951154737
 11
4.8223028973
 21
3.4915250486
  0
LINE
  5
37F
100
AcDbEntity
  8
0
100
AcDbLine
 62
7
  6
CONTINUOUS
 10
5.0107151562
 20
4.1520037716
 11
4.9931015202
 21
4.1017378143
  0
LINE
  5
380
100
AcDbEntity
  8
0
100
AcDbLine
 62
7
  6
CONTINUOUS
 10
4.9977984853
 20
4.0957537716
 11
5.0142378833
 21
4.1400356879
  0
LINE
  5
381
100
AcDbEntity
  8
0
100
AcDbLine
 62
7
  6
CONTINUOUS
 10
4.7919258017
 20
3.528626113
 11
4.7898308297
 21
3.5238388795
  0
LINE
  5
382
100
AcDbEntity
  8
0
100
AcDbLine
 62
7
  6
CONTINUOUS
 10
4.8411576426
 20
3.528626113
 11
4.8390626726
 21
3.5238388795
  0
LINE
  5
383
100
AcDbEntity
  8
0
100
AcDbLine
 62
7
  6
CONTINUOUS
 10
4.8767721692
 20
3.489131431
 11
4.8788671393
 21
3.4939186653
  0
LINE
  5
384
100
AcDbEntity
  8
0
100
AcDbLine
 62
7
  6
CONTINUOUS
 10
4.7961157456
 20
3.5226420678
 11
4.7982107178
 21
3.5262324963
  0
LINE
  5
385
100
AcDbEntity
  8
0
100
AcDbLine
 62
7
  6
CONTINUOUS
 10
4.8453475887
 20
3.5226420678
 11
4.8474425587
 21
3.5262324963
  0
LINE
  5
386
100
AcDbEntity
  8
0
100
AcDbLine
 62
7
  6
CONTINUOUS
 10
4.7961157456
 20
3.5334133465
 11
4.7919258017
 21
3.528626113
  0
LINE
  5
387
100
AcDbEntity
  8
0
100
AcDbLine
 62
7
  6
CONTINUOUS
 10
4.8013531759
 20
3.528626113
 11
4.8055431205
 21
3.5298229214
  0
LINE
  5
388
100
AcDbEntity
  8
0
100
AcDbLine
 62
7
  6
CONTINUOUS
 10
4.6297210877
 20
5.5199036178
 11
4.626424165
 21
5.5316682366
  0
LINE
  5
389
100
AcDbEntity
  8
0
100
AcDbLine
 62
7
  6
CONTINUOUS
 10
4.5604098174
 20
5.8293435423
 11
4.5571128946
 21
5.8411081611
  0
LINE
  5
38A
100
AcDbEntity
  8
0
100
AcDbLine
 62
7
  6
CONTINUOUS
 10
4.6078174299
 20
5.7179404198
 11
4.6045205072
 21
5.7297050387
  0
LINE
  5
38B
100
AcDbEntity
  8
0
100
AcDbLine
 62
7
  6
CONTINUOUS
 10
4.6268960893
 20
5.6501183454
 11
4.6235991665
 21
5.6618829643
  0
LINE
  5
38C
100
AcDbEntity
  8
0
100
AcDbLine
 62
7
  6
CONTINUOUS
 10
4.6742216626
 20
5.5816604118
 11
4.6709247398
 21
5.5934250307
  0
LINE
  5
38D
100
AcDbEntity
  8
0
100
AcDbLine
 62
7
  6
CONTINUOUS
 10
4.6297210877
 20
5.780333073
 11
4.626424165
 21
5.7920976919
  0
LINE
  5
38E
100
AcDbEntity
  8
0
100
AcDbLine
 62
7
  6
CONTINUOUS
 10
4.6895555157
 20
5.6501183454
 11
4.6862585929
 21
5.6618829643
  0
LINE
  5
38F
100
AcDbEntity
  8
0
100
AcDbLine
 62
7
  6
CONTINUOUS
 10
4.6742216626
 20
5.718576279
 11
4.6709247398
 21
5.7303408978
  0
LINE
  5
390
100
AcDbEntity
  8
0
100
AcDbLine
 62
7
  6
CONTINUOUS
 10
4.9731408869
 20
3.489131431
 11
4.975235851
 21
3.4939186653
  0
LINE
  5
391
100
AcDbEntity
  8
0
100
AcDbLine
 62
7
  6
CONTINUOUS
 10
4.8725822232
 20
3.4951154737
 11
4.8704872531
 21
3.4915250486
  0
LINE
  5
392
100
AcDbEntity
  8
0
100
AcDbLine
 62
7
  6
CONTINUOUS
 10
4.9689509349
 20
3.4951154737
 11
4.9668559708
 21
3.4915250486
  0
LINE
  5
393
100
AcDbEntity
  8
0
100
AcDbLine
 62
7
  6
CONTINUOUS
 10
4.8453475887
 20
3.5334133465
 11
4.8411576426
 21
3.528626113
  0
LINE
  5
394
100
AcDbEntity
  8
0
100
AcDbLine
 62
7
  6
CONTINUOUS
 10
4.8243978673
 20
3.4843441971
 11
4.8285878134
 21
3.489131431
  0
LINE
  5
395
100
AcDbEntity
  8
0
100
AcDbLine
 62
7
  6
CONTINUOUS
 10
4.8725822232
 20
3.4843441971
 11
4.8767721692
 21
3.489131431
  0
LINE
  5
396
100
AcDbEntity
  8
0
100
AcDbLine
 62
7
  6
CONTINUOUS
 10
4.9689509349
 20
3.4843441971
 11
4.9731408869
 21
3.489131431
  0
LINE
  5
397
100
AcDbEntity
  8
0
100
AcDbLine
 62
7
  6
CONTINUOUS
 10
4.7982107178
 20
3.5262324963
 11
4.8013531759
 21
3.528626113
  0
LINE
  5
398
100
AcDbEntity
  8
0
100
AcDbLine
 62
7
  6
CONTINUOUS
 10
4.8474425587
 20
3.5262324963
 11
4.8505850168
 21
3.528626113
  0
LINE
  5
399
100
AcDbEntity
  8
0
100
AcDbLine
 62
7
  6
CONTINUOUS
 10
4.8223028973
 20
3.4915250486
 11
4.8191604392
 21
3.489131431
  0
LINE
  5
39A
100
AcDbEntity
  8
0
100
AcDbLine
 62
7
  6
CONTINUOUS
 10
4.8704872531
 20
3.4915250486
 11
4.8673447951
 21
3.489131431
  0
LINE
  5
39B
100
AcDbEntity
  8
0
100
AcDbLine
 62
7
  6
CONTINUOUS
 10
4.9668559708
 20
3.4915250486
 11
4.9637135128
 21
3.489131431
  0
LINE
  5
39C
100
AcDbEntity
  8
0
100
AcDbLine
 62
7
  6
CONTINUOUS
 10
4.8003056901
 20
3.5358069632
 11
4.7961157456
 21
3.5334133465
  0
LINE
  5
39D
100
AcDbEntity
  8
0
100
AcDbLine
 62
7
  6
CONTINUOUS
 10
4.8495375348
 20
3.5358069632
 11
4.8453475887
 21
3.5334133465
  0
LINE
  5
39E
100
AcDbEntity
  8
0
100
AcDbLine
 62
7
  6
CONTINUOUS
 10
4.8202079242
 20
3.48195058
 11
4.8243978673
 21
3.4843441971
  0
LINE
  5
39F
100
AcDbEntity
  8
0
100
AcDbLine
 62
7
  6
CONTINUOUS
 10
4.8683922831
 20
3.48195058
 11
4.8725822232
 21
3.4843441971
  0
LINE
  5
3A0
100
AcDbEntity
  8
0
100
AcDbLine
 62
7
  6
CONTINUOUS
 10
4.9647609948
 20
3.48195058
 11
4.9689509349
 21
3.4843441971
  0
LINE
  5
3A1
100
AcDbEntity
  8
0
100
AcDbLine
 62
7
  6
CONTINUOUS
 10
4.8505850168
 20
3.528626113
 11
4.8547749628
 21
3.5298229214
  0
LINE
  5
3A2
100
AcDbEntity
  8
0
100
AcDbLine
 62
7
  6
CONTINUOUS
 10
4.8191604392
 20
3.489131431
 11
4.8149704931
 21
3.4879346226
  0
LINE
  5
3A3
100
AcDbEntity
  8
0
100
AcDbLine
 62
7
  6
CONTINUOUS
 10
4.8673447951
 20
3.489131431
 11
4.863154849
 21
3.4879346226
  0
LINE
  5
3A4
100
AcDbEntity
  8
0
100
AcDbLine
 62
7
  6
CONTINUOUS
 10
4.9637135128
 20
3.489131431
 11
4.9595235607
 21
3.4879346226
  0
LINE
  5
3A5
100
AcDbEntity
  8
0
100
AcDbLine
 62
9
  6
CONTINUOUS
 10
4.3887831915
 20
5.3926711541
 11
4.3889565031
 21
5.3926711541
  0
LINE
  5
3A6
100
AcDbEntity
  8
0
100
AcDbLine
 62
7
  6
CONTINUOUS
 10
4.3221872886
 20
6.6423515225
 11
4.321359815
 21
6.6437847488
  0
LINE
  5
3A7
100
AcDbEntity
  8
0
100
AcDbLine
 62
7
  6
CONTINUOUS
 10
4.3549182994
 20
6.6631597488
 11
4.355745773
 21
6.6617265225
  0
LINE
  5
3A8
100
AcDbEntity
  8
0
100
AcDbLine
 62
9
  6
CONTINUOUS
 10
4.3886053417
 20
5.949448111
 11
4.3887833437
 21
5.9494481394
  0
LINE
  5
3A9
100
AcDbEntity
  8
0
100
AcDbLine
 62
9
  6
CONTINUOUS
 10
4.3887834959
 20
5.9355287069
 11
4.3886101842
 21
5.9355287069
  0
LINE
  5
3AA
100
AcDbEntity
  8
0
100
AcDbLine
 62
9
  6
CONTINUOUS
 10
4.3887833437
 20
6.1669391524
 11
4.3886135315
 21
6.1669390986
  0
LINE
  5
3AB
100
AcDbEntity
  8
0
100
AcDbLine
 62
9
  6
CONTINUOUS
 10
4.3887833437
 20
6.1512797994
 11
4.3886135315
 21
6.1512797735
  0
LINE
  5
3AC
100
AcDbEntity
  8
0
100
AcDbLine
 62
9
  6
CONTINUOUS
 10
4.3887833437
 20
6.1756387929
 11
4.3888508597
 21
6.1756387792
  0
LINE
  5
3AD
100
AcDbEntity
  8
0
100
AcDbLine
 62
9
  6
CONTINUOUS
 10
4.3888541159
 20
6.2730747517
 11
4.3887833437
 21
6.2730747667
  0
LINE
  5
3AE
100
AcDbEntity
  8
0
100
AcDbLine
 62
7
  6
CONTINUOUS
 10
4.2874947708
 20
6.5851287716
 11
4.2891497179
 21
6.5851287716
  0
LINE
  5
3AF
100
AcDbEntity
  8
0
100
AcDbLine
 62
7
  6
CONTINUOUS
 10
4.4884169694
 20
6.5851287716
 11
4.4900719166
 21
6.5851287716
  0
ARC
  5
3B0
100
AcDbEntity
  8
0
100
AcDbCircle
 62
9
  6
CONTINUOUS
 10
-34.2805545407
 20
0.9949949658
 40
38.4565283967
100
AcDbArc
 50
0.8335901318
 51
0.975845551
  0
ARC
  5
3B1
100
AcDbEntity
  8
0
100
AcDbCircle
 62
7
  6
CONTINUOUS
 10
4.3885674623
 20
1.8159358445
 40
0.2758718116
100
AcDbArc
 50
322.4130631466
 51
322.7833913209
  0
ARC
  5
3B2
100
AcDbEntity
  8
0
100
AcDbCircle
 62
7
  6
CONTINUOUS
 10
4.3889992148
 20
1.8159358367
 40
0.2758717989
100
AcDbArc
 50
217.2164511326
 51
217.5869399507
  0
ARC
  5
3B3
100
AcDbEntity
  8
0
100
AcDbCircle
 62
7
  6
CONTINUOUS
 10
4.388783344
 20
1.815753771
 40
0.2755905542
100
AcDbArc
 50
322.8780799543
 51
217.1215065655
  0
ARC
  5
3B4
100
AcDbEntity
  8
0
100
AcDbCircle
 62
9
  6
CONTINUOUS
 10
4.4073341365
 20
1.8158048625
 40
0.2078271662
100
AcDbArc
 50
350.2264320773
 51
359.9859147675
  0
ARC
  5
3B5
100
AcDbEntity
  8
0
100
AcDbCircle
 62
9
  6
CONTINUOUS
 10
4.3702101761
 20
1.815802705
 40
0.2078047909
100
AcDbArc
 50
180.0134918999
 51
189.5719661725
  0
ARC
  5
3B6
100
AcDbEntity
  8
0
100
AcDbCircle
 62
9
  6
CONTINUOUS
 10
4.407402056
 20
1.8158066789
 40
0.2077605412
100
AcDbArc
 50
347.1112048572
 51
350.2227588019
  0
ARC
  5
3B7
100
AcDbEntity
  8
0
100
AcDbCircle
 62
9
  6
CONTINUOUS
 10
4.370164097
 20
1.8158085278
 40
0.2077603427
100
AcDbArc
 50
189.575149195
 51
192.8802399388
  0
ARC
  5
3B8
100
AcDbEntity
  8
0
100
AcDbCircle
 62
9
  6
CONTINUOUS
 10
4.36950118
 20
1.8035992301
 40
0.2037212923
100
AcDbArc
 50
168.9225176261
 51
179.9789075697
  0
ARC
  5
3B9
100
AcDbEntity
  8
0
100
AcDbCircle
 62
9
  6
CONTINUOUS
 10
4.408065509
 20
1.8035992303
 40
0.2037212906
100
AcDbArc
 50
0.021092379
 51
11.0774701094
  0
ARC
  5
3BA
100
AcDbEntity
  8
0
100
AcDbCircle
 62
9
  6
CONTINUOUS
 10
4.4082222909
 20
1.8037500162
 40
0.2035671695
100
AcDbArc
 50
353.2183872128
 51
353.5190232785
  0
ARC
  5
3BB
100
AcDbEntity
  8
0
100
AcDbCircle
 62
9
  6
CONTINUOUS
 10
4.3693303
 20
1.8037483755
 40
0.2035529779
100
AcDbArc
 50
186.2723500272
 51
186.7665766789
  0
ARC
  5
3BC
100
AcDbEntity
  8
0
100
AcDbCircle
 62
9
  6
CONTINUOUS
 10
4.4087280348
 20
1.8036976975
 40
0.2030587523
100
AcDbArc
 50
353.51758406
 51
359.9933771996
  0
ARC
  5
3BD
100
AcDbEntity
  8
0
100
AcDbCircle
 62
9
  6
CONTINUOUS
 10
4.3688072068
 20
1.8036961145
 40
0.2030273063
100
AcDbArc
 50
180.0061770696
 51
186.2738181273
  0
ARC
  5
3BE
100
AcDbEntity
  8
0
100
AcDbCircle
 62
7
  6
CONTINUOUS
 10
4.3395707452
 20
3.2793364487
 40
0.0049212598
100
AcDbArc
 50
180.0
 51
270.0
  0
ARC
  5
3BF
100
AcDbEntity
  8
ALL_ASSEMBLY_MEMBERS
100
AcDbCircle
 62
7
  6
CONTINUOUS
 10
4.3887833437
 20
3.271462433
 40
0.1125
100
AcDbArc
 50
118.7681029376
 51
61.2318970624
  0
ARC
  5
3C0
100
AcDbEntity
  8
ALL_ASSEMBLY_MEMBERS
100
AcDbCircle
 62
9
  6
CONTINUOUS
 10
4.3887833437
 20
3.271462433
 40
0.1123001258
100
AcDbArc
 50
118.8241915988
 51
61.1758084012
  0
ARC
  5
3C1
100
AcDbEntity
  8
ALL_ASSEMBLY_MEMBERS
100
AcDbCircle
 62
9
  6
CONTINUOUS
 10
4.3887833437
 20
3.271462433
 40
0.1044251258
100
AcDbArc
 50
121.2308276688
 51
58.7691723312
  0
ARC
  5
3C2
100
AcDbEntity
  8
ALL_ASSEMBLY_MEMBERS
100
AcDbCircle
 62
9
  6
CONTINUOUS
 10
4.3887833437
 20
3.271462433
 40
0.096875
100
AcDbArc
 50
123.9778904106
 51
56.0221095894
  0
ARC
  5
3C3
100
AcDbEntity
  8
0
100
AcDbCircle
 62
7
  6
CONTINUOUS
 10
4.4379959421
 20
3.2793364487
 40
0.0049212598
100
AcDbArc
 50
270.0
 51
360.0
  0
CIRCLE
  5
3C4
100
AcDbEntity
  8
0
100
AcDbCircle
 62
7
  6
CONTINUOUS
 10
4.3887833437
 20
3.8157537716
 40
0.8366141732
  0
ARC
  5
3C5
100
AcDbEntity
  8
0
100
AcDbCircle
 62
9
  6
CONTINUOUS
 10
4.3887833437
 20
3.8143141391
 40
0.781814461
100
AcDbArc
 50
241.9011640251
 51
298.0988360769
  0
ARC
  5
3C6
100
AcDbEntity
  8
0
100
AcDbCircle
 62
7
  6
CONTINUOUS
 10
4.3887833437
 20
3.8157537716
 40
0.275
100
AcDbArc
 50
281.3556437658
 51
258.6443505237
  0
CIRCLE
  5
3C7
100
AcDbEntity
  8
0
100
AcDbCircle
 62
7
  6
CONTINUOUS
 10
4.3887833437
 20
3.8157537716
 40
0.187007874
  0
CIRCLE
  5
3C8
100
AcDbEntity
  8
0
100
AcDbCircle
 62
9
  6
CONTINUOUS
 10
4.3887833437
 20
3.8157537716
 40
0.1822380208
  0
ARC
  5
3C9
100
AcDbEntity
  8
0
100
AcDbCircle
 62
9
  6
CONTINUOUS
 10
-2.2765891403
 20
6.4823543777
 40
7.1363998544
100
AcDbArc
 50
331.6077223402
 51
331.9329539989
  0
ARC
  5
3CA
100
AcDbEntity
  8
0
100
AcDbCircle
 62
9
  6
CONTINUOUS
 10
4.3887852885
 20
6.0088287283
 40
0.1668100646
100
AcDbArc
 50
90.0006680152
 51
92.6561568273
  0
ARC
  5
3CB
100
AcDbEntity
  8
0
100
AcDbCircle
 62
9
  6
CONTINUOUS
 10
4.3887815268
 20
6.0088335573
 40
0.1668052364
100
AcDbArc
 50
87.328859352
 51
89.9761848744
  0
ARC
  5
3CC
100
AcDbEntity
  8
0
100
AcDbCircle
 62
7
  6
CONTINUOUS
 10
4.3934943911
 20
6.1614352864
 40
0.1373292329
100
AcDbArc
 50
91.9751622703
 51
92.1877671051
  0
ARC
  5
3CD
100
AcDbEntity
  8
0
100
AcDbCircle
 62
7
  6
CONTINUOUS
 10
4.3916160944
 20
6.1526307369
 40
0.1300479592
100
AcDbArc
 50
90.5087591211
 51
91.2517455998
  0
ARC
  5
3CE
100
AcDbEntity
  8
0
100
AcDbCircle
 62
7
  6
CONTINUOUS
 10
4.3976379173
 20
6.1653250231
 40
0.1162886728
100
AcDbArc
 50
68.4179017228
 51
68.7245453356
  0
ARC
  5
3CF
100
AcDbEntity
  8
0
100
AcDbCircle
 62
7
  6
CONTINUOUS
 10
4.3988318982
 20
6.1682794719
 40
0.1131021717
100
AcDbArc
 50
65.6325766637
 51
68.4298194869
  0
ARC
  5
3D0
100
AcDbEntity
  8
0
100
AcDbCircle
 62
7
  6
CONTINUOUS
 10
4.4002700093
 20
6.1699503322
 40
0.1095215799
100
AcDbArc
 50
63.8413595125
 51
67.2142753617
  0
ARC
  5
3D1
100
AcDbEntity
  8
0
100
AcDbCircle
 62
7
  6
CONTINUOUS
 10
4.4192068217
 20
6.2142392828
 40
0.0760597228
100
AcDbArc
 50
45.7481507257
 51
48.496744205
  0
ARC
  5
3D2
100
AcDbEntity
  8
0
100
AcDbCircle
 62
7
  6
CONTINUOUS
 10
4.4213943828
 20
6.2165030914
 40
0.0729116945
100
AcDbArc
 50
44.4214895039
 51
45.7380832135
  0
ARC
  5
3D3
100
AcDbEntity
  8
0
100
AcDbCircle
 62
7
  6
CONTINUOUS
 10
4.4212453948
 20
6.223429444
 40
0.0719446148
100
AcDbArc
 50
40.2378590326
 51
43.4577724414
  0
ARC
  5
3D4
100
AcDbEntity
  8
0
100
AcDbCircle
 62
7
  6
CONTINUOUS
 10
4.4218026482
 20
6.2205381546
 40
0.0704214707
100
AcDbArc
 50
41.4324837716
 51
45.4688872999
  0
ARC
  5
3D5
100
AcDbEntity
  8
0
100
AcDbCircle
 62
7
  6
CONTINUOUS
 10
4.4228972547
 20
6.2248465911
 40
0.0697682136
100
AcDbArc
 50
39.3583136727
 51
40.225731459
  0
ARC
  5
3D6
100
AcDbEntity
  8
0
100
AcDbCircle
 62
7
  6
CONTINUOUS
 10
4.4387702702
 20
6.1877677317
 40
0.0683907122
100
AcDbArc
 50
22.4620470674
 51
23.0308592689
  0
ARC
  5
3D7
100
AcDbEntity
  8
0
100
AcDbCircle
 62
7
  6
CONTINUOUS
 10
4.3387854415
 20
6.1877722128
 40
0.0683788583
100
AcDbArc
 50
157.0045750647
 51
157.5379001686
  0
ARC
  5
3D8
100
AcDbEntity
  8
0
100
AcDbCircle
 62
9
  6
CONTINUOUS
 10
4.4408287199
 20
6.1876404188
 40
0.0663540822
100
AcDbArc
 50
22.8573834038
 51
23.2344462085
  0
ARC
  5
3D9
100
AcDbEntity
  8
0
100
AcDbCircle
 62
9
  6
CONTINUOUS
 10
4.3367377827
 20
6.1876404967
 40
0.0663538818
100
AcDbArc
 50
156.7655563214
 51
157.1426165885
  0
ARC
  5
3DA
100
AcDbEntity
  8
0
100
AcDbCircle
 62
7
  6
CONTINUOUS
 10
4.4410211355
 20
6.234112172
 40
0.0491401458
100
AcDbArc
 50
359.0027313534
 51
359.9975001586
  0
ARC
  5
3DB
100
AcDbEntity
  8
0
100
AcDbCircle
 62
7
  6
CONTINUOUS
 10
4.4432089289
 20
6.2298335143
 40
0.0469535555
100
AcDbArc
 50
5.2105490923
 51
6.1920808547
  0
ARC
  5
3DC
100
AcDbEntity
  8
0
100
AcDbCircle
 62
7
  6
CONTINUOUS
 10
4.4433370706
 20
6.2298452952
 40
0.0468248735
100
AcDbArc
 50
4.4112073381
 51
5.2104329417
  0
ARC
  5
3DD
100
AcDbEntity
  8
0
100
AcDbCircle
 62
7
  6
CONTINUOUS
 10
4.3887833437
 20
6.5657537716
 40
0.3125
100
AcDbArc
 50
288.9334535855
 51
251.0665464145
  0
ARC
  5
3DE
100
AcDbEntity
  8
0
100
AcDbCircle
 62
9
  6
CONTINUOUS
 10
4.3887833437
 20
6.5657537716
 40
0.2854290387
100
AcDbArc
 50
290.8147721643
 51
249.1836355232
  0
ARC
  5
3DF
100
AcDbEntity
  8
0
100
AcDbCircle
 62
9
  6
CONTINUOUS
 10
4.3887833437
 20
6.5657537716
 40
0.1386183944
100
AcDbArc
 50
317.013388346
 51
222.9787710467
  0
ARC
  5
3E0
100
AcDbEntity
  8
0
100
AcDbCircle
 62
9
  6
CONTINUOUS
 10
4.3887833437
 20
6.5657537716
 40
0.1260370856
100
AcDbArc
 50
323.575694501
 51
216.4247558147
  0
ARC
  5
3E1
100
AcDbEntity
  8
0
100
AcDbCircle
 62
9
  6
CONTINUOUS
 10
4.3887833437
 20
6.5657537716
 40
0.1114999989
100
AcDbArc
 50
335.444398381
 51
204.5495289961
  0
ARC
  5
3E2
100
AcDbEntity
  8
0
100
AcDbCircle
 62
7
  6
CONTINUOUS
 10
4.3887833437
 20
6.5657537716
 40
0.103125
100
AcDbArc
 50
10.8290184956
 51
49.1709815044
  0
ARC
  5
3E3
100
AcDbEntity
  8
0
100
AcDbCircle
 62
7
  6
CONTINUOUS
 10
4.3887833437
 20
6.5657537716
 40
0.103125
100
AcDbArc
 50
70.8290184956
 51
109.1709815044
  0
ARC
  5
3E4
100
AcDbEntity
  8
0
100
AcDbCircle
 62
7
  6
CONTINUOUS
 10
4.3887833437
 20
6.5657537716
 40
0.103125
100
AcDbArc
 50
130.8290184956
 51
169.1709815044
  0
ARC
  5
3E5
100
AcDbEntity
  8
0
100
AcDbCircle
 62
7
  6
CONTINUOUS
 10
4.3887833437
 20
6.5657537716
 40
0.1015
100
AcDbArc
 50
48.9954645174
 51
71.0045354826
  0
ARC
  5
3E6
100
AcDbEntity
  8
0
100
AcDbCircle
 62
7
  6
CONTINUOUS
 10
4.3887833437
 20
6.5657537716
 40
0.1015
100
AcDbArc
 50
108.9954645174
 51
131.0045354826
  0
ARC
  5
3E7
100
AcDbEntity
  8
0
100
AcDbCircle
 62
7
  6
CONTINUOUS
 10
4.3887833437
 20
6.5657537716
 40
0.1015
100
AcDbArc
 50
357.2255096463
 51
11.0045354826
  0
ARC
  5
3E8
100
AcDbEntity
  8
0
100
AcDbCircle
 62
7
  6
CONTINUOUS
 10
4.3887833437
 20
6.5657537716
 40
0.1015
100
AcDbArc
 50
168.9954645174
 51
183.2263770213
  0
ARC
  5
3E9
100
AcDbEntity
  8
0
100
AcDbCircle
 62
7
  6
CONTINUOUS
 10
4.3887833437
 20
6.5657537716
 40
0.1013779528
100
AcDbArc
 50
0.0
 51
180.0
  0
ARC
  5
3EA
100
AcDbEntity
  8
0
100
AcDbCircle
 62
9
  6
CONTINUOUS
 10
43.218753984
 20
0.9924513892
 40
38.617181175
100
AcDbArc
 50
179.0244414772
 51
179.2019448808
  0
ARC
  5
3EB
100
AcDbEntity
  8
0
100
AcDbCircle
 62
9
  6
CONTINUOUS
 10
5.7953937116
 20
1.7320049597
 40
1.1862127545
100
AcDbArc
 50
177.5667626674
 51
177.825955219
  0
ARC
  5
3EC
100
AcDbEntity
  8
0
100
AcDbCircle
 62
9
  6
CONTINUOUS
 10
11.6710949236
 20
6.8120607903
 40
7.8359138074
100
AcDbArc
 50
208.0718698842
 51
208.3194731706
  0
ARC
  5
3ED
100
AcDbEntity
  8
0
100
AcDbCircle
 62
9
  6
CONTINUOUS
 10
7.4435470541
 20
4.5353417876
 40
3.0342884278
100
AcDbArc
 50
208.3433222846
 51
208.523466251
  0
SPLINE
  5
3EE
100
AcDbEntity
  8
0
100
AcDbSpline
 62
7
  6
CONTINUOUS
 70
0
 71
3
 72
9
 73
5
 74
0
 42
0.0000001
 43
0.0000001
 44
0.0000000001
 40
0.0
 40
0.0
 40
0.0
 40
0.0
 40
0.5050243508
 40
1.0
 40
1.0
 40
1.0
 40
1.0
 10
4.2755943673
 20
6.1786163479
 30
0.0
 10
4.2739935093
 20
6.1748186822
 30
0.0
 10
4.2715198004
 20
6.1669806441
 30
0.0
 10
4.270673155
 20
6.15879894
 30
0.0
 10
4.270673155
 20
6.1547596556
 30
0.0
  0
SPLINE
  5
3EF
100
AcDbEntity
  8
0
100
AcDbSpline
 62
7
  6
CONTINUOUS
 70
0
 71
3
 72
19
 73
15
 74
0
 42
0.0000001
 43
0.0000001
 44
0.0000000001
 40
0.0
 40
0.0
 40
0.0
 40
0.0
 40
0.0537810151
 40
0.1100102278
 40
0.1690773213
 40
0.2310587813
 40
0.3623942826
 40
0.5000265525
 40
0.6376535595
 40
0.7689748385
 40
0.8309472545
 40
0.890005083
 40
0.9462257759
 40
1.0
 40
1.0
 40
1.0
 40
1.0
 10
4.5017098511
 20
6.2145240148
 30
0.0
 10
4.499820366
 20
6.2189687524
 30
0.0
 10
4.4949797502
 20
6.2276700389
 30
0.0
 10
4.4851817044
 20
6.2393683009
 30
0.0
 10
4.4729964791
 20
6.249722984
 30
0.0
 10
4.4536454278
 20
6.2616580343
 30
0.0
 10
4.4253417502
 20
6.2718255191
 30
0.0
 10
4.3887552442
 20
6.2758959895
 30
0.0
 10
4.3521713687
 20
6.2718132517
 30
0.0
 10
4.3238737795
 20
6.2616360182
 30
0.0
 10
4.3045303463
 20
6.2496941142
 30
0.0
 10
4.2923519039
 20
6.2393351203
 30
0.0
 10
4.2825615204
 20
6.2276332696
 30
0.0
 10
4.277726737
 20
6.2189302783
 30
0.0
 10
4.2758402374
 20
6.2144849352
 30
0.0
  0
SPLINE
  5
3F0
100
AcDbEntity
  8
0
100
AcDbSpline
 62
7
  6
CONTINUOUS
 70
0
 71
3
 72
9
 73
5
 74
0
 42
0.0000001
 43
0.0000001
 44
0.0000000001
 40
0.0
 40
0.0
 40
0.0
 40
0.0
 40
0.4949756492
 40
1.0
 40
1.0
 40
1.0
 40
1.0
 10
4.5068935324
 20
6.1547596556
 30
0.0
 10
4.5068935324
 20
6.15879894
 30
0.0
 10
4.5060468869
 20
6.1669806441
 30
0.0
 10
4.5035731781
 20
6.1748186822
 30
0.0
 10
4.5019723201
 20
6.1786163479
 30
0.0
  0
SPLINE
  5
3F1
100
AcDbEntity
  8
0
100
AcDbSpline
 62
9
  6
CONTINUOUS
 70
0
 71
3
 72
13
 73
9
 74
0
 42
0.0000001
 43
0.0000001
 44
0.0000000001
 40
0.0
 40
0.0
 40
0.0
 40
0.0
 40
0.1055074628
 40
0.2166784951
 40
0.3342686283
 40
0.4583061204
 40
0.7224205945
 40
1.0
 40
1.0
 40
1.0
 40
1.0
 10
4.5018013756
 20
6.2138167341
 30
0.0
 10
4.4999388738
 20
6.2181551007
 30
0.0
 10
4.4951519697
 20
6.2266750725
 30
0.0
 10
4.4854507759
 20
6.2381580742
 30
0.0
 10
4.473330042
 20
6.2483810953
 30
0.0
 10
4.4539710274
 20
6.2602396975
 30
0.0
 10
4.4255965695
 20
6.2703730157
 30
0.0
 10
4.4012752814
 20
6.2730694888
 30
0.0
 10
4.3888541159
 20
6.2730747517
 30
0.0
  0
SPLINE
  5
3F2
100
AcDbEntity
  8
0
100
AcDbSpline
 62
9
  6
CONTINUOUS
 70
0
 71
3
 72
13
 73
9
 74
0
 42
0.0000001
 43
0.0000001
 44
0.0000000001
 40
0.0
 40
0.0
 40
0.0
 40
0.0
 40
0.2775745868
 40
0.5416960825
 40
0.6657368984
 40
0.7833281227
 40
0.8944972642
 40
1.0
 40
1.0
 40
1.0
 40
1.0
 10
4.3887833437
 20
6.2730747667
 30
0.0
 10
4.3763558727
 20
6.2730747667
 30
0.0
 10
4.3520205432
 20
6.270385824
 30
0.0
 10
4.3236277694
 20
6.2602554561
 30
0.0
 10
4.304255288
 20
6.2483949614
 30
0.0
 10
4.2921261138
 20
6.2381687903
 30
0.0
 10
4.2824184464
 20
6.2266811786
 30
0.0
 10
4.2776287058
 20
6.2181571797
 30
0.0
 10
4.27576531
 20
6.2138167302
 30
0.0
  0
SPLINE
  5
3F3
100
AcDbEntity
  8
0
100
AcDbSpline
 62
7
  6
CONTINUOUS
 70
0
 71
3
 72
12
 73
8
 74
0
 42
0.0000001
 43
0.0000001
 44
0.0000000001
 40
0.0
 40
0.0
 40
0.0
 40
0.0
 40
0.1060616557
 40
0.2171305741
 40
0.4574517146
 40
0.7218801549
 40
1.0
 40
1.0
 40
1.0
 40
1.0
 10
4.2893111789
 20
6.2354754801
 30
0.0
 10
4.2904512396
 20
6.2397220667
 30
0.0
 10
4.293807232
 20
6.2481686764
 30
0.0
 10
4.3044102751
 20
6.2640285108
 30
0.0
 10
4.3244768084
 20
6.2806889512
 30
0.0
 10
4.3547413325
 20
6.2933480548
 30
0.0
 10
4.3772577631
 20
6.2966582123
 30
0.0
 10
4.3887833437
 20
6.2969740882
 30
0.0
  0
SPLINE
  5
3F4
100
AcDbEntity
  8
0
100
AcDbSpline
 62
7
  6
CONTINUOUS
 70
0
 71
3
 72
9
 73
5
 74
0
 42
0.0000001
 43
0.0000001
 44
0.0000000001
 40
0.0
 40
0.0
 40
0.0
 40
0.0
 40
0.2592934251
 40
1.0
 40
1.0
 40
1.0
 40
1.0
 10
4.3887833437
 20
6.2969740882
 30
0.0
 10
4.3939401815
 20
6.2971154191
 30
0.0
 10
4.4138277298
 20
6.2965935565
 30
0.0
 10
4.4337233124
 20
6.2918454628
 30
0.0
 10
4.4470998221
 20
6.2856615901
 30
0.0
  0
SPLINE
  5
3F5
100
AcDbEntity
  8
0
100
AcDbSpline
 62
7
  6
CONTINUOUS
 70
0
 71
3
 72
9
 73
5
 74
0
 42
0.0000001
 43
0.0000001
 44
0.0000000001
 40
0.0
 40
0.0
 40
0.0
 40
0.0
 40
0.2606500912
 40
1.0
 40
1.0
 40
1.0
 40
1.0
 10
4.4470998221
 20
6.2856615901
 30
0.0
 10
4.4492137723
 20
6.2846843248
 30
0.0
 10
4.4571982862
 20
6.2806753106
 30
0.0
 10
4.4646622953
 20
6.2755804951
 30
0.0
 10
4.4696087558
 20
6.2712017833
 30
0.0
  0
SPLINE
  5
3F6
100
AcDbEntity
  8
0
100
AcDbSpline
 62
7
  6
CONTINUOUS
 70
0
 71
3
 72
9
 73
5
 74
0
 42
0.0000001
 43
0.0000001
 44
0.0000000001
 40
0.0
 40
0.0
 40
0.0
 40
0.0
 40
0.5193119488
 40
1.0
 40
1.0
 40
1.0
 40
1.0
 10
4.4734686596
 20
6.2675362659
 30
0.0
 10
4.4779569905
 20
6.2629534326
 30
0.0
 10
4.48549924
 20
6.2528972363
 30
0.0
 10
4.4892481428
 20
6.2408009195
 30
0.0
 10
4.4898885518
 20
6.2348980162
 30
0.0
  0
SPLINE
  5
3F7
100
AcDbEntity
  8
0
100
AcDbSpline
 62
7
  6
CONTINUOUS
 70
0
 71
3
 72
9
 73
5
 74
0
 42
0.0000001
 43
0.0000001
 44
0.0000000001
 40
0.0
 40
0.0
 40
0.0
 40
0.0
 40
0.475612108
 40
1.0
 40
1.0
 40
1.0
 40
1.0
 10
4.3064052132
 20
6.2505688873
 30
0.0
 10
4.3163835287
 20
6.2607450996
 30
0.0
 10
4.3429999056
 20
6.2766734196
 30
0.0
 10
4.3730727642
 20
6.2820668311
 30
0.0
 10
4.3887833437
 20
6.2823797231
 30
0.0
  0
SPLINE
  5
3F8
100
AcDbEntity
  8
0
100
AcDbSpline
 62
7
  6
CONTINUOUS
 70
0
 71
3
 72
9
 73
5
 74
0
 42
0.0000001
 43
0.0000001
 44
0.0000000001
 40
0.0
 40
0.0
 40
0.0
 40
0.0
 40
0.2566391973
 40
1.0
 40
1.0
 40
1.0
 40
1.0
 10
4.3887833437
 20
6.282384378
 30
0.0
 10
4.3932278833
 20
6.2824728955
 30
0.0
 10
4.4105453501
 20
6.2820047421
 30
0.0
 10
4.4278348166
 20
6.2783604489
 30
0.0
 10
4.4398335022
 20
6.2736882458
 30
0.0
  0
SPLINE
  5
3F9
100
AcDbEntity
  8
0
100
AcDbSpline
 62
7
  6
CONTINUOUS
 70
0
 71
3
 72
9
 73
5
 74
0
 42
0.0000001
 43
0.0000001
 44
0.0000000001
 40
0.0
 40
0.0
 40
0.0
 40
0.0
 40
0.5253634283
 40
1.0
 40
1.0
 40
1.0
 40
1.0
 10
4.4454963359
 20
6.2713063204
 30
0.0
 10
4.452845486
 20
6.2679727756
 30
0.0
 10
4.4662185771
 20
6.260082523
 30
0.0
 10
4.4770220309
 20
6.2487700706
 30
0.0
 10
4.4810579683
 20
6.2426984179
 30
0.0
  0
SPLINE
  5
3FA
100
AcDbEntity
  8
0
100
AcDbSpline
 62
7
  6
CONTINUOUS
 70
0
 71
3
 72
10
 73
6
 74
0
 42
0.0000001
 43
0.0000001
 44
0.0000000001
 40
0.0
 40
0.0
 40
0.0
 40
0.0
 40
0.4692925341
 40
0.7303526327
 40
1.0
 40
1.0
 40
1.0
 40
1.0
 10
4.4734686596
 20
6.2729143732
 30
0.0
 10
4.4635471828
 20
6.2833947958
 30
0.0
 10
4.4432863665
 20
6.2952766567
 30
0.0
 10
4.4134722427
 20
6.3029349665
 30
0.0
 10
4.397074948
 20
6.3041591911
 30
0.0
 10
4.3887833437
 20
6.3040577487
 30
0.0
  0
SPLINE
  5
3FB
100
AcDbEntity
  8
0
100
AcDbSpline
 62
7
  6
CONTINUOUS
 70
0
 71
3
 72
11
 73
7
 74
0
 42
0.0000001
 43
0.0000001
 44
0.0000000001
 40
0.0
 40
0.0
 40
0.0
 40
0.0
 40
0.2772776708
 40
0.5415671321
 40
0.7829222495
 40
1.0
 40
1.0
 40
1.0
 40
1.0
 10
4.3887833437
 20
6.2933983002
 30
0.0
 10
4.3777318647
 20
6.293180236
 30
0.0
 10
4.3561056951
 20
6.2902690312
 30
0.0
 10
4.3267520675
 20
6.2787151008
 30
0.0
 10
4.3035177202
 20
6.2609492521
 30
0.0
 10
4.2934539084
 20
6.2450195185
 30
0.0
 10
4.2905795109
 20
6.2368570696
 30
0.0
  0
SPLINE
  5
3FC
100
AcDbEntity
  8
0
100
AcDbSpline
 62
7
  6
CONTINUOUS
 70
0
 71
3
 72
9
 73
5
 74
0
 42
0.0000001
 43
0.0000001
 44
0.0000000001
 40
0.0
 40
0.0
 40
0.0
 40
0.0
 40
0.2469347843
 40
1.0
 40
1.0
 40
1.0
 40
1.0
 10
4.4180634607
 20
6.2799096857
 30
0.0
 10
4.4158285617
 20
6.2803900826
 30
0.0
 10
4.4067235464
 20
6.2820751482
 30
0.0
 10
4.3974324153
 20
6.2827354737
 30
0.0
 10
4.3904613459
 20
6.2826735692
 30
0.0
  0
SPLINE
  5
3FD
100
AcDbEntity
  8
0
100
AcDbSpline
 62
7
  6
CONTINUOUS
 70
0
 71
3
 72
9
 73
5
 74
0
 42
0.0000001
 43
0.0000001
 44
0.0000000001
 40
0.0
 40
0.0
 40
0.0
 40
0.0
 40
0.2512389498
 40
1.0
 40
1.0
 40
1.0
 40
1.0
 10
4.388775152
 20
6.2826476617
 30
0.0
 10
4.3866623369
 20
6.2826014943
 30
0.0
 10
4.3782587243
 20
6.2822124903
 30
0.0
 10
4.3698911666
 20
6.2810044372
 30
0.0
 10
4.3637444294
 20
6.2796311734
 30
0.0
  0
SPLINE
  5
3FE
100
AcDbEntity
  8
0
100
AcDbSpline
 62
7
  6
CONTINUOUS
 70
0
 71
3
 72
9
 73
5
 74
0
 42
0.0000001
 43
0.0000001
 44
0.0000000001
 40
0.0
 40
0.0
 40
0.0
 40
0.0
 40
0.2355781543
 40
1.0
 40
1.0
 40
1.0
 40
1.0
 10
4.4778826582
 20
6.2454401125
 30
0.0
 10
4.4760613457
 20
6.2477374845
 30
0.0
 10
4.4676848024
 20
6.2569770124
 30
0.0
 10
4.4570908656
 20
6.2640576192
 30
0.0
 10
4.4485534787
 20
6.268254366
 30
0.0
  0
SPLINE
  5
3FF
100
AcDbEntity
  8
0
100
AcDbSpline
 62
7
  6
CONTINUOUS
 70
0
 71
3
 72
9
 73
5
 74
0
 42
0.0000001
 43
0.0000001
 44
0.0000000001
 40
0.0
 40
0.0
 40
0.0
 40
0.0
 40
0.2415260493
 40
1.0
 40
1.0
 40
1.0
 40
1.0
 10
4.4426861718
 20
6.2709248122
 30
0.0
 10
4.4386028137
 20
6.2726416189
 30
0.0
 10
4.4212875168
 20
6.2787574873
 30
0.0
 10
4.4026910281
 20
6.2810467114
 30
0.0
 10
4.3887833437
 20
6.2807713934
 30
0.0
  0
SPLINE
  5
400
100
AcDbEntity
  8
0
100
AcDbSpline
 62
7
  6
CONTINUOUS
 70
0
 71
3
 72
9
 73
5
 74
0
 42
0.0000001
 43
0.0000001
 44
0.0000000001
 40
0.0
 40
0.0
 40
0.0
 40
0.0
 40
0.2445755833
 40
1.0
 40
1.0
 40
1.0
 40
1.0
 10
4.4820085168
 20
6.2568447717
 30
0.0
 10
4.4814954515
 20
6.2577436258
 30
0.0
 10
4.4792980606
 20
6.2613614762
 30
0.0
 10
4.4767146621
 20
6.2647411371
 30
0.0
 10
4.4746001613
 20
6.2671386498
 30
0.0
  0
SPLINE
  5
401
100
AcDbEntity
  8
0
100
AcDbSpline
 62
9
  6
CONTINUOUS
 70
0
 71
3
 72
13
 73
9
 74
0
 42
0.0000001
 43
0.0000001
 44
0.0000000001
 40
0.0
 40
0.0
 40
0.0
 40
0.0
 40
0.103455722
 40
0.2106683219
 40
0.3244972007
 40
0.4464302017
 40
0.712947287
 40
1.0
 40
1.0
 40
1.0
 40
1.0
 10
4.4901607841
 20
6.4129649862
 30
0.0
 10
4.4901607841
 20
6.417671649
 30
0.0
 10
4.4887948851
 20
6.4273047716
 30
0.0
 10
4.4828179487
 20
6.4409739507
 30
0.0
 10
4.4732302849
 20
6.4534578761
 30
0.0
 10
4.4557061749
 20
6.4683404845
 30
0.0
 10
4.4271555185
 20
6.4812496818
 30
0.0
 10
4.4018426536
 20
6.484650024
 30
0.0
 10
4.3887833437
 20
6.484650024
 30
0.0
  0
SPLINE
  5
402
100
AcDbEntity
  8
0
100
AcDbSpline
 62
9
  6
CONTINUOUS
 70
0
 71
3
 72
13
 73
9
 74
0
 42
0.0000001
 43
0.0000001
 44
0.0000000001
 40
0.0
 40
0.0
 40
0.0
 40
0.0
 40
0.287052713
 40
0.5535697983
 40
0.6755027993
 40
0.7893316781
 40
0.896544278
 40
1.0
 40
1.0
 40
1.0
 40
1.0
 10
4.3887833437
 20
6.484650024
 30
0.0
 10
4.3757240338
 20
6.484650024
 30
0.0
 10
4.3504111688
 20
6.4812496818
 30
0.0
 10
4.3218605124
 20
6.4683404845
 30
0.0
 10
4.3043364024
 20
6.4534578761
 30
0.0
 10
4.2947487386
 20
6.4409739507
 30
0.0
 10
4.2887718022
 20
6.4273047716
 30
0.0
 10
4.2874059033
 20
6.417671649
 30
0.0
 10
4.2874059033
 20
6.4129649862
 30
0.0
  0
SPLINE
  5
403
100
AcDbEntity
  8
0
100
AcDbSpline
 62
7
  6
CONTINUOUS
 70
0
 71
3
 72
9
 73
5
 74
0
 42
0.0000001
 43
0.0000001
 44
0.0000000001
 40
0.0
 40
0.0
 40
0.0
 40
0.0
 40
0.4846122817
 40
1.0
 40
1.0
 40
1.0
 40
1.0
 10
4.4901612812
 20
6.234110028
 30
0.0
 10
4.4901615366
 20
6.2402487001
 30
0.0
 10
4.4876994273
 20
6.2530113927
 30
0.0
 10
4.48098179
 20
6.2640434874
 30
0.0
 10
4.4768417009
 20
6.2690913688
 30
0.0
  0
SPLINE
  5
404
100
AcDbEntity
  8
0
100
AcDbSpline
 62
7
  6
CONTINUOUS
 70
0
 71
3
 72
9
 73
5
 74
0
 42
0.0000001
 43
0.0000001
 44
0.0000000001
 40
0.0
 40
0.0
 40
0.0
 40
0.0
 40
0.4808224857
 40
1.0
 40
1.0
 40
1.0
 40
1.0
 10
4.4892028443
 20
6.2343873812
 30
0.0
 10
4.4880614937
 20
6.2400607283
 30
0.0
 10
4.4835488874
 20
6.2514901763
 30
0.0
 10
4.4758155815
 20
6.2609387681
 30
0.0
 10
4.4713018862
 20
6.2652598909
 30
0.0
  0
SPLINE
  5
405
100
AcDbEntity
  8
0
100
AcDbSpline
 62
7
  6
CONTINUOUS
 70
0
 71
3
 72
9
 73
5
 74
0
 42
0.0000001
 43
0.0000001
 44
0.0000000001
 40
0.0
 40
0.0
 40
0.0
 40
0.0
 40
0.2386039213
 40
1.0
 40
1.0
 40
1.0
 40
1.0
 10
4.4713018862
 20
6.2652598909
 30
0.0
 10
4.4695196545
 20
6.2669660855
 30
0.0
 10
4.4617044301
 20
6.2737537671
 30
0.0
 10
4.452667886
 20
6.2790735387
 30
0.0
 10
4.4454963477
 20
6.2823225643
 30
0.0
  0
SPLINE
  5
406
100
AcDbEntity
  8
0
100
AcDbSpline
 62
7
  6
CONTINUOUS
 70
0
 71
3
 72
10
 73
6
 74
0
 42
0.0000001
 43
0.0000001
 44
0.0000000001
 40
0.0
 40
0.0
 40
0.0
 40
0.0
 40
0.4694005369
 40
0.7304967556
 40
1.0
 40
1.0
 40
1.0
 40
1.0
 10
4.4711878867
 20
6.2707393412
 30
0.0
 10
4.4612641974
 20
6.2804934366
 30
0.0
 10
4.4414754382
 20
6.2914018638
 30
0.0
 10
4.4125690464
 20
6.2981244867
 30
0.0
 10
4.3967455178
 20
6.2989582822
 30
0.0
 10
4.3887611664
 20
6.2986829268
 30
0.0
  0
SPLINE
  5
407
100
AcDbEntity
  8
0
100
AcDbSpline
 62
7
  6
CONTINUOUS
 70
0
 71
3
 72
9
 73
5
 74
0
 42
0.0000001
 43
0.0000001
 44
0.0000000001
 40
0.0
 40
0.0
 40
0.0
 40
0.0
 40
0.260244073
 40
1.0
 40
1.0
 40
1.0
 40
1.0
 10
4.3882519216
 20
6.2986644186
 30
0.0
 10
4.382634325
 20
6.2984498126
 30
0.0
 10
4.3611486061
 20
6.2963118181
 30
0.0
 10
4.3399605101
 20
6.2888651526
 30
0.0
 10
4.3266031935
 20
6.280093596
 30
0.0
  0
SPLINE
  5
408
100
AcDbEntity
  8
0
100
AcDbSpline
 62
7
  6
CONTINUOUS
 70
0
 71
3
 72
13
 73
9
 74
0
 42
0.0000001
 43
0.0000001
 44
0.0000000001
 40
0.0
 40
0.0
 40
0.0
 40
0.0
 40
0.2837696169
 40
0.5493869341
 40
0.6719025681
 40
0.7868720135
 40
0.8954458397
 40
1.0
 40
1.0
 40
1.0
 40
1.0
 10
4.3887833437
 20
6.3040577487
 30
0.0
 10
4.3760512436
 20
6.3039019798
 30
0.0
 10
4.3513218393
 20
6.3003376003
 30
0.0
 10
4.3233709547
 20
6.2876505757
 30
0.0
 10
4.3059085403
 20
6.2731477791
 30
0.0
 10
4.2961028664
 20
6.2609507678
 30
0.0
 10
4.2896538254
 20
6.2475647436
 30
0.0
 10
4.2877825362
 20
6.2380544837
 30
0.0
 10
4.2875012249
 20
6.2333714659
 30
0.0
  0
SPLINE
  5
409
100
AcDbEntity
  8
0
100
AcDbSpline
 62
7
  6
CONTINUOUS
 70
0
 71
3
 72
9
 73
5
 74
0
 42
0.0000001
 43
0.0000001
 44
0.0000000001
 40
0.0
 40
0.0
 40
0.0
 40
0.0
 40
0.2405638946
 40
1.0
 40
1.0
 40
1.0
 40
1.0
 10
4.4454963477
 20
6.2823225643
 30
0.0
 10
4.4412565867
 20
6.2842450321
 30
0.0
 10
4.4231337514
 20
6.2911156236
 30
0.0
 10
4.4034766763
 20
6.2936882244
 30
0.0
 10
4.3887833437
 20
6.2933983002
 30
0.0
  0
SPLINE
  5
40A
100
AcDbEntity
  8
0
100
AcDbSpline
 62
7
  6
CONTINUOUS
 70
0
 71
3
 72
9
 73
5
 74
0
 42
0.0000001
 43
0.0000001
 44
0.0000000001
 40
0.0
 40
0.0
 40
0.0
 40
0.0
 40
0.5200876641
 40
1.0
 40
1.0
 40
1.0
 40
1.0
 10
4.3887833437
 20
6.2807713934
 30
0.0
 10
4.3745328453
 20
6.2804892891
 30
0.0
 10
4.3470574619
 20
6.2759332496
 30
0.0
 10
4.3221884774
 20
6.2627945046
 30
0.0
 10
4.3121515119
 20
6.2542950132
 30
0.0
  0
SPLINE
  5
40B
100
AcDbEntity
  8
0
100
AcDbSpline
 62
9
  6
CONTINUOUS
 70
0
 71
3
 72
15
 73
11
 74
0
 42
0.0000001
 43
0.0000001
 44
0.0000000001
 40
0.0
 40
0.0
 40
0.0
 40
0.0
 40
0.3791973753
 40
0.5506216695
 40
0.7017453344
 40
0.8269243643
 40
0.921159291
 40
0.9551627214
 40
0.9798538482
 40
1.0
 40
1.0
 40
1.0
 40
1.0
 10
4.3887833437
 20
3.6238247269
 30
0.0
 10
4.3957574953
 20
3.6238253781
 30
0.0
 10
4.4059016698
 20
3.6244802839
 30
0.0
 10
4.4186480802
 20
3.6265337037
 30
0.0
 10
4.4267009839
 20
3.6282727947
 30
0.0
 10
4.4332880422
 20
3.6300276735
 30
0.0
 10
4.4377460923
 20
3.631390574
 30
0.0
 10
4.4404159154
 20
3.6322755703
 30
0.0
 10
4.441794387
 20
3.6327254444
 30
0.0
 10
4.4425623587
 20
3.6330292587
 30
0.0
 10
4.4429172019
 20
3.6331359145
 30
0.0
  0
SPLINE
  5
40C
100
AcDbEntity
  8
0
100
AcDbSpline
 62
9
  6
CONTINUOUS
 70
0
 71
3
 72
12
 73
8
 74
0
 42
0.0000001
 43
0.0000001
 44
0.0000000001
 40
0.0
 40
0.0
 40
0.0
 40
0.0
 40
0.0789155386
 40
0.1731749848
 40
0.2983694013
 40
0.620809798
 40
1.0
 40
1.0
 40
1.0
 40
1.0
 10
4.3346494869
 20
3.6331359147
 30
0.0
 10
4.3360116911
 20
3.6326354435
 30
0.0
 10
4.3390389339
 20
3.6316430981
 30
0.0
 10
4.3442810521
 20
3.6300215649
 30
0.0
 10
4.3539164278
 20
3.6274665677
 30
0.0
 10
4.3688906266
 20
3.6246622704
 30
0.0
 10
4.3818101592
 20
3.6238254138
 30
0.0
 10
4.3887833437
 20
3.6238247388
 30
0.0
  0
LINE
  5
40D
100
AcDbEntity
  8
0
100
AcDbLine
 62
7
  6
CONTINUOUS
 10
4.6082592555
 20
1.649080301
 11
4.6085244941
 21
1.6494301072
  0
LINE
  5
40E
100
AcDbEntity
  8
0
100
AcDbLine
 62
7
  6
CONTINUOUS
 10
4.1690409933
 20
1.6494316923
 11
4.1693069729
 21
1.649080905
  0
LINE
  5
40F
100
AcDbEntity
  8
0
100
AcDbLine
 62
9
  6
CONTINUOUS
 10
4.607170404
 20
1.6499430974
 11
4.6071824124
 21
1.6506473821
  0
SPLINE
  5
410
100
AcDbEntity
  8
0
100
AcDbSpline
 62
9
  6
CONTINUOUS
 70
0
 71
3
 72
9
 73
5
 74
0
 42
0.0000001
 43
0.0000001
 44
0.0000000001
 40
0.0
 40
0.0
 40
0.0
 40
0.0
 40
0.5688695229
 40
1.0
 40
1.0
 40
1.0
 40
1.0
 10
4.6071824124
 20
1.6506468577
 30
0.0
 10
4.6075912196
 20
1.6746099568
 30
0.0
 10
4.6083619089
 20
1.7167323106
 30
0.0
 10
4.6093446601
 20
1.7588536036
 30
0.0
 10
4.6100347886
 20
1.7770041007
 30
0.0
  0
SPLINE
  5
411
100
AcDbEntity
  8
0
100
AcDbSpline
 62
9
  6
CONTINUOUS
 70
0
 71
3
 72
9
 73
5
 74
0
 42
0.0000001
 43
0.0000001
 44
0.0000000001
 40
0.0
 40
0.0
 40
0.0
 40
0.0
 40
0.6020821427
 40
1.0
 40
1.0
 40
1.0
 40
1.0
 10
4.6102504822
 20
1.7823659053
 30
0.0
 10
4.6104096019
 20
1.7860932142
 30
0.0
 10
4.6107102686
 20
1.7922816244
 30
0.0
 10
4.6111351885
 20
1.798466195
 30
0.0
 10
4.6114005916
 20
1.8009175023
 30
0.0
  0
LINE
  5
412
100
AcDbEntity
  8
0
100
AcDbLine
 62
9
  6
CONTINUOUS
 10
4.6114005916
 20
1.8009174942
 11
4.6117867857
 21
1.8036742183
  0
SPLINE
  5
413
100
AcDbEntity
  8
0
100
AcDbSpline
 62
9
  6
CONTINUOUS
 70
0
 71
3
 72
11
 73
7
 74
0
 42
0.0000001
 43
0.0000001
 44
0.0000000001
 40
0.0
 40
0.0
 40
0.0
 40
0.0
 40
0.2226398882
 40
0.4574727269
 40
0.7143993826
 40
1.0
 40
1.0
 40
1.0
 40
1.0
 10
4.6071824141
 20
1.6506469568
 30
0.0
 10
4.6071824141
 20
1.6542998611
 30
0.0
 10
4.6061533634
 20
1.6618385486
 30
0.0
 10
4.6016506482
 20
1.6727732463
 30
0.0
 10
4.5943331131
 20
1.6833167164
 30
0.0
 10
4.5880332471
 20
1.6896639551
 30
0.0
 10
4.5845193466
 20
1.6927640049
 30
0.0
  0
SPLINE
  5
414
100
AcDbEntity
  8
0
100
AcDbSpline
 62
9
  6
CONTINUOUS
 70
0
 71
3
 72
12
 73
8
 74
0
 42
0.0000001
 43
0.0000001
 44
0.0000000001
 40
0.0
 40
0.0
 40
0.0
 40
0.0
 40
0.3196487956
 40
0.6163657117
 40
0.8567977961
 40
0.9429687101
 40
1.0
 40
1.0
 40
1.0
 40
1.0
 10
4.6117867857
 20
1.803674226
 30
0.0
 10
4.612045793
 20
1.804994303
 30
0.0
 10
4.6125517903
 20
1.8075403572
 30
0.0
 10
4.6133333464
 20
1.8110537698
 30
0.0
 10
4.6140152201
 20
1.8136056386
 30
0.0
 10
4.6146278509
 20
1.8150851056
 30
0.0
 10
4.614964349
 20
1.8156165861
 30
0.0
 10
4.6151612964
 20
1.8157537716
 30
0.0
  0
SPLINE
  5
415
100
AcDbEntity
  8
0
100
AcDbSpline
 62
9
  6
CONTINUOUS
 70
0
 71
3
 72
12
 73
8
 74
0
 42
0.0000001
 43
0.0000001
 44
0.0000000001
 40
0.0
 40
0.0
 40
0.0
 40
0.0
 40
0.0925055449
 40
0.19656582
 40
0.4364335297
 40
0.7094610647
 40
1.0
 40
1.0
 40
1.0
 40
1.0
 10
4.5845193279
 20
1.6927638858
 30
0.0
 10
4.5797426268
 20
1.696978004
 30
0.0
 10
4.5687834725
 20
1.7050277193
 30
0.0
 10
4.542384526
 20
1.7195102652
 30
0.0
 10
4.5020866124
 20
1.7337739987
 30
0.0
 10
4.4476488921
 20
1.7443707969
 30
0.0
 10
4.4087897644
 20
1.7468561338
 30
0.0
 10
4.3887833437
 20
1.7468561338
 30
0.0
  0
SPLINE
  5
416
100
AcDbEntity
  8
0
100
AcDbSpline
 62
9
  6
CONTINUOUS
 70
0
 71
3
 72
13
 73
9
 74
0
 42
0.0000001
 43
0.0000001
 44
0.0000000001
 40
0.0
 40
0.0
 40
0.0
 40
0.0
 40
0.0937600476
 40
0.1908922254
 40
0.2972496013
 40
0.4151445342
 40
0.6859274552
 40
1.0
 40
1.0
 40
1.0
 40
1.0
 10
4.6151612964
 20
1.8157537716
 30
0.0
 10
4.6164426457
 20
1.816646307
 30
0.0
 10
4.6193476834
 20
1.8180664778
 30
0.0
 10
4.6242509902
 20
1.8189860067
 30
0.0
 10
4.629619018
 20
1.8190347324
 30
0.0
 10
4.6378353378
 20
1.8182843766
 30
0.0
 10
4.6494031278
 20
1.8165145108
 30
0.0
 10
4.6591430584
 20
1.8157537714
 30
0.0
 10
4.6643738974
 20
1.8157537716
 30
0.0
  0
SPLINE
  5
417
100
AcDbEntity
  8
0
100
AcDbSpline
 62
9
  6
CONTINUOUS
 70
0
 71
3
 72
9
 73
5
 74
0
 42
0.0000001
 43
0.0000001
 44
0.0000000001
 40
0.0
 40
0.0
 40
0.0
 40
0.0
 40
0.4966516336
 40
1.0
 40
1.0
 40
1.0
 40
1.0
 10
4.6079911271
 20
1.8427414027
 30
0.0
 10
4.6042643281
 20
1.8617683032
 30
0.0
 10
4.5911966999
 20
1.8991794448
 30
0.0
 10
4.5683483041
 20
1.9315053658
 30
0.0
 10
4.5549823676
 20
1.9459091665
 30
0.0
  0
SPLINE
  5
418
100
AcDbEntity
  8
0
100
AcDbSpline
 62
9
  6
CONTINUOUS
 70
0
 71
3
 72
11
 73
7
 74
0
 42
0.0000001
 43
0.0000001
 44
0.0000000001
 40
0.0
 40
0.0
 40
0.0
 40
0.0
 40
0.2477169633
 40
0.4975754022
 40
0.7486270448
 40
1.0
 40
1.0
 40
1.0
 40
1.0
 10
4.5549823473
 20
1.9459092012
 30
0.0
 10
4.5445262348
 20
1.9571772268
 30
0.0
 10
4.5210894614
 20
1.977672529
 30
0.0
 10
4.4803798236
 20
2.0006853214
 30
0.0
 10
4.4356524667
 20
2.0151063086
 30
0.0
 10
4.4043822252
 20
2.0184276561
 30
0.0
 10
4.3887833437
 20
2.0184276561
 30
0.0
  0
SPLINE
  5
419
100
AcDbEntity
  8
0
100
AcDbSpline
 62
9
  6
CONTINUOUS
 70
0
 71
3
 72
11
 73
7
 74
0
 42
0.0000001
 43
0.0000001
 44
0.0000000001
 40
0.0
 40
0.0
 40
0.0
 40
0.0
 40
0.2513729543
 40
0.5024245962
 40
0.7522830353
 40
1.0
 40
1.0
 40
1.0
 40
1.0
 10
4.3887833437
 20
2.0184276561
 30
0.0
 10
4.3731844662
 20
2.0184276561
 30
0.0
 10
4.3419142331
 20
2.0151063104
 30
0.0
 10
4.2971868869
 20
2.0006853306
 30
0.0
 10
4.2564772567
 20
1.9776725498
 30
0.0
 10
4.2330404855
 20
1.9571772573
 30
0.0
 10
4.2225843732
 20
1.9459092369
 30
0.0
  0
SPLINE
  5
41A
100
AcDbEntity
  8
0
100
AcDbSpline
 62
9
  6
CONTINUOUS
 70
0
 71
3
 72
9
 73
5
 74
0
 42
0.0000001
 43
0.0000001
 44
0.0000000001
 40
0.0
 40
0.0
 40
0.0
 40
0.0
 40
0.5033483708
 40
1.0
 40
1.0
 40
1.0
 40
1.0
 10
4.2225845513
 20
1.9459095422
 30
0.0
 10
4.2092185834
 20
1.9315057572
 30
0.0
 10
4.1863701224
 20
1.8991798583
 30
0.0
 10
4.1733024286
 20
1.8617687188
 30
0.0
 10
4.1695755988
 20
1.8427418149
 30
0.0
  0
SPLINE
  5
41B
100
AcDbEntity
  8
0
100
AcDbSpline
 62
9
  6
CONTINUOUS
 70
0
 71
3
 72
12
 73
8
 74
0
 42
0.0000001
 43
0.0000001
 44
0.0000000001
 40
0.0
 40
0.0
 40
0.0
 40
0.0
 40
0.3196487972
 40
0.6163657132
 40
0.8567977965
 40
0.94296871
 40
1.0
 40
1.0
 40
1.0
 40
1.0
 10
4.1657799016
 20
1.8036742265
 30
0.0
 10
4.1655208942
 20
1.8049943034
 30
0.0
 10
4.165014897
 20
1.8075403575
 30
0.0
 10
4.1642333409
 20
1.81105377
 30
0.0
 10
4.1635514672
 20
1.8136056387
 30
0.0
 10
4.1629388364
 20
1.8150851056
 30
0.0
 10
4.1626023383
 20
1.8156165861
 30
0.0
 10
4.1624053909
 20
1.8157537716
 30
0.0
  0
SPLINE
  5
41C
100
AcDbEntity
  8
0
100
AcDbSpline
 62
9
  6
CONTINUOUS
 70
0
 71
3
 72
12
 73
8
 74
0
 42
0.0000001
 43
0.0000001
 44
0.0000000001
 40
0.0
 40
0.0
 40
0.0
 40
0.0
 40
0.2905389328
 40
0.5635664664
 40
0.8034341769
 40
0.9074944533
 40
1.0
 40
1.0
 40
1.0
 40
1.0
 10
4.3887833437
 20
1.7468561338
 30
0.0
 10
4.3687769235
 20
1.7468561338
 30
0.0
 10
4.3299177969
 20
1.7443707971
 30
0.0
 10
4.2754800779
 20
1.7337739994
 30
0.0
 10
4.235182165
 20
1.7195102667
 30
0.0
 10
4.2087832186
 20
1.7050277216
 30
0.0
 10
4.197824064
 20
1.6969780067
 30
0.0
 10
4.1930473628
 20
1.6927638887
 30
0.0
  0
SPLINE
  5
41D
100
AcDbEntity
  8
0
100
AcDbSpline
 62
9
  6
CONTINUOUS
 70
0
 71
3
 72
11
 73
7
 74
0
 42
0.0000001
 43
0.0000001
 44
0.0000000001
 40
0.0
 40
0.0
 40
0.0
 40
0.0
 40
0.2856007838
 40
0.5425274787
 40
0.7773602475
 40
1.0
 40
1.0
 40
1.0
 40
1.0
 10
4.1930473852
 20
1.6927637457
 30
0.0
 10
4.1895334791
 20
1.6896637
 30
0.0
 10
4.1832336031
 20
1.6833164696
 30
0.0
 10
4.1759160543
 20
1.6727730102
 30
0.0
 10
4.1714133299
 20
1.6618383222
 30
0.0
 10
4.170384277
 20
1.6542996399
 30
0.0
 10
4.170384277
 20
1.6506467387
 30
0.0
  0
SPLINE
  5
41E
100
AcDbEntity
  8
0
100
AcDbSpline
 62
9
  6
CONTINUOUS
 70
0
 71
3
 72
10
 73
6
 74
0
 42
0.0000001
 43
0.0000001
 44
0.0000000001
 40
0.0
 40
0.0
 40
0.0
 40
0.0
 40
0.5777263837
 40
0.8161391249
 40
1.0
 40
1.0
 40
1.0
 40
1.0
 10
4.170384277
 20
1.6506467387
 30
0.0
 10
4.1699541075
 20
1.6758620379
 30
0.0
 10
4.1693248281
 20
1.7114830224
 30
0.0
 10
4.1682710981
 20
1.7551223631
 30
0.0
 10
4.1676859445
 20
1.7735468669
 30
0.0
 10
4.1673500406
 20
1.7815657475
 30
0.0
  0
LINE
  5
41F
100
AcDbEntity
  8
0
100
AcDbLine
 62
9
  6
CONTINUOUS
 10
4.1673500406
 20
1.7815657475
 11
4.1673162051
 21
1.7823659053
  0
SPLINE
  5
420
100
AcDbEntity
  8
0
100
AcDbSpline
 62
9
  6
CONTINUOUS
 70
0
 71
3
 72
9
 73
5
 74
0
 42
0.0000001
 43
0.0000001
 44
0.0000000001
 40
0.0
 40
0.0
 40
0.0
 40
0.0
 40
0.6020821427
 40
1.0
 40
1.0
 40
1.0
 40
1.0
 10
4.1673162051
 20
1.7823659053
 30
0.0
 10
4.1671570854
 20
1.7860932142
 30
0.0
 10
4.1668564188
 20
1.7922816244
 30
0.0
 10
4.1664314988
 20
1.798466195
 30
0.0
 10
4.1661660957
 20
1.8009175023
 30
0.0
  0
LINE
  5
421
100
AcDbEntity
  8
0
100
AcDbLine
 62
9
  6
CONTINUOUS
 10
4.1661660958
 20
1.8009174942
 11
4.1657799016
 21
1.8036742188
  0
LINE
  5
422
100
AcDbEntity
  8
0
100
AcDbLine
 62
9
  6
CONTINUOUS
 10
4.1722479108
 20
1.5303206903
 11
4.1720969147
 21
1.5410515205
  0
LINE
  5
423
100
AcDbEntity
  8
0
100
AcDbLine
 62
9
  6
CONTINUOUS
 10
4.1720969147
 20
1.5410515205
 11
4.1719548326
 21
1.5509627418
  0
LINE
  5
424
100
AcDbEntity
  8
0
100
AcDbLine
 62
9
  6
CONTINUOUS
 10
4.1719548326
 20
1.5509627418
 11
4.1719038759
 21
1.5544751219
  0
LINE
  5
425
100
AcDbEntity
  8
0
100
AcDbLine
 62
9
  6
CONTINUOUS
 10
4.1703962673
 20
1.6499440415
 11
4.170384277
 21
1.6506472631
  0
SPLINE
  5
426
100
AcDbEntity
  8
0
100
AcDbSpline
 62
9
  6
CONTINUOUS
 70
0
 71
3
 72
15
 73
11
 74
0
 42
0.0000001
 43
0.0000001
 44
0.0000000001
 40
0.0
 40
0.0
 40
0.0
 40
0.0
 40
0.1222617028
 40
0.2449466237
 40
0.3684097328
 40
0.4928822629
 40
0.6184382371
 40
0.7449869397
 40
0.8722902139
 40
1.0
 40
1.0
 40
1.0
 40
1.0
 10
4.6151612964
 20
1.8157537716
 30
0.0
 10
4.6151612964
 20
1.8299095456
 30
0.0
 10
4.6122306399
 20
1.8583554328
 30
0.0
 10
4.5992249322
 20
1.8992765204
 30
0.0
 10
4.5781218635
 20
1.9369775693
 30
0.0
 10
4.5497499668
 20
1.9699863027
 30
0.0
 10
4.5152152186
 20
1.9970502262
 30
0.0
 10
4.4758455646
 20
2.0171428682
 30
0.0
 10
4.4331712691
 20
2.0295081227
 30
0.0
 10
4.4035699108
 20
2.0322892046
 30
0.0
 10
4.3887833437
 20
2.0322892046
 30
0.0
  0
SPLINE
  5
427
100
AcDbEntity
  8
0
100
AcDbSpline
 62
9
  6
CONTINUOUS
 70
0
 71
3
 72
15
 73
11
 74
0
 42
0.0000001
 43
0.0000001
 44
0.0000000001
 40
0.0
 40
0.0
 40
0.0
 40
0.0
 40
0.1277097861
 40
0.2550130603
 40
0.3815617629
 40
0.5071177371
 40
0.6315902672
 40
0.7550533763
 40
0.8777382972
 40
1.0
 40
1.0
 40
1.0
 40
1.0
 10
4.3887833437
 20
2.0322892046
 30
0.0
 10
4.3739967766
 20
2.0322892046
 30
0.0
 10
4.3443954183
 20
2.0295081227
 30
0.0
 10
4.3017211227
 20
2.0171428682
 30
0.0
 10
4.2623514687
 20
1.9970502262
 30
0.0
 10
4.2278167206
 20
1.9699863027
 30
0.0
 10
4.1994448239
 20
1.9369775693
 30
0.0
 10
4.1783417552
 20
1.8992765204
 30
0.0
 10
4.1653360475
 20
1.8583554328
 30
0.0
 10
4.1624053909
 20
1.8299095456
 30
0.0
 10
4.1624053909
 20
1.8157537716
 30
0.0
  0
SPLINE
  5
428
100
AcDbEntity
  8
0
100
AcDbSpline
 62
9
  6
CONTINUOUS
 70
0
 71
3
 72
13
 73
9
 74
0
 42
0.0000001
 43
0.0000001
 44
0.0000000001
 40
0.0
 40
0.0
 40
0.0
 40
0.0
 40
0.0937600475
 40
0.1908922252
 40
0.297249601
 40
0.415144534
 40
0.6859274551
 40
1.0
 40
1.0
 40
1.0
 40
1.0
 10
4.1624053909
 20
1.8157537716
 30
0.0
 10
4.1611240416
 20
1.816646307
 30
0.0
 10
4.158219004
 20
1.8180664778
 30
0.0
 10
4.1533156971
 20
1.8189860067
 30
0.0
 10
4.1479476693
 20
1.8190347324
 30
0.0
 10
4.1397313494
 20
1.8182843765
 30
0.0
 10
4.1281635594
 20
1.8165145107
 30
0.0
 10
4.1184236287
 20
1.8157537714
 30
0.0
 10
4.1131927897
 20
1.8157537716
 30
0.0
  0
SPLINE
  5
429
100
AcDbEntity
  8
0
100
AcDbSpline
 62
7
  6
CONTINUOUS
 70
0
 71
3
 72
13
 73
9
 74
0
 42
0.0000001
 43
0.0000001
 44
0.0000000001
 40
0.0
 40
0.0
 40
0.0
 40
0.0
 40
0.287055441
 40
0.5535698825
 40
0.6755014035
 40
0.7893308545
 40
0.8965439801
 40
1.0
 40
1.0
 40
1.0
 40
1.0
 10
4.3887833437
 20
5.7110779893
 30
0.0
 10
4.3802248411
 20
5.7110779893
 30
0.0
 10
4.3636360471
 20
5.7088494909
 30
0.0
 10
4.3449254702
 20
5.7003892788
 30
0.0
 10
4.3334413124
 20
5.690635796
 30
0.0
 10
4.3271582384
 20
5.6824543042
 30
0.0
 10
4.3232415464
 20
5.6734960175
 30
0.0
 10
4.3223466977
 20
5.6671828798
 30
0.0
 10
4.3223468329
 20
5.6640983585
 30
0.0
  0
SPLINE
  5
42A
100
AcDbEntity
  8
0
100
AcDbSpline
 62
7
  6
CONTINUOUS
 70
0
 71
3
 72
15
 73
11
 74
0
 42
0.0000001
 43
0.0000001
 44
0.0000000001
 40
0.0
 40
0.0
 40
0.0
 40
0.0
 40
0.104740222
 40
0.2223288362
 40
0.3559991838
 40
0.4999812765
 40
0.6439632335
 40
0.7776452584
 40
0.8952531632
 40
1.0
 40
1.0
 40
1.0
 40
1.0
 10
4.6916678825
 20
5.5817225721
 30
0.0
 10
4.6916678825
 20
5.5821837195
 30
0.0
 10
4.6913683029
 20
5.5831741709
 30
0.0
 10
4.6902218695
 20
5.5843083072
 30
0.0
 10
4.6886099411
 20
5.5850365521
 30
0.0
 10
4.686746881
 20
5.5852882713
 30
0.0
 10
4.6848837592
 20
5.5850366664
 30
0.0
 10
4.683271638
 20
5.5843085097
 30
0.0
 10
4.6821250162
 20
5.5831743088
 30
0.0
 10
4.6818253628
 20
5.5821837486
 30
0.0
 10
4.6818253628
 20
5.5817225721
 30
0.0
  0
SPLINE
  5
42B
100
AcDbEntity
  8
0
100
AcDbSpline
 62
7
  6
CONTINUOUS
 70
0
 71
3
 72
15
 73
11
 74
0
 42
0.0000001
 43
0.0000001
 44
0.0000000001
 40
0.0
 40
0.0
 40
0.0
 40
0.0
 40
0.1066324112
 40
0.2263857449
 40
0.3592697633
 40
0.4999964247
 40
0.6407211414
 40
0.7736053998
 40
0.8933630445
 40
1.0
 40
1.0
 40
1.0
 40
1.0
 10
4.6988096579
 20
5.5800147598
 30
0.0
 10
4.6985229129
 20
5.5790008159
 30
0.0
 10
4.6973665402
 20
5.576989804
 30
0.0
 10
4.6945201369
 20
5.5747662589
 30
0.0
 10
4.6908513168
 20
5.5733448156
 30
0.0
 10
4.6867460835
 20
5.5728574619
 30
0.0
 10
4.6826408746
 20
5.5733450861
 30
0.0
 10
4.6789721482
 20
5.5747668393
 30
0.0
 10
4.6761258548
 20
5.5769907099
 30
0.0
 10
4.6749697801
 20
5.5790020306
 30
0.0
 10
4.6746832269
 20
5.5800160754
 30
0.0
  0
SPLINE
  5
42C
100
AcDbEntity
  8
0
100
AcDbSpline
 62
7
  6
CONTINUOUS
 70
0
 71
3
 72
15
 73
11
 74
0
 42
0.0000001
 43
0.0000001
 44
0.0000000001
 40
0.0
 40
0.0
 40
0.0
 40
0.0
 40
0.104740222
 40
0.2223288362
 40
0.3559991838
 40
0.4999812765
 40
0.6439632335
 40
0.7776452584
 40
0.8952531632
 40
1.0
 40
1.0
 40
1.0
 40
1.0
 10
4.6471673076
 20
5.5199657781
 30
0.0
 10
4.6471673076
 20
5.5204269254
 30
0.0
 10
4.646867728
 20
5.5214173768
 30
0.0
 10
4.6457212946
 20
5.5225515132
 30
0.0
 10
4.6441093663
 20
5.523279758
 30
0.0
 10
4.6422463061
 20
5.5235314772
 30
0.0
 10
4.6403831843
 20
5.5232798724
 30
0.0
 10
4.6387710631
 20
5.5225517156
 30
0.0
 10
4.6376244413
 20
5.5214175147
 30
0.0
 10
4.637324788
 20
5.5204269545
 30
0.0
 10
4.637324788
 20
5.5199657781
 30
0.0
  0
SPLINE
  5
42D
100
AcDbEntity
  8
0
100
AcDbSpline
 62
7
  6
CONTINUOUS
 70
0
 71
3
 72
15
 73
11
 74
0
 42
0.0000001
 43
0.0000001
 44
0.0000000001
 40
0.0
 40
0.0
 40
0.0
 40
0.0
 40
0.1066324112
 40
0.2263857449
 40
0.3592697633
 40
0.4999964247
 40
0.6407211414
 40
0.7736053998
 40
0.8933630445
 40
1.0
 40
1.0
 40
1.0
 40
1.0
 10
4.654309083
 20
5.5182579658
 30
0.0
 10
4.6540223381
 20
5.5172440219
 30
0.0
 10
4.6528659653
 20
5.5152330099
 30
0.0
 10
4.650019562
 20
5.5130094649
 30
0.0
 10
4.646350742
 20
5.5115880216
 30
0.0
 10
4.6422455087
 20
5.5111006678
 30
0.0
 10
4.6381402997
 20
5.5115882921
 30
0.0
 10
4.6344715733
 20
5.5130100452
 30
0.0
 10
4.6316252799
 20
5.5152339159
 30
0.0
 10
4.6304692052
 20
5.5172452365
 30
0.0
 10
4.6301826521
 20
5.5182592813
 30
0.0
  0
SPLINE
  5
42E
100
AcDbEntity
  8
0
100
AcDbSpline
 62
7
  6
CONTINUOUS
 70
0
 71
3
 72
15
 73
11
 74
0
 42
0.0000001
 43
0.0000001
 44
0.0000000001
 40
0.0
 40
0.0
 40
0.0
 40
0.0
 40
0.104740222
 40
0.2223288362
 40
0.3559991838
 40
0.4999812765
 40
0.6439632335
 40
0.7776452584
 40
0.8952531632
 40
1.0
 40
1.0
 40
1.0
 40
1.0
 10
4.5778560373
 20
5.4709553088
 30
0.0
 10
4.5778560373
 20
5.4714164562
 30
0.0
 10
4.5775564577
 20
5.4724069076
 30
0.0
 10
4.5764100243
 20
5.4735410439
 30
0.0
 10
4.574798096
 20
5.4742692888
 30
0.0
 10
4.5729350358
 20
5.474521008
 30
0.0
 10
4.571071914
 20
5.4742694031
 30
0.0
 10
4.5694597928
 20
5.4735412464
 30
0.0
 10
4.568313171
 20
5.4724070455
 30
0.0
 10
4.5680135176
 20
5.4714164853
 30
0.0
 10
4.5680135176
 20
5.4709553088
 30
0.0
  0
SPLINE
  5
42F
100
AcDbEntity
  8
0
100
AcDbSpline
 62
7
  6
CONTINUOUS
 70
0
 71
3
 72
15
 73
11
 74
0
 42
0.0000001
 43
0.0000001
 44
0.0000000001
 40
0.0
 40
0.0
 40
0.0
 40
0.0
 40
0.1066324112
 40
0.2263857449
 40
0.3592697633
 40
0.4999964247
 40
0.6407211414
 40
0.7736053998
 40
0.8933630445
 40
1.0
 40
1.0
 40
1.0
 40
1.0
 10
4.5849978127
 20
5.4692474965
 30
0.0
 10
4.5847110678
 20
5.4682335526
 30
0.0
 10
4.583554695
 20
5.4662225407
 30
0.0
 10
4.5807082917
 20
5.4639989956
 30
0.0
 10
4.5770394716
 20
5.4625775523
 30
0.0
 10
4.5729342384
 20
5.4620901986
 30
0.0
 10
4.5688290294
 20
5.4625778228
 30
0.0
 10
4.565160303
 20
5.463999576
 30
0.0
 10
4.5623140096
 20
5.4662234466
 30
0.0
 10
4.5611579349
 20
5.4682347673
 30
0.0
 10
4.5608713818
 20
5.4692488121
 30
0.0
  0
SPLINE
  5
430
100
AcDbEntity
  8
0
100
AcDbSpline
 62
7
  6
CONTINUOUS
 70
0
 71
3
 72
15
 73
11
 74
0
 42
0.0000001
 43
0.0000001
 44
0.0000000001
 40
0.0
 40
0.0
 40
0.0
 40
0.0
 40
0.104740222
 40
0.2223288362
 40
0.3559991838
 40
0.4999812765
 40
0.6439632335
 40
0.7776452584
 40
0.8952531632
 40
1.0
 40
1.0
 40
1.0
 40
1.0
 10
4.4905187416
 20
5.4394886506
 30
0.0
 10
4.4905187416
 20
5.4399497979
 30
0.0
 10
4.490219162
 20
5.4409402493
 30
0.0
 10
4.4890727286
 20
5.4420743857
 30
0.0
 10
4.4874608002
 20
5.4428026305
 30
0.0
 10
4.4855977401
 20
5.4430543497
 30
0.0
 10
4.4837346183
 20
5.4428027449
 30
0.0
 10
4.4821224971
 20
5.4420745881
 30
0.0
 10
4.4809758753
 20
5.4409403872
 30
0.0
 10
4.4806762219
 20
5.439949827
 30
0.0
 10
4.4806762219
 20
5.4394886506
 30
0.0
  0
SPLINE
  5
431
100
AcDbEntity
  8
0
100
AcDbSpline
 62
7
  6
CONTINUOUS
 70
0
 71
3
 72
13
 73
9
 74
0
 42
0.0000001
 43
0.0000001
 44
0.0000000001
 40
0.0
 40
0.0
 40
0.0
 40
0.0
 40
0.2870558734
 40
0.553569801
 40
0.6755009466
 40
0.7893303038
 40
0.8965436271
 40
1.0
 40
1.0
 40
1.0
 40
1.0
 10
4.3887833437
 20
5.6188617998
 30
0.0
 10
4.3805418104
 20
5.6188617998
 30
0.0
 10
4.3645674176
 20
5.6210077641
 30
0.0
 10
4.3465498418
 20
5.6291546334
 30
0.0
 10
4.3354910383
 20
5.6385468491
 30
0.0
 10
4.3294406695
 20
5.6464253114
 30
0.0
 10
4.3256690253
 20
5.6550518182
 30
0.0
 10
4.3248073169
 20
5.6611311521
 30
0.0
 10
4.3248074459
 20
5.664101442
 30
0.0
  0
SPLINE
  5
432
100
AcDbEntity
  8
0
100
AcDbSpline
 62
7
  6
CONTINUOUS
 70
0
 71
3
 72
15
 73
11
 74
0
 42
0.0000001
 43
0.0000001
 44
0.0000000001
 40
0.0
 40
0.0
 40
0.0
 40
0.0
 40
0.1066324112
 40
0.2263857449
 40
0.3592697633
 40
0.4999964247
 40
0.6407211414
 40
0.7736053998
 40
0.8933630445
 40
1.0
 40
1.0
 40
1.0
 40
1.0
 10
4.497660517
 20
5.4377808383
 30
0.0
 10
4.497373772
 20
5.4367668944
 30
0.0
 10
4.4962173993
 20
5.4347558824
 30
0.0
 10
4.493370996
 20
5.4325323374
 30
0.0
 10
4.4897021759
 20
5.4311108941
 30
0.0
 10
4.4855969427
 20
5.4306235403
 30
0.0
 10
4.4814917337
 20
5.4311111646
 30
0.0
 10
4.4778230073
 20
5.4325329177
 30
0.0
 10
4.4749767139
 20
5.4347567884
 30
0.0
 10
4.4738206392
 20
5.436768109
 30
0.0
 10
4.473534086
 20
5.4377821538
 30
0.0
  0
SPLINE
  5
433
100
AcDbEntity
  8
0
100
AcDbSpline
 62
7
  6
CONTINUOUS
 70
0
 71
3
 72
15
 73
11
 74
0
 42
0.0000001
 43
0.0000001
 44
0.0000000001
 40
0.0
 40
0.0
 40
0.0
 40
0.0
 40
0.104740222
 40
0.2223288362
 40
0.3559991838
 40
0.4999812765
 40
0.6439632335
 40
0.7776452584
 40
0.8952531632
 40
1.0
 40
1.0
 40
1.0
 40
1.0
 10
4.3937046035
 20
5.4286459791
 30
0.0
 10
4.3937046035
 20
5.4291071264
 30
0.0
 10
4.3934050239
 20
5.4300975778
 30
0.0
 10
4.3922585905
 20
5.4312317142
 30
0.0
 10
4.3906466621
 20
5.431959959
 30
0.0
 10
4.388783602
 20
5.4322116782
 30
0.0
 10
4.3869204802
 20
5.4319600734
 30
0.0
 10
4.385308359
 20
5.4312319166
 30
0.0
 10
4.3841617372
 20
5.4300977157
 30
0.0
 10
4.3838620838
 20
5.4291071555
 30
0.0
 10
4.3838620838
 20
5.4286459791
 30
0.0
  0
SPLINE
  5
434
100
AcDbEntity
  8
0
100
AcDbSpline
 62
7
  6
CONTINUOUS
 70
0
 71
3
 72
15
 73
11
 74
0
 42
0.0000001
 43
0.0000001
 44
0.0000000001
 40
0.0
 40
0.0
 40
0.0
 40
0.0
 40
0.1066324112
 40
0.2263857449
 40
0.3592697633
 40
0.4999964247
 40
0.6407211414
 40
0.7736053998
 40
0.8933630445
 40
1.0
 40
1.0
 40
1.0
 40
1.0
 10
4.4008463789
 20
5.4269381668
 30
0.0
 10
4.4005596339
 20
5.4259242229
 30
0.0
 10
4.3994032612
 20
5.423913211
 30
0.0
 10
4.3965568579
 20
5.4216896659
 30
0.0
 10
4.3928880378
 20
5.4202682226
 30
0.0
 10
4.3887828046
 20
5.4197808688
 30
0.0
 10
4.3846775956
 20
5.4202684931
 30
0.0
 10
4.3810088692
 20
5.4216902462
 30
0.0
 10
4.3781625758
 20
5.4239141169
 30
0.0
 10
4.3770065011
 20
5.4259254375
 30
0.0
 10
4.3767199479
 20
5.4269394823
 30
0.0
  0
SPLINE
  5
435
100
AcDbEntity
  8
0
100
AcDbSpline
 62
7
  6
CONTINUOUS
 70
0
 71
3
 72
15
 73
11
 74
0
 42
0.0000001
 43
0.0000001
 44
0.0000000001
 40
0.0
 40
0.0
 40
0.0
 40
0.0
 40
0.104740222
 40
0.2223288362
 40
0.3559991838
 40
0.4999812765
 40
0.6439632335
 40
0.7776452584
 40
0.8952531632
 40
1.0
 40
1.0
 40
1.0
 40
1.0
 10
4.2968904654
 20
5.4394886506
 30
0.0
 10
4.2968904654
 20
5.4399497979
 30
0.0
 10
4.2965908858
 20
5.4409402493
 30
0.0
 10
4.2954444524
 20
5.4420743857
 30
0.0
 10
4.293832524
 20
5.4428026305
 30
0.0
 10
4.2919694639
 20
5.4430543497
 30
0.0
 10
4.2901063421
 20
5.4428027449
 30
0.0
 10
4.2884942209
 20
5.4420745881
 30
0.0
 10
4.2873475991
 20
5.4409403872
 30
0.0
 10
4.2870479457
 20
5.439949827
 30
0.0
 10
4.2870479457
 20
5.4394886506
 30
0.0
  0
SPLINE
  5
436
100
AcDbEntity
  8
0
100
AcDbSpline
 62
7
  6
CONTINUOUS
 70
0
 71
3
 72
15
 73
11
 74
0
 42
0.0000001
 43
0.0000001
 44
0.0000000001
 40
0.0
 40
0.0
 40
0.0
 40
0.0
 40
0.1066324112
 40
0.2263857449
 40
0.3592697633
 40
0.4999964247
 40
0.6407211414
 40
0.7736053998
 40
0.8933630445
 40
1.0
 40
1.0
 40
1.0
 40
1.0
 10
4.3040322408
 20
5.4377808383
 30
0.0
 10
4.3037454958
 20
5.4367668944
 30
0.0
 10
4.3025891231
 20
5.4347558824
 30
0.0
 10
4.2997427198
 20
5.4325323374
 30
0.0
 10
4.2960738997
 20
5.4311108941
 30
0.0
 10
4.2919686665
 20
5.4306235403
 30
0.0
 10
4.2878634575
 20
5.4311111646
 30
0.0
 10
4.2841947311
 20
5.4325329177
 30
0.0
 10
4.2813484377
 20
5.4347567884
 30
0.0
 10
4.280192363
 20
5.436768109
 30
0.0
 10
4.2799058098
 20
5.4377821538
 30
0.0
  0
SPLINE
  5
437
100
AcDbEntity
  8
0
100
AcDbSpline
 62
7
  6
CONTINUOUS
 70
0
 71
3
 72
15
 73
11
 74
0
 42
0.0000001
 43
0.0000001
 44
0.0000000001
 40
0.0
 40
0.0
 40
0.0
 40
0.0
 40
0.104740222
 40
0.2223288362
 40
0.3559991838
 40
0.4999812765
 40
0.6439632335
 40
0.7776452584
 40
0.8952531632
 40
1.0
 40
1.0
 40
1.0
 40
1.0
 10
4.2095531697
 20
5.4709553088
 30
0.0
 10
4.2095531697
 20
5.4714164562
 30
0.0
 10
4.2092535901
 20
5.4724069076
 30
0.0
 10
4.2081071567
 20
5.4735410439
 30
0.0
 10
4.2064952283
 20
5.4742692888
 30
0.0
 10
4.2046321682
 20
5.474521008
 30
0.0
 10
4.2027690464
 20
5.4742694031
 30
0.0
 10
4.2011569252
 20
5.4735412464
 30
0.0
 10
4.2000103034
 20
5.4724070455
 30
0.0
 10
4.19971065
 20
5.4714164853
 30
0.0
 10
4.19971065
 20
5.4709553088
 30
0.0
  0
SPLINE
  5
438
100
AcDbEntity
  8
0
100
AcDbSpline
 62
7
  6
CONTINUOUS
 70
0
 71
3
 72
15
 73
11
 74
0
 42
0.0000001
 43
0.0000001
 44
0.0000000001
 40
0.0
 40
0.0
 40
0.0
 40
0.0
 40
0.1066324112
 40
0.2263857449
 40
0.3592697633
 40
0.4999964247
 40
0.6407211414
 40
0.7736053998
 40
0.8933630445
 40
1.0
 40
1.0
 40
1.0
 40
1.0
 10
4.2166949451
 20
5.4692474965
 30
0.0
 10
4.2164082001
 20
5.4682335526
 30
0.0
 10
4.2152518274
 20
5.4662225407
 30
0.0
 10
4.2124054241
 20
5.4639989956
 30
0.0
 10
4.208736604
 20
5.4625775523
 30
0.0
 10
4.2046313707
 20
5.4620901986
 30
0.0
 10
4.2005261618
 20
5.4625778228
 30
0.0
 10
4.1968574353
 20
5.463999576
 30
0.0
 10
4.194011142
 20
5.4662234466
 30
0.0
 10
4.1928550672
 20
5.4682347673
 30
0.0
 10
4.1925685141
 20
5.4692488121
 30
0.0
  0
SPLINE
  5
439
100
AcDbEntity
  8
0
100
AcDbSpline
 62
7
  6
CONTINUOUS
 70
0
 71
3
 72
15
 73
11
 74
0
 42
0.0000001
 43
0.0000001
 44
0.0000000001
 40
0.0
 40
0.0
 40
0.0
 40
0.0
 40
0.104740222
 40
0.2223288362
 40
0.3559991838
 40
0.4999812765
 40
0.6439632335
 40
0.7776452584
 40
0.8952531632
 40
1.0
 40
1.0
 40
1.0
 40
1.0
 10
4.1402418994
 20
5.5199657781
 30
0.0
 10
4.1402418994
 20
5.5204269254
 30
0.0
 10
4.1399423198
 20
5.5214173768
 30
0.0
 10
4.1387958864
 20
5.5225515132
 30
0.0
 10
4.137183958
 20
5.523279758
 30
0.0
 10
4.1353208979
 20
5.5235314772
 30
0.0
 10
4.1334577761
 20
5.5232798724
 30
0.0
 10
4.1318456548
 20
5.5225517156
 30
0.0
 10
4.130699033
 20
5.5214175147
 30
0.0
 10
4.1303993797
 20
5.5204269545
 30
0.0
 10
4.1303993797
 20
5.5199657781
 30
0.0
  0
SPLINE
  5
43A
100
AcDbEntity
  8
0
100
AcDbSpline
 62
7
  6
CONTINUOUS
 70
0
 71
3
 72
15
 73
11
 74
0
 42
0.0000001
 43
0.0000001
 44
0.0000000001
 40
0.0
 40
0.0
 40
0.0
 40
0.0
 40
0.1066324112
 40
0.2263857449
 40
0.3592697633
 40
0.4999964247
 40
0.6407211414
 40
0.7736053998
 40
0.8933630445
 40
1.0
 40
1.0
 40
1.0
 40
1.0
 10
4.1473836748
 20
5.5182579658
 30
0.0
 10
4.1470969298
 20
5.5172440219
 30
0.0
 10
4.145940557
 20
5.5152330099
 30
0.0
 10
4.1430941538
 20
5.5130094649
 30
0.0
 10
4.1394253337
 20
5.5115880216
 30
0.0
 10
4.1353201004
 20
5.5111006678
 30
0.0
 10
4.1312148915
 20
5.5115882921
 30
0.0
 10
4.127546165
 20
5.5130100452
 30
0.0
 10
4.1246998717
 20
5.5152339159
 30
0.0
 10
4.1235437969
 20
5.5172452365
 30
0.0
 10
4.1232572438
 20
5.5182592813
 30
0.0
  0
SPLINE
  5
43B
100
AcDbEntity
  8
0
100
AcDbSpline
 62
7
  6
CONTINUOUS
 70
0
 71
3
 72
15
 73
11
 74
0
 42
0.0000001
 43
0.0000001
 44
0.0000000001
 40
0.0
 40
0.0
 40
0.0
 40
0.0
 40
0.104740222
 40
0.2223288362
 40
0.3559991838
 40
0.4999812765
 40
0.6439632335
 40
0.7776452584
 40
0.8952531632
 40
1.0
 40
1.0
 40
1.0
 40
1.0
 10
4.0957413245
 20
5.5817225721
 30
0.0
 10
4.0957413245
 20
5.5821837195
 30
0.0
 10
4.0954417449
 20
5.5831741709
 30
0.0
 10
4.0942953115
 20
5.5843083072
 30
0.0
 10
4.0926833832
 20
5.5850365521
 30
0.0
 10
4.090820323
 20
5.5852882713
 30
0.0
 10
4.0889572012
 20
5.5850366664
 30
0.0
 10
4.08734508
 20
5.5843085097
 30
0.0
 10
4.0861984582
 20
5.5831743088
 30
0.0
 10
4.0858988048
 20
5.5821837486
 30
0.0
 10
4.0858988048
 20
5.5817225721
 30
0.0
  0
SPLINE
  5
43C
100
AcDbEntity
  8
0
100
AcDbSpline
 62
7
  6
CONTINUOUS
 70
0
 71
3
 72
15
 73
11
 74
0
 42
0.0000001
 43
0.0000001
 44
0.0000000001
 40
0.0
 40
0.0
 40
0.0
 40
0.0
 40
0.1066324112
 40
0.2263857449
 40
0.3592697633
 40
0.4999964247
 40
0.6407211414
 40
0.7736053998
 40
0.8933630445
 40
1.0
 40
1.0
 40
1.0
 40
1.0
 10
4.1028830999
 20
5.5800147598
 30
0.0
 10
4.1025963549
 20
5.5790008159
 30
0.0
 10
4.1014399822
 20
5.576989804
 30
0.0
 10
4.0985935789
 20
5.5747662589
 30
0.0
 10
4.0949247588
 20
5.5733448156
 30
0.0
 10
4.0908195256
 20
5.5728574619
 30
0.0
 10
4.0867143166
 20
5.5733450861
 30
0.0
 10
4.0830455902
 20
5.5747668393
 30
0.0
 10
4.0801992968
 20
5.5769907099
 30
0.0
 10
4.0790432221
 20
5.5790020306
 30
0.0
 10
4.078756669
 20
5.5800160754
 30
0.0
  0
SPLINE
  5
43D
100
AcDbEntity
  8
0
100
AcDbSpline
 62
7
  6
CONTINUOUS
 70
0
 71
3
 72
15
 73
11
 74
0
 42
0.0000001
 43
0.0000001
 44
0.0000000001
 40
0.0
 40
0.0
 40
0.0
 40
0.0
 40
0.104740222
 40
0.2223288362
 40
0.3559991838
 40
0.4999812765
 40
0.6439632335
 40
0.7776452584
 40
0.8952531632
 40
1.0
 40
1.0
 40
1.0
 40
1.0
 10
4.0804074714
 20
5.6501805057
 30
0.0
 10
4.0804074714
 20
5.650641653
 30
0.0
 10
4.0801078918
 20
5.6516321045
 30
0.0
 10
4.0789614584
 20
5.6527662408
 30
0.0
 10
4.0773495301
 20
5.6534944857
 30
0.0
 10
4.0754864699
 20
5.6537462048
 30
0.0
 10
4.0736233481
 20
5.6534946
 30
0.0
 10
4.0720112269
 20
5.6527664432
 30
0.0
 10
4.0708646051
 20
5.6516322423
 30
0.0
 10
4.0705649518
 20
5.6506416821
 30
0.0
 10
4.0705649518
 20
5.6501805057
 30
0.0
  0
SPLINE
  5
43E
100
AcDbEntity
  8
0
100
AcDbSpline
 62
7
  6
CONTINUOUS
 70
0
 71
3
 72
15
 73
11
 74
0
 42
0.0000001
 43
0.0000001
 44
0.0000000001
 40
0.0
 40
0.0
 40
0.0
 40
0.0
 40
0.1066323276
 40
0.2263871866
 40
0.3592742288
 40
0.5000037989
 40
0.6407296171
 40
0.7736190314
 40
0.893380187
 40
1.0
 40
1.0
 40
1.0
 40
1.0
 10
4.0875491083
 20
5.6484721889
 30
0.0
 10
4.0872622652
 20
5.6474581969
 30
0.0
 10
4.0861056238
 20
5.6454471334
 30
0.0
 10
4.0832588108
 20
5.6432236334
 30
0.0
 10
4.0795895365
 20
5.6418023804
 30
0.0
 10
4.0754838986
 20
5.6413153701
 30
0.0
 10
4.0713783511
 20
5.6418034938
 30
0.0
 10
4.0677094994
 20
5.6432259941
 30
0.0
 10
4.0648635308
 20
5.6454506415
 30
0.0
 10
4.0637081816
 20
5.6474624478
 30
0.0
 10
4.0634220718
 20
5.6484765184
 30
0.0
  0
SPLINE
  5
43F
100
AcDbEntity
  8
0
100
AcDbSpline
 62
7
  6
CONTINUOUS
 70
0
 71
3
 72
15
 73
11
 74
0
 42
0.0000001
 43
0.0000001
 44
0.0000000001
 40
0.0
 40
0.0
 40
0.0
 40
0.0
 40
0.104740222
 40
0.2223288362
 40
0.3559991838
 40
0.4999812765
 40
0.6439632335
 40
0.7776452584
 40
0.8952531632
 40
1.0
 40
1.0
 40
1.0
 40
1.0
 10
4.0957413245
 20
5.7186384392
 30
0.0
 10
4.0957413245
 20
5.7190995866
 30
0.0
 10
4.0954417449
 20
5.720090038
 30
0.0
 10
4.0942953115
 20
5.7212241744
 30
0.0
 10
4.0926833832
 20
5.7219524192
 30
0.0
 10
4.090820323
 20
5.7222041384
 30
0.0
 10
4.0889572012
 20
5.7219525336
 30
0.0
 10
4.08734508
 20
5.7212243768
 30
0.0
 10
4.0861984582
 20
5.7200901759
 30
0.0
 10
4.0858988048
 20
5.7190996157
 30
0.0
 10
4.0858988048
 20
5.7186384392
 30
0.0
  0
SPLINE
  5
440
100
AcDbEntity
  8
0
100
AcDbSpline
 62
7
  6
CONTINUOUS
 70
0
 71
3
 72
15
 73
11
 74
0
 42
0.0000001
 43
0.0000001
 44
0.0000000001
 40
0.0
 40
0.0
 40
0.0
 40
0.0
 40
0.1066324112
 40
0.2263857449
 40
0.3592697633
 40
0.4999964247
 40
0.6407211414
 40
0.7736053998
 40
0.8933630445
 40
1.0
 40
1.0
 40
1.0
 40
1.0
 10
4.1028830999
 20
5.716930627
 30
0.0
 10
4.1025963549
 20
5.7159166831
 30
0.0
 10
4.1014399822
 20
5.7139056711
 30
0.0
 10
4.0985935789
 20
5.7116821261
 30
0.0
 10
4.0949247588
 20
5.7102606827
 30
0.0
 10
4.0908195256
 20
5.709773329
 30
0.0
 10
4.0867143166
 20
5.7102609532
 30
0.0
 10
4.0830455902
 20
5.7116827064
 30
0.0
 10
4.0801992968
 20
5.713906577
 30
0.0
 10
4.0790432221
 20
5.7159178977
 30
0.0
 10
4.078756669
 20
5.7169319425
 30
0.0
  0
SPLINE
  5
441
100
AcDbEntity
  8
0
100
AcDbSpline
 62
7
  6
CONTINUOUS
 70
0
 71
3
 72
15
 73
11
 74
0
 42
0.0000001
 43
0.0000001
 44
0.0000000001
 40
0.0
 40
0.0
 40
0.0
 40
0.0
 40
0.104740222
 40
0.2223288362
 40
0.3559991838
 40
0.4999812765
 40
0.6439632335
 40
0.7776452584
 40
0.8952531632
 40
1.0
 40
1.0
 40
1.0
 40
1.0
 10
4.1402418994
 20
5.7803952333
 30
0.0
 10
4.1402418994
 20
5.7808563806
 30
0.0
 10
4.1399423198
 20
5.7818468321
 30
0.0
 10
4.1387958864
 20
5.7829809684
 30
0.0
 10
4.137183958
 20
5.7837092133
 30
0.0
 10
4.1353208979
 20
5.7839609325
 30
0.0
 10
4.1334577761
 20
5.7837093276
 30
0.0
 10
4.1318456548
 20
5.7829811709
 30
0.0
 10
4.130699033
 20
5.7818469699
 30
0.0
 10
4.1303993797
 20
5.7808564098
 30
0.0
 10
4.1303993797
 20
5.7803952333
 30
0.0
  0
SPLINE
  5
442
100
AcDbEntity
  8
0
100
AcDbSpline
 62
7
  6
CONTINUOUS
 70
0
 71
3
 72
15
 73
11
 74
0
 42
0.0000001
 43
0.0000001
 44
0.0000000001
 40
0.0
 40
0.0
 40
0.0
 40
0.0
 40
0.1066324112
 40
0.2263857449
 40
0.3592697633
 40
0.4999964247
 40
0.6407211414
 40
0.7736053998
 40
0.8933630445
 40
1.0
 40
1.0
 40
1.0
 40
1.0
 10
4.1473836748
 20
5.778687421
 30
0.0
 10
4.1470969298
 20
5.7776734771
 30
0.0
 10
4.145940557
 20
5.7756624652
 30
0.0
 10
4.1430941538
 20
5.7734389201
 30
0.0
 10
4.1394253337
 20
5.7720174768
 30
0.0
 10
4.1353201004
 20
5.7715301231
 30
0.0
 10
4.1312148915
 20
5.7720177473
 30
0.0
 10
4.127546165
 20
5.7734395005
 30
0.0
 10
4.1246998717
 20
5.7756633711
 30
0.0
 10
4.1235437969
 20
5.7776746918
 30
0.0
 10
4.1232572438
 20
5.7786887365
 30
0.0
  0
SPLINE
  5
443
100
AcDbEntity
  8
0
100
AcDbSpline
 62
7
  6
CONTINUOUS
 70
0
 71
3
 72
15
 73
11
 74
0
 42
0.0000001
 43
0.0000001
 44
0.0000000001
 40
0.0
 40
0.0
 40
0.0
 40
0.0
 40
0.104740222
 40
0.2223288362
 40
0.3559991838
 40
0.4999812765
 40
0.6439632335
 40
0.7776452584
 40
0.8952531632
 40
1.0
 40
1.0
 40
1.0
 40
1.0
 10
4.2095531697
 20
5.8294057026
 30
0.0
 10
4.2095531697
 20
5.8298668499
 30
0.0
 10
4.2092535901
 20
5.8308573013
 30
0.0
 10
4.2081071567
 20
5.8319914377
 30
0.0
 10
4.2064952283
 20
5.8327196825
 30
0.0
 10
4.2046321682
 20
5.8329714017
 30
0.0
 10
4.2027690464
 20
5.8327197969
 30
0.0
 10
4.2011569252
 20
5.8319916401
 30
0.0
 10
4.2000103034
 20
5.8308574392
 30
0.0
 10
4.19971065
 20
5.829866879
 30
0.0
 10
4.19971065
 20
5.8294057026
 30
0.0
  0
SPLINE
  5
444
100
AcDbEntity
  8
0
100
AcDbSpline
 62
7
  6
CONTINUOUS
 70
0
 71
3
 72
15
 73
11
 74
0
 42
0.0000001
 43
0.0000001
 44
0.0000000001
 40
0.0
 40
0.0
 40
0.0
 40
0.0
 40
0.1066324112
 40
0.2263857449
 40
0.3592697633
 40
0.4999964247
 40
0.6407211414
 40
0.7736053998
 40
0.8933630445
 40
1.0
 40
1.0
 40
1.0
 40
1.0
 10
4.2166949451
 20
5.8276978903
 30
0.0
 10
4.2164082001
 20
5.8266839464
 30
0.0
 10
4.2152518274
 20
5.8246729344
 30
0.0
 10
4.2124054241
 20
5.8224493894
 30
0.0
 10
4.208736604
 20
5.8210279461
 30
0.0
 10
4.2046313707
 20
5.8205405923
 30
0.0
 10
4.2005261618
 20
5.8210282166
 30
0.0
 10
4.1968574353
 20
5.8224499697
 30
0.0
 10
4.194011142
 20
5.8246738404
 30
0.0
 10
4.1928550672
 20
5.826685161
 30
0.0
 10
4.1925685141
 20
5.8276992058
 30
0.0
  0
SPLINE
  5
445
100
AcDbEntity
  8
0
100
AcDbSpline
 62
7
  6
CONTINUOUS
 70
0
 71
3
 72
15
 73
11
 74
0
 42
0.0000001
 43
0.0000001
 44
0.0000000001
 40
0.0
 40
0.0
 40
0.0
 40
0.0
 40
0.104740222
 40
0.2223288362
 40
0.3559991838
 40
0.4999812765
 40
0.6439632335
 40
0.7776452584
 40
0.8952531632
 40
1.0
 40
1.0
 40
1.0
 40
1.0
 10
4.2968904654
 20
5.8608723608
 30
0.0
 10
4.2968904654
 20
5.8613335081
 30
0.0
 10
4.2965908858
 20
5.8623239596
 30
0.0
 10
4.2954444524
 20
5.8634580959
 30
0.0
 10
4.293832524
 20
5.8641863408
 30
0.0
 10
4.2919694639
 20
5.86443806
 30
0.0
 10
4.2901063421
 20
5.8641864551
 30
0.0
 10
4.2884942209
 20
5.8634582984
 30
0.0
 10
4.2873475991
 20
5.8623240974
 30
0.0
 10
4.2870479457
 20
5.8613335373
 30
0.0
 10
4.2870479457
 20
5.8608723608
 30
0.0
  0
SPLINE
  5
446
100
AcDbEntity
  8
0
100
AcDbSpline
 62
7
  6
CONTINUOUS
 70
0
 71
3
 72
15
 73
11
 74
0
 42
0.0000001
 43
0.0000001
 44
0.0000000001
 40
0.0
 40
0.0
 40
0.0
 40
0.0
 40
0.1066324112
 40
0.2263857449
 40
0.3592697633
 40
0.4999964247
 40
0.6407211414
 40
0.7736053998
 40
0.8933630445
 40
1.0
 40
1.0
 40
1.0
 40
1.0
 10
4.3040322408
 20
5.8591645485
 30
0.0
 10
4.3037454958
 20
5.8581506046
 30
0.0
 10
4.3025891231
 20
5.8561395927
 30
0.0
 10
4.2997427198
 20
5.8539160476
 30
0.0
 10
4.2960738997
 20
5.8524946043
 30
0.0
 10
4.2919686665
 20
5.8520072506
 30
0.0
 10
4.2878634575
 20
5.8524948748
 30
0.0
 10
4.2841947311
 20
5.853916628
 30
0.0
 10
4.2813484377
 20
5.8561404986
 30
0.0
 10
4.280192363
 20
5.8581518193
 30
0.0
 10
4.2799058098
 20
5.859165864
 30
0.0
  0
SPLINE
  5
447
100
AcDbEntity
  8
0
100
AcDbSpline
 62
7
  6
CONTINUOUS
 70
0
 71
3
 72
15
 73
11
 74
0
 42
0.0000001
 43
0.0000001
 44
0.0000000001
 40
0.0
 40
0.0
 40
0.0
 40
0.0
 40
0.104740222
 40
0.2223288362
 40
0.3559991838
 40
0.4999812765
 40
0.6439632335
 40
0.7776452584
 40
0.8952531632
 40
1.0
 40
1.0
 40
1.0
 40
1.0
 10
4.3937046035
 20
5.8717150323
 30
0.0
 10
4.3937046035
 20
5.8721761796
 30
0.0
 10
4.3934050239
 20
5.8731666311
 30
0.0
 10
4.3922585905
 20
5.8743007674
 30
0.0
 10
4.3906466621
 20
5.8750290123
 30
0.0
 10
4.388783602
 20
5.8752807314
 30
0.0
 10
4.3869204802
 20
5.8750291266
 30
0.0
 10
4.385308359
 20
5.8743009699
 30
0.0
 10
4.3841617372
 20
5.8731667689
 30
0.0
 10
4.3838620838
 20
5.8721762088
 30
0.0
 10
4.3838620838
 20
5.8717150323
 30
0.0
  0
SPLINE
  5
448
100
AcDbEntity
  8
0
100
AcDbSpline
 62
7
  6
CONTINUOUS
 70
0
 71
3
 72
15
 73
11
 74
0
 42
0.0000001
 43
0.0000001
 44
0.0000000001
 40
0.0
 40
0.0
 40
0.0
 40
0.0
 40
0.1066324112
 40
0.2263857449
 40
0.3592697633
 40
0.4999964247
 40
0.6407211414
 40
0.7736053998
 40
0.8933630445
 40
1.0
 40
1.0
 40
1.0
 40
1.0
 10
4.4008463789
 20
5.87000722
 30
0.0
 10
4.4005596339
 20
5.8689932761
 30
0.0
 10
4.3994032612
 20
5.8669822642
 30
0.0
 10
4.3965568579
 20
5.8647587191
 30
0.0
 10
4.3928880378
 20
5.8633372758
 30
0.0
 10
4.3887828046
 20
5.8628499221
 30
0.0
 10
4.3846775956
 20
5.8633375463
 30
0.0
 10
4.3810088692
 20
5.8647592995
 30
0.0
 10
4.3781625758
 20
5.8669831701
 30
0.0
 10
4.3770065011
 20
5.8689944908
 30
0.0
 10
4.3767199479
 20
5.8700085355
 30
0.0
  0
SPLINE
  5
449
100
AcDbEntity
  8
0
100
AcDbSpline
 62
7
  6
CONTINUOUS
 70
0
 71
3
 72
15
 73
11
 74
0
 42
0.0000001
 43
0.0000001
 44
0.0000000001
 40
0.0
 40
0.0
 40
0.0
 40
0.0
 40
0.104740222
 40
0.2223288362
 40
0.3559991838
 40
0.4999812765
 40
0.6439632335
 40
0.7776452584
 40
0.8952531632
 40
1.0
 40
1.0
 40
1.0
 40
1.0
 10
4.4905187416
 20
5.8608723608
 30
0.0
 10
4.4905187416
 20
5.8613335081
 30
0.0
 10
4.490219162
 20
5.8623239596
 30
0.0
 10
4.4890727286
 20
5.8634580959
 30
0.0
 10
4.4874608002
 20
5.8641863408
 30
0.0
 10
4.4855977401
 20
5.86443806
 30
0.0
 10
4.4837346183
 20
5.8641864551
 30
0.0
 10
4.4821224971
 20
5.8634582984
 30
0.0
 10
4.4809758753
 20
5.8623240974
 30
0.0
 10
4.4806762219
 20
5.8613335373
 30
0.0
 10
4.4806762219
 20
5.8608723608
 30
0.0
  0
SPLINE
  5
44A
100
AcDbEntity
  8
0
100
AcDbSpline
 62
7
  6
CONTINUOUS
 70
0
 71
3
 72
15
 73
11
 74
0
 42
0.0000001
 43
0.0000001
 44
0.0000000001
 40
0.0
 40
0.0
 40
0.0
 40
0.0
 40
0.1066324112
 40
0.2263857449
 40
0.3592697633
 40
0.4999964247
 40
0.6407211414
 40
0.7736053998
 40
0.8933630445
 40
1.0
 40
1.0
 40
1.0
 40
1.0
 10
4.497660517
 20
5.8591645485
 30
0.0
 10
4.497373772
 20
5.8581506046
 30
0.0
 10
4.4962173993
 20
5.8561395927
 30
0.0
 10
4.493370996
 20
5.8539160476
 30
0.0
 10
4.4897021759
 20
5.8524946043
 30
0.0
 10
4.4855969427
 20
5.8520072506
 30
0.0
 10
4.4814917337
 20
5.8524948748
 30
0.0
 10
4.4778230073
 20
5.853916628
 30
0.0
 10
4.4749767139
 20
5.8561404986
 30
0.0
 10
4.4738206392
 20
5.8581518193
 30
0.0
 10
4.473534086
 20
5.859165864
 30
0.0
  0
SPLINE
  5
44B
100
AcDbEntity
  8
0
100
AcDbSpline
 62
7
  6
CONTINUOUS
 70
0
 71
3
 72
15
 73
11
 74
0
 42
0.0000001
 43
0.0000001
 44
0.0000000001
 40
0.0
 40
0.0
 40
0.0
 40
0.0
 40
0.104740222
 40
0.2223288362
 40
0.3559991838
 40
0.4999812765
 40
0.6439632335
 40
0.7776452584
 40
0.8952531632
 40
1.0
 40
1.0
 40
1.0
 40
1.0
 10
4.5778560373
 20
5.8294057026
 30
0.0
 10
4.5778560373
 20
5.8298668499
 30
0.0
 10
4.5775564577
 20
5.8308573013
 30
0.0
 10
4.5764100243
 20
5.8319914377
 30
0.0
 10
4.574798096
 20
5.8327196825
 30
0.0
 10
4.5729350358
 20
5.8329714017
 30
0.0
 10
4.571071914
 20
5.8327197969
 30
0.0
 10
4.5694597928
 20
5.8319916401
 30
0.0
 10
4.568313171
 20
5.8308574392
 30
0.0
 10
4.5680135176
 20
5.829866879
 30
0.0
 10
4.5680135176
 20
5.8294057026
 30
0.0
  0
SPLINE
  5
44C
100
AcDbEntity
  8
0
100
AcDbSpline
 62
7
  6
CONTINUOUS
 70
0
 71
3
 72
15
 73
11
 74
0
 42
0.0000001
 43
0.0000001
 44
0.0000000001
 40
0.0
 40
0.0
 40
0.0
 40
0.0
 40
0.1066324112
 40
0.2263857449
 40
0.3592697633
 40
0.4999964247
 40
0.6407211414
 40
0.7736053998
 40
0.8933630445
 40
1.0
 40
1.0
 40
1.0
 40
1.0
 10
4.5849978127
 20
5.8276978903
 30
0.0
 10
4.5847110678
 20
5.8266839464
 30
0.0
 10
4.583554695
 20
5.8246729344
 30
0.0
 10
4.5807082917
 20
5.8224493894
 30
0.0
 10
4.5770394716
 20
5.8210279461
 30
0.0
 10
4.5729342384
 20
5.8205405923
 30
0.0
 10
4.5688290294
 20
5.8210282166
 30
0.0
 10
4.565160303
 20
5.8224499697
 30
0.0
 10
4.5623140096
 20
5.8246738404
 30
0.0
 10
4.5611579349
 20
5.826685161
 30
0.0
 10
4.5608713818
 20
5.8276992058
 30
0.0
  0
SPLINE
  5
44D
100
AcDbEntity
  8
0
100
AcDbSpline
 62
7
  6
CONTINUOUS
 70
0
 71
3
 72
15
 73
11
 74
0
 42
0.0000001
 43
0.0000001
 44
0.0000000001
 40
0.0
 40
0.0
 40
0.0
 40
0.0
 40
0.104740222
 40
0.2223288362
 40
0.3559991838
 40
0.4999812765
 40
0.6439632335
 40
0.7776452584
 40
0.8952531632
 40
1.0
 40
1.0
 40
1.0
 40
1.0
 10
4.6471673076
 20
5.7803952333
 30
0.0
 10
4.6471673076
 20
5.7808563806
 30
0.0
 10
4.646867728
 20
5.7818468321
 30
0.0
 10
4.6457212946
 20
5.7829809684
 30
0.0
 10
4.6441093663
 20
5.7837092133
 30
0.0
 10
4.6422463061
 20
5.7839609325
 30
0.0
 10
4.6403831843
 20
5.7837093276
 30
0.0
 10
4.6387710631
 20
5.7829811709
 30
0.0
 10
4.6376244413
 20
5.7818469699
 30
0.0
 10
4.637324788
 20
5.7808564098
 30
0.0
 10
4.637324788
 20
5.7803952333
 30
0.0
  0
SPLINE
  5
44E
100
AcDbEntity
  8
0
100
AcDbSpline
 62
7
  6
CONTINUOUS
 70
0
 71
3
 72
15
 73
11
 74
0
 42
0.0000001
 43
0.0000001
 44
0.0000000001
 40
0.0
 40
0.0
 40
0.0
 40
0.0
 40
0.1066324112
 40
0.2263857449
 40
0.3592697633
 40
0.4999964247
 40
0.6407211414
 40
0.7736053998
 40
0.8933630445
 40
1.0
 40
1.0
 40
1.0
 40
1.0
 10
4.654309083
 20
5.778687421
 30
0.0
 10
4.6540223381
 20
5.7776734771
 30
0.0
 10
4.6528659653
 20
5.7756624652
 30
0.0
 10
4.650019562
 20
5.7734389201
 30
0.0
 10
4.646350742
 20
5.7720174768
 30
0.0
 10
4.6422455087
 20
5.7715301231
 30
0.0
 10
4.6381402997
 20
5.7720177473
 30
0.0
 10
4.6344715733
 20
5.7734395005
 30
0.0
 10
4.6316252799
 20
5.7756633711
 30
0.0
 10
4.6304692052
 20
5.7776746918
 30
0.0
 10
4.6301826521
 20
5.7786887365
 30
0.0
  0
SPLINE
  5
44F
100
AcDbEntity
  8
0
100
AcDbSpline
 62
7
  6
CONTINUOUS
 70
0
 71
3
 72
15
 73
11
 74
0
 42
0.0000001
 43
0.0000001
 44
0.0000000001
 40
0.0
 40
0.0
 40
0.0
 40
0.0
 40
0.104740222
 40
0.2223288362
 40
0.3559991838
 40
0.4999812765
 40
0.6439632335
 40
0.7776452584
 40
0.8952531632
 40
1.0
 40
1.0
 40
1.0
 40
1.0
 10
4.6916678825
 20
5.7186384392
 30
0.0
 10
4.6916678825
 20
5.7190995866
 30
0.0
 10
4.6913683029
 20
5.720090038
 30
0.0
 10
4.6902218695
 20
5.7212241744
 30
0.0
 10
4.6886099411
 20
5.7219524192
 30
0.0
 10
4.686746881
 20
5.7222041384
 30
0.0
 10
4.6848837592
 20
5.7219525336
 30
0.0
 10
4.683271638
 20
5.7212243768
 30
0.0
 10
4.6821250162
 20
5.7200901759
 30
0.0
 10
4.6818253628
 20
5.7190996157
 30
0.0
 10
4.6818253628
 20
5.7186384392
 30
0.0
  0
SPLINE
  5
450
100
AcDbEntity
  8
0
100
AcDbSpline
 62
7
  6
CONTINUOUS
 70
0
 71
3
 72
15
 73
11
 74
0
 42
0.0000001
 43
0.0000001
 44
0.0000000001
 40
0.0
 40
0.0
 40
0.0
 40
0.0
 40
0.1066324112
 40
0.2263857449
 40
0.3592697633
 40
0.4999964247
 40
0.6407211414
 40
0.7736053998
 40
0.8933630445
 40
1.0
 40
1.0
 40
1.0
 40
1.0
 10
4.6988096579
 20
5.716930627
 30
0.0
 10
4.6985229129
 20
5.7159166831
 30
0.0
 10
4.6973665402
 20
5.7139056711
 30
0.0
 10
4.6945201369
 20
5.7116821261
 30
0.0
 10
4.6908513168
 20
5.7102606827
 30
0.0
 10
4.6867460835
 20
5.709773329
 30
0.0
 10
4.6826408746
 20
5.7102609532
 30
0.0
 10
4.6789721482
 20
5.7116827064
 30
0.0
 10
4.6761258548
 20
5.713906577
 30
0.0
 10
4.6749697801
 20
5.7159178977
 30
0.0
 10
4.6746832269
 20
5.7169319425
 30
0.0
  0
SPLINE
  5
451
100
AcDbEntity
  8
0
100
AcDbSpline
 62
7
  6
CONTINUOUS
 70
0
 71
3
 72
15
 73
11
 74
0
 42
0.0000001
 43
0.0000001
 44
0.0000000001
 40
0.0
 40
0.0
 40
0.0
 40
0.0
 40
0.104740222
 40
0.2223288362
 40
0.3559991838
 40
0.4999812765
 40
0.6439632335
 40
0.7776452584
 40
0.8952531632
 40
1.0
 40
1.0
 40
1.0
 40
1.0
 10
4.7070017356
 20
5.6501805057
 30
0.0
 10
4.7070017356
 20
5.650641653
 30
0.0
 10
4.706702156
 20
5.6516321045
 30
0.0
 10
4.7055557226
 20
5.6527662408
 30
0.0
 10
4.7039437942
 20
5.6534944857
 30
0.0
 10
4.7020807341
 20
5.6537462048
 30
0.0
 10
4.7002176123
 20
5.6534946
 30
0.0
 10
4.698605491
 20
5.6527664432
 30
0.0
 10
4.6974588692
 20
5.6516322423
 30
0.0
 10
4.6971592159
 20
5.6506416821
 30
0.0
 10
4.6971592159
 20
5.6501805057
 30
0.0
  0
SPLINE
  5
452
100
AcDbEntity
  8
0
100
AcDbSpline
 62
7
  6
CONTINUOUS
 70
0
 71
3
 72
15
 73
11
 74
0
 42
0.0000001
 43
0.0000001
 44
0.0000000001
 40
0.0
 40
0.0
 40
0.0
 40
0.0
 40
0.1066324112
 40
0.2263857449
 40
0.3592697633
 40
0.4999964247
 40
0.6407211414
 40
0.7736053998
 40
0.8933630445
 40
1.0
 40
1.0
 40
1.0
 40
1.0
 10
4.714143511
 20
5.6484726934
 30
0.0
 10
4.713856766
 20
5.6474587495
 30
0.0
 10
4.7127003932
 20
5.6454477376
 30
0.0
 10
4.70985399
 20
5.6432241925
 30
0.0
 10
4.7061851699
 20
5.6418027492
 30
0.0
 10
4.7020799366
 20
5.6413153954
 30
0.0
 10
4.6979747277
 20
5.6418030197
 30
0.0
 10
4.6943060012
 20
5.6432247729
 30
0.0
 10
4.6914597079
 20
5.6454486435
 30
0.0
 10
4.6903036331
 20
5.6474599641
 30
0.0
 10
4.69001708
 20
5.6484740089
 30
0.0
  0
SPLINE
  5
453
100
AcDbEntity
  8
0
100
AcDbSpline
 62
7
  6
CONTINUOUS
 70
0
 71
3
 72
15
 73
11
 74
0
 42
0.0000001
 43
0.0000001
 44
0.0000000001
 40
0.0
 40
0.0
 40
0.0
 40
0.0
 40
0.104740222
 40
0.2223288362
 40
0.3559991838
 40
0.4999812765
 40
0.6439632335
 40
0.7776452584
 40
0.8952531632
 40
1.0
 40
1.0
 40
1.0
 40
1.0
 10
4.6252636498
 20
5.5823584313
 30
0.0
 10
4.6252636498
 20
5.5828195786
 30
0.0
 10
4.6249640702
 20
5.58381003
 30
0.0
 10
4.6238176368
 20
5.5849441664
 30
0.0
 10
4.6222057085
 20
5.5856724112
 30
0.0
 10
4.6203426483
 20
5.5859241304
 30
0.0
 10
4.6184795265
 20
5.5856725256
 30
0.0
 10
4.6168674053
 20
5.5849443688
 30
0.0
 10
4.6157207835
 20
5.5838101679
 30
0.0
 10
4.6154211302
 20
5.5828196077
 30
0.0
 10
4.6154211302
 20
5.5823584313
 30
0.0
  0
SPLINE
  5
454
100
AcDbEntity
  8
0
100
AcDbSpline
 62
7
  6
CONTINUOUS
 70
0
 71
3
 72
15
 73
11
 74
0
 42
0.0000001
 43
0.0000001
 44
0.0000000001
 40
0.0
 40
0.0
 40
0.0
 40
0.0
 40
0.1066324112
 40
0.2263857449
 40
0.3592697633
 40
0.4999964247
 40
0.6407211414
 40
0.7736053998
 40
0.8933630445
 40
1.0
 40
1.0
 40
1.0
 40
1.0
 10
4.6324054252
 20
5.580650619
 30
0.0
 10
4.6321186803
 20
5.5796366751
 30
0.0
 10
4.6309623075
 20
5.5776256631
 30
0.0
 10
4.6281159042
 20
5.5754021181
 30
0.0
 10
4.6244470842
 20
5.5739806748
 30
0.0
 10
4.6203418509
 20
5.573493321
 30
0.0
 10
4.6162366419
 20
5.5739809453
 30
0.0
 10
4.6125679155
 20
5.5754026984
 30
0.0
 10
4.6097216221
 20
5.5776265691
 30
0.0
 10
4.6085655474
 20
5.5796378897
 30
0.0
 10
4.6082789943
 20
5.5806519345
 30
0.0
  0
SPLINE
  5
455
100
AcDbEntity
  8
0
100
AcDbSpline
 62
7
  6
CONTINUOUS
 70
0
 71
3
 72
15
 73
11
 74
0
 42
0.0000001
 43
0.0000001
 44
0.0000000001
 40
0.0
 40
0.0
 40
0.0
 40
0.0
 40
0.104740222
 40
0.2223288362
 40
0.3559991838
 40
0.4999812765
 40
0.6439632335
 40
0.7776452584
 40
0.8952531632
 40
1.0
 40
1.0
 40
1.0
 40
1.0
 10
4.5709322248
 20
5.5248616529
 30
0.0
 10
4.5709322248
 20
5.5253228002
 30
0.0
 10
4.5706326452
 20
5.5263132516
 30
0.0
 10
4.5694862118
 20
5.527447388
 30
0.0
 10
4.5678742834
 20
5.5281756328
 30
0.0
 10
4.5660112233
 20
5.528427352
 30
0.0
 10
4.5641481015
 20
5.5281757472
 30
0.0
 10
4.5625359803
 20
5.5274475904
 30
0.0
 10
4.5613893585
 20
5.5263133895
 30
0.0
 10
4.5610897051
 20
5.5253228293
 30
0.0
 10
4.5610897051
 20
5.5248616529
 30
0.0
  0
SPLINE
  5
456
100
AcDbEntity
  8
0
100
AcDbSpline
 62
7
  6
CONTINUOUS
 70
0
 71
3
 72
15
 73
11
 74
0
 42
0.0000001
 43
0.0000001
 44
0.0000000001
 40
0.0
 40
0.0
 40
0.0
 40
0.0
 40
0.1066324112
 40
0.2263857449
 40
0.3592697633
 40
0.4999964247
 40
0.6407211414
 40
0.7736053998
 40
0.8933630445
 40
1.0
 40
1.0
 40
1.0
 40
1.0
 10
4.5780740002
 20
5.5231538406
 30
0.0
 10
4.5777872552
 20
5.5221398967
 30
0.0
 10
4.5766308825
 20
5.5201288847
 30
0.0
 10
4.5737844792
 20
5.5179053397
 30
0.0
 10
4.5701156591
 20
5.5164838964
 30
0.0
 10
4.5660104258
 20
5.5159965426
 30
0.0
 10
4.5619052169
 20
5.5164841669
 30
0.0
 10
4.5582364905
 20
5.51790592
 30
0.0
 10
4.5553901971
 20
5.5201297907
 30
0.0
 10
4.5542341224
 20
5.5221411113
 30
0.0
 10
4.5539475692
 20
5.5231551561
 30
0.0
  0
SPLINE
  5
457
100
AcDbEntity
  8
0
100
AcDbSpline
 62
7
  6
CONTINUOUS
 70
0
 71
3
 72
15
 73
11
 74
0
 42
0.0000001
 43
0.0000001
 44
0.0000000001
 40
0.0
 40
0.0
 40
0.0
 40
0.0
 40
0.104740222
 40
0.2223288362
 40
0.3559991838
 40
0.4999812765
 40
0.6439632335
 40
0.7776452584
 40
0.8952531632
 40
1.0
 40
1.0
 40
1.0
 40
1.0
 10
4.489619501
 20
5.4864435338
 30
0.0
 10
4.489619501
 20
5.4869046811
 30
0.0
 10
4.4893199214
 20
5.4878951326
 30
0.0
 10
4.488173488
 20
5.4890292689
 30
0.0
 10
4.4865615596
 20
5.4897575138
 30
0.0
 10
4.4846984995
 20
5.4900092329
 30
0.0
 10
4.4828353777
 20
5.4897576281
 30
0.0
 10
4.4812232565
 20
5.4890294713
 30
0.0
 10
4.4800766346
 20
5.4878952704
 30
0.0
 10
4.4797769813
 20
5.4869047102
 30
0.0
 10
4.4797769813
 20
5.4864435338
 30
0.0
  0
SPLINE
  5
458
100
AcDbEntity
  8
0
100
AcDbSpline
 62
7
  6
CONTINUOUS
 70
0
 71
3
 72
15
 73
11
 74
0
 42
0.0000001
 43
0.0000001
 44
0.0000000001
 40
0.0
 40
0.0
 40
0.0
 40
0.0
 40
0.1066324112
 40
0.2263857449
 40
0.3592697633
 40
0.4999964247
 40
0.6407211414
 40
0.7736053998
 40
0.8933630445
 40
1.0
 40
1.0
 40
1.0
 40
1.0
 10
4.4967612764
 20
5.4847357215
 30
0.0
 10
4.4964745314
 20
5.4837217776
 30
0.0
 10
4.4953181586
 20
5.4817107657
 30
0.0
 10
4.4924717554
 20
5.4794872206
 30
0.0
 10
4.4888029353
 20
5.4780657773
 30
0.0
 10
4.484697702
 20
5.4775784235
 30
0.0
 10
4.4805924931
 20
5.4780660478
 30
0.0
 10
4.4769237666
 20
5.4794878009
 30
0.0
 10
4.4740774733
 20
5.4817116716
 30
0.0
 10
4.4729213985
 20
5.4837229922
 30
0.0
 10
4.4726348454
 20
5.484737037
 30
0.0
  0
SPLINE
  5
459
100
AcDbEntity
  8
0
100
AcDbSpline
 62
7
  6
CONTINUOUS
 70
0
 71
3
 72
15
 73
11
 74
0
 42
0.0000001
 43
0.0000001
 44
0.0000000001
 40
0.0
 40
0.0
 40
0.0
 40
0.0
 40
0.104740222
 40
0.2223288362
 40
0.3559991838
 40
0.4999812765
 40
0.6439632335
 40
0.7776452584
 40
0.8952531632
 40
1.0
 40
1.0
 40
1.0
 40
1.0
 10
4.3937046035
 20
5.4729528844
 30
0.0
 10
4.3937046035
 20
5.4734140317
 30
0.0
 10
4.3934050239
 20
5.4744044832
 30
0.0
 10
4.3922585905
 20
5.4755386195
 30
0.0
 10
4.3906466621
 20
5.4762668644
 30
0.0
 10
4.388783602
 20
5.4765185835
 30
0.0
 10
4.3869204802
 20
5.4762669787
 30
0.0
 10
4.385308359
 20
5.4755388219
 30
0.0
 10
4.3841617372
 20
5.474404621
 30
0.0
 10
4.3838620838
 20
5.4734140609
 30
0.0
 10
4.3838620838
 20
5.4729528844
 30
0.0
  0
SPLINE
  5
45A
100
AcDbEntity
  8
0
100
AcDbSpline
 62
7
  6
CONTINUOUS
 70
0
 71
3
 72
15
 73
11
 74
0
 42
0.0000001
 43
0.0000001
 44
0.0000000001
 40
0.0
 40
0.0
 40
0.0
 40
0.0
 40
0.1066324112
 40
0.2263857449
 40
0.3592697633
 40
0.4999964247
 40
0.6407211414
 40
0.7736053998
 40
0.8933630445
 40
1.0
 40
1.0
 40
1.0
 40
1.0
 10
4.4008463789
 20
5.4712450721
 30
0.0
 10
4.4005596339
 20
5.4702311282
 30
0.0
 10
4.3994032612
 20
5.4682201163
 30
0.0
 10
4.3965568579
 20
5.4659965712
 30
0.0
 10
4.3928880378
 20
5.4645751279
 30
0.0
 10
4.3887828046
 20
5.4640877742
 30
0.0
 10
4.3846775956
 20
5.4645753984
 30
0.0
 10
4.3810088692
 20
5.4659971516
 30
0.0
 10
4.3781625758
 20
5.4682210222
 30
0.0
 10
4.3770065011
 20
5.4702323429
 30
0.0
 10
4.3767199479
 20
5.4712463876
 30
0.0
  0
SPLINE
  5
45B
100
AcDbEntity
  8
0
100
AcDbSpline
 62
7
  6
CONTINUOUS
 70
0
 71
3
 72
15
 73
11
 74
0
 42
0.0000001
 43
0.0000001
 44
0.0000000001
 40
0.0
 40
0.0
 40
0.0
 40
0.0
 40
0.104740222
 40
0.2223288362
 40
0.3559991838
 40
0.4999812765
 40
0.6439632335
 40
0.7776452584
 40
0.8952531632
 40
1.0
 40
1.0
 40
1.0
 40
1.0
 10
4.297789706
 20
5.4864435338
 30
0.0
 10
4.297789706
 20
5.4869046811
 30
0.0
 10
4.2974901264
 20
5.4878951326
 30
0.0
 10
4.296343693
 20
5.4890292689
 30
0.0
 10
4.2947317647
 20
5.4897575138
 30
0.0
 10
4.2928687045
 20
5.4900092329
 30
0.0
 10
4.2910055827
 20
5.4897576281
 30
0.0
 10
4.2893934615
 20
5.4890294713
 30
0.0
 10
4.2882468397
 20
5.4878952704
 30
0.0
 10
4.2879471863
 20
5.4869047102
 30
0.0
 10
4.2879471863
 20
5.4864435338
 30
0.0
  0
SPLINE
  5
45C
100
AcDbEntity
  8
0
100
AcDbSpline
 62
7
  6
CONTINUOUS
 70
0
 71
3
 72
15
 73
11
 74
0
 42
0.0000001
 43
0.0000001
 44
0.0000000001
 40
0.0
 40
0.0
 40
0.0
 40
0.0
 40
0.1066324112
 40
0.2263857449
 40
0.3592697633
 40
0.4999964247
 40
0.6407211414
 40
0.7736053998
 40
0.8933630445
 40
1.0
 40
1.0
 40
1.0
 40
1.0
 10
4.3049314814
 20
5.4847357215
 30
0.0
 10
4.3046447365
 20
5.4837217776
 30
0.0
 10
4.3034883637
 20
5.4817107657
 30
0.0
 10
4.3006419604
 20
5.4794872206
 30
0.0
 10
4.2969731404
 20
5.4780657773
 30
0.0
 10
4.2928679071
 20
5.4775784235
 30
0.0
 10
4.2887626981
 20
5.4780660478
 30
0.0
 10
4.2850939717
 20
5.4794878009
 30
0.0
 10
4.2822476783
 20
5.4817116716
 30
0.0
 10
4.2810916036
 20
5.4837229922
 30
0.0
 10
4.2808050505
 20
5.484737037
 30
0.0
  0
SPLINE
  5
45D
100
AcDbEntity
  8
0
100
AcDbSpline
 62
7
  6
CONTINUOUS
 70
0
 71
3
 72
15
 73
11
 74
0
 42
0.0000001
 43
0.0000001
 44
0.0000000001
 40
0.0
 40
0.0
 40
0.0
 40
0.0
 40
0.104740222
 40
0.2223288362
 40
0.3559991838
 40
0.4999812765
 40
0.6439632335
 40
0.7776452584
 40
0.8952531632
 40
1.0
 40
1.0
 40
1.0
 40
1.0
 10
4.2164769822
 20
5.5248616529
 30
0.0
 10
4.2164769822
 20
5.5253228002
 30
0.0
 10
4.2161774026
 20
5.5263132516
 30
0.0
 10
4.2150309692
 20
5.527447388
 30
0.0
 10
4.2134190409
 20
5.5281756328
 30
0.0
 10
4.2115559807
 20
5.528427352
 30
0.0
 10
4.2096928589
 20
5.5281757472
 30
0.0
 10
4.2080807377
 20
5.5274475904
 30
0.0
 10
4.2069341159
 20
5.5263133895
 30
0.0
 10
4.2066344625
 20
5.5253228293
 30
0.0
 10
4.2066344625
 20
5.5248616529
 30
0.0
  0
SPLINE
  5
45E
100
AcDbEntity
  8
0
100
AcDbSpline
 62
7
  6
CONTINUOUS
 70
0
 71
3
 72
15
 73
11
 74
0
 42
0.0000001
 43
0.0000001
 44
0.0000000001
 40
0.0
 40
0.0
 40
0.0
 40
0.0
 40
0.1066324112
 40
0.2263857449
 40
0.3592697633
 40
0.4999964247
 40
0.6407211414
 40
0.7736053998
 40
0.8933630445
 40
1.0
 40
1.0
 40
1.0
 40
1.0
 10
4.2236187576
 20
5.5231538406
 30
0.0
 10
4.2233320126
 20
5.5221398967
 30
0.0
 10
4.2221756399
 20
5.5201288847
 30
0.0
 10
4.2193292366
 20
5.5179053397
 30
0.0
 10
4.2156604165
 20
5.5164838964
 30
0.0
 10
4.2115551833
 20
5.5159965426
 30
0.0
 10
4.2074499743
 20
5.5164841669
 30
0.0
 10
4.2037812479
 20
5.51790592
 30
0.0
 10
4.2009349545
 20
5.5201297907
 30
0.0
 10
4.1997788798
 20
5.5221411113
 30
0.0
 10
4.1994923267
 20
5.5231551561
 30
0.0
  0
SPLINE
  5
45F
100
AcDbEntity
  8
0
100
AcDbSpline
 62
7
  6
CONTINUOUS
 70
0
 71
3
 72
15
 73
11
 74
0
 42
0.0000001
 43
0.0000001
 44
0.0000000001
 40
0.0
 40
0.0
 40
0.0
 40
0.0
 40
0.104740222
 40
0.2223288362
 40
0.3559991838
 40
0.4999812765
 40
0.6439632335
 40
0.7776452584
 40
0.8952531632
 40
1.0
 40
1.0
 40
1.0
 40
1.0
 10
4.1621455572
 20
5.5823584313
 30
0.0
 10
4.1621455572
 20
5.5828195786
 30
0.0
 10
4.1618459776
 20
5.58381003
 30
0.0
 10
4.1606995442
 20
5.5849441664
 30
0.0
 10
4.1590876158
 20
5.5856724112
 30
0.0
 10
4.1572245557
 20
5.5859241304
 30
0.0
 10
4.1553614339
 20
5.5856725256
 30
0.0
 10
4.1537493126
 20
5.5849443688
 30
0.0
 10
4.1526026908
 20
5.5838101679
 30
0.0
 10
4.1523030375
 20
5.5828196077
 30
0.0
 10
4.1523030375
 20
5.5823584313
 30
0.0
  0
SPLINE
  5
460
100
AcDbEntity
  8
0
100
AcDbSpline
 62
7
  6
CONTINUOUS
 70
0
 71
3
 72
15
 73
11
 74
0
 42
0.0000001
 43
0.0000001
 44
0.0000000001
 40
0.0
 40
0.0
 40
0.0
 40
0.0
 40
0.1066324112
 40
0.2263857449
 40
0.3592697633
 40
0.4999964247
 40
0.6407211414
 40
0.7736053998
 40
0.8933630445
 40
1.0
 40
1.0
 40
1.0
 40
1.0
 10
4.1692873326
 20
5.580650619
 30
0.0
 10
4.1690005876
 20
5.5796366751
 30
0.0
 10
4.1678442148
 20
5.5776256631
 30
0.0
 10
4.1649978116
 20
5.5754021181
 30
0.0
 10
4.1613289915
 20
5.5739806748
 30
0.0
 10
4.1572237582
 20
5.573493321
 30
0.0
 10
4.1531185493
 20
5.5739809453
 30
0.0
 10
4.1494498228
 20
5.5754026984
 30
0.0
 10
4.1466035295
 20
5.5776265691
 30
0.0
 10
4.1454474547
 20
5.5796378897
 30
0.0
 10
4.1451609016
 20
5.5806519345
 30
0.0
  0
SPLINE
  5
461
100
AcDbEntity
  8
0
100
AcDbSpline
 62
7
  6
CONTINUOUS
 70
0
 71
3
 72
15
 73
11
 74
0
 42
0.0000001
 43
0.0000001
 44
0.0000000001
 40
0.0
 40
0.0
 40
0.0
 40
0.0
 40
0.104740222
 40
0.2223288362
 40
0.3559991838
 40
0.4999812765
 40
0.6439632335
 40
0.7776452584
 40
0.8952531632
 40
1.0
 40
1.0
 40
1.0
 40
1.0
 10
4.1430668979
 20
5.6501805057
 30
0.0
 10
4.1430668979
 20
5.650641653
 30
0.0
 10
4.1427673182
 20
5.6516321045
 30
0.0
 10
4.1416208848
 20
5.6527662408
 30
0.0
 10
4.1400089565
 20
5.6534944857
 30
0.0
 10
4.1381458963
 20
5.6537462048
 30
0.0
 10
4.1362827745
 20
5.6534946
 30
0.0
 10
4.1346706533
 20
5.6527664432
 30
0.0
 10
4.1335240315
 20
5.6516322423
 30
0.0
 10
4.1332243782
 20
5.6506416821
 30
0.0
 10
4.1332243782
 20
5.6501805057
 30
0.0
  0
SPLINE
  5
462
100
AcDbEntity
  8
0
100
AcDbSpline
 62
7
  6
CONTINUOUS
 70
0
 71
3
 72
15
 73
11
 74
0
 42
0.0000001
 43
0.0000001
 44
0.0000000001
 40
0.0
 40
0.0
 40
0.0
 40
0.0
 40
0.1066324112
 40
0.2263857449
 40
0.3592697633
 40
0.4999964247
 40
0.6407211414
 40
0.7736053998
 40
0.8933630445
 40
1.0
 40
1.0
 40
1.0
 40
1.0
 10
4.1502086732
 20
5.6484726934
 30
0.0
 10
4.1499219283
 20
5.6474587495
 30
0.0
 10
4.1487655555
 20
5.6454477376
 30
0.0
 10
4.1459191522
 20
5.6432241925
 30
0.0
 10
4.1422503322
 20
5.6418027492
 30
0.0
 10
4.1381450989
 20
5.6413153954
 30
0.0
 10
4.13403989
 20
5.6418030197
 30
0.0
 10
4.1303711635
 20
5.6432247729
 30
0.0
 10
4.1275248701
 20
5.6454486435
 30
0.0
 10
4.1263687954
 20
5.6474599641
 30
0.0
 10
4.1260822423
 20
5.6484740089
 30
0.0
  0
SPLINE
  5
463
100
AcDbEntity
  8
0
100
AcDbSpline
 62
7
  6
CONTINUOUS
 70
0
 71
3
 72
15
 73
11
 74
0
 42
0.0000001
 43
0.0000001
 44
0.0000000001
 40
0.0
 40
0.0
 40
0.0
 40
0.0
 40
0.104740222
 40
0.2223288362
 40
0.3559991838
 40
0.4999812765
 40
0.6439632335
 40
0.7776452584
 40
0.8952531632
 40
1.0
 40
1.0
 40
1.0
 40
1.0
 10
4.1621455572
 20
5.7180025801
 30
0.0
 10
4.1621455572
 20
5.7184637274
 30
0.0
 10
4.1618459776
 20
5.7194541789
 30
0.0
 10
4.1606995442
 20
5.7205883152
 30
0.0
 10
4.1590876158
 20
5.7213165601
 30
0.0
 10
4.1572245557
 20
5.7215682793
 30
0.0
 10
4.1553614339
 20
5.7213166744
 30
0.0
 10
4.1537493126
 20
5.7205885177
 30
0.0
 10
4.1526026908
 20
5.7194543167
 30
0.0
 10
4.1523030375
 20
5.7184637566
 30
0.0
 10
4.1523030375
 20
5.7180025801
 30
0.0
  0
SPLINE
  5
464
100
AcDbEntity
  8
0
100
AcDbSpline
 62
7
  6
CONTINUOUS
 70
0
 71
3
 72
15
 73
11
 74
0
 42
0.0000001
 43
0.0000001
 44
0.0000000001
 40
0.0
 40
0.0
 40
0.0
 40
0.0
 40
0.1066324112
 40
0.2263857449
 40
0.3592697633
 40
0.4999964247
 40
0.6407211414
 40
0.7736053998
 40
0.8933630445
 40
1.0
 40
1.0
 40
1.0
 40
1.0
 10
4.1692873326
 20
5.7162947678
 30
0.0
 10
4.1690005876
 20
5.7152808239
 30
0.0
 10
4.1678442148
 20
5.713269812
 30
0.0
 10
4.1649978116
 20
5.7110462669
 30
0.0
 10
4.1613289915
 20
5.7096248236
 30
0.0
 10
4.1572237582
 20
5.7091374699
 30
0.0
 10
4.1531185493
 20
5.7096250941
 30
0.0
 10
4.1494498228
 20
5.7110468473
 30
0.0
 10
4.1466035295
 20
5.7132707179
 30
0.0
 10
4.1454474547
 20
5.7152820386
 30
0.0
 10
4.1451609016
 20
5.7162960833
 30
0.0
  0
SPLINE
  5
465
100
AcDbEntity
  8
0
100
AcDbSpline
 62
7
  6
CONTINUOUS
 70
0
 71
3
 72
15
 73
11
 74
0
 42
0.0000001
 43
0.0000001
 44
0.0000000001
 40
0.0
 40
0.0
 40
0.0
 40
0.0
 40
0.104740222
 40
0.2223288362
 40
0.3559991838
 40
0.4999812765
 40
0.6439632335
 40
0.7776452584
 40
0.8952531632
 40
1.0
 40
1.0
 40
1.0
 40
1.0
 10
4.2164769822
 20
5.7754993585
 30
0.0
 10
4.2164769822
 20
5.7759605059
 30
0.0
 10
4.2161774026
 20
5.7769509573
 30
0.0
 10
4.2150309692
 20
5.7780850936
 30
0.0
 10
4.2134190409
 20
5.7788133385
 30
0.0
 10
4.2115559807
 20
5.7790650577
 30
0.0
 10
4.2096928589
 20
5.7788134528
 30
0.0
 10
4.2080807377
 20
5.7780852961
 30
0.0
 10
4.2069341159
 20
5.7769510952
 30
0.0
 10
4.2066344625
 20
5.775960535
 30
0.0
 10
4.2066344625
 20
5.7754993585
 30
0.0
  0
SPLINE
  5
466
100
AcDbEntity
  8
0
100
AcDbSpline
 62
7
  6
CONTINUOUS
 70
0
 71
3
 72
15
 73
11
 74
0
 42
0.0000001
 43
0.0000001
 44
0.0000000001
 40
0.0
 40
0.0
 40
0.0
 40
0.0
 40
0.1066324112
 40
0.2263857449
 40
0.3592697633
 40
0.4999964247
 40
0.6407211414
 40
0.7736053998
 40
0.8933630445
 40
1.0
 40
1.0
 40
1.0
 40
1.0
 10
4.2236187576
 20
5.7737915462
 30
0.0
 10
4.2233320126
 20
5.7727776023
 30
0.0
 10
4.2221756399
 20
5.7707665904
 30
0.0
 10
4.2193292366
 20
5.7685430453
 30
0.0
 10
4.2156604165
 20
5.767121602
 30
0.0
 10
4.2115551833
 20
5.7666342483
 30
0.0
 10
4.2074499743
 20
5.7671218725
 30
0.0
 10
4.2037812479
 20
5.7685436257
 30
0.0
 10
4.2009349545
 20
5.7707674963
 30
0.0
 10
4.1997788798
 20
5.772778817
 30
0.0
 10
4.1994923267
 20
5.7737928618
 30
0.0
  0
SPLINE
  5
467
100
AcDbEntity
  8
0
100
AcDbSpline
 62
7
  6
CONTINUOUS
 70
0
 71
3
 72
15
 73
11
 74
0
 42
0.0000001
 43
0.0000001
 44
0.0000000001
 40
0.0
 40
0.0
 40
0.0
 40
0.0
 40
0.104740222
 40
0.2223288362
 40
0.3559991838
 40
0.4999812765
 40
0.6439632335
 40
0.7776452584
 40
0.8952531632
 40
1.0
 40
1.0
 40
1.0
 40
1.0
 10
4.297789706
 20
5.8139174776
 30
0.0
 10
4.297789706
 20
5.8143786249
 30
0.0
 10
4.2974901264
 20
5.8153690764
 30
0.0
 10
4.296343693
 20
5.8165032127
 30
0.0
 10
4.2947317647
 20
5.8172314576
 30
0.0
 10
4.2928687045
 20
5.8174831767
 30
0.0
 10
4.2910055827
 20
5.8172315719
 30
0.0
 10
4.2893934615
 20
5.8165034151
 30
0.0
 10
4.2882468397
 20
5.8153692142
 30
0.0
 10
4.2879471863
 20
5.8143786541
 30
0.0
 10
4.2879471863
 20
5.8139174776
 30
0.0
  0
SPLINE
  5
468
100
AcDbEntity
  8
0
100
AcDbSpline
 62
7
  6
CONTINUOUS
 70
0
 71
3
 72
15
 73
11
 74
0
 42
0.0000001
 43
0.0000001
 44
0.0000000001
 40
0.0
 40
0.0
 40
0.0
 40
0.0
 40
0.1066324112
 40
0.2263857449
 40
0.3592697633
 40
0.4999964247
 40
0.6407211414
 40
0.7736053998
 40
0.8933630445
 40
1.0
 40
1.0
 40
1.0
 40
1.0
 10
4.3049314814
 20
5.8122096653
 30
0.0
 10
4.3046447365
 20
5.8111957214
 30
0.0
 10
4.3034883637
 20
5.8091847095
 30
0.0
 10
4.3006419604
 20
5.8069611644
 30
0.0
 10
4.2969731404
 20
5.8055397211
 30
0.0
 10
4.2928679071
 20
5.8050523674
 30
0.0
 10
4.2887626981
 20
5.8055399916
 30
0.0
 10
4.2850939717
 20
5.8069617448
 30
0.0
 10
4.2822476783
 20
5.8091856154
 30
0.0
 10
4.2810916036
 20
5.8111969361
 30
0.0
 10
4.2808050505
 20
5.8122109808
 30
0.0
  0
SPLINE
  5
469
100
AcDbEntity
  8
0
100
AcDbSpline
 62
7
  6
CONTINUOUS
 70
0
 71
3
 72
15
 73
11
 74
0
 42
0.0000001
 43
0.0000001
 44
0.0000000001
 40
0.0
 40
0.0
 40
0.0
 40
0.0
 40
0.104740222
 40
0.2223288362
 40
0.3559991838
 40
0.4999812765
 40
0.6439632335
 40
0.7776452584
 40
0.8952531632
 40
1.0
 40
1.0
 40
1.0
 40
1.0
 10
4.3937046035
 20
5.827408127
 30
0.0
 10
4.3937046035
 20
5.8278692743
 30
0.0
 10
4.3934050239
 20
5.8288597258
 30
0.0
 10
4.3922585905
 20
5.8299938621
 30
0.0
 10
4.3906466621
 20
5.8307221069
 30
0.0
 10
4.388783602
 20
5.8309738261
 30
0.0
 10
4.3869204802
 20
5.8307222213
 30
0.0
 10
4.385308359
 20
5.8299940645
 30
0.0
 10
4.3841617372
 20
5.8288598636
 30
0.0
 10
4.3838620838
 20
5.8278693034
 30
0.0
 10
4.3838620838
 20
5.827408127
 30
0.0
  0
SPLINE
  5
46A
100
AcDbEntity
  8
0
100
AcDbSpline
 62
7
  6
CONTINUOUS
 70
0
 71
3
 72
15
 73
11
 74
0
 42
0.0000001
 43
0.0000001
 44
0.0000000001
 40
0.0
 40
0.0
 40
0.0
 40
0.0
 40
0.1066324112
 40
0.2263857449
 40
0.3592697633
 40
0.4999964247
 40
0.6407211414
 40
0.7736053998
 40
0.8933630445
 40
1.0
 40
1.0
 40
1.0
 40
1.0
 10
4.4008463789
 20
5.8257003147
 30
0.0
 10
4.4005596339
 20
5.8246863708
 30
0.0
 10
4.3994032612
 20
5.8226753589
 30
0.0
 10
4.3965568579
 20
5.8204518138
 30
0.0
 10
4.3928880378
 20
5.8190303705
 30
0.0
 10
4.3887828046
 20
5.8185430167
 30
0.0
 10
4.3846775956
 20
5.819030641
 30
0.0
 10
4.3810088692
 20
5.8204523941
 30
0.0
 10
4.3781625758
 20
5.8226762648
 30
0.0
 10
4.3770065011
 20
5.8246875854
 30
0.0
 10
4.3767199479
 20
5.8257016302
 30
0.0
  0
SPLINE
  5
46B
100
AcDbEntity
  8
0
100
AcDbSpline
 62
7
  6
CONTINUOUS
 70
0
 71
3
 72
15
 73
11
 74
0
 42
0.0000001
 43
0.0000001
 44
0.0000000001
 40
0.0
 40
0.0
 40
0.0
 40
0.0
 40
0.104740222
 40
0.2223288362
 40
0.3559991838
 40
0.4999812765
 40
0.6439632335
 40
0.7776452584
 40
0.8952531632
 40
1.0
 40
1.0
 40
1.0
 40
1.0
 10
4.489619501
 20
5.8139174776
 30
0.0
 10
4.489619501
 20
5.8143786249
 30
0.0
 10
4.4893199214
 20
5.8153690764
 30
0.0
 10
4.488173488
 20
5.8165032127
 30
0.0
 10
4.4865615596
 20
5.8172314576
 30
0.0
 10
4.4846984995
 20
5.8174831767
 30
0.0
 10
4.4828353777
 20
5.8172315719
 30
0.0
 10
4.4812232565
 20
5.8165034151
 30
0.0
 10
4.4800766346
 20
5.8153692142
 30
0.0
 10
4.4797769813
 20
5.8143786541
 30
0.0
 10
4.4797769813
 20
5.8139174776
 30
0.0
  0
SPLINE
  5
46C
100
AcDbEntity
  8
0
100
AcDbSpline
 62
7
  6
CONTINUOUS
 70
0
 71
3
 72
15
 73
11
 74
0
 42
0.0000001
 43
0.0000001
 44
0.0000000001
 40
0.0
 40
0.0
 40
0.0
 40
0.0
 40
0.1066324112
 40
0.2263857449
 40
0.3592697633
 40
0.4999964247
 40
0.6407211414
 40
0.7736053998
 40
0.8933630445
 40
1.0
 40
1.0
 40
1.0
 40
1.0
 10
4.4967612764
 20
5.8122096653
 30
0.0
 10
4.4964745314
 20
5.8111957214
 30
0.0
 10
4.4953181586
 20
5.8091847095
 30
0.0
 10
4.4924717554
 20
5.8069611644
 30
0.0
 10
4.4888029353
 20
5.8055397211
 30
0.0
 10
4.484697702
 20
5.8050523674
 30
0.0
 10
4.4805924931
 20
5.8055399916
 30
0.0
 10
4.4769237666
 20
5.8069617448
 30
0.0
 10
4.4740774733
 20
5.8091856154
 30
0.0
 10
4.4729213985
 20
5.8111969361
 30
0.0
 10
4.4726348454
 20
5.8122109808
 30
0.0
  0
SPLINE
  5
46D
100
AcDbEntity
  8
0
100
AcDbSpline
 62
7
  6
CONTINUOUS
 70
0
 71
3
 72
15
 73
11
 74
0
 42
0.0000001
 43
0.0000001
 44
0.0000000001
 40
0.0
 40
0.0
 40
0.0
 40
0.0
 40
0.104740222
 40
0.2223288362
 40
0.3559991838
 40
0.4999812765
 40
0.6439632335
 40
0.7776452584
 40
0.8952531632
 40
1.0
 40
1.0
 40
1.0
 40
1.0
 10
4.5709322248
 20
5.7754993585
 30
0.0
 10
4.5709322248
 20
5.7759605059
 30
0.0
 10
4.5706326452
 20
5.7769509573
 30
0.0
 10
4.5694862118
 20
5.7780850936
 30
0.0
 10
4.5678742834
 20
5.7788133385
 30
0.0
 10
4.5660112233
 20
5.7790650577
 30
0.0
 10
4.5641481015
 20
5.7788134528
 30
0.0
 10
4.5625359803
 20
5.7780852961
 30
0.0
 10
4.5613893585
 20
5.7769510952
 30
0.0
 10
4.5610897051
 20
5.775960535
 30
0.0
 10
4.5610897051
 20
5.7754993585
 30
0.0
  0
SPLINE
  5
46E
100
AcDbEntity
  8
0
100
AcDbSpline
 62
7
  6
CONTINUOUS
 70
0
 71
3
 72
15
 73
11
 74
0
 42
0.0000001
 43
0.0000001
 44
0.0000000001
 40
0.0
 40
0.0
 40
0.0
 40
0.0
 40
0.1066324112
 40
0.2263857449
 40
0.3592697633
 40
0.4999964247
 40
0.6407211414
 40
0.7736053998
 40
0.8933630445
 40
1.0
 40
1.0
 40
1.0
 40
1.0
 10
4.5780740002
 20
5.7737915462
 30
0.0
 10
4.5777872552
 20
5.7727776023
 30
0.0
 10
4.5766308825
 20
5.7707665904
 30
0.0
 10
4.5737844792
 20
5.7685430453
 30
0.0
 10
4.5701156591
 20
5.767121602
 30
0.0
 10
4.5660104258
 20
5.7666342483
 30
0.0
 10
4.5619052169
 20
5.7671218725
 30
0.0
 10
4.5582364905
 20
5.7685436257
 30
0.0
 10
4.5553901971
 20
5.7707674963
 30
0.0
 10
4.5542341224
 20
5.772778817
 30
0.0
 10
4.5539475692
 20
5.7737928618
 30
0.0
  0
SPLINE
  5
46F
100
AcDbEntity
  8
0
100
AcDbSpline
 62
7
  6
CONTINUOUS
 70
0
 71
3
 72
15
 73
11
 74
0
 42
0.0000001
 43
0.0000001
 44
0.0000000001
 40
0.0
 40
0.0
 40
0.0
 40
0.0
 40
0.104740222
 40
0.2223288362
 40
0.3559991838
 40
0.4999812765
 40
0.6439632335
 40
0.7776452584
 40
0.8952531632
 40
1.0
 40
1.0
 40
1.0
 40
1.0
 10
4.6252636498
 20
5.7180025801
 30
0.0
 10
4.6252636498
 20
5.7184637274
 30
0.0
 10
4.6249640702
 20
5.7194541789
 30
0.0
 10
4.6238176368
 20
5.7205883152
 30
0.0
 10
4.6222057085
 20
5.7213165601
 30
0.0
 10
4.6203426483
 20
5.7215682793
 30
0.0
 10
4.6184795265
 20
5.7213166744
 30
0.0
 10
4.6168674053
 20
5.7205885177
 30
0.0
 10
4.6157207835
 20
5.7194543167
 30
0.0
 10
4.6154211302
 20
5.7184637566
 30
0.0
 10
4.6154211302
 20
5.7180025801
 30
0.0
  0
SPLINE
  5
470
100
AcDbEntity
  8
0
100
AcDbSpline
 62
7
  6
CONTINUOUS
 70
0
 71
3
 72
15
 73
11
 74
0
 42
0.0000001
 43
0.0000001
 44
0.0000000001
 40
0.0
 40
0.0
 40
0.0
 40
0.0
 40
0.1066324112
 40
0.2263857449
 40
0.3592697633
 40
0.4999964247
 40
0.6407211414
 40
0.7736053998
 40
0.8933630445
 40
1.0
 40
1.0
 40
1.0
 40
1.0
 10
4.6324054252
 20
5.7162947678
 30
0.0
 10
4.6321186803
 20
5.7152808239
 30
0.0
 10
4.6309623075
 20
5.713269812
 30
0.0
 10
4.6281159042
 20
5.7110462669
 30
0.0
 10
4.6244470842
 20
5.7096248236
 30
0.0
 10
4.6203418509
 20
5.7091374699
 30
0.0
 10
4.6162366419
 20
5.7096250941
 30
0.0
 10
4.6125679155
 20
5.7110468473
 30
0.0
 10
4.6097216221
 20
5.7132707179
 30
0.0
 10
4.6085655474
 20
5.7152820386
 30
0.0
 10
4.6082789943
 20
5.7162960833
 30
0.0
  0
SPLINE
  5
471
100
AcDbEntity
  8
0
100
AcDbSpline
 62
7
  6
CONTINUOUS
 70
0
 71
3
 72
15
 73
11
 74
0
 42
0.0000001
 43
0.0000001
 44
0.0000000001
 40
0.0
 40
0.0
 40
0.0
 40
0.0
 40
0.104740222
 40
0.2223288362
 40
0.3559991838
 40
0.4999812765
 40
0.6439632335
 40
0.7776452584
 40
0.8952531632
 40
1.0
 40
1.0
 40
1.0
 40
1.0
 10
4.6443423092
 20
5.6501805057
 30
0.0
 10
4.6443423092
 20
5.650641653
 30
0.0
 10
4.6440427296
 20
5.6516321045
 30
0.0
 10
4.6428962961
 20
5.6527662408
 30
0.0
 10
4.6412843678
 20
5.6534944857
 30
0.0
 10
4.6394213077
 20
5.6537462048
 30
0.0
 10
4.6375581859
 20
5.6534946
 30
0.0
 10
4.6359460646
 20
5.6527664432
 30
0.0
 10
4.6347994428
 20
5.6516322423
 30
0.0
 10
4.6344997895
 20
5.6506416821
 30
0.0
 10
4.6344997895
 20
5.6501805057
 30
0.0
  0
SPLINE
  5
472
100
AcDbEntity
  8
0
100
AcDbSpline
 62
7
  6
CONTINUOUS
 70
0
 71
3
 72
15
 73
11
 74
0
 42
0.0000001
 43
0.0000001
 44
0.0000000001
 40
0.0
 40
0.0
 40
0.0
 40
0.0
 40
0.1066324112
 40
0.2263857449
 40
0.3592697633
 40
0.4999964247
 40
0.6407211414
 40
0.7736053998
 40
0.8933630445
 40
1.0
 40
1.0
 40
1.0
 40
1.0
 10
4.6514840845
 20
5.6484726934
 30
0.0
 10
4.6511973396
 20
5.6474587495
 30
0.0
 10
4.6500409668
 20
5.6454477376
 30
0.0
 10
4.6471945635
 20
5.6432241925
 30
0.0
 10
4.6435257435
 20
5.6418027492
 30
0.0
 10
4.6394205102
 20
5.6413153954
 30
0.0
 10
4.6353153013
 20
5.6418030197
 30
0.0
 10
4.6316465748
 20
5.6432247729
 30
0.0
 10
4.6288002815
 20
5.6454486435
 30
0.0
 10
4.6276442067
 20
5.6474599641
 30
0.0
 10
4.6273576536
 20
5.6484740089
 30
0.0
  0
SPLINE
  5
473
100
AcDbEntity
  8
0
100
AcDbSpline
 62
7
  6
CONTINUOUS
 70
0
 71
3
 72
15
 73
11
 74
0
 42
0.0000001
 43
0.0000001
 44
0.0000000001
 40
0.0
 40
0.0
 40
0.0
 40
0.0
 40
0.104740222
 40
0.2223288362
 40
0.3559991838
 40
0.4999812765
 40
0.6439632335
 40
0.7776452584
 40
0.8952531632
 40
1.0
 40
1.0
 40
1.0
 40
1.0
 10
4.5564985687
 20
5.5837201477
 30
0.0
 10
4.5564985687
 20
5.584181295
 30
0.0
 10
4.5561989891
 20
5.5851717465
 30
0.0
 10
4.5550525557
 20
5.5863058828
 30
0.0
 10
4.5534406273
 20
5.5870341277
 30
0.0
 10
4.5515775672
 20
5.5872858469
 30
0.0
 10
4.5497144454
 20
5.587034242
 30
0.0
 10
4.5481023242
 20
5.5863060853
 30
0.0
 10
4.5469557024
 20
5.5851718843
 30
0.0
 10
4.546656049
 20
5.5841813242
 30
0.0
 10
4.546656049
 20
5.5837201477
 30
0.0
  0
SPLINE
  5
474
100
AcDbEntity
  8
0
100
AcDbSpline
 62
7
  6
CONTINUOUS
 70
0
 71
3
 72
15
 73
11
 74
0
 42
0.0000001
 43
0.0000001
 44
0.0000000001
 40
0.0
 40
0.0
 40
0.0
 40
0.0
 40
0.1066317189
 40
0.226395947
 40
0.3592782276
 40
0.4999904378
 40
0.6407089836
 40
0.7735959508
 40
0.8933584377
 40
1.0
 40
1.0
 40
1.0
 40
1.0
 10
4.5636403659
 20
5.5820124353
 30
0.0
 10
4.5633536335
 20
5.5809984779
 30
0.0
 10
4.5621972562
 20
5.5789872964
 30
0.0
 10
4.5593506233
 20
5.5767637811
 30
0.0
 10
4.555681808
 20
5.575342349
 30
0.0
 10
4.5515767253
 20
5.5748550573
 30
0.0
 10
4.5474716309
 20
5.5753426529
 30
0.0
 10
4.5438028343
 20
5.576764431
 30
0.0
 10
4.5409563891
 20
5.5789884142
 30
0.0
 10
4.5398003289
 20
5.5809999136
 30
0.0
 10
4.5395138152
 20
5.5820140339
 30
0.0
  0
SPLINE
  5
475
100
AcDbEntity
  8
0
100
AcDbSpline
 62
7
  6
CONTINUOUS
 70
0
 71
3
 72
15
 73
11
 74
0
 42
0.0000001
 43
0.0000001
 44
0.0000000001
 40
0.0
 40
0.0
 40
0.0
 40
0.0
 40
0.104740222
 40
0.2223288362
 40
0.3559991838
 40
0.4999812765
 40
0.6439632335
 40
0.7776452584
 40
0.8952531632
 40
1.0
 40
1.0
 40
1.0
 40
1.0
 10
4.4876937431
 20
5.535067789
 30
0.0
 10
4.4876937431
 20
5.5355289363
 30
0.0
 10
4.4873941635
 20
5.5365193877
 30
0.0
 10
4.4862477301
 20
5.5376535241
 30
0.0
 10
4.4846358018
 20
5.5383817689
 30
0.0
 10
4.4827727416
 20
5.5386334881
 30
0.0
 10
4.4809096198
 20
5.5383818833
 30
0.0
 10
4.4792974986
 20
5.5376537265
 30
0.0
 10
4.4781508768
 20
5.5365195256
 30
0.0
 10
4.4778512235
 20
5.5355289654
 30
0.0
 10
4.4778512235
 20
5.535067789
 30
0.0
  0
SPLINE
  5
476
100
AcDbEntity
  8
0
100
AcDbSpline
 62
7
  6
CONTINUOUS
 70
0
 71
3
 72
15
 73
11
 74
0
 42
0.0000001
 43
0.0000001
 44
0.0000000001
 40
0.0
 40
0.0
 40
0.0
 40
0.0
 40
0.1066324112
 40
0.2263857449
 40
0.3592697633
 40
0.4999964247
 40
0.6407211414
 40
0.7736053998
 40
0.8933630445
 40
1.0
 40
1.0
 40
1.0
 40
1.0
 10
4.4948355185
 20
5.5333599767
 30
0.0
 10
4.4945487736
 20
5.5323460328
 30
0.0
 10
4.4933924008
 20
5.5303350208
 30
0.0
 10
4.4905459975
 20
5.5281114758
 30
0.0
 10
4.4868771775
 20
5.5266900325
 30
0.0
 10
4.4827719442
 20
5.5262026787
 30
0.0
 10
4.4786667352
 20
5.526690303
 30
0.0
 10
4.4749980088
 20
5.5281120561
 30
0.0
 10
4.4721517154
 20
5.5303359268
 30
0.0
 10
4.4709956407
 20
5.5323472474
 30
0.0
 10
4.4707090876
 20
5.5333612922
 30
0.0
  0
SPLINE
  5
477
100
AcDbEntity
  8
0
100
AcDbSpline
 62
7
  6
CONTINUOUS
 70
0
 71
3
 72
14
 73
10
 74
0
 42
0.0000001
 43
0.0000001
 44
0.0000000001
 40
0.0
 40
0.0
 40
0.0
 40
0.0
 40
0.2845821635
 40
0.4209137845
 40
0.5504642253
 40
0.6723149182
 40
0.7866737539
 40
0.895018666
 40
1.0
 40
1.0
 40
1.0
 40
1.0
 10
4.3887833437
 20
5.3897883391
 30
0.0
 10
4.3382536963
 20
5.3897883391
 30
0.0
 10
4.2628531434
 20
5.4000044023
 30
0.0
 10
4.171071836
 20
5.4344567878
 30
0.0
 10
4.1110901431
 20
5.4689762313
 30
0.0
 10
4.0613754356
 20
5.5114034257
 30
0.0
 10
4.0238980855
 20
5.5604322304
 30
0.0
 10
4.0004500182
 20
5.6143495593
 30
0.0
 10
3.9950825563
 20
5.6524194382
 30
0.0
 10
3.9950825563
 20
5.6710596429
 30
0.0
  0
SPLINE
  5
478
100
AcDbEntity
  8
0
100
AcDbSpline
 62
7
  6
CONTINUOUS
 70
0
 71
3
 72
14
 73
10
 74
0
 42
0.0000001
 43
0.0000001
 44
0.0000000001
 40
0.0
 40
0.0
 40
0.0
 40
0.0
 40
0.1049817615
 40
0.2133262589
 40
0.3276853018
 40
0.4495363519
 40
0.5790864642
 40
0.7154187909
 40
1.0
 40
1.0
 40
1.0
 40
1.0
 10
3.9950825563
 20
5.8728913029
 30
0.0
 10
3.9950825563
 20
5.8915315794
 30
0.0
 10
4.0004499573
 20
5.9296015161
 30
0.0
 10
4.0238985973
 20
5.9835185386
 30
0.0
 10
4.0613751578
 20
6.0325480066
 30
0.0
 10
4.1110907391
 20
6.0749742412
 30
0.0
 10
4.1710718644
 20
6.1094948076
 30
0.0
 10
4.2628536574
 20
6.1439457922
 30
0.0
 10
4.338253877
 20
6.1541626067
 30
0.0
 10
4.3887833437
 20
6.1541626067
 30
0.0
  0
SPLINE
  5
479
100
AcDbEntity
  8
0
100
AcDbSpline
 62
7
  6
CONTINUOUS
 70
0
 71
3
 72
15
 73
11
 74
0
 42
0.0000001
 43
0.0000001
 44
0.0000000001
 40
0.0
 40
0.0
 40
0.0
 40
0.0
 40
0.104740222
 40
0.2223288362
 40
0.3559991838
 40
0.4999812765
 40
0.6439632335
 40
0.7776452584
 40
0.8952531632
 40
1.0
 40
1.0
 40
1.0
 40
1.0
 10
4.3937046035
 20
5.5172597897
 30
0.0
 10
4.3937046035
 20
5.5177209371
 30
0.0
 10
4.3934050239
 20
5.5187113885
 30
0.0
 10
4.3922585905
 20
5.5198455248
 30
0.0
 10
4.3906466621
 20
5.5205737697
 30
0.0
 10
4.388783602
 20
5.5208254889
 30
0.0
 10
4.3869204802
 20
5.520573884
 30
0.0
 10
4.385308359
 20
5.5198457273
 30
0.0
 10
4.3841617372
 20
5.5187115264
 30
0.0
 10
4.3838620838
 20
5.5177209662
 30
0.0
 10
4.3838620838
 20
5.5172597897
 30
0.0
  0
SPLINE
  5
47A
100
AcDbEntity
  8
0
100
AcDbSpline
 62
7
  6
CONTINUOUS
 70
0
 71
3
 72
14
 73
10
 74
0
 42
0.0000001
 43
0.0000001
 44
0.0000000001
 40
0.0
 40
0.0
 40
0.0
 40
0.0
 40
0.2845821635
 40
0.4209137845
 40
0.5504642253
 40
0.6723149182
 40
0.7866737539
 40
0.895018666
 40
1.0
 40
1.0
 40
1.0
 40
1.0
 10
4.3887833437
 20
6.1541626067
 30
0.0
 10
4.4393129911
 20
6.1541626067
 30
0.0
 10
4.5147135439
 20
6.1439465436
 30
0.0
 10
4.6064948514
 20
6.109494158
 30
0.0
 10
4.6664765442
 20
6.0749747145
 30
0.0
 10
4.7161912517
 20
6.0325475201
 30
0.0
 10
4.7536686018
 20
5.9835187154
 30
0.0
 10
4.7771166691
 20
5.9296013865
 30
0.0
 10
4.7824841311
 20
5.8915315076
 30
0.0
 10
4.7824841311
 20
5.8728913029
 30
0.0
  0
SPLINE
  5
47B
100
AcDbEntity
  8
0
100
AcDbSpline
 62
7
  6
CONTINUOUS
 70
0
 71
3
 72
15
 73
11
 74
0
 42
0.0000001
 43
0.0000001
 44
0.0000000001
 40
0.0
 40
0.0
 40
0.0
 40
0.0
 40
0.1066324112
 40
0.2263857449
 40
0.3592697633
 40
0.4999964247
 40
0.6407211414
 40
0.7736053998
 40
0.8933630445
 40
1.0
 40
1.0
 40
1.0
 40
1.0
 10
4.4008463789
 20
5.5155519774
 30
0.0
 10
4.4005596339
 20
5.5145380335
 30
0.0
 10
4.3994032612
 20
5.5125270216
 30
0.0
 10
4.3965568579
 20
5.5103034765
 30
0.0
 10
4.3928880378
 20
5.5088820332
 30
0.0
 10
4.3887828046
 20
5.5083946795
 30
0.0
 10
4.3846775956
 20
5.5088823037
 30
0.0
 10
4.3810088692
 20
5.5103040569
 30
0.0
 10
4.3781625758
 20
5.5125279275
 30
0.0
 10
4.3770065011
 20
5.5145392482
 30
0.0
 10
4.3767199479
 20
5.515553293
 30
0.0
  0
SPLINE
  5
47C
100
AcDbEntity
  8
0
100
AcDbSpline
 62
7
  6
CONTINUOUS
 70
0
 71
3
 72
14
 73
10
 74
0
 42
0.0000001
 43
0.0000001
 44
0.0000000001
 40
0.0
 40
0.0
 40
0.0
 40
0.0
 40
0.1049817615
 40
0.2133262589
 40
0.3276853018
 40
0.4495363519
 40
0.5790864642
 40
0.7154187909
 40
1.0
 40
1.0
 40
1.0
 40
1.0
 10
4.7824841311
 20
5.6710596429
 30
0.0
 10
4.7824841311
 20
5.6524193664
 30
0.0
 10
4.77711673
 20
5.6143494298
 30
0.0
 10
4.75366809
 20
5.5604324072
 30
0.0
 10
4.7161915296
 20
5.5114029392
 30
0.0
 10
4.6664759483
 20
5.4689767047
 30
0.0
 10
4.606494823
 20
5.4344561382
 30
0.0
 10
4.51471303
 20
5.4000051536
 30
0.0
 10
4.4393128103
 20
5.3897883391
 30
0.0
 10
4.3887833437
 20
5.3897883391
 30
0.0
  0
SPLINE
  5
47D
100
AcDbEntity
  8
0
100
AcDbSpline
 62
7
  6
CONTINUOUS
 70
0
 71
3
 72
15
 73
11
 74
0
 42
0.0000001
 43
0.0000001
 44
0.0000000001
 40
0.0
 40
0.0
 40
0.0
 40
0.0
 40
0.104740222
 40
0.2223288362
 40
0.3559991838
 40
0.4999812765
 40
0.6439632335
 40
0.7776452584
 40
0.8952531632
 40
1.0
 40
1.0
 40
1.0
 40
1.0
 10
4.2997154639
 20
5.535067789
 30
0.0
 10
4.2997154639
 20
5.5355289363
 30
0.0
 10
4.2994158843
 20
5.5365193877
 30
0.0
 10
4.2982694509
 20
5.5376535241
 30
0.0
 10
4.2966575225
 20
5.5383817689
 30
0.0
 10
4.2947944624
 20
5.5386334881
 30
0.0
 10
4.2929313406
 20
5.5383818833
 30
0.0
 10
4.2913192194
 20
5.5376537265
 30
0.0
 10
4.2901725975
 20
5.5365195256
 30
0.0
 10
4.2898729442
 20
5.5355289654
 30
0.0
 10
4.2898729442
 20
5.535067789
 30
0.0
  0
SPLINE
  5
47E
100
AcDbEntity
  8
0
100
AcDbSpline
 62
7
  6
CONTINUOUS
 70
0
 71
3
 72
15
 73
11
 74
0
 42
0.0000001
 43
0.0000001
 44
0.0000000001
 40
0.0
 40
0.0
 40
0.0
 40
0.0
 40
0.1066324112
 40
0.2263857449
 40
0.3592697633
 40
0.4999964247
 40
0.6407211414
 40
0.7736053998
 40
0.8933630445
 40
1.0
 40
1.0
 40
1.0
 40
1.0
 10
4.3068572393
 20
5.5333599767
 30
0.0
 10
4.3065704943
 20
5.5323460328
 30
0.0
 10
4.3054141215
 20
5.5303350208
 30
0.0
 10
4.3025677183
 20
5.5281114758
 30
0.0
 10
4.2988988982
 20
5.5266900325
 30
0.0
 10
4.2947936649
 20
5.5262026787
 30
0.0
 10
4.290688456
 20
5.526690303
 30
0.0
 10
4.2870197295
 20
5.5281120561
 30
0.0
 10
4.2841734362
 20
5.5303359268
 30
0.0
 10
4.2830173614
 20
5.5323472474
 30
0.0
 10
4.2827308083
 20
5.5333612922
 30
0.0
  0
SPLINE
  5
47F
100
AcDbEntity
  8
0
100
AcDbSpline
 62
7
  6
CONTINUOUS
 70
0
 71
3
 72
9
 73
5
 74
0
 42
0.0000001
 43
0.0000001
 44
0.0000000001
 40
0.0
 40
0.0
 40
0.0
 40
0.0
 40
0.5131408167
 40
1.0
 40
1.0
 40
1.0
 40
1.0
 10
4.3887833437
 20
6.1755875742
 30
0.0
 10
4.4116717442
 20
6.1755875742
 30
0.0
 10
4.4564848466
 20
6.1696658095
 30
0.0
 10
4.4980454374
 20
6.1512381286
 30
0.0
 10
4.5160220128
 20
6.1390548351
 30
0.0
  0
SPLINE
  5
480
100
AcDbEntity
  8
0
100
AcDbSpline
 62
7
  6
CONTINUOUS
 70
0
 71
3
 72
9
 73
5
 74
0
 42
0.0000001
 43
0.0000001
 44
0.0000000001
 40
0.0
 40
0.0
 40
0.0
 40
0.0
 40
0.4868823115
 40
1.0
 40
1.0
 40
1.0
 40
1.0
 10
4.2616355484
 20
6.1391163842
 30
0.0
 10
4.2796058624
 20
6.1512794051
 30
0.0
 10
4.3211380635
 20
6.1696754873
 30
0.0
 10
4.3659145065
 20
6.1755875742
 30
0.0
 10
4.3887833437
 20
6.1755875742
 30
0.0
  0
SPLINE
  5
481
100
AcDbEntity
  8
0
100
AcDbSpline
 62
7
  6
CONTINUOUS
 70
0
 71
3
 72
15
 73
11
 74
0
 42
0.0000001
 43
0.0000001
 44
0.0000000001
 40
0.0
 40
0.0
 40
0.0
 40
0.0
 40
0.104740222
 40
0.2223288362
 40
0.3559991838
 40
0.4999812765
 40
0.6439632335
 40
0.7776452584
 40
0.8952531632
 40
1.0
 40
1.0
 40
1.0
 40
1.0
 10
4.2309106383
 20
5.5837201477
 30
0.0
 10
4.2309106383
 20
5.584181295
 30
0.0
 10
4.2306110587
 20
5.5851717465
 30
0.0
 10
4.2294646253
 20
5.5863058828
 30
0.0
 10
4.227852697
 20
5.5870341277
 30
0.0
 10
4.2259896368
 20
5.5872858469
 30
0.0
 10
4.224126515
 20
5.587034242
 30
0.0
 10
4.2225143938
 20
5.5863060853
 30
0.0
 10
4.221367772
 20
5.5851718843
 30
0.0
 10
4.2210681186
 20
5.5841813242
 30
0.0
 10
4.2210681186
 20
5.5837201477
 30
0.0
  0
SPLINE
  5
482
100
AcDbEntity
  8
0
100
AcDbSpline
 62
7
  6
CONTINUOUS
 70
0
 71
3
 72
15
 73
11
 74
0
 42
0.0000001
 43
0.0000001
 44
0.0000000001
 40
0.0
 40
0.0
 40
0.0
 40
0.0
 40
0.1066324112
 40
0.2263857449
 40
0.3592697633
 40
0.4999964247
 40
0.6407211414
 40
0.7736053998
 40
0.8933630445
 40
1.0
 40
1.0
 40
1.0
 40
1.0
 10
4.2380524137
 20
5.5820123354
 30
0.0
 10
4.2377656688
 20
5.5809983915
 30
0.0
 10
4.236609296
 20
5.5789873796
 30
0.0
 10
4.2337628927
 20
5.5767638345
 30
0.0
 10
4.2300940726
 20
5.5753423912
 30
0.0
 10
4.2259888394
 20
5.5748550375
 30
0.0
 10
4.2218836304
 20
5.5753426617
 30
0.0
 10
4.218214904
 20
5.5767644149
 30
0.0
 10
4.2153686106
 20
5.5789882855
 30
0.0
 10
4.2142125359
 20
5.5809996062
 30
0.0
 10
4.2139259828
 20
5.5820136509
 30
0.0
  0
SPLINE
  5
483
100
AcDbEntity
  8
0
100
AcDbSpline
 62
7
  6
CONTINUOUS
 70
0
 71
3
 72
15
 73
11
 74
0
 42
0.0000001
 43
0.0000001
 44
0.0000000001
 40
0.0
 40
0.0
 40
0.0
 40
0.0
 40
0.104740222
 40
0.2223288362
 40
0.3559991838
 40
0.4999812765
 40
0.6439632335
 40
0.7776452584
 40
0.8952531632
 40
1.0
 40
1.0
 40
1.0
 40
1.0
 10
4.2057263243
 20
5.6501805057
 30
0.0
 10
4.2057263243
 20
5.650641653
 30
0.0
 10
4.2054267447
 20
5.6516321045
 30
0.0
 10
4.2042803112
 20
5.6527662408
 30
0.0
 10
4.2026683829
 20
5.6534944857
 30
0.0
 10
4.2008053228
 20
5.6537462048
 30
0.0
 10
4.198942201
 20
5.6534946
 30
0.0
 10
4.1973300797
 20
5.6527664432
 30
0.0
 10
4.1961834579
 20
5.6516322423
 30
0.0
 10
4.1958838046
 20
5.6506416821
 30
0.0
 10
4.1958838046
 20
5.6501805057
 30
0.0
  0
SPLINE
  5
484
100
AcDbEntity
  8
0
100
AcDbSpline
 62
7
  6
CONTINUOUS
 70
0
 71
3
 72
13
 73
9
 74
0
 42
0.0000001
 43
0.0000001
 44
0.0000000001
 40
0.0
 40
0.0
 40
0.0
 40
0.0
 40
0.1034547388
 40
0.2106666037
 40
0.324494904
 40
0.4464260117
 40
0.7129424931
 40
1.0
 40
1.0
 40
1.0
 40
1.0
 10
4.4552198545
 20
5.6641015025
 30
0.0
 10
4.4552197193
 20
5.6671858777
 30
0.0
 10
4.4543243219
 20
5.673498627
 30
0.0
 10
4.4504072375
 20
5.6824562216
 30
0.0
 10
4.4441240622
 20
5.6906370574
 30
0.0
 10
4.4326400359
 20
5.700389878
 30
0.0
 10
4.4139299437
 20
5.7088496114
 30
0.0
 10
4.3973416085
 20
5.7110779893
 30
0.0
 10
4.3887833437
 20
5.7110779893
 30
0.0
  0
SPLINE
  5
485
100
AcDbEntity
  8
0
100
AcDbSpline
 62
7
  6
CONTINUOUS
 70
0
 71
3
 72
15
 73
11
 74
0
 42
0.0000001
 43
0.0000001
 44
0.0000000001
 40
0.0
 40
0.0
 40
0.0
 40
0.0
 40
0.1066324112
 40
0.2263857449
 40
0.3592697633
 40
0.4999964247
 40
0.6407211414
 40
0.7736053998
 40
0.8933630445
 40
1.0
 40
1.0
 40
1.0
 40
1.0
 10
4.2128680996
 20
5.6484726934
 30
0.0
 10
4.2125813547
 20
5.6474587495
 30
0.0
 10
4.2114249819
 20
5.6454477376
 30
0.0
 10
4.2085785786
 20
5.6432241925
 30
0.0
 10
4.2049097586
 20
5.6418027492
 30
0.0
 10
4.2008045253
 20
5.6413153954
 30
0.0
 10
4.1966993164
 20
5.6418030197
 30
0.0
 10
4.1930305899
 20
5.6432247729
 30
0.0
 10
4.1901842966
 20
5.6454486435
 30
0.0
 10
4.1890282218
 20
5.6474599641
 30
0.0
 10
4.1887416687
 20
5.6484740089
 30
0.0
  0
SPLINE
  5
486
100
AcDbEntity
  8
0
100
AcDbSpline
 62
7
  6
CONTINUOUS
 70
0
 71
3
 72
13
 73
9
 74
0
 42
0.0000001
 43
0.0000001
 44
0.0000000001
 40
0.0
 40
0.0
 40
0.0
 40
0.0
 40
0.1034550349
 40
0.2106670574
 40
0.324495272
 40
0.4464260761
 40
0.7129421961
 40
1.0
 40
1.0
 40
1.0
 40
1.0
 10
4.4527592415
 20
5.6640984191
 30
0.0
 10
4.4527591126
 20
5.6611282714
 30
0.0
 10
4.4518968732
 20
5.6550493141
 30
0.0
 10
4.4481248555
 20
5.646423475
 30
0.0
 10
4.4420743894
 20
5.638545642
 30
0.0
 10
4.4310157094
 20
5.6291540566
 30
0.0
 10
4.4129985962
 20
5.6210076472
 30
0.0
 10
4.3970246445
 20
5.6188617998
 30
0.0
 10
4.3887833437
 20
5.6188617998
 30
0.0
  0
SPLINE
  5
487
100
AcDbEntity
  8
0
100
AcDbSpline
 62
7
  6
CONTINUOUS
 70
0
 71
3
 72
15
 73
11
 74
0
 42
0.0000001
 43
0.0000001
 44
0.0000000001
 40
0.0
 40
0.0
 40
0.0
 40
0.0
 40
0.1066324112
 40
0.2263857449
 40
0.3592697633
 40
0.4999964247
 40
0.6407211414
 40
0.7736053998
 40
0.8933630445
 40
1.0
 40
1.0
 40
1.0
 40
1.0
 10
4.5888246581
 20
5.6484726934
 30
0.0
 10
4.5885379132
 20
5.6474587495
 30
0.0
 10
4.5873815404
 20
5.6454477376
 30
0.0
 10
4.5845351371
 20
5.6432241925
 30
0.0
 10
4.5808663171
 20
5.6418027492
 30
0.0
 10
4.5767610838
 20
5.6413153954
 30
0.0
 10
4.5726558749
 20
5.6418030197
 30
0.0
 10
4.5689871484
 20
5.6432247729
 30
0.0
 10
4.566140855
 20
5.6454486435
 30
0.0
 10
4.5649847803
 20
5.6474599641
 30
0.0
 10
4.5646982272
 20
5.6484740089
 30
0.0
  0
SPLINE
  5
488
100
AcDbEntity
  8
0
100
AcDbSpline
 62
7
  6
CONTINUOUS
 70
0
 71
3
 72
15
 73
11
 74
0
 42
0.0000001
 43
0.0000001
 44
0.0000000001
 40
0.0
 40
0.0
 40
0.0
 40
0.0
 40
0.104740222
 40
0.2223288362
 40
0.3559991838
 40
0.4999812765
 40
0.6439632335
 40
0.7776452584
 40
0.8952531632
 40
1.0
 40
1.0
 40
1.0
 40
1.0
 10
4.2309106383
 20
5.7166408637
 30
0.0
 10
4.2309106383
 20
5.717102011
 30
0.0
 10
4.2306110587
 20
5.7180924624
 30
0.0
 10
4.2294646253
 20
5.7192265988
 30
0.0
 10
4.227852697
 20
5.7199548436
 30
0.0
 10
4.2259896368
 20
5.7202065628
 30
0.0
 10
4.224126515
 20
5.719954958
 30
0.0
 10
4.2225143938
 20
5.7192268012
 30
0.0
 10
4.221367772
 20
5.7180926003
 30
0.0
 10
4.2210681186
 20
5.7171020401
 30
0.0
 10
4.2210681186
 20
5.7166408637
 30
0.0
  0
SPLINE
  5
489
100
AcDbEntity
  8
0
100
AcDbSpline
 62
7
  6
CONTINUOUS
 70
0
 71
3
 72
15
 73
11
 74
0
 42
0.0000001
 43
0.0000001
 44
0.0000000001
 40
0.0
 40
0.0
 40
0.0
 40
0.0
 40
0.104740222
 40
0.2223288362
 40
0.3559991838
 40
0.4999812765
 40
0.6439632335
 40
0.7776452584
 40
0.8952531632
 40
1.0
 40
1.0
 40
1.0
 40
1.0
 10
4.5816828828
 20
5.6501805057
 30
0.0
 10
4.5816828828
 20
5.650641653
 30
0.0
 10
4.5813833031
 20
5.6516321045
 30
0.0
 10
4.5802368697
 20
5.6527662408
 30
0.0
 10
4.5786249414
 20
5.6534944857
 30
0.0
 10
4.5767618812
 20
5.6537462048
 30
0.0
 10
4.5748987594
 20
5.6534946
 30
0.0
 10
4.5732866382
 20
5.6527664432
 30
0.0
 10
4.5721400164
 20
5.6516322423
 30
0.0
 10
4.5718403631
 20
5.6506416821
 30
0.0
 10
4.5718403631
 20
5.6501805057
 30
0.0
  0
SPLINE
  5
48A
100
AcDbEntity
  8
0
100
AcDbSpline
 62
7
  6
CONTINUOUS
 70
0
 71
3
 72
15
 73
11
 74
0
 42
0.0000001
 43
0.0000001
 44
0.0000000001
 40
0.0
 40
0.0
 40
0.0
 40
0.0
 40
0.1066324112
 40
0.2263857449
 40
0.3592697633
 40
0.4999964247
 40
0.6407211414
 40
0.7736053998
 40
0.8933630445
 40
1.0
 40
1.0
 40
1.0
 40
1.0
 10
4.2380524137
 20
5.7149330514
 30
0.0
 10
4.2377656688
 20
5.7139191075
 30
0.0
 10
4.236609296
 20
5.7119080955
 30
0.0
 10
4.2337628927
 20
5.7096845505
 30
0.0
 10
4.2300940726
 20
5.7082631072
 30
0.0
 10
4.2259888394
 20
5.7077757534
 30
0.0
 10
4.2218836304
 20
5.7082633777
 30
0.0
 10
4.218214904
 20
5.7096851308
 30
0.0
 10
4.2153686106
 20
5.7119090015
 30
0.0
 10
4.2142125359
 20
5.7139203221
 30
0.0
 10
4.2139259828
 20
5.7149343669
 30
0.0
  0
SPLINE
  5
48B
100
AcDbEntity
  8
0
100
AcDbSpline
 62
7
  6
CONTINUOUS
 70
0
 71
3
 72
15
 73
11
 74
0
 42
0.0000001
 43
0.0000001
 44
0.0000000001
 40
0.0
 40
0.0
 40
0.0
 40
0.0
 40
0.1066317189
 40
0.226395947
 40
0.3592782276
 40
0.4999904378
 40
0.6407089836
 40
0.7735959508
 40
0.8933584377
 40
1.0
 40
1.0
 40
1.0
 40
1.0
 10
4.5636403659
 20
5.7149331513
 30
0.0
 10
4.5633536335
 20
5.7139191939
 30
0.0
 10
4.5621972562
 20
5.7119080124
 30
0.0
 10
4.5593506233
 20
5.7096844971
 30
0.0
 10
4.555681808
 20
5.708263065
 30
0.0
 10
4.5515767253
 20
5.7077757732
 30
0.0
 10
4.5474716309
 20
5.7082633689
 30
0.0
 10
4.5438028343
 20
5.709685147
 30
0.0
 10
4.5409563891
 20
5.7119091302
 30
0.0
 10
4.5398003289
 20
5.7139206295
 30
0.0
 10
4.5395138152
 20
5.7149347499
 30
0.0
  0
SPLINE
  5
48C
100
AcDbEntity
  8
0
100
AcDbSpline
 62
7
  6
CONTINUOUS
 70
0
 71
3
 72
15
 73
11
 74
0
 42
0.0000001
 43
0.0000001
 44
0.0000000001
 40
0.0
 40
0.0
 40
0.0
 40
0.0
 40
0.104740222
 40
0.2223288362
 40
0.3559991838
 40
0.4999812765
 40
0.6439632335
 40
0.7776452584
 40
0.8952531632
 40
1.0
 40
1.0
 40
1.0
 40
1.0
 10
4.2997154639
 20
5.7652932224
 30
0.0
 10
4.2997154639
 20
5.7657543697
 30
0.0
 10
4.2994158843
 20
5.7667448212
 30
0.0
 10
4.2982694509
 20
5.7678789575
 30
0.0
 10
4.2966575225
 20
5.7686072024
 30
0.0
 10
4.2947944624
 20
5.7688589216
 30
0.0
 10
4.2929313406
 20
5.7686073167
 30
0.0
 10
4.2913192194
 20
5.76787916
 30
0.0
 10
4.2901725975
 20
5.766744959
 30
0.0
 10
4.2898729442
 20
5.7657543989
 30
0.0
 10
4.2898729442
 20
5.7652932224
 30
0.0
  0
SPLINE
  5
48D
100
AcDbEntity
  8
0
100
AcDbSpline
 62
7
  6
CONTINUOUS
 70
0
 71
3
 72
15
 73
11
 74
0
 42
0.0000001
 43
0.0000001
 44
0.0000000001
 40
0.0
 40
0.0
 40
0.0
 40
0.0
 40
0.104740222
 40
0.2223288362
 40
0.3559991838
 40
0.4999812765
 40
0.6439632335
 40
0.7776452584
 40
0.8952531632
 40
1.0
 40
1.0
 40
1.0
 40
1.0
 10
4.5564985687
 20
5.7166408637
 30
0.0
 10
4.5564985687
 20
5.717102011
 30
0.0
 10
4.5561989891
 20
5.7180924624
 30
0.0
 10
4.5550525557
 20
5.7192265988
 30
0.0
 10
4.5534406273
 20
5.7199548436
 30
0.0
 10
4.5515775672
 20
5.7202065628
 30
0.0
 10
4.5497144454
 20
5.719954958
 30
0.0
 10
4.5481023242
 20
5.7192268012
 30
0.0
 10
4.5469557024
 20
5.7180926003
 30
0.0
 10
4.546656049
 20
5.7171020401
 30
0.0
 10
4.546656049
 20
5.7166408637
 30
0.0
  0
SPLINE
  5
48E
100
AcDbEntity
  8
0
100
AcDbSpline
 62
7
  6
CONTINUOUS
 70
0
 71
3
 72
15
 73
11
 74
0
 42
0.0000001
 43
0.0000001
 44
0.0000000001
 40
0.0
 40
0.0
 40
0.0
 40
0.0
 40
0.1066324112
 40
0.2263857449
 40
0.3592697633
 40
0.4999964247
 40
0.6407211414
 40
0.7736053998
 40
0.8933630445
 40
1.0
 40
1.0
 40
1.0
 40
1.0
 10
4.4948355185
 20
5.7635854101
 30
0.0
 10
4.4945487736
 20
5.7625714662
 30
0.0
 10
4.4933924008
 20
5.7605604543
 30
0.0
 10
4.4905459975
 20
5.7583369092
 30
0.0
 10
4.4868771775
 20
5.7569154659
 30
0.0
 10
4.4827719442
 20
5.7564281122
 30
0.0
 10
4.4786667352
 20
5.7569157364
 30
0.0
 10
4.4749980088
 20
5.7583374896
 30
0.0
 10
4.4721517154
 20
5.7605613602
 30
0.0
 10
4.4709956407
 20
5.7625726809
 30
0.0
 10
4.4707090876
 20
5.7635867256
 30
0.0
  0
SPLINE
  5
48F
100
AcDbEntity
  8
0
100
AcDbSpline
 62
7
  6
CONTINUOUS
 70
0
 71
3
 72
15
 73
11
 74
0
 42
0.0000001
 43
0.0000001
 44
0.0000000001
 40
0.0
 40
0.0
 40
0.0
 40
0.0
 40
0.1066324112
 40
0.2263857449
 40
0.3592697633
 40
0.4999964247
 40
0.6407211414
 40
0.7736053998
 40
0.8933630445
 40
1.0
 40
1.0
 40
1.0
 40
1.0
 10
4.3068572393
 20
5.7635854101
 30
0.0
 10
4.3065704943
 20
5.7625714662
 30
0.0
 10
4.3054141215
 20
5.7605604543
 30
0.0
 10
4.3025677183
 20
5.7583369092
 30
0.0
 10
4.2988988982
 20
5.7569154659
 30
0.0
 10
4.2947936649
 20
5.7564281122
 30
0.0
 10
4.290688456
 20
5.7569157364
 30
0.0
 10
4.2870197295
 20
5.7583374896
 30
0.0
 10
4.2841734362
 20
5.7605613602
 30
0.0
 10
4.2830173614
 20
5.7625726809
 30
0.0
 10
4.2827308083
 20
5.7635867256
 30
0.0
  0
SPLINE
  5
490
100
AcDbEntity
  8
0
100
AcDbSpline
 62
7
  6
CONTINUOUS
 70
0
 71
3
 72
15
 73
11
 74
0
 42
0.0000001
 43
0.0000001
 44
0.0000000001
 40
0.0
 40
0.0
 40
0.0
 40
0.0
 40
0.104740222
 40
0.2223288362
 40
0.3559991838
 40
0.4999812765
 40
0.6439632335
 40
0.7776452584
 40
0.8952531632
 40
1.0
 40
1.0
 40
1.0
 40
1.0
 10
4.4876937431
 20
5.7652932224
 30
0.0
 10
4.4876937431
 20
5.7657543697
 30
0.0
 10
4.4873941635
 20
5.7667448212
 30
0.0
 10
4.4862477301
 20
5.7678789575
 30
0.0
 10
4.4846358018
 20
5.7686072024
 30
0.0
 10
4.4827727416
 20
5.7688589216
 30
0.0
 10
4.4809096198
 20
5.7686073167
 30
0.0
 10
4.4792974986
 20
5.76787916
 30
0.0
 10
4.4781508768
 20
5.766744959
 30
0.0
 10
4.4778512235
 20
5.7657543989
 30
0.0
 10
4.4778512235
 20
5.7652932224
 30
0.0
  0
SPLINE
  5
491
100
AcDbEntity
  8
0
100
AcDbSpline
 62
7
  6
CONTINUOUS
 70
0
 71
3
 72
15
 73
11
 74
0
 42
0.0000001
 43
0.0000001
 44
0.0000000001
 40
0.0
 40
0.0
 40
0.0
 40
0.0
 40
0.1066324112
 40
0.2263857449
 40
0.3592697633
 40
0.4999964247
 40
0.6407211414
 40
0.7736053998
 40
0.8933630445
 40
1.0
 40
1.0
 40
1.0
 40
1.0
 10
4.4008463789
 20
5.7813934094
 30
0.0
 10
4.4005596339
 20
5.7803794655
 30
0.0
 10
4.3994032612
 20
5.7783684535
 30
0.0
 10
4.3965568579
 20
5.7761449085
 30
0.0
 10
4.3928880378
 20
5.7747234651
 30
0.0
 10
4.3887828046
 20
5.7742361114
 30
0.0
 10
4.3846775956
 20
5.7747237357
 30
0.0
 10
4.3810088692
 20
5.7761454888
 30
0.0
 10
4.3781625758
 20
5.7783693595
 30
0.0
 10
4.3770065011
 20
5.7803806801
 30
0.0
 10
4.3767199479
 20
5.7813947249
 30
0.0
  0
SPLINE
  5
492
100
AcDbEntity
  8
0
100
AcDbSpline
 62
7
  6
CONTINUOUS
 70
0
 71
3
 72
15
 73
11
 74
0
 42
0.0000001
 43
0.0000001
 44
0.0000000001
 40
0.0
 40
0.0
 40
0.0
 40
0.0
 40
0.104740222
 40
0.2223288362
 40
0.3559991838
 40
0.4999812765
 40
0.6439632335
 40
0.7776452584
 40
0.8952531632
 40
1.0
 40
1.0
 40
1.0
 40
1.0
 10
4.3937046035
 20
5.7831012216
 30
0.0
 10
4.3937046035
 20
5.783562369
 30
0.0
 10
4.3934050239
 20
5.7845528204
 30
0.0
 10
4.3922585905
 20
5.7856869568
 30
0.0
 10
4.3906466621
 20
5.7864152016
 30
0.0
 10
4.388783602
 20
5.7866669208
 30
0.0
 10
4.3869204802
 20
5.786415316
 30
0.0
 10
4.385308359
 20
5.7856871592
 30
0.0
 10
4.3841617372
 20
5.7845529583
 30
0.0
 10
4.3838620838
 20
5.7835623981
 30
0.0
 10
4.3838620838
 20
5.7831012216
 30
0.0
  0
SPLINE
  5
493
100
AcDbEntity
  8
0
100
AcDbSpline
 62
7
  6
CONTINUOUS
 70
0
 71
3
 72
15
 73
11
 74
0
 42
0.0000001
 43
0.0000001
 44
0.0000000001
 40
0.0
 40
0.0
 40
0.0
 40
0.0
 40
0.104753742
 40
0.2223384893
 40
0.3560156831
 40
0.49998038
 40
0.6439545881
 40
0.7776411556
 40
0.8952379495
 40
1.0
 40
1.0
 40
1.0
 40
1.0
 10
4.2136862289
 20
5.7166408637
 30
0.0
 10
4.2136862289
 20
5.7177938788
 30
0.0
 10
4.2144350058
 20
5.7202702837
 30
0.0
 10
4.217301985
 20
5.7231049889
 30
0.0
 10
4.221331307
 20
5.7249260016
 30
0.0
 10
4.2259888115
 20
5.7255552171
 30
0.0
 10
4.2306464413
 20
5.7249262415
 30
0.0
 10
4.2346762379
 20
5.7231054205
 30
0.0
 10
4.2375435744
 20
5.7202705837
 30
0.0
 10
4.2382925281
 20
5.7177939703
 30
0.0
 10
4.2382925281
 20
5.7166408637
 30
0.0
  0
LINE
  5
494
100
AcDbEntity
  8
0
100
AcDbLine
 62
7
  6
CONTINUOUS
 10
4.2382925281
 20
5.7166408637
 11
4.2380524137
 21
5.7149330514
  0
SPLINE
  5
495
100
AcDbEntity
  8
0
100
AcDbSpline
 62
7
  6
CONTINUOUS
 70
0
 71
3
 72
15
 73
11
 74
0
 42
0.0000001
 43
0.0000001
 44
0.0000000001
 40
0.0
 40
0.0
 40
0.0
 40
0.0
 40
0.1047540588
 40
0.2223334687
 40
0.3560082615
 40
0.4999880437
 40
0.6439681158
 40
0.7776503626
 40
0.8952411333
 40
1.0
 40
1.0
 40
1.0
 40
1.0
 10
4.5821404986
 20
5.7894187833
 30
0.0
 10
4.5821404986
 20
5.7909304017
 30
0.0
 10
4.5811588236
 20
5.7941768944
 30
0.0
 10
4.5774004148
 20
5.7978932694
 30
0.0
 10
4.572117806
 20
5.8002806577
 30
0.0
 10
4.5660115056
 20
5.8011056177
 30
0.0
 10
4.5599050689
 20
5.8002808903
 30
0.0
 10
4.5546220926
 20
5.7978936529
 30
0.0
 10
4.550863239
 20
5.7941772
 30
0.0
 10
4.5498814313
 20
5.7909304711
 30
0.0
 10
4.5498814313
 20
5.7894187833
 30
0.0
  0
SPLINE
  5
496
100
AcDbEntity
  8
0
100
AcDbSpline
 62
7
  6
CONTINUOUS
 70
0
 71
3
 72
15
 73
11
 74
0
 42
0.0000001
 43
0.0000001
 44
0.0000000001
 40
0.0
 40
0.0
 40
0.0
 40
0.0
 40
0.104740222
 40
0.2223288362
 40
0.3559991838
 40
0.4999812765
 40
0.6439632335
 40
0.7776452584
 40
0.8952531632
 40
1.0
 40
1.0
 40
1.0
 40
1.0
 10
4.1303993797
 20
5.5199657781
 30
0.0
 10
4.1303993797
 20
5.5195046307
 30
0.0
 10
4.1306989593
 20
5.5185141793
 30
0.0
 10
4.1318453927
 20
5.5173800429
 30
0.0
 10
4.1334573211
 20
5.5166517981
 30
0.0
 10
4.1353203812
 20
5.5164000789
 30
0.0
 10
4.137183503
 20
5.5166516837
 30
0.0
 10
4.1387956242
 20
5.5173798405
 30
0.0
 10
4.139942246
 20
5.5185140414
 30
0.0
 10
4.1402418994
 20
5.5195046016
 30
0.0
 10
4.1402418994
 20
5.5199657781
 30
0.0
  0
LINE
  5
497
100
AcDbEntity
  8
0
100
AcDbLine
 62
7
  6
CONTINUOUS
 10
4.1511358538
 20
5.5316479711
 11
4.1514501732
 21
5.5338852029
  0
LINE
  5
498
100
AcDbEntity
  8
0
100
AcDbLine
 62
7
  6
CONTINUOUS
 10
4.5498814313
 20
5.7894187833
 11
4.5501962233
 21
5.7871798269
  0
SPLINE
  5
499
100
AcDbEntity
  8
0
100
AcDbSpline
 62
7
  6
CONTINUOUS
 70
0
 71
3
 72
15
 73
11
 74
0
 42
0.0000001
 43
0.0000001
 44
0.0000000001
 40
0.0
 40
0.0
 40
0.0
 40
0.0
 40
0.1047540588
 40
0.2223334687
 40
0.3560082615
 40
0.4999880437
 40
0.6439681158
 40
0.7776503626
 40
0.8952411333
 40
1.0
 40
1.0
 40
1.0
 40
1.0
 10
4.5008277748
 20
5.8278369024
 30
0.0
 10
4.5008277748
 20
5.8293485208
 30
0.0
 10
4.4998460998
 20
5.8325950135
 30
0.0
 10
4.496087691
 20
5.8363113885
 30
0.0
 10
4.4908050822
 20
5.8386987768
 30
0.0
 10
4.4846987818
 20
5.8395237368
 30
0.0
 10
4.4785923451
 20
5.8386990094
 30
0.0
 10
4.4733093688
 20
5.836311772
 30
0.0
 10
4.4695505152
 20
5.8325953191
 30
0.0
 10
4.4685687075
 20
5.8293485902
 30
0.0
 10
4.4685687075
 20
5.8278369024
 30
0.0
  0
SPLINE
  5
49A
100
AcDbEntity
  8
0
100
AcDbSpline
 62
7
  6
CONTINUOUS
 70
0
 71
3
 72
15
 73
11
 74
0
 42
0.0000001
 43
0.0000001
 44
0.0000000001
 40
0.0
 40
0.0
 40
0.0
 40
0.0
 40
0.1047540588
 40
0.2223334687
 40
0.3560082615
 40
0.4999880437
 40
0.6439681158
 40
0.7776503626
 40
0.8952411333
 40
1.0
 40
1.0
 40
1.0
 40
1.0
 10
4.1885019148
 20
5.6501805057
 30
0.0
 10
4.1885019148
 20
5.6513335252
 30
0.0
 10
4.1892507086
 20
5.6538098575
 30
0.0
 10
4.192117516
 20
5.6566446026
 30
0.0
 10
4.1961469398
 20
5.6584656346
 30
0.0
 10
4.200804652
 20
5.6590948906
 30
0.0
 10
4.2054624683
 20
5.658465812
 30
0.0
 10
4.2094921724
 20
5.6566448952
 30
0.0
 10
4.2123593191
 20
5.6538100906
 30
0.0
 10
4.213108214
 20
5.6513335781
 30
0.0
 10
4.213108214
 20
5.6501805057
 30
0.0
  0
LINE
  5
49B
100
AcDbEntity
  8
0
100
AcDbLine
 62
7
  6
CONTINUOUS
 10
4.213108214
 20
5.6501805057
 11
4.2128680996
 21
5.6484726934
  0
LINE
  5
49C
100
AcDbEntity
  8
0
100
AcDbLine
 62
7
  6
CONTINUOUS
 10
4.1232572438
 20
5.5182592813
 11
4.1230174899
 21
5.5199657781
  0
LINE
  5
49D
100
AcDbEntity
  8
0
100
AcDbLine
 62
7
  6
CONTINUOUS
 10
4.4685687075
 20
5.8278369024
 11
4.4688834995
 21
5.825597946
  0
SPLINE
  5
49E
100
AcDbEntity
  8
0
100
AcDbSpline
 62
7
  6
CONTINUOUS
 70
0
 71
3
 72
15
 73
11
 74
0
 42
0.0000001
 43
0.0000001
 44
0.0000000001
 40
0.0
 40
0.0
 40
0.0
 40
0.0
 40
0.1047540588
 40
0.2223334687
 40
0.3560082615
 40
0.4999880437
 40
0.6439681158
 40
0.7776503626
 40
0.8952411333
 40
1.0
 40
1.0
 40
1.0
 40
1.0
 10
4.4049128773
 20
5.8413275518
 30
0.0
 10
4.4049128773
 20
5.8428391702
 30
0.0
 10
4.4039312023
 20
5.8460856628
 30
0.0
 10
4.4001727935
 20
5.8498020378
 30
0.0
 10
4.3948901847
 20
5.8521894262
 30
0.0
 10
4.3887838843
 20
5.8530143862
 30
0.0
 10
4.3826774476
 20
5.8521896588
 30
0.0
 10
4.3773944713
 20
5.8498024214
 30
0.0
 10
4.3736356177
 20
5.8460859685
 30
0.0
 10
4.37265381
 20
5.8428392395
 30
0.0
 10
4.37265381
 20
5.8413275518
 30
0.0
  0
SPLINE
  5
49F
100
AcDbEntity
  8
0
100
AcDbSpline
 62
7
  6
CONTINUOUS
 70
0
 71
3
 72
15
 73
11
 74
0
 42
0.0000001
 43
0.0000001
 44
0.0000000001
 40
0.0
 40
0.0
 40
0.0
 40
0.0
 40
0.104740222
 40
0.2223288362
 40
0.3559991838
 40
0.4999812765
 40
0.6439632335
 40
0.7776452584
 40
0.8952531632
 40
1.0
 40
1.0
 40
1.0
 40
1.0
 10
4.0858988048
 20
5.5817225721
 30
0.0
 10
4.0858988048
 20
5.5812614248
 30
0.0
 10
4.0861983844
 20
5.5802709733
 30
0.0
 10
4.0873448179
 20
5.579136837
 30
0.0
 10
4.0889567462
 20
5.5784085921
 30
0.0
 10
4.0908198063
 20
5.578156873
 30
0.0
 10
4.0926829281
 20
5.5784084778
 30
0.0
 10
4.0942950494
 20
5.5791366346
 30
0.0
 10
4.0954416712
 20
5.5802708355
 30
0.0
 10
4.0957413245
 20
5.5812613956
 30
0.0
 10
4.0957413245
 20
5.5817225721
 30
0.0
  0
LINE
  5
4A0
100
AcDbEntity
  8
0
100
AcDbLine
 62
7
  6
CONTINUOUS
 10
4.106635279
 20
5.5934047652
 11
4.1069495983
 21
5.5956419969
  0
SPLINE
  5
4A1
100
AcDbEntity
  8
0
100
AcDbSpline
 62
7
  6
CONTINUOUS
 70
0
 71
3
 72
15
 73
11
 74
0
 42
0.0000001
 43
0.0000001
 44
0.0000000001
 40
0.0
 40
0.0
 40
0.0
 40
0.0
 40
0.104753742
 40
0.2223384893
 40
0.3560156831
 40
0.49998038
 40
0.6439545881
 40
0.7776411556
 40
0.8952379495
 40
1.0
 40
1.0
 40
1.0
 40
1.0
 10
4.2136862289
 20
5.5837201477
 30
0.0
 10
4.2136862289
 20
5.5848731628
 30
0.0
 10
4.2144350058
 20
5.5873495677
 30
0.0
 10
4.217301985
 20
5.590184273
 30
0.0
 10
4.221331307
 20
5.5920052857
 30
0.0
 10
4.2259888115
 20
5.5926345012
 30
0.0
 10
4.2306464413
 20
5.5920055255
 30
0.0
 10
4.2346762379
 20
5.5901847045
 30
0.0
 10
4.2375435744
 20
5.5873498677
 30
0.0
 10
4.2382925281
 20
5.5848732543
 30
0.0
 10
4.2382925281
 20
5.5837201477
 30
0.0
  0
LINE
  5
4A2
100
AcDbEntity
  8
0
100
AcDbLine
 62
7
  6
CONTINUOUS
 10
4.2382925281
 20
5.5837201477
 11
4.2380524137
 21
5.5820123354
  0
LINE
  5
4A3
100
AcDbEntity
  8
0
100
AcDbLine
 62
7
  6
CONTINUOUS
 10
4.37265381
 20
5.8413275518
 11
4.372968602
 21
5.8390885954
  0
SPLINE
  5
4A4
100
AcDbEntity
  8
0
100
AcDbSpline
 62
7
  6
CONTINUOUS
 70
0
 71
3
 72
15
 73
11
 74
0
 42
0.0000001
 43
0.0000001
 44
0.0000000001
 40
0.0
 40
0.0
 40
0.0
 40
0.0
 40
0.1047540588
 40
0.2223334687
 40
0.3560082615
 40
0.4999880437
 40
0.6439681158
 40
0.7776503626
 40
0.8952411333
 40
1.0
 40
1.0
 40
1.0
 40
1.0
 10
4.3089979798
 20
5.8278369024
 30
0.0
 10
4.3089979798
 20
5.8293485208
 30
0.0
 10
4.3080163048
 20
5.8325950135
 30
0.0
 10
4.304257896
 20
5.8363113885
 30
0.0
 10
4.2989752872
 20
5.8386987768
 30
0.0
 10
4.2928689869
 20
5.8395237368
 30
0.0
 10
4.2867625502
 20
5.8386990094
 30
0.0
 10
4.2814795738
 20
5.836311772
 30
0.0
 10
4.2777207202
 20
5.8325953191
 30
0.0
 10
4.2767389125
 20
5.8293485902
 30
0.0
 10
4.2767389125
 20
5.8278369024
 30
0.0
  0
LINE
  5
4A5
100
AcDbEntity
  8
0
100
AcDbLine
 62
7
  6
CONTINUOUS
 10
4.078756669
 20
5.5800160754
 11
4.0785169151
 21
5.5817225721
  0
LINE
  5
4A6
100
AcDbEntity
  8
0
100
AcDbLine
 62
7
  6
CONTINUOUS
 10
4.2767389125
 20
5.8278369024
 11
4.2770537046
 21
5.825597946
  0
SPLINE
  5
4A7
100
AcDbEntity
  8
0
100
AcDbSpline
 62
7
  6
CONTINUOUS
 70
0
 71
3
 72
15
 73
11
 74
0
 42
0.0000001
 43
0.0000001
 44
0.0000000001
 40
0.0
 40
0.0
 40
0.0
 40
0.0
 40
0.1047540588
 40
0.2223334687
 40
0.3560082615
 40
0.4999880437
 40
0.6439681158
 40
0.7776503626
 40
0.8952411333
 40
1.0
 40
1.0
 40
1.0
 40
1.0
 10
4.227685256
 20
5.7894187833
 30
0.0
 10
4.227685256
 20
5.7909304017
 30
0.0
 10
4.226703581
 20
5.7941768944
 30
0.0
 10
4.2229451722
 20
5.7978932694
 30
0.0
 10
4.2176625634
 20
5.8002806577
 30
0.0
 10
4.2115562631
 20
5.8011056177
 30
0.0
 10
4.2054498263
 20
5.8002808903
 30
0.0
 10
4.20016685
 20
5.7978936529
 30
0.0
 10
4.1964079964
 20
5.7941772
 30
0.0
 10
4.1954261887
 20
5.7909304711
 30
0.0
 10
4.1954261887
 20
5.7894187833
 30
0.0
  0
SPLINE
  5
4A8
100
AcDbEntity
  8
0
100
AcDbSpline
 62
7
  6
CONTINUOUS
 70
0
 71
3
 72
15
 73
11
 74
0
 42
0.0000001
 43
0.0000001
 44
0.0000000001
 40
0.0
 40
0.0
 40
0.0
 40
0.0
 40
0.1047540588
 40
0.2223334687
 40
0.3560082615
 40
0.4999880437
 40
0.6439681158
 40
0.7776503626
 40
0.8952411333
 40
1.0
 40
1.0
 40
1.0
 40
1.0
 10
4.2824910544
 20
5.535067789
 30
0.0
 10
4.2824910544
 20
5.5362208085
 30
0.0
 10
4.2832398482
 20
5.5386971408
 30
0.0
 10
4.2861066556
 20
5.5415318859
 30
0.0
 10
4.2901360794
 20
5.5433529179
 30
0.0
 10
4.2947937916
 20
5.5439821739
 30
0.0
 10
4.2994516079
 20
5.5433530953
 30
0.0
 10
4.3034813121
 20
5.5415321785
 30
0.0
 10
4.3063484587
 20
5.5386973739
 30
0.0
 10
4.3070973537
 20
5.5362208614
 30
0.0
 10
4.3070973537
 20
5.535067789
 30
0.0
  0
LINE
  5
4A9
100
AcDbEntity
  8
0
100
AcDbLine
 62
7
  6
CONTINUOUS
 10
4.3070973537
 20
5.535067789
 11
4.3068572393
 21
5.5333599767
  0
SPLINE
  5
4AA
100
AcDbEntity
  8
0
100
AcDbSpline
 62
7
  6
CONTINUOUS
 70
0
 71
3
 72
15
 73
11
 74
0
 42
0.0000001
 43
0.0000001
 44
0.0000000001
 40
0.0
 40
0.0
 40
0.0
 40
0.0
 40
0.104740222
 40
0.2223288362
 40
0.3559991838
 40
0.4999812765
 40
0.6439632335
 40
0.7776452584
 40
0.8952531632
 40
1.0
 40
1.0
 40
1.0
 40
1.0
 10
4.0705649518
 20
5.6501805057
 30
0.0
 10
4.0705649518
 20
5.6497193583
 30
0.0
 10
4.0708645314
 20
5.6487289069
 30
0.0
 10
4.0720109648
 20
5.6475947705
 30
0.0
 10
4.0736228931
 20
5.6468665257
 30
0.0
 10
4.0754859533
 20
5.6466148065
 30
0.0
 10
4.0773490751
 20
5.6468664114
 30
0.0
 10
4.0789611963
 20
5.6475945681
 30
0.0
 10
4.0801078181
 20
5.648728769
 30
0.0
 10
4.0804074714
 20
5.6497193292
 30
0.0
 10
4.0804074714
 20
5.6501805057
 30
0.0
  0
LINE
  5
4AB
100
AcDbEntity
  8
0
100
AcDbLine
 62
7
  6
CONTINUOUS
 10
4.0913014259
 20
5.6618626988
 11
4.0916157452
 21
5.6640999305
  0
LINE
  5
4AC
100
AcDbEntity
  8
0
100
AcDbLine
 62
7
  6
CONTINUOUS
 10
4.1954261887
 20
5.7894187833
 11
4.1957409807
 21
5.7871798269
  0
SPLINE
  5
4AD
100
AcDbEntity
  8
0
100
AcDbSpline
 62
7
  6
CONTINUOUS
 70
0
 71
3
 72
15
 73
11
 74
0
 42
0.0000001
 43
0.0000001
 44
0.0000000001
 40
0.0
 40
0.0
 40
0.0
 40
0.0
 40
0.1047540588
 40
0.2223334687
 40
0.3560082615
 40
0.4999880437
 40
0.6439681158
 40
0.7776503626
 40
0.8952411333
 40
1.0
 40
1.0
 40
1.0
 40
1.0
 10
4.173353831
 20
5.7319220049
 30
0.0
 10
4.173353831
 20
5.7334336233
 30
0.0
 10
4.172372156
 20
5.736680116
 30
0.0
 10
4.1686137471
 20
5.740396491
 30
0.0
 10
4.1633311384
 20
5.7427838793
 30
0.0
 10
4.157224838
 20
5.7436088393
 30
0.0
 10
4.1511184013
 20
5.7427841119
 30
0.0
 10
4.145835425
 20
5.7403968745
 30
0.0
 10
4.1420765713
 20
5.7366804216
 30
0.0
 10
4.1410947637
 20
5.7334336927
 30
0.0
 10
4.1410947637
 20
5.7319220049
 30
0.0
  0
LINE
  5
4AE
100
AcDbEntity
  8
0
100
AcDbLine
 62
7
  6
CONTINUOUS
 10
4.0634220718
 20
5.6484765184
 11
4.063183062
 21
5.6501805057
  0
SPLINE
  5
4AF
100
AcDbEntity
  8
0
100
AcDbSpline
 62
7
  6
CONTINUOUS
 70
0
 71
3
 72
15
 73
11
 74
0
 42
0.0000001
 43
0.0000001
 44
0.0000000001
 40
0.0
 40
0.0
 40
0.0
 40
0.0
 40
0.1047540588
 40
0.2223334687
 40
0.3560082615
 40
0.4999880437
 40
0.6439681158
 40
0.7776503626
 40
0.8952411333
 40
1.0
 40
1.0
 40
1.0
 40
1.0
 10
4.3764801941
 20
5.5172597897
 30
0.0
 10
4.3764801941
 20
5.5184128092
 30
0.0
 10
4.3772289879
 20
5.5208891415
 30
0.0
 10
4.3800957952
 20
5.5237238867
 30
0.0
 10
4.384125219
 20
5.5255449186
 30
0.0
 10
4.3887829313
 20
5.5261741746
 30
0.0
 10
4.3934407475
 20
5.525545096
 30
0.0
 10
4.3974704517
 20
5.5237241793
 30
0.0
 10
4.4003375983
 20
5.5208893747
 30
0.0
 10
4.4010864933
 20
5.5184128621
 30
0.0
 10
4.4010864933
 20
5.5172597897
 30
0.0
  0
LINE
  5
4B0
100
AcDbEntity
  8
0
100
AcDbLine
 62
7
  6
CONTINUOUS
 10
4.4010864933
 20
5.5172597897
 11
4.4008463789
 21
5.5155519774
  0
LINE
  5
4B1
100
AcDbEntity
  8
0
100
AcDbLine
 62
7
  6
CONTINUOUS
 10
4.1410947637
 20
5.7319220049
 11
4.1414095557
 21
5.7296830485
  0
SPLINE
  5
4B2
100
AcDbEntity
  8
0
100
AcDbSpline
 62
7
  6
CONTINUOUS
 70
0
 71
3
 72
15
 73
11
 74
0
 42
0.0000001
 43
0.0000001
 44
0.0000000001
 40
0.0
 40
0.0
 40
0.0
 40
0.0
 40
0.1047540588
 40
0.2223334687
 40
0.3560082615
 40
0.4999880437
 40
0.6439681158
 40
0.7776503626
 40
0.8952411333
 40
1.0
 40
1.0
 40
1.0
 40
1.0
 10
4.1542751717
 20
5.6640999305
 30
0.0
 10
4.1542751717
 20
5.6656115489
 30
0.0
 10
4.1532934966
 20
5.6688580416
 30
0.0
 10
4.1495350878
 20
5.6725744165
 30
0.0
 10
4.144252479
 20
5.6749618049
 30
0.0
 10
4.1381461787
 20
5.6757867649
 30
0.0
 10
4.132039742
 20
5.6749620375
 30
0.0
 10
4.1267567656
 20
5.6725748001
 30
0.0
 10
4.122997912
 20
5.6688583472
 30
0.0
 10
4.1220161044
 20
5.6656116182
 30
0.0
 10
4.1220161044
 20
5.6640999305
 30
0.0
  0
SPLINE
  5
4B3
100
AcDbEntity
  8
0
100
AcDbSpline
 62
7
  6
CONTINUOUS
 70
0
 71
3
 72
15
 73
11
 74
0
 42
0.0000001
 43
0.0000001
 44
0.0000000001
 40
0.0
 40
0.0
 40
0.0
 40
0.0
 40
0.104740222
 40
0.2223288362
 40
0.3559991838
 40
0.4999812765
 40
0.6439632335
 40
0.7776452584
 40
0.8952531632
 40
1.0
 40
1.0
 40
1.0
 40
1.0
 10
4.0858988048
 20
5.7186384392
 30
0.0
 10
4.0858988048
 20
5.7181772919
 30
0.0
 10
4.0861983844
 20
5.7171868405
 30
0.0
 10
4.0873448179
 20
5.7160527041
 30
0.0
 10
4.0889567462
 20
5.7153244593
 30
0.0
 10
4.0908198063
 20
5.7150727401
 30
0.0
 10
4.0926829281
 20
5.7153243449
 30
0.0
 10
4.0942950494
 20
5.7160525017
 30
0.0
 10
4.0954416712
 20
5.7171867026
 30
0.0
 10
4.0957413245
 20
5.7181772628
 30
0.0
 10
4.0957413245
 20
5.7186384392
 30
0.0
  0
LINE
  5
4B4
100
AcDbEntity
  8
0
100
AcDbLine
 62
7
  6
CONTINUOUS
 10
4.106635279
 20
5.7303206323
 11
4.1069495983
 21
5.7325578641
  0
LINE
  5
4B5
100
AcDbEntity
  8
0
100
AcDbLine
 62
7
  6
CONTINUOUS
 10
4.1220161044
 20
5.6640999305
 11
4.1223308964
 21
5.6618609741
  0
SPLINE
  5
4B6
100
AcDbEntity
  8
0
100
AcDbSpline
 62
7
  6
CONTINUOUS
 70
0
 71
3
 72
15
 73
11
 74
0
 42
0.0000001
 43
0.0000001
 44
0.0000000001
 40
0.0
 40
0.0
 40
0.0
 40
0.0
 40
0.1047540588
 40
0.2223334687
 40
0.3560082615
 40
0.4999880437
 40
0.6439681158
 40
0.7776503626
 40
0.8952411333
 40
1.0
 40
1.0
 40
1.0
 40
1.0
 10
4.4704693337
 20
5.535067789
 30
0.0
 10
4.4704693337
 20
5.5362208085
 30
0.0
 10
4.4712181275
 20
5.5386971408
 30
0.0
 10
4.4740849349
 20
5.5415318859
 30
0.0
 10
4.4781143586
 20
5.5433529179
 30
0.0
 10
4.4827720709
 20
5.5439821739
 30
0.0
 10
4.4874298872
 20
5.5433530953
 30
0.0
 10
4.4914595913
 20
5.5415321785
 30
0.0
 10
4.4943267379
 20
5.5386973739
 30
0.0
 10
4.4950756329
 20
5.5362208614
 30
0.0
 10
4.4950756329
 20
5.535067789
 30
0.0
  0
LINE
  5
4B7
100
AcDbEntity
  8
0
100
AcDbLine
 62
7
  6
CONTINUOUS
 10
4.4950756329
 20
5.535067789
 11
4.4948355185
 21
5.5333599767
  0
SPLINE
  5
4B8
100
AcDbEntity
  8
0
100
AcDbSpline
 62
7
  6
CONTINUOUS
 70
0
 71
3
 72
15
 73
11
 74
0
 42
0.0000001
 43
0.0000001
 44
0.0000000001
 40
0.0
 40
0.0
 40
0.0
 40
0.0
 40
0.1047540588
 40
0.2223334687
 40
0.3560082615
 40
0.4999880437
 40
0.6439681158
 40
0.7776503626
 40
0.8952411333
 40
1.0
 40
1.0
 40
1.0
 40
1.0
 10
4.173353831
 20
5.5962778561
 30
0.0
 10
4.173353831
 20
5.5977894744
 30
0.0
 10
4.172372156
 20
5.6010359671
 30
0.0
 10
4.1686137471
 20
5.6047523421
 30
0.0
 10
4.1633311384
 20
5.6071397305
 30
0.0
 10
4.157224838
 20
5.6079646905
 30
0.0
 10
4.1511184013
 20
5.6071399631
 30
0.0
 10
4.145835425
 20
5.6047527257
 30
0.0
 10
4.1420765713
 20
5.6010362728
 30
0.0
 10
4.1410947637
 20
5.5977895438
 30
0.0
 10
4.1410947637
 20
5.5962778561
 30
0.0
  0
LINE
  5
4B9
100
AcDbEntity
  8
0
100
AcDbLine
 62
7
  6
CONTINUOUS
 10
4.078756669
 20
5.7169319425
 11
4.0785169151
 21
5.7186384392
  0
LINE
  5
4BA
100
AcDbEntity
  8
0
100
AcDbLine
 62
7
  6
CONTINUOUS
 10
4.1410947637
 20
5.5962778561
 11
4.1414095557
 21
5.5940388997
  0
SPLINE
  5
4BB
100
AcDbEntity
  8
0
100
AcDbSpline
 62
7
  6
CONTINUOUS
 70
0
 71
3
 72
15
 73
11
 74
0
 42
0.0000001
 43
0.0000001
 44
0.0000000001
 40
0.0
 40
0.0
 40
0.0
 40
0.0
 40
0.1047540588
 40
0.2223334687
 40
0.3560082615
 40
0.4999880437
 40
0.6439681158
 40
0.7776503626
 40
0.8952411333
 40
1.0
 40
1.0
 40
1.0
 40
1.0
 10
4.227685256
 20
5.5387810777
 30
0.0
 10
4.227685256
 20
5.540292696
 30
0.0
 10
4.226703581
 20
5.5435391887
 30
0.0
 10
4.2229451722
 20
5.5472555637
 30
0.0
 10
4.2176625634
 20
5.5496429521
 30
0.0
 10
4.2115562631
 20
5.550467912
 30
0.0
 10
4.2054498263
 20
5.5496431847
 30
0.0
 10
4.20016685
 20
5.5472559473
 30
0.0
 10
4.1964079964
 20
5.5435394944
 30
0.0
 10
4.1954261887
 20
5.5402927654
 30
0.0
 10
4.1954261887
 20
5.5387810777
 30
0.0
  0
SPLINE
  5
4BC
100
AcDbEntity
  8
0
100
AcDbSpline
 62
7
  6
CONTINUOUS
 70
0
 71
3
 72
15
 73
11
 74
0
 42
0.0000001
 43
0.0000001
 44
0.0000000001
 40
0.0
 40
0.0
 40
0.0
 40
0.0
 40
0.104740222
 40
0.2223288362
 40
0.3559991838
 40
0.4999812765
 40
0.6439632335
 40
0.7776452584
 40
0.8952531632
 40
1.0
 40
1.0
 40
1.0
 40
1.0
 10
4.1303993797
 20
5.7803952333
 30
0.0
 10
4.1303993797
 20
5.779934086
 30
0.0
 10
4.1306989593
 20
5.7789436345
 30
0.0
 10
4.1318453927
 20
5.7778094982
 30
0.0
 10
4.1334573211
 20
5.7770812533
 30
0.0
 10
4.1353203812
 20
5.7768295341
 30
0.0
 10
4.137183503
 20
5.777081139
 30
0.0
 10
4.1387956242
 20
5.7778092957
 30
0.0
 10
4.139942246
 20
5.7789434967
 30
0.0
 10
4.1402418994
 20
5.7799340568
 30
0.0
 10
4.1402418994
 20
5.7803952333
 30
0.0
  0
SPLINE
  5
4BD
100
AcDbEntity
  8
0
100
AcDbSpline
 62
7
  6
CONTINUOUS
 70
0
 71
3
 72
15
 73
11
 74
0
 42
0.0000001
 43
0.0000001
 44
0.0000000001
 40
0.0
 40
0.0
 40
0.0
 40
0.0
 40
0.1047540588
 40
0.2223334687
 40
0.3560082615
 40
0.4999880437
 40
0.6439681158
 40
0.7776503626
 40
0.8952411333
 40
1.0
 40
1.0
 40
1.0
 40
1.0
 10
4.5392741592
 20
5.5837201477
 30
0.0
 10
4.5392741592
 20
5.5848731672
 30
0.0
 10
4.540022953
 20
5.5873494995
 30
0.0
 10
4.5428897604
 20
5.5901842447
 30
0.0
 10
4.5469191842
 20
5.5920052766
 30
0.0
 10
4.5515768964
 20
5.5926345326
 30
0.0
 10
4.5562347127
 20
5.592005454
 30
0.0
 10
4.5602644169
 20
5.5901845372
 30
0.0
 10
4.5631315635
 20
5.5873497326
 30
0.0
 10
4.5638804585
 20
5.5848732201
 30
0.0
 10
4.5638804585
 20
5.5837201477
 30
0.0
  0
LINE
  5
4BE
100
AcDbEntity
  8
0
100
AcDbLine
 62
7
  6
CONTINUOUS
 10
4.5638804585
 20
5.5837201477
 11
4.5636403659
 21
5.5820124353
  0
LINE
  5
4BF
100
AcDbEntity
  8
0
100
AcDbLine
 62
7
  6
CONTINUOUS
 10
4.1511358538
 20
5.7920774264
 11
4.1514501732
 21
5.7943146581
  0
LINE
  5
4C0
100
AcDbEntity
  8
0
100
AcDbLine
 62
7
  6
CONTINUOUS
 10
4.1954261887
 20
5.5387810777
 11
4.1957409807
 21
5.5365421213
  0
SPLINE
  5
4C1
100
AcDbEntity
  8
0
100
AcDbSpline
 62
7
  6
CONTINUOUS
 70
0
 71
3
 72
15
 73
11
 74
0
 42
0.0000001
 43
0.0000001
 44
0.0000000001
 40
0.0
 40
0.0
 40
0.0
 40
0.0
 40
0.1047540588
 40
0.2223334687
 40
0.3560082615
 40
0.4999880437
 40
0.6439681158
 40
0.7776503626
 40
0.8952411333
 40
1.0
 40
1.0
 40
1.0
 40
1.0
 10
4.3089979798
 20
5.5003629586
 30
0.0
 10
4.3089979798
 20
5.501874577
 30
0.0
 10
4.3080163048
 20
5.5051210696
 30
0.0
 10
4.304257896
 20
5.5088374446
 30
0.0
 10
4.2989752872
 20
5.511224833
 30
0.0
 10
4.2928689869
 20
5.512049793
 30
0.0
 10
4.2867625502
 20
5.5112250656
 30
0.0
 10
4.2814795738
 20
5.5088378282
 30
0.0
 10
4.2777207202
 20
5.5051213753
 30
0.0
 10
4.2767389125
 20
5.5018746463
 30
0.0
 10
4.2767389125
 20
5.5003629586
 30
0.0
  0
LINE
  5
4C2
100
AcDbEntity
  8
0
100
AcDbLine
 62
7
  6
CONTINUOUS
 10
4.1232572438
 20
5.7786887365
 11
4.1230174899
 21
5.7803952333
  0
LINE
  5
4C3
100
AcDbEntity
  8
0
100
AcDbLine
 62
7
  6
CONTINUOUS
 10
4.2767389125
 20
5.5003629586
 11
4.2770537046
 21
5.4981240022
  0
SPLINE
  5
4C4
100
AcDbEntity
  8
0
100
AcDbSpline
 62
7
  6
CONTINUOUS
 70
0
 71
3
 72
15
 73
11
 74
0
 42
0.0000001
 43
0.0000001
 44
0.0000000001
 40
0.0
 40
0.0
 40
0.0
 40
0.0
 40
0.1047540588
 40
0.2223334687
 40
0.3560082615
 40
0.4999880437
 40
0.6439681158
 40
0.7776503626
 40
0.8952411333
 40
1.0
 40
1.0
 40
1.0
 40
1.0
 10
4.6271178997
 20
5.6501805057
 30
0.0
 10
4.6271178997
 20
5.6513335252
 30
0.0
 10
4.6278666935
 20
5.6538098575
 30
0.0
 10
4.6307335009
 20
5.6566446026
 30
0.0
 10
4.6347629247
 20
5.6584656346
 30
0.0
 10
4.6394206369
 20
5.6590948906
 30
0.0
 10
4.6440784532
 20
5.658465812
 30
0.0
 10
4.6481081573
 20
5.6566448952
 30
0.0
 10
4.650975304
 20
5.6538100906
 30
0.0
 10
4.6517241989
 20
5.6513335781
 30
0.0
 10
4.6517241989
 20
5.6501805057
 30
0.0
  0
LINE
  5
4C5
100
AcDbEntity
  8
0
100
AcDbLine
 62
7
  6
CONTINUOUS
 10
4.6517241989
 20
5.6501805057
 11
4.6514840845
 21
5.6484726934
  0
SPLINE
  5
4C6
100
AcDbEntity
  8
0
100
AcDbSpline
 62
7
  6
CONTINUOUS
 70
0
 71
3
 72
15
 73
11
 74
0
 42
0.0000001
 43
0.0000001
 44
0.0000000001
 40
0.0
 40
0.0
 40
0.0
 40
0.0
 40
0.1047540588
 40
0.2223334687
 40
0.3560082615
 40
0.4999880437
 40
0.6439681158
 40
0.7776503626
 40
0.8952411333
 40
1.0
 40
1.0
 40
1.0
 40
1.0
 10
4.4049128773
 20
5.4868723092
 30
0.0
 10
4.4049128773
 20
5.4883839276
 30
0.0
 10
4.4039312023
 20
5.4916304203
 30
0.0
 10
4.4001727935
 20
5.4953467953
 30
0.0
 10
4.3948901847
 20
5.4977341836
 30
0.0
 10
4.3887838843
 20
5.4985591436
 30
0.0
 10
4.3826774476
 20
5.4977344162
 30
0.0
 10
4.3773944713
 20
5.4953471788
 30
0.0
 10
4.3736356177
 20
5.4916307259
 30
0.0
 10
4.37265381
 20
5.488383997
 30
0.0
 10
4.37265381
 20
5.4868723092
 30
0.0
  0
SPLINE
  5
4C7
100
AcDbEntity
  8
0
100
AcDbSpline
 62
7
  6
CONTINUOUS
 70
0
 71
3
 72
15
 73
11
 74
0
 42
0.0000001
 43
0.0000001
 44
0.0000000001
 40
0.0
 40
0.0
 40
0.0
 40
0.0
 40
0.104740222
 40
0.2223288362
 40
0.3559991838
 40
0.4999812765
 40
0.6439632335
 40
0.7776452584
 40
0.8952531632
 40
1.0
 40
1.0
 40
1.0
 40
1.0
 10
4.19971065
 20
5.8294057026
 30
0.0
 10
4.19971065
 20
5.8289445552
 30
0.0
 10
4.2000102296
 20
5.8279541038
 30
0.0
 10
4.201156663
 20
5.8268199674
 30
0.0
 10
4.2027685914
 20
5.8260917226
 30
0.0
 10
4.2046316515
 20
5.8258400034
 30
0.0
 10
4.2064947733
 20
5.8260916082
 30
0.0
 10
4.2081068946
 20
5.826819765
 30
0.0
 10
4.2092535164
 20
5.8279539659
 30
0.0
 10
4.2095531697
 20
5.8289445261
 30
0.0
 10
4.2095531697
 20
5.8294057026
 30
0.0
  0
LINE
  5
4C8
100
AcDbEntity
  8
0
100
AcDbLine
 62
7
  6
CONTINUOUS
 10
4.2204471241
 20
5.8410878956
 11
4.2207614435
 21
5.8433251274
  0
LINE
  5
4C9
100
AcDbEntity
  8
0
100
AcDbLine
 62
7
  6
CONTINUOUS
 10
4.37265381
 20
5.4868723092
 11
4.372968602
 21
5.4846333528
  0
SPLINE
  5
4CA
100
AcDbEntity
  8
0
100
AcDbSpline
 62
7
  6
CONTINUOUS
 70
0
 71
3
 72
15
 73
11
 74
0
 42
0.0000001
 43
0.0000001
 44
0.0000000001
 40
0.0
 40
0.0
 40
0.0
 40
0.0
 40
0.1047540588
 40
0.2223334687
 40
0.3560082615
 40
0.4999880437
 40
0.6439681158
 40
0.7776503626
 40
0.8952411333
 40
1.0
 40
1.0
 40
1.0
 40
1.0
 10
4.5008277748
 20
5.5003629586
 30
0.0
 10
4.5008277748
 20
5.501874577
 30
0.0
 10
4.4998460998
 20
5.5051210696
 30
0.0
 10
4.496087691
 20
5.5088374446
 30
0.0
 10
4.4908050822
 20
5.511224833
 30
0.0
 10
4.4846987818
 20
5.512049793
 30
0.0
 10
4.4785923451
 20
5.5112250656
 30
0.0
 10
4.4733093688
 20
5.5088378282
 30
0.0
 10
4.4695505152
 20
5.5051213753
 30
0.0
 10
4.4685687075
 20
5.5018746463
 30
0.0
 10
4.4685687075
 20
5.5003629586
 30
0.0
  0
SPLINE
  5
4CB
100
AcDbEntity
  8
0
100
AcDbSpline
 62
7
  6
CONTINUOUS
 70
0
 71
3
 72
15
 73
11
 74
0
 42
0.0000001
 43
0.0000001
 44
0.0000000001
 40
0.0
 40
0.0
 40
0.0
 40
0.0
 40
0.1047540588
 40
0.2223334687
 40
0.3560082615
 40
0.4999880437
 40
0.6439681158
 40
0.7776503626
 40
0.8952411333
 40
1.0
 40
1.0
 40
1.0
 40
1.0
 10
4.6080392404
 20
5.7180025801
 30
0.0
 10
4.6080392404
 20
5.7191555996
 30
0.0
 10
4.6087880342
 20
5.7216319319
 30
0.0
 10
4.6116548416
 20
5.7244666771
 30
0.0
 10
4.6156842653
 20
5.726287709
 30
0.0
 10
4.6203419776
 20
5.726916965
 30
0.0
 10
4.6249997939
 20
5.7262878864
 30
0.0
 10
4.629029498
 20
5.7244669696
 30
0.0
 10
4.6318966447
 20
5.7216321651
 30
0.0
 10
4.6326455396
 20
5.7191556525
 30
0.0
 10
4.6326455396
 20
5.7180025801
 30
0.0
  0
LINE
  5
4CC
100
AcDbEntity
  8
0
100
AcDbLine
 62
7
  6
CONTINUOUS
 10
4.6326455396
 20
5.7180025801
 11
4.6324054252
 21
5.7162947678
  0
LINE
  5
4CD
100
AcDbEntity
  8
0
100
AcDbLine
 62
7
  6
CONTINUOUS
 10
4.1925685141
 20
5.8276992058
 11
4.1923287602
 21
5.8294057026
  0
LINE
  5
4CE
100
AcDbEntity
  8
0
100
AcDbLine
 62
7
  6
CONTINUOUS
 10
4.4685687075
 20
5.5003629586
 11
4.4688834995
 21
5.4981240022
  0
SPLINE
  5
4CF
100
AcDbEntity
  8
0
100
AcDbSpline
 62
7
  6
CONTINUOUS
 70
0
 71
3
 72
15
 73
11
 74
0
 42
0.0000001
 43
0.0000001
 44
0.0000000001
 40
0.0
 40
0.0
 40
0.0
 40
0.0
 40
0.1047540588
 40
0.2223334687
 40
0.3560082615
 40
0.4999880437
 40
0.6439681158
 40
0.7776503626
 40
0.8952411333
 40
1.0
 40
1.0
 40
1.0
 40
1.0
 10
4.5821404986
 20
5.5387810777
 30
0.0
 10
4.5821404986
 20
5.540292696
 30
0.0
 10
4.5811588236
 20
5.5435391887
 30
0.0
 10
4.5774004148
 20
5.5472555637
 30
0.0
 10
4.572117806
 20
5.5496429521
 30
0.0
 10
4.5660115056
 20
5.550467912
 30
0.0
 10
4.5599050689
 20
5.5496431847
 30
0.0
 10
4.5546220926
 20
5.5472559473
 30
0.0
 10
4.550863239
 20
5.5435394944
 30
0.0
 10
4.5498814313
 20
5.5402927654
 30
0.0
 10
4.5498814313
 20
5.5387810777
 30
0.0
  0
SPLINE
  5
4D0
100
AcDbEntity
  8
0
100
AcDbSpline
 62
7
  6
CONTINUOUS
 70
0
 71
3
 72
15
 73
11
 74
0
 42
0.0000001
 43
0.0000001
 44
0.0000000001
 40
0.0
 40
0.0
 40
0.0
 40
0.0
 40
0.104740222
 40
0.2223288362
 40
0.3559991838
 40
0.4999812765
 40
0.6439632335
 40
0.7776452584
 40
0.8952531632
 40
1.0
 40
1.0
 40
1.0
 40
1.0
 10
4.2870479457
 20
5.8608723608
 30
0.0
 10
4.2870479457
 20
5.8604112135
 30
0.0
 10
4.2873475253
 20
5.859420762
 30
0.0
 10
4.2884939588
 20
5.8582866257
 30
0.0
 10
4.2901058871
 20
5.8575583808
 30
0.0
 10
4.2919689472
 20
5.8573066616
 30
0.0
 10
4.293832069
 20
5.8575582665
 30
0.0
 10
4.2954441903
 20
5.8582864232
 30
0.0
 10
4.2965908121
 20
5.8594206242
 30
0.0
 10
4.2968904654
 20
5.8604111843
 30
0.0
 10
4.2968904654
 20
5.8608723608
 30
0.0
  0
LINE
  5
4D1
100
AcDbEntity
  8
0
100
AcDbLine
 62
7
  6
CONTINUOUS
 10
4.3077844198
 20
5.8725545539
 11
4.3080987392
 21
5.8747917856
  0
SPLINE
  5
4D2
100
AcDbEntity
  8
0
100
AcDbSpline
 62
7
  6
CONTINUOUS
 70
0
 71
3
 72
15
 73
11
 74
0
 42
0.0000001
 43
0.0000001
 44
0.0000000001
 40
0.0
 40
0.0
 40
0.0
 40
0.0
 40
0.1047540588
 40
0.2223334687
 40
0.3560082615
 40
0.4999880437
 40
0.6439681158
 40
0.7776503626
 40
0.8952411333
 40
1.0
 40
1.0
 40
1.0
 40
1.0
 10
4.5537078154
 20
5.7754993585
 30
0.0
 10
4.5537078154
 20
5.776652378
 30
0.0
 10
4.5544566092
 20
5.7791287103
 30
0.0
 10
4.5573234165
 20
5.7819634555
 30
0.0
 10
4.5613528403
 20
5.7837844874
 30
0.0
 10
4.5660105525
 20
5.7844137434
 30
0.0
 10
4.5706683688
 20
5.7837846648
 30
0.0
 10
4.574698073
 20
5.781963748
 30
0.0
 10
4.5775652196
 20
5.7791289435
 30
0.0
 10
4.5783141146
 20
5.7766524309
 30
0.0
 10
4.5783141146
 20
5.7754993585
 30
0.0
  0
LINE
  5
4D3
100
AcDbEntity
  8
0
100
AcDbLine
 62
7
  6
CONTINUOUS
 10
4.5783141146
 20
5.7754993585
 11
4.5780740002
 21
5.7737915462
  0
LINE
  5
4D4
100
AcDbEntity
  8
0
100
AcDbLine
 62
7
  6
CONTINUOUS
 10
4.5498814313
 20
5.5387810777
 11
4.5501962233
 21
5.5365421213
  0
SPLINE
  5
4D5
100
AcDbEntity
  8
0
100
AcDbSpline
 62
7
  6
CONTINUOUS
 70
0
 71
3
 72
15
 73
11
 74
0
 42
0.0000001
 43
0.0000001
 44
0.0000000001
 40
0.0
 40
0.0
 40
0.0
 40
0.0
 40
0.1047540588
 40
0.2223334687
 40
0.3560082615
 40
0.4999880437
 40
0.6439681158
 40
0.7776503626
 40
0.8952411333
 40
1.0
 40
1.0
 40
1.0
 40
1.0
 10
4.6364719236
 20
5.5962778561
 30
0.0
 10
4.6364719236
 20
5.5977894744
 30
0.0
 10
4.6354902486
 20
5.6010359671
 30
0.0
 10
4.6317318398
 20
5.6047523421
 30
0.0
 10
4.626449231
 20
5.6071397305
 30
0.0
 10
4.6203429307
 20
5.6079646905
 30
0.0
 10
4.614236494
 20
5.6071399631
 30
0.0
 10
4.6089535176
 20
5.6047527257
 30
0.0
 10
4.605194664
 20
5.6010362728
 30
0.0
 10
4.6042128564
 20
5.5977895438
 30
0.0
 10
4.6042128564
 20
5.5962778561
 30
0.0
  0
LINE
  5
4D6
100
AcDbEntity
  8
0
100
AcDbLine
 62
7
  6
CONTINUOUS
 10
4.2799058098
 20
5.859165864
 11
4.279666056
 21
5.8608723608
  0
LINE
  5
4D7
100
AcDbEntity
  8
0
100
AcDbLine
 62
7
  6
CONTINUOUS
 10
4.6042128564
 20
5.5962778561
 11
4.6045276484
 21
5.5940388997
  0
SPLINE
  5
4D8
100
AcDbEntity
  8
0
100
AcDbSpline
 62
7
  6
CONTINUOUS
 70
0
 71
3
 72
15
 73
11
 74
0
 42
0.0000001
 43
0.0000001
 44
0.0000000001
 40
0.0
 40
0.0
 40
0.0
 40
0.0
 40
0.1047540588
 40
0.2223334687
 40
0.3560082615
 40
0.4999880437
 40
0.6439681158
 40
0.7776503626
 40
0.8952411333
 40
1.0
 40
1.0
 40
1.0
 40
1.0
 10
4.7182100094
 20
5.6640999305
 30
0.0
 10
4.7182100094
 20
5.6656115489
 30
0.0
 10
4.7172283344
 20
5.6688580416
 30
0.0
 10
4.7134699255
 20
5.6725744165
 30
0.0
 10
4.7081873168
 20
5.6749618049
 30
0.0
 10
4.7020810164
 20
5.6757867649
 30
0.0
 10
4.6959745797
 20
5.6749620375
 30
0.0
 10
4.6906916034
 20
5.6725748001
 30
0.0
 10
4.6869327497
 20
5.6688583472
 30
0.0
 10
4.6859509421
 20
5.6656116182
 30
0.0
 10
4.6859509421
 20
5.6640999305
 30
0.0
  0
SPLINE
  5
4D9
100
AcDbEntity
  8
0
100
AcDbSpline
 62
7
  6
CONTINUOUS
 70
0
 71
3
 72
15
 73
11
 74
0
 42
0.0000001
 43
0.0000001
 44
0.0000000001
 40
0.0
 40
0.0
 40
0.0
 40
0.0
 40
0.1047540588
 40
0.2223334687
 40
0.3560082615
 40
0.4999880437
 40
0.6439681158
 40
0.7776503626
 40
0.8952411333
 40
1.0
 40
1.0
 40
1.0
 40
1.0
 10
4.4723950915
 20
5.8139174776
 30
0.0
 10
4.4723950915
 20
5.8150704971
 30
0.0
 10
4.4731438853
 20
5.8175468294
 30
0.0
 10
4.4760106927
 20
5.8203815746
 30
0.0
 10
4.4800401165
 20
5.8222026065
 30
0.0
 10
4.4846978287
 20
5.8228318625
 30
0.0
 10
4.489355645
 20
5.8222027839
 30
0.0
 10
4.4933853492
 20
5.8203818671
 30
0.0
 10
4.4962524958
 20
5.8175470625
 30
0.0
 10
4.4970013908
 20
5.81507055
 30
0.0
 10
4.4970013908
 20
5.8139174776
 30
0.0
  0
LINE
  5
4DA
100
AcDbEntity
  8
0
100
AcDbLine
 62
7
  6
CONTINUOUS
 10
4.4970013908
 20
5.8139174776
 11
4.4967612764
 21
5.8122096653
  0
SPLINE
  5
4DB
100
AcDbEntity
  8
0
100
AcDbSpline
 62
7
  6
CONTINUOUS
 70
0
 71
3
 72
15
 73
11
 74
0
 42
0.0000001
 43
0.0000001
 44
0.0000000001
 40
0.0
 40
0.0
 40
0.0
 40
0.0
 40
0.104740222
 40
0.2223288362
 40
0.3559991838
 40
0.4999812765
 40
0.6439632335
 40
0.7776452584
 40
0.8952531632
 40
1.0
 40
1.0
 40
1.0
 40
1.0
 10
4.3838620838
 20
5.8717150323
 30
0.0
 10
4.3838620838
 20
5.8712538849
 30
0.0
 10
4.3841616634
 20
5.8702634335
 30
0.0
 10
4.3853080969
 20
5.8691292972
 30
0.0
 10
4.3869200252
 20
5.8684010523
 30
0.0
 10
4.3887830853
 20
5.8681493331
 30
0.0
 10
4.3906462071
 20
5.868400938
 30
0.0
 10
4.3922583284
 20
5.8691290947
 30
0.0
 10
4.3934049502
 20
5.8702632956
 30
0.0
 10
4.3937046035
 20
5.8712538558
 30
0.0
 10
4.3937046035
 20
5.8717150323
 30
0.0
  0
LINE
  5
4DC
100
AcDbEntity
  8
0
100
AcDbLine
 62
7
  6
CONTINUOUS
 10
4.4045985579
 20
5.8833972254
 11
4.4049128773
 21
5.8856344571
  0
LINE
  5
4DD
100
AcDbEntity
  8
0
100
AcDbLine
 62
7
  6
CONTINUOUS
 10
4.6859509421
 20
5.6640999305
 11
4.6862657341
 21
5.6618609741
  0
SPLINE
  5
4DE
100
AcDbEntity
  8
0
100
AcDbSpline
 62
7
  6
CONTINUOUS
 70
0
 71
3
 72
15
 73
11
 74
0
 42
0.0000001
 43
0.0000001
 44
0.0000000001
 40
0.0
 40
0.0
 40
0.0
 40
0.0
 40
0.1047540588
 40
0.2223334687
 40
0.3560082615
 40
0.4999880437
 40
0.6439681158
 40
0.7776503626
 40
0.8952411333
 40
1.0
 40
1.0
 40
1.0
 40
1.0
 10
4.7028761563
 20
5.7325578641
 30
0.0
 10
4.7028761563
 20
5.7340694824
 30
0.0
 10
4.7018944813
 20
5.7373159751
 30
0.0
 10
4.6981360725
 20
5.7410323501
 30
0.0
 10
4.6928534637
 20
5.7434197384
 30
0.0
 10
4.6867471633
 20
5.7442446984
 30
0.0
 10
4.6806407266
 20
5.7434199711
 30
0.0
 10
4.6753577503
 20
5.7410327337
 30
0.0
 10
4.6715988967
 20
5.7373162808
 30
0.0
 10
4.670617089
 20
5.7340695518
 30
0.0
 10
4.670617089
 20
5.7325578641
 30
0.0
  0
LINE
  5
4DF
100
AcDbEntity
  8
0
100
AcDbLine
 62
7
  6
CONTINUOUS
 10
4.3767199479
 20
5.8700085355
 11
4.3764801941
 21
5.8717150323
  0
SPLINE
  5
4E0
100
AcDbEntity
  8
0
100
AcDbSpline
 62
7
  6
CONTINUOUS
 70
0
 71
3
 72
15
 73
11
 74
0
 42
0.0000001
 43
0.0000001
 44
0.0000000001
 40
0.0
 40
0.0
 40
0.0
 40
0.0
 40
0.1047540588
 40
0.2223334687
 40
0.3560082615
 40
0.4999880437
 40
0.6439681158
 40
0.7776503626
 40
0.8952411333
 40
1.0
 40
1.0
 40
1.0
 40
1.0
 10
4.3764801941
 20
5.827408127
 30
0.0
 10
4.3764801941
 20
5.8285611465
 30
0.0
 10
4.3772289879
 20
5.8310374788
 30
0.0
 10
4.3800957952
 20
5.8338722239
 30
0.0
 10
4.384125219
 20
5.8356932559
 30
0.0
 10
4.3887829313
 20
5.8363225119
 30
0.0
 10
4.3934407475
 20
5.8356934333
 30
0.0
 10
4.3974704517
 20
5.8338725165
 30
0.0
 10
4.4003375983
 20
5.8310377119
 30
0.0
 10
4.4010864933
 20
5.8285611994
 30
0.0
 10
4.4010864933
 20
5.827408127
 30
0.0
  0
LINE
  5
4E1
100
AcDbEntity
  8
0
100
AcDbLine
 62
7
  6
CONTINUOUS
 10
4.4010864933
 20
5.827408127
 11
4.4008463789
 21
5.8257003147
  0
LINE
  5
4E2
100
AcDbEntity
  8
0
100
AcDbLine
 62
7
  6
CONTINUOUS
 10
4.670617089
 20
5.7325578641
 11
4.670931881
 21
5.7303189077
  0
SPLINE
  5
4E3
100
AcDbEntity
  8
0
100
AcDbSpline
 62
7
  6
CONTINUOUS
 70
0
 71
3
 72
15
 73
11
 74
0
 42
0.0000001
 43
0.0000001
 44
0.0000000001
 40
0.0
 40
0.0
 40
0.0
 40
0.0
 40
0.1047540588
 40
0.2223334687
 40
0.3560082615
 40
0.4999880437
 40
0.6439681158
 40
0.7776503626
 40
0.8952411333
 40
1.0
 40
1.0
 40
1.0
 40
1.0
 10
4.6583755815
 20
5.7943146581
 30
0.0
 10
4.6583755815
 20
5.7958262765
 30
0.0
 10
4.6573939064
 20
5.7990727692
 30
0.0
 10
4.6536354976
 20
5.8027891442
 30
0.0
 10
4.6483528888
 20
5.8051765325
 30
0.0
 10
4.6422465885
 20
5.8060014925
 30
0.0
 10
4.6361401518
 20
5.8051767651
 30
0.0
 10
4.6308571754
 20
5.8027895277
 30
0.0
 10
4.6270983218
 20
5.7990730748
 30
0.0
 10
4.6261165142
 20
5.7958263459
 30
0.0
 10
4.6261165142
 20
5.7943146581
 30
0.0
  0
SPLINE
  5
4E4
100
AcDbEntity
  8
0
100
AcDbSpline
 62
7
  6
CONTINUOUS
 70
0
 71
3
 72
15
 73
11
 74
0
 42
0.0000001
 43
0.0000001
 44
0.0000000001
 40
0.0
 40
0.0
 40
0.0
 40
0.0
 40
0.104740222
 40
0.2223288362
 40
0.3559991838
 40
0.4999812765
 40
0.6439632335
 40
0.7776452584
 40
0.8952531632
 40
1.0
 40
1.0
 40
1.0
 40
1.0
 10
4.4806762219
 20
5.8608723608
 30
0.0
 10
4.4806762219
 20
5.8604112135
 30
0.0
 10
4.4809758015
 20
5.859420762
 30
0.0
 10
4.482122235
 20
5.8582866257
 30
0.0
 10
4.4837341633
 20
5.8575583808
 30
0.0
 10
4.4855972234
 20
5.8573066616
 30
0.0
 10
4.4874603452
 20
5.8575582665
 30
0.0
 10
4.4890724665
 20
5.8582864232
 30
0.0
 10
4.4902190883
 20
5.8594206242
 30
0.0
 10
4.4905187416
 20
5.8604111843
 30
0.0
 10
4.4905187416
 20
5.8608723608
 30
0.0
  0
LINE
  5
4E5
100
AcDbEntity
  8
0
100
AcDbLine
 62
7
  6
CONTINUOUS
 10
4.501412696
 20
5.8725545539
 11
4.5017270154
 21
5.8747917856
  0
LINE
  5
4E6
100
AcDbEntity
  8
0
100
AcDbLine
 62
7
  6
CONTINUOUS
 10
4.6261165142
 20
5.7943146581
 11
4.6264313062
 21
5.7920757017
  0
SPLINE
  5
4E7
100
AcDbEntity
  8
0
100
AcDbSpline
 62
7
  6
CONTINUOUS
 70
0
 71
3
 72
15
 73
11
 74
0
 42
0.0000001
 43
0.0000001
 44
0.0000000001
 40
0.0
 40
0.0
 40
0.0
 40
0.0
 40
0.1047540588
 40
0.2223334687
 40
0.3560082615
 40
0.4999880437
 40
0.6439681158
 40
0.7776503626
 40
0.8952411333
 40
1.0
 40
1.0
 40
1.0
 40
1.0
 10
4.2805652966
 20
5.8139174776
 30
0.0
 10
4.2805652966
 20
5.8150704971
 30
0.0
 10
4.2813140904
 20
5.8175468294
 30
0.0
 10
4.2841808978
 20
5.8203815746
 30
0.0
 10
4.2882103215
 20
5.8222026065
 30
0.0
 10
4.2928680338
 20
5.8228318625
 30
0.0
 10
4.2975258501
 20
5.8222027839
 30
0.0
 10
4.3015555542
 20
5.8203818671
 30
0.0
 10
4.3044227008
 20
5.8175470625
 30
0.0
 10
4.3051715958
 20
5.81507055
 30
0.0
 10
4.3051715958
 20
5.8139174776
 30
0.0
  0
LINE
  5
4E8
100
AcDbEntity
  8
0
100
AcDbLine
 62
7
  6
CONTINUOUS
 10
4.3051715958
 20
5.8139174776
 11
4.3049314814
 21
5.8122096653
  0
SPLINE
  5
4E9
100
AcDbEntity
  8
0
100
AcDbSpline
 62
7
  6
CONTINUOUS
 70
0
 71
3
 72
15
 73
11
 74
0
 42
0.0000001
 43
0.0000001
 44
0.0000000001
 40
0.0
 40
0.0
 40
0.0
 40
0.0
 40
0.1047540588
 40
0.2223334687
 40
0.3560082615
 40
0.4999880437
 40
0.6439681158
 40
0.7776503626
 40
0.8952411333
 40
1.0
 40
1.0
 40
1.0
 40
1.0
 10
4.5890643111
 20
5.8433251274
 30
0.0
 10
4.5890643111
 20
5.8448367457
 30
0.0
 10
4.5880826361
 20
5.8480832384
 30
0.0
 10
4.5843242273
 20
5.8517996134
 30
0.0
 10
4.5790416185
 20
5.8541870018
 30
0.0
 10
4.5729353182
 20
5.8550119617
 30
0.0
 10
4.5668288815
 20
5.8541872344
 30
0.0
 10
4.5615459051
 20
5.851799997
 30
0.0
 10
4.5577870515
 20
5.8480835441
 30
0.0
 10
4.5568052438
 20
5.8448368151
 30
0.0
 10
4.5568052438
 20
5.8433251274
 30
0.0
  0
LINE
  5
4EA
100
AcDbEntity
  8
0
100
AcDbLine
 62
7
  6
CONTINUOUS
 10
4.473534086
 20
5.859165864
 11
4.4732943322
 21
5.8608723608
  0
LINE
  5
4EB
100
AcDbEntity
  8
0
100
AcDbLine
 62
7
  6
CONTINUOUS
 10
4.5568052438
 20
5.8433251274
 11
4.5571200359
 21
5.841086171
  0
SPLINE
  5
4EC
100
AcDbEntity
  8
0
100
AcDbSpline
 62
7
  6
CONTINUOUS
 70
0
 71
3
 72
15
 73
11
 74
0
 42
0.0000001
 43
0.0000001
 44
0.0000000001
 40
0.0
 40
0.0
 40
0.0
 40
0.0
 40
0.1047540588
 40
0.2223334687
 40
0.3560082615
 40
0.4999880437
 40
0.6439681158
 40
0.7776503626
 40
0.8952411333
 40
1.0
 40
1.0
 40
1.0
 40
1.0
 10
4.5017270154
 20
5.8747917856
 30
0.0
 10
4.5017270154
 20
5.876303404
 30
0.0
 10
4.5007453404
 20
5.8795498967
 30
0.0
 10
4.4969869316
 20
5.8832662717
 30
0.0
 10
4.4917043228
 20
5.88565366
 30
0.0
 10
4.4855980224
 20
5.88647862
 30
0.0
 10
4.4794915857
 20
5.8856538926
 30
0.0
 10
4.4742086094
 20
5.8832666552
 30
0.0
 10
4.4704497558
 20
5.8795502023
 30
0.0
 10
4.4694679481
 20
5.8763034734
 30
0.0
 10
4.4694679481
 20
5.8747917856
 30
0.0
  0
SPLINE
  5
4ED
100
AcDbEntity
  8
0
100
AcDbSpline
 62
7
  6
CONTINUOUS
 70
0
 71
3
 72
15
 73
11
 74
0
 42
0.0000001
 43
0.0000001
 44
0.0000000001
 40
0.0
 40
0.0
 40
0.0
 40
0.0
 40
0.104740222
 40
0.2223288362
 40
0.3559991838
 40
0.4999812765
 40
0.6439632335
 40
0.7776452584
 40
0.8952531632
 40
1.0
 40
1.0
 40
1.0
 40
1.0
 10
4.5680135176
 20
5.8294057026
 30
0.0
 10
4.5680135176
 20
5.8289445552
 30
0.0
 10
4.5683130973
 20
5.8279541038
 30
0.0
 10
4.5694595307
 20
5.8268199674
 30
0.0
 10
4.571071459
 20
5.8260917226
 30
0.0
 10
4.5729345192
 20
5.8258400034
 30
0.0
 10
4.574797641
 20
5.8260916082
 30
0.0
 10
4.5764097622
 20
5.826819765
 30
0.0
 10
4.577556384
 20
5.8279539659
 30
0.0
 10
4.5778560373
 20
5.8289445261
 30
0.0
 10
4.5778560373
 20
5.8294057026
 30
0.0
  0
SPLINE
  5
4EE
100
AcDbEntity
  8
0
100
AcDbSpline
 62
7
  6
CONTINUOUS
 70
0
 71
3
 72
15
 73
11
 74
0
 42
0.0000001
 43
0.0000001
 44
0.0000000001
 40
0.0
 40
0.0
 40
0.0
 40
0.0
 40
0.1047540588
 40
0.2223334687
 40
0.3560082615
 40
0.4999880437
 40
0.6439681158
 40
0.7776503626
 40
0.8952411333
 40
1.0
 40
1.0
 40
1.0
 40
1.0
 10
4.1992525728
 20
5.7754993585
 30
0.0
 10
4.1992525728
 20
5.776652378
 30
0.0
 10
4.2000013666
 20
5.7791287103
 30
0.0
 10
4.2028681739
 20
5.7819634555
 30
0.0
 10
4.2068975977
 20
5.7837844874
 30
0.0
 10
4.21155531
 20
5.7844137434
 30
0.0
 10
4.2162131262
 20
5.7837846648
 30
0.0
 10
4.2202428304
 20
5.781963748
 30
0.0
 10
4.223109977
 20
5.7791289435
 30
0.0
 10
4.223858872
 20
5.7766524309
 30
0.0
 10
4.223858872
 20
5.7754993585
 30
0.0
  0
LINE
  5
4EF
100
AcDbEntity
  8
0
100
AcDbLine
 62
7
  6
CONTINUOUS
 10
4.223858872
 20
5.7754993585
 11
4.2236187576
 21
5.7737915462
  0
LINE
  5
4F0
100
AcDbEntity
  8
0
100
AcDbLine
 62
7
  6
CONTINUOUS
 10
4.5887499918
 20
5.8410878956
 11
4.5890643111
 21
5.8433251274
  0
LINE
  5
4F1
100
AcDbEntity
  8
0
100
AcDbLine
 62
7
  6
CONTINUOUS
 10
4.4694679481
 20
5.8747917856
 11
4.4697827401
 21
5.8725528292
  0
SPLINE
  5
4F2
100
AcDbEntity
  8
0
100
AcDbSpline
 62
7
  6
CONTINUOUS
 70
0
 71
3
 72
15
 73
11
 74
0
 42
0.0000001
 43
0.0000001
 44
0.0000000001
 40
0.0
 40
0.0
 40
0.0
 40
0.0
 40
0.1047540588
 40
0.2223334687
 40
0.3560082615
 40
0.4999880437
 40
0.6439681158
 40
0.7776503626
 40
0.8952411333
 40
1.0
 40
1.0
 40
1.0
 40
1.0
 10
4.4049128773
 20
5.8856344571
 30
0.0
 10
4.4049128773
 20
5.8871460755
 30
0.0
 10
4.4039312023
 20
5.8903925682
 30
0.0
 10
4.4001727935
 20
5.8941089432
 30
0.0
 10
4.3948901847
 20
5.8964963315
 30
0.0
 10
4.3887838843
 20
5.8973212915
 30
0.0
 10
4.3826774476
 20
5.8964965641
 30
0.0
 10
4.3773944713
 20
5.8941093267
 30
0.0
 10
4.3736356177
 20
5.8903928738
 30
0.0
 10
4.37265381
 20
5.8871461449
 30
0.0
 10
4.37265381
 20
5.8856344571
 30
0.0
  0
LINE
  5
4F3
100
AcDbEntity
  8
0
100
AcDbLine
 62
7
  6
CONTINUOUS
 10
4.5608713818
 20
5.8276992058
 11
4.5606316279
 21
5.8294057026
  0
LINE
  5
4F4
100
AcDbEntity
  8
0
100
AcDbLine
 62
7
  6
CONTINUOUS
 10
4.37265381
 20
5.8856344571
 11
4.372968602
 21
5.8833955007
  0
SPLINE
  5
4F5
100
AcDbEntity
  8
0
100
AcDbSpline
 62
7
  6
CONTINUOUS
 70
0
 71
3
 72
15
 73
11
 74
0
 42
0.0000001
 43
0.0000001
 44
0.0000000001
 40
0.0
 40
0.0
 40
0.0
 40
0.0
 40
0.1047540588
 40
0.2223334687
 40
0.3560082615
 40
0.4999880437
 40
0.6439681158
 40
0.7776503626
 40
0.8952411333
 40
1.0
 40
1.0
 40
1.0
 40
1.0
 10
4.1449211477
 20
5.7180025801
 30
0.0
 10
4.1449211477
 20
5.7191555996
 30
0.0
 10
4.1456699415
 20
5.7216319319
 30
0.0
 10
4.1485367489
 20
5.7244666771
 30
0.0
 10
4.1525661727
 20
5.726287709
 30
0.0
 10
4.1572238849
 20
5.726916965
 30
0.0
 10
4.1618817012
 20
5.7262878864
 30
0.0
 10
4.1659114053
 20
5.7244669696
 30
0.0
 10
4.168778552
 20
5.7216321651
 30
0.0
 10
4.1695274469
 20
5.7191556525
 30
0.0
 10
4.1695274469
 20
5.7180025801
 30
0.0
  0
LINE
  5
4F6
100
AcDbEntity
  8
0
100
AcDbLine
 62
7
  6
CONTINUOUS
 10
4.1695274469
 20
5.7180025801
 11
4.1692873326
 21
5.7162947678
  0
SPLINE
  5
4F7
100
AcDbEntity
  8
0
100
AcDbSpline
 62
7
  6
CONTINUOUS
 70
0
 71
3
 72
15
 73
11
 74
0
 42
0.0000001
 43
0.0000001
 44
0.0000000001
 40
0.0
 40
0.0
 40
0.0
 40
0.0
 40
0.1047540588
 40
0.2223334687
 40
0.3560082615
 40
0.4999880437
 40
0.6439681158
 40
0.7776503626
 40
0.8952411333
 40
1.0
 40
1.0
 40
1.0
 40
1.0
 10
4.3080987392
 20
5.8747917856
 30
0.0
 10
4.3080987392
 20
5.876303404
 30
0.0
 10
4.3071170642
 20
5.8795498967
 30
0.0
 10
4.3033586554
 20
5.8832662717
 30
0.0
 10
4.2980760466
 20
5.88565366
 30
0.0
 10
4.2919697463
 20
5.88647862
 30
0.0
 10
4.2858633095
 20
5.8856538926
 30
0.0
 10
4.2805803332
 20
5.8832666552
 30
0.0
 10
4.2768214796
 20
5.8795502023
 30
0.0
 10
4.2758396719
 20
5.8763034734
 30
0.0
 10
4.2758396719
 20
5.8747917856
 30
0.0
  0
SPLINE
  5
4F8
100
AcDbEntity
  8
0
100
AcDbSpline
 62
7
  6
CONTINUOUS
 70
0
 71
3
 72
15
 73
11
 74
0
 42
0.0000001
 43
0.0000001
 44
0.0000000001
 40
0.0
 40
0.0
 40
0.0
 40
0.0
 40
0.104740222
 40
0.2223288362
 40
0.3559991838
 40
0.4999812765
 40
0.6439632335
 40
0.7776452584
 40
0.8952531632
 40
1.0
 40
1.0
 40
1.0
 40
1.0
 10
4.637324788
 20
5.7803952333
 30
0.0
 10
4.637324788
 20
5.779934086
 30
0.0
 10
4.6376243676
 20
5.7789436345
 30
0.0
 10
4.638770801
 20
5.7778094982
 30
0.0
 10
4.6403827293
 20
5.7770812533
 30
0.0
 10
4.6422457895
 20
5.7768295341
 30
0.0
 10
4.6441089113
 20
5.777081139
 30
0.0
 10
4.6457210325
 20
5.7778092957
 30
0.0
 10
4.6468676543
 20
5.7789434967
 30
0.0
 10
4.6471673076
 20
5.7799340568
 30
0.0
 10
4.6471673076
 20
5.7803952333
 30
0.0
  0
LINE
  5
4F9
100
AcDbEntity
  8
0
100
AcDbLine
 62
7
  6
CONTINUOUS
 10
4.6580612621
 20
5.7920774264
 11
4.6583755815
 21
5.7943146581
  0
LINE
  5
4FA
100
AcDbEntity
  8
0
100
AcDbLine
 62
7
  6
CONTINUOUS
 10
4.2758396719
 20
5.8747917856
 11
4.2761544639
 21
5.8725528292
  0
SPLINE
  5
4FB
100
AcDbEntity
  8
0
100
AcDbSpline
 62
7
  6
CONTINUOUS
 70
0
 71
3
 72
15
 73
11
 74
0
 42
0.0000001
 43
0.0000001
 44
0.0000000001
 40
0.0
 40
0.0
 40
0.0
 40
0.0
 40
0.1047540588
 40
0.2223334687
 40
0.3560082615
 40
0.4999880437
 40
0.6439681158
 40
0.7776503626
 40
0.8952411333
 40
1.0
 40
1.0
 40
1.0
 40
1.0
 10
4.2207614435
 20
5.8433251274
 30
0.0
 10
4.2207614435
 20
5.8448367457
 30
0.0
 10
4.2197797685
 20
5.8480832384
 30
0.0
 10
4.2160213597
 20
5.8517996134
 30
0.0
 10
4.2107387509
 20
5.8541870018
 30
0.0
 10
4.2046324505
 20
5.8550119617
 30
0.0
 10
4.1985260138
 20
5.8541872344
 30
0.0
 10
4.1932430375
 20
5.851799997
 30
0.0
 10
4.1894841839
 20
5.8480835441
 30
0.0
 10
4.1885023762
 20
5.8448368151
 30
0.0
 10
4.1885023762
 20
5.8433251274
 30
0.0
  0
SPLINE
  5
4FC
100
AcDbEntity
  8
0
100
AcDbSpline
 62
7
  6
CONTINUOUS
 70
0
 71
3
 72
15
 73
11
 74
0
 42
0.0000001
 43
0.0000001
 44
0.0000000001
 40
0.0
 40
0.0
 40
0.0
 40
0.0
 40
0.1047540588
 40
0.2223334687
 40
0.3560082615
 40
0.4999880437
 40
0.6439681158
 40
0.7776503626
 40
0.8952411333
 40
1.0
 40
1.0
 40
1.0
 40
1.0
 10
4.1258424884
 20
5.6501805057
 30
0.0
 10
4.1258424884
 20
5.6513335252
 30
0.0
 10
4.1265912822
 20
5.6538098575
 30
0.0
 10
4.1294580896
 20
5.6566446026
 30
0.0
 10
4.1334875133
 20
5.6584656346
 30
0.0
 10
4.1381452256
 20
5.6590948906
 30
0.0
 10
4.1428030419
 20
5.658465812
 30
0.0
 10
4.146832746
 20
5.6566448952
 30
0.0
 10
4.1496998927
 20
5.6538100906
 30
0.0
 10
4.1504487876
 20
5.6513335781
 30
0.0
 10
4.1504487876
 20
5.6501805057
 30
0.0
  0
LINE
  5
4FD
100
AcDbEntity
  8
0
100
AcDbLine
 62
7
  6
CONTINUOUS
 10
4.1504487876
 20
5.6501805057
 11
4.1502086732
 21
5.6484726934
  0
LINE
  5
4FE
100
AcDbEntity
  8
0
100
AcDbLine
 62
7
  6
CONTINUOUS
 10
4.6301826521
 20
5.7786887365
 11
4.6299428982
 21
5.7803952333
  0
LINE
  5
4FF
100
AcDbEntity
  8
0
100
AcDbLine
 62
7
  6
CONTINUOUS
 10
4.1885023762
 20
5.8433251274
 11
4.1888171682
 21
5.841086171
  0
SPLINE
  5
500
100
AcDbEntity
  8
0
100
AcDbSpline
 62
7
  6
CONTINUOUS
 70
0
 71
3
 72
15
 73
11
 74
0
 42
0.0000001
 43
0.0000001
 44
0.0000000001
 40
0.0
 40
0.0
 40
0.0
 40
0.0
 40
0.1047540588
 40
0.2223334687
 40
0.3560082615
 40
0.4999880437
 40
0.6439681158
 40
0.7776503626
 40
0.8952411333
 40
1.0
 40
1.0
 40
1.0
 40
1.0
 10
4.1514501732
 20
5.7943146581
 30
0.0
 10
4.1514501732
 20
5.7958262765
 30
0.0
 10
4.1504684982
 20
5.7990727692
 30
0.0
 10
4.1467100893
 20
5.8027891442
 30
0.0
 10
4.1414274806
 20
5.8051765325
 30
0.0
 10
4.1353211802
 20
5.8060014925
 30
0.0
 10
4.1292147435
 20
5.8051767651
 30
0.0
 10
4.1239317672
 20
5.8027895277
 30
0.0
 10
4.1201729135
 20
5.7990730748
 30
0.0
 10
4.1191911059
 20
5.7958263459
 30
0.0
 10
4.1191911059
 20
5.7943146581
 30
0.0
  0
SPLINE
  5
501
100
AcDbEntity
  8
0
100
AcDbSpline
 62
7
  6
CONTINUOUS
 70
0
 71
3
 72
15
 73
11
 74
0
 42
0.0000001
 43
0.0000001
 44
0.0000000001
 40
0.0
 40
0.0
 40
0.0
 40
0.0
 40
0.104740222
 40
0.2223288362
 40
0.3559991838
 40
0.4999812765
 40
0.6439632335
 40
0.7776452584
 40
0.8952531632
 40
1.0
 40
1.0
 40
1.0
 40
1.0
 10
4.6818253628
 20
5.7186384392
 30
0.0
 10
4.6818253628
 20
5.7181772919
 30
0.0
 10
4.6821249424
 20
5.7171868405
 30
0.0
 10
4.6832713759
 20
5.7160527041
 30
0.0
 10
4.6848833042
 20
5.7153244593
 30
0.0
 10
4.6867463643
 20
5.7150727401
 30
0.0
 10
4.6886094861
 20
5.7153243449
 30
0.0
 10
4.6902216074
 20
5.7160525017
 30
0.0
 10
4.6913682292
 20
5.7171867026
 30
0.0
 10
4.6916678825
 20
5.7181772628
 30
0.0
 10
4.6916678825
 20
5.7186384392
 30
0.0
  0
LINE
  5
502
100
AcDbEntity
  8
0
100
AcDbLine
 62
7
  6
CONTINUOUS
 10
4.7025618369
 20
5.7303206323
 11
4.7028761563
 21
5.7325578641
  0
SPLINE
  5
503
100
AcDbEntity
  8
0
100
AcDbSpline
 62
7
  6
CONTINUOUS
 70
0
 71
3
 72
15
 73
11
 74
0
 42
0.0000001
 43
0.0000001
 44
0.0000000001
 40
0.0
 40
0.0
 40
0.0
 40
0.0
 40
0.1047540588
 40
0.2223334687
 40
0.3560082615
 40
0.4999880437
 40
0.6439681158
 40
0.7776503626
 40
0.8952411333
 40
1.0
 40
1.0
 40
1.0
 40
1.0
 10
4.1449211477
 20
5.5823584313
 30
0.0
 10
4.1449211477
 20
5.5835114508
 30
0.0
 10
4.1456699415
 20
5.5859877831
 30
0.0
 10
4.1485367489
 20
5.5888225282
 30
0.0
 10
4.1525661727
 20
5.5906435602
 30
0.0
 10
4.1572238849
 20
5.5912728162
 30
0.0
 10
4.1618817012
 20
5.5906437376
 30
0.0
 10
4.1659114053
 20
5.5888228208
 30
0.0
 10
4.168778552
 20
5.5859880162
 30
0.0
 10
4.1695274469
 20
5.5835115037
 30
0.0
 10
4.1695274469
 20
5.5823584313
 30
0.0
  0
LINE
  5
504
100
AcDbEntity
  8
0
100
AcDbLine
 62
7
  6
CONTINUOUS
 10
4.1695274469
 20
5.5823584313
 11
4.1692873326
 21
5.580650619
  0
LINE
  5
505
100
AcDbEntity
  8
0
100
AcDbLine
 62
7
  6
CONTINUOUS
 10
4.1191911059
 20
5.7943146581
 11
4.1195058979
 21
5.7920757017
  0
SPLINE
  5
506
100
AcDbEntity
  8
0
100
AcDbSpline
 62
7
  6
CONTINUOUS
 70
0
 71
3
 72
15
 73
11
 74
0
 42
0.0000001
 43
0.0000001
 44
0.0000000001
 40
0.0
 40
0.0
 40
0.0
 40
0.0
 40
0.1047540588
 40
0.2223334687
 40
0.3560082615
 40
0.4999880437
 40
0.6439681158
 40
0.7776503626
 40
0.8952411333
 40
1.0
 40
1.0
 40
1.0
 40
1.0
 10
4.1069495983
 20
5.7325578641
 30
0.0
 10
4.1069495983
 20
5.7340694824
 30
0.0
 10
4.1059679233
 20
5.7373159751
 30
0.0
 10
4.1022095145
 20
5.7410323501
 30
0.0
 10
4.0969269057
 20
5.7434197384
 30
0.0
 10
4.0908206054
 20
5.7442446984
 30
0.0
 10
4.0847141686
 20
5.7434199711
 30
0.0
 10
4.0794311923
 20
5.7410327337
 30
0.0
 10
4.0756723387
 20
5.7373162808
 30
0.0
 10
4.074690531
 20
5.7340695518
 30
0.0
 10
4.074690531
 20
5.7325578641
 30
0.0
  0
LINE
  5
507
100
AcDbEntity
  8
0
100
AcDbLine
 62
7
  6
CONTINUOUS
 10
4.6746832269
 20
5.7169319425
 11
4.6744434731
 21
5.7186384392
  0
LINE
  5
508
100
AcDbEntity
  8
0
100
AcDbLine
 62
7
  6
CONTINUOUS
 10
4.074690531
 20
5.7325578641
 11
4.075005323
 21
5.7303189077
  0
SPLINE
  5
509
100
AcDbEntity
  8
0
100
AcDbSpline
 62
7
  6
CONTINUOUS
 70
0
 71
3
 72
15
 73
11
 74
0
 42
0.0000001
 43
0.0000001
 44
0.0000000001
 40
0.0
 40
0.0
 40
0.0
 40
0.0
 40
0.1047540588
 40
0.2223334687
 40
0.3560082615
 40
0.4999880437
 40
0.6439681158
 40
0.7776503626
 40
0.8952411333
 40
1.0
 40
1.0
 40
1.0
 40
1.0
 10
4.0916157452
 20
5.6640999305
 30
0.0
 10
4.0916157452
 20
5.6656115489
 30
0.0
 10
4.0906340702
 20
5.6688580416
 30
0.0
 10
4.0868756614
 20
5.6725744165
 30
0.0
 10
4.0815930526
 20
5.6749618049
 30
0.0
 10
4.0754867523
 20
5.6757867649
 30
0.0
 10
4.0693803156
 20
5.6749620375
 30
0.0
 10
4.0640973392
 20
5.6725748001
 30
0.0
 10
4.0603384856
 20
5.6688583472
 30
0.0
 10
4.059356678
 20
5.6656116182
 30
0.0
 10
4.059356678
 20
5.6640999305
 30
0.0
  0
SPLINE
  5
50A
100
AcDbEntity
  8
0
100
AcDbSpline
 62
7
  6
CONTINUOUS
 70
0
 71
3
 72
15
 73
11
 74
0
 42
0.0000001
 43
0.0000001
 44
0.0000000001
 40
0.0
 40
0.0
 40
0.0
 40
0.0
 40
0.1047540588
 40
0.2223334687
 40
0.3560082615
 40
0.4999880437
 40
0.6439681158
 40
0.7776503626
 40
0.8952411333
 40
1.0
 40
1.0
 40
1.0
 40
1.0
 10
4.1992525728
 20
5.5248616529
 30
0.0
 10
4.1992525728
 20
5.5260146724
 30
0.0
 10
4.2000013666
 20
5.5284910047
 30
0.0
 10
4.2028681739
 20
5.5313257498
 30
0.0
 10
4.2068975977
 20
5.5331467818
 30
0.0
 10
4.21155531
 20
5.5337760378
 30
0.0
 10
4.2162131262
 20
5.5331469592
 30
0.0
 10
4.2202428304
 20
5.5313260424
 30
0.0
 10
4.223109977
 20
5.5284912378
 30
0.0
 10
4.223858872
 20
5.5260147253
 30
0.0
 10
4.223858872
 20
5.5248616529
 30
0.0
  0
LINE
  5
50B
100
AcDbEntity
  8
0
100
AcDbLine
 62
7
  6
CONTINUOUS
 10
4.223858872
 20
5.5248616529
 11
4.2236187576
 21
5.5231538406
  0
SPLINE
  5
50C
100
AcDbEntity
  8
0
100
AcDbSpline
 62
7
  6
CONTINUOUS
 70
0
 71
3
 72
15
 73
11
 74
0
 42
0.0000001
 43
0.0000001
 44
0.0000000001
 40
0.0
 40
0.0
 40
0.0
 40
0.0
 40
0.104740222
 40
0.2223288362
 40
0.3559991838
 40
0.4999812765
 40
0.6439632335
 40
0.7776452584
 40
0.8952531632
 40
1.0
 40
1.0
 40
1.0
 40
1.0
 10
4.6971592159
 20
5.6501805057
 30
0.0
 10
4.6971592159
 20
5.6497193583
 30
0.0
 10
4.6974587955
 20
5.6487289069
 30
0.0
 10
4.6986052289
 20
5.6475947705
 30
0.0
 10
4.7002171573
 20
5.6468665257
 30
0.0
 10
4.7020802174
 20
5.6466148065
 30
0.0
 10
4.7039433392
 20
5.6468664114
 30
0.0
 10
4.7055554604
 20
5.6475945681
 30
0.0
 10
4.7067020822
 20
5.648728769
 30
0.0
 10
4.7070017356
 20
5.6497193292
 30
0.0
 10
4.7070017356
 20
5.6501805057
 30
0.0
  0
LINE
  5
50D
100
AcDbEntity
  8
0
100
AcDbLine
 62
7
  6
CONTINUOUS
 10
4.71789569
 20
5.6618626988
 11
4.7182100094
 21
5.6640999305
  0
LINE
  5
50E
100
AcDbEntity
  8
0
100
AcDbLine
 62
7
  6
CONTINUOUS
 10
4.059356678
 20
5.6640999305
 11
4.05967147
 21
5.6618609741
  0
SPLINE
  5
50F
100
AcDbEntity
  8
0
100
AcDbSpline
 62
7
  6
CONTINUOUS
 70
0
 71
3
 72
15
 73
11
 74
0
 42
0.0000001
 43
0.0000001
 44
0.0000000001
 40
0.0
 40
0.0
 40
0.0
 40
0.0
 40
0.1047540588
 40
0.2223334687
 40
0.3560082615
 40
0.4999880437
 40
0.6439681158
 40
0.7776503626
 40
0.8952411333
 40
1.0
 40
1.0
 40
1.0
 40
1.0
 10
4.1069495983
 20
5.5956419969
 30
0.0
 10
4.1069495983
 20
5.5971536153
 30
0.0
 10
4.1059679233
 20
5.600400108
 30
0.0
 10
4.1022095145
 20
5.604116483
 30
0.0
 10
4.0969269057
 20
5.6065038713
 30
0.0
 10
4.0908206054
 20
5.6073288313
 30
0.0
 10
4.0847141686
 20
5.6065041039
 30
0.0
 10
4.0794311923
 20
5.6041168665
 30
0.0
 10
4.0756723387
 20
5.6004004136
 30
0.0
 10
4.074690531
 20
5.5971536847
 30
0.0
 10
4.074690531
 20
5.5956419969
 30
0.0
  0
LINE
  5
510
100
AcDbEntity
  8
0
100
AcDbLine
 62
7
  6
CONTINUOUS
 10
4.69001708
 20
5.6484740089
 11
4.6897773261
 21
5.6501805057
  0
SPLINE
  5
511
100
AcDbEntity
  8
0
100
AcDbSpline
 62
7
  6
CONTINUOUS
 70
0
 71
3
 72
15
 73
11
 74
0
 42
0.0000001
 43
0.0000001
 44
0.0000000001
 40
0.0
 40
0.0
 40
0.0
 40
0.0
 40
0.1047540588
 40
0.2223334687
 40
0.3560082615
 40
0.4999880437
 40
0.6439681158
 40
0.7776503626
 40
0.8952411333
 40
1.0
 40
1.0
 40
1.0
 40
1.0
 10
4.2805652966
 20
5.4864435338
 30
0.0
 10
4.2805652966
 20
5.4875965533
 30
0.0
 10
4.2813140904
 20
5.4900728856
 30
0.0
 10
4.2841808978
 20
5.4929076307
 30
0.0
 10
4.2882103215
 20
5.4947286627
 30
0.0
 10
4.2928680338
 20
5.4953579187
 30
0.0
 10
4.2975258501
 20
5.4947288401
 30
0.0
 10
4.3015555542
 20
5.4929079233
 30
0.0
 10
4.3044227008
 20
5.4900731187
 30
0.0
 10
4.3051715958
 20
5.4875966062
 30
0.0
 10
4.3051715958
 20
5.4864435338
 30
0.0
  0
LINE
  5
512
100
AcDbEntity
  8
0
100
AcDbLine
 62
7
  6
CONTINUOUS
 10
4.3051715958
 20
5.4864435338
 11
4.3049314814
 21
5.4847357215
  0
LINE
  5
513
100
AcDbEntity
  8
0
100
AcDbLine
 62
7
  6
CONTINUOUS
 10
4.074690531
 20
5.5956419969
 11
4.075005323
 21
5.5934030405
  0
SPLINE
  5
514
100
AcDbEntity
  8
0
100
AcDbSpline
 62
7
  6
CONTINUOUS
 70
0
 71
3
 72
15
 73
11
 74
0
 42
0.0000001
 43
0.0000001
 44
0.0000000001
 40
0.0
 40
0.0
 40
0.0
 40
0.0
 40
0.1047540588
 40
0.2223334687
 40
0.3560082615
 40
0.4999880437
 40
0.6439681158
 40
0.7776503626
 40
0.8952411333
 40
1.0
 40
1.0
 40
1.0
 40
1.0
 10
4.1514501732
 20
5.5338852029
 30
0.0
 10
4.1514501732
 20
5.5353968213
 30
0.0
 10
4.1504684982
 20
5.5386433139
 30
0.0
 10
4.1467100893
 20
5.5423596889
 30
0.0
 10
4.1414274806
 20
5.5447470773
 30
0.0
 10
4.1353211802
 20
5.5455720373
 30
0.0
 10
4.1292147435
 20
5.5447473099
 30
0.0
 10
4.1239317672
 20
5.5423600725
 30
0.0
 10
4.1201729135
 20
5.5386436196
 30
0.0
 10
4.1191911059
 20
5.5353968906
 30
0.0
 10
4.1191911059
 20
5.5338852029
 30
0.0
  0
SPLINE
  5
515
100
AcDbEntity
  8
0
100
AcDbSpline
 62
7
  6
CONTINUOUS
 70
0
 71
3
 72
15
 73
11
 74
0
 42
0.0000001
 43
0.0000001
 44
0.0000000001
 40
0.0
 40
0.0
 40
0.0
 40
0.0
 40
0.104740222
 40
0.2223288362
 40
0.3559991838
 40
0.4999812765
 40
0.6439632335
 40
0.7776452584
 40
0.8952531632
 40
1.0
 40
1.0
 40
1.0
 40
1.0
 10
4.6154211302
 20
5.5823584313
 30
0.0
 10
4.6154211302
 20
5.5818972839
 30
0.0
 10
4.6157207098
 20
5.5809068325
 30
0.0
 10
4.6168671432
 20
5.5797726961
 30
0.0
 10
4.6184790715
 20
5.5790444513
 30
0.0
 10
4.6203421317
 20
5.5787927321
 30
0.0
 10
4.6222052535
 20
5.5790443369
 30
0.0
 10
4.6238173747
 20
5.5797724937
 30
0.0
 10
4.6249639965
 20
5.5809066946
 30
0.0
 10
4.6252636498
 20
5.5818972548
 30
0.0
 10
4.6252636498
 20
5.5823584313
 30
0.0
  0
LINE
  5
516
100
AcDbEntity
  8
0
100
AcDbLine
 62
7
  6
CONTINUOUS
 10
4.6361576043
 20
5.5940406243
 11
4.6364719236
 21
5.5962778561
  0
LINE
  5
517
100
AcDbEntity
  8
0
100
AcDbLine
 62
7
  6
CONTINUOUS
 10
4.1191911059
 20
5.5338852029
 11
4.1195058979
 21
5.5316462465
  0
SPLINE
  5
518
100
AcDbEntity
  8
0
100
AcDbSpline
 62
7
  6
CONTINUOUS
 70
0
 71
3
 72
15
 73
11
 74
0
 42
0.0000001
 43
0.0000001
 44
0.0000000001
 40
0.0
 40
0.0
 40
0.0
 40
0.0
 40
0.1047540588
 40
0.2223334687
 40
0.3560082615
 40
0.4999880437
 40
0.6439681158
 40
0.7776503626
 40
0.8952411333
 40
1.0
 40
1.0
 40
1.0
 40
1.0
 10
4.3764801941
 20
5.4729528844
 30
0.0
 10
4.3764801941
 20
5.4741059039
 30
0.0
 10
4.3772289879
 20
5.4765822362
 30
0.0
 10
4.3800957952
 20
5.4794169814
 30
0.0
 10
4.384125219
 20
5.4812380133
 30
0.0
 10
4.3887829313
 20
5.4818672693
 30
0.0
 10
4.3934407475
 20
5.4812381907
 30
0.0
 10
4.3974704517
 20
5.4794172739
 30
0.0
 10
4.4003375983
 20
5.4765824693
 30
0.0
 10
4.4010864933
 20
5.4741059568
 30
0.0
 10
4.4010864933
 20
5.4729528844
 30
0.0
  0
LINE
  5
519
100
AcDbEntity
  8
0
100
AcDbLine
 62
7
  6
CONTINUOUS
 10
4.4010864933
 20
5.4729528844
 11
4.4008463789
 21
5.4712450721
  0
SPLINE
  5
51A
100
AcDbEntity
  8
0
100
AcDbSpline
 62
7
  6
CONTINUOUS
 70
0
 71
3
 72
15
 73
11
 74
0
 42
0.0000001
 43
0.0000001
 44
0.0000000001
 40
0.0
 40
0.0
 40
0.0
 40
0.0
 40
0.1047540588
 40
0.2223334687
 40
0.3560082615
 40
0.4999880437
 40
0.6439681158
 40
0.7776503626
 40
0.8952411333
 40
1.0
 40
1.0
 40
1.0
 40
1.0
 10
4.2207614435
 20
5.4848747336
 30
0.0
 10
4.2207614435
 20
5.486386352
 30
0.0
 10
4.2197797685
 20
5.4896328447
 30
0.0
 10
4.2160213597
 20
5.4933492197
 30
0.0
 10
4.2107387509
 20
5.495736608
 30
0.0
 10
4.2046324505
 20
5.496561568
 30
0.0
 10
4.1985260138
 20
5.4957368406
 30
0.0
 10
4.1932430375
 20
5.4933496032
 30
0.0
 10
4.1894841839
 20
5.4896331503
 30
0.0
 10
4.1885023762
 20
5.4863864214
 30
0.0
 10
4.1885023762
 20
5.4848747336
 30
0.0
  0
LINE
  5
51B
100
AcDbEntity
  8
0
100
AcDbLine
 62
7
  6
CONTINUOUS
 10
4.6082789943
 20
5.5806519345
 11
4.6080392404
 21
5.5823584313
  0
LINE
  5
51C
100
AcDbEntity
  8
0
100
AcDbLine
 62
7
  6
CONTINUOUS
 10
4.1885023762
 20
5.4848747336
 11
4.1888171682
 21
5.4826357772
  0
SPLINE
  5
51D
100
AcDbEntity
  8
0
100
AcDbSpline
 62
7
  6
CONTINUOUS
 70
0
 71
3
 72
15
 73
11
 74
0
 42
0.0000001
 43
0.0000001
 44
0.0000000001
 40
0.0
 40
0.0
 40
0.0
 40
0.0
 40
0.1047540588
 40
0.2223334687
 40
0.3560082615
 40
0.4999880437
 40
0.6439681158
 40
0.7776503626
 40
0.8952411333
 40
1.0
 40
1.0
 40
1.0
 40
1.0
 10
4.3080987392
 20
5.4534080754
 30
0.0
 10
4.3080987392
 20
5.4549196937
 30
0.0
 10
4.3071170642
 20
5.4581661864
 30
0.0
 10
4.3033586554
 20
5.4618825614
 30
0.0
 10
4.2980760466
 20
5.4642699498
 30
0.0
 10
4.2919697463
 20
5.4650949098
 30
0.0
 10
4.2858633095
 20
5.4642701824
 30
0.0
 10
4.2805803332
 20
5.461882945
 30
0.0
 10
4.2768214796
 20
5.4581664921
 30
0.0
 10
4.2758396719
 20
5.4549197631
 30
0.0
 10
4.2758396719
 20
5.4534080754
 30
0.0
  0
SPLINE
  5
51E
100
AcDbEntity
  8
0
100
AcDbSpline
 62
7
  6
CONTINUOUS
 70
0
 71
3
 72
15
 73
11
 74
0
 42
0.0000001
 43
0.0000001
 44
0.0000000001
 40
0.0
 40
0.0
 40
0.0
 40
0.0
 40
0.104740222
 40
0.2223288362
 40
0.3559991838
 40
0.4999812765
 40
0.6439632335
 40
0.7776452584
 40
0.8952531632
 40
1.0
 40
1.0
 40
1.0
 40
1.0
 10
4.5610897051
 20
5.5248616529
 30
0.0
 10
4.5610897051
 20
5.5244005055
 30
0.0
 10
4.5613892847
 20
5.5234100541
 30
0.0
 10
4.5625357182
 20
5.5222759177
 30
0.0
 10
4.5641476465
 20
5.5215476729
 30
0.0
 10
4.5660107066
 20
5.5212959537
 30
0.0
 10
4.5678738284
 20
5.5215475585
 30
0.0
 10
4.5694859497
 20
5.5222757153
 30
0.0
 10
4.5706325715
 20
5.5234099162
 30
0.0
 10
4.5709322248
 20
5.5244004764
 30
0.0
 10
4.5709322248
 20
5.5248616529
 30
0.0
  0
SPLINE
  5
51F
100
AcDbEntity
  8
0
100
AcDbSpline
 62
7
  6
CONTINUOUS
 70
0
 71
3
 72
15
 73
11
 74
0
 42
0.0000001
 43
0.0000001
 44
0.0000000001
 40
0.0
 40
0.0
 40
0.0
 40
0.0
 40
0.1047540588
 40
0.2223334687
 40
0.3560082615
 40
0.4999880437
 40
0.6439681158
 40
0.7776503626
 40
0.8952411333
 40
1.0
 40
1.0
 40
1.0
 40
1.0
 10
4.4723950915
 20
5.4864435338
 30
0.0
 10
4.4723950915
 20
5.4875965533
 30
0.0
 10
4.4731438853
 20
5.4900728856
 30
0.0
 10
4.4760106927
 20
5.4929076307
 30
0.0
 10
4.4800401165
 20
5.4947286627
 30
0.0
 10
4.4846978287
 20
5.4953579187
 30
0.0
 10
4.489355645
 20
5.4947288401
 30
0.0
 10
4.4933853492
 20
5.4929079233
 30
0.0
 10
4.4962524958
 20
5.4900731187
 30
0.0
 10
4.4970013908
 20
5.4875966062
 30
0.0
 10
4.4970013908
 20
5.4864435338
 30
0.0
  0
LINE
  5
520
100
AcDbEntity
  8
0
100
AcDbLine
 62
7
  6
CONTINUOUS
 10
4.4970013908
 20
5.4864435338
 11
4.4967612764
 21
5.4847357215
  0
LINE
  5
521
100
AcDbEntity
  8
0
100
AcDbLine
 62
7
  6
CONTINUOUS
 10
4.5818261792
 20
5.5365438459
 11
4.5821404986
 21
5.5387810777
  0
LINE
  5
522
100
AcDbEntity
  8
0
100
AcDbLine
 62
7
  6
CONTINUOUS
 10
4.2758396719
 20
5.4534080754
 11
4.2761544639
 21
5.451169119
  0
SPLINE
  5
523
100
AcDbEntity
  8
0
100
AcDbSpline
 62
7
  6
CONTINUOUS
 70
0
 71
3
 72
15
 73
11
 74
0
 42
0.0000001
 43
0.0000001
 44
0.0000000001
 40
0.0
 40
0.0
 40
0.0
 40
0.0
 40
0.1047540588
 40
0.2223334687
 40
0.3560082615
 40
0.4999880437
 40
0.6439681158
 40
0.7776503626
 40
0.8952411333
 40
1.0
 40
1.0
 40
1.0
 40
1.0
 10
4.4049128773
 20
5.4425654039
 30
0.0
 10
4.4049128773
 20
5.4440770223
 30
0.0
 10
4.4039312023
 20
5.4473235149
 30
0.0
 10
4.4001727935
 20
5.4510398899
 30
0.0
 10
4.3948901847
 20
5.4534272783
 30
0.0
 10
4.3887838843
 20
5.4542522383
 30
0.0
 10
4.3826774476
 20
5.4534275109
 30
0.0
 10
4.3773944713
 20
5.4510402735
 30
0.0
 10
4.3736356177
 20
5.4473238206
 30
0.0
 10
4.37265381
 20
5.4440770916
 30
0.0
 10
4.37265381
 20
5.4425654039
 30
0.0
  0
LINE
  5
524
100
AcDbEntity
  8
0
100
AcDbLine
 62
7
  6
CONTINUOUS
 10
4.5539475692
 20
5.5231551561
 11
4.5537078154
 21
5.5248616529
  0
LINE
  5
525
100
AcDbEntity
  8
0
100
AcDbLine
 62
7
  6
CONTINUOUS
 10
4.37265381
 20
5.4425654039
 11
4.372968602
 21
5.4403264475
  0
SPLINE
  5
526
100
AcDbEntity
  8
0
100
AcDbSpline
 62
7
  6
CONTINUOUS
 70
0
 71
3
 72
15
 73
11
 74
0
 42
0.0000001
 43
0.0000001
 44
0.0000000001
 40
0.0
 40
0.0
 40
0.0
 40
0.0
 40
0.1047540588
 40
0.2223334687
 40
0.3560082615
 40
0.4999880437
 40
0.6439681158
 40
0.7776503626
 40
0.8952411333
 40
1.0
 40
1.0
 40
1.0
 40
1.0
 10
4.5537078154
 20
5.5248616529
 30
0.0
 10
4.5537078154
 20
5.5260146724
 30
0.0
 10
4.5544566092
 20
5.5284910047
 30
0.0
 10
4.5573234165
 20
5.5313257498
 30
0.0
 10
4.5613528403
 20
5.5331467818
 30
0.0
 10
4.5660105525
 20
5.5337760378
 30
0.0
 10
4.5706683688
 20
5.5331469592
 30
0.0
 10
4.574698073
 20
5.5313260424
 30
0.0
 10
4.5775652196
 20
5.5284912378
 30
0.0
 10
4.5783141146
 20
5.5260147253
 30
0.0
 10
4.5783141146
 20
5.5248616529
 30
0.0
  0
LINE
  5
527
100
AcDbEntity
  8
0
100
AcDbLine
 62
7
  6
CONTINUOUS
 10
4.5783141146
 20
5.5248616529
 11
4.5780740002
 21
5.5231538406
  0
SPLINE
  5
528
100
AcDbEntity
  8
0
100
AcDbSpline
 62
7
  6
CONTINUOUS
 70
0
 71
3
 72
15
 73
11
 74
0
 42
0.0000001
 43
0.0000001
 44
0.0000000001
 40
0.0
 40
0.0
 40
0.0
 40
0.0
 40
0.1047540588
 40
0.2223334687
 40
0.3560082615
 40
0.4999880437
 40
0.6439681158
 40
0.7776503626
 40
0.8952411333
 40
1.0
 40
1.0
 40
1.0
 40
1.0
 10
4.5017270154
 20
5.4534080754
 30
0.0
 10
4.5017270154
 20
5.4549196937
 30
0.0
 10
4.5007453404
 20
5.4581661864
 30
0.0
 10
4.4969869316
 20
5.4618825614
 30
0.0
 10
4.4917043228
 20
5.4642699498
 30
0.0
 10
4.4855980224
 20
5.4650949098
 30
0.0
 10
4.4794915857
 20
5.4642701824
 30
0.0
 10
4.4742086094
 20
5.461882945
 30
0.0
 10
4.4704497558
 20
5.4581664921
 30
0.0
 10
4.4694679481
 20
5.4549197631
 30
0.0
 10
4.4694679481
 20
5.4534080754
 30
0.0
  0
SPLINE
  5
529
100
AcDbEntity
  8
0
100
AcDbSpline
 62
7
  6
CONTINUOUS
 70
0
 71
3
 72
15
 73
11
 74
0
 42
0.0000001
 43
0.0000001
 44
0.0000000001
 40
0.0
 40
0.0
 40
0.0
 40
0.0
 40
0.104740222
 40
0.2223288362
 40
0.3559991838
 40
0.4999812765
 40
0.6439632335
 40
0.7776452584
 40
0.8952531632
 40
1.0
 40
1.0
 40
1.0
 40
1.0
 10
4.4797769813
 20
5.4864435338
 30
0.0
 10
4.4797769813
 20
5.4859823864
 30
0.0
 10
4.4800765609
 20
5.484991935
 30
0.0
 10
4.4812229943
 20
5.4838577986
 30
0.0
 10
4.4828349227
 20
5.4831295538
 30
0.0
 10
4.4846979828
 20
5.4828778346
 30
0.0
 10
4.4865611046
 20
5.4831294394
 30
0.0
 10
4.4881732259
 20
5.4838575962
 30
0.0
 10
4.4893198477
 20
5.4849917971
 30
0.0
 10
4.489619501
 20
5.4859823573
 30
0.0
 10
4.489619501
 20
5.4864435338
 30
0.0
  0
LINE
  5
52A
100
AcDbEntity
  8
0
100
AcDbLine
 62
7
  6
CONTINUOUS
 10
4.5005134554
 20
5.4981257269
 11
4.5008277748
 21
5.5003629586
  0
LINE
  5
52B
100
AcDbEntity
  8
0
100
AcDbLine
 62
7
  6
CONTINUOUS
 10
4.4694679481
 20
5.4534080754
 11
4.4697827401
 21
5.451169119
  0
SPLINE
  5
52C
100
AcDbEntity
  8
0
100
AcDbSpline
 62
7
  6
CONTINUOUS
 70
0
 71
3
 72
15
 73
11
 74
0
 42
0.0000001
 43
0.0000001
 44
0.0000000001
 40
0.0
 40
0.0
 40
0.0
 40
0.0
 40
0.1047540588
 40
0.2223334687
 40
0.3560082615
 40
0.4999880437
 40
0.6439681158
 40
0.7776503626
 40
0.8952411333
 40
1.0
 40
1.0
 40
1.0
 40
1.0
 10
4.5890643111
 20
5.4848747336
 30
0.0
 10
4.5890643111
 20
5.486386352
 30
0.0
 10
4.5880826361
 20
5.4896328447
 30
0.0
 10
4.5843242273
 20
5.4933492197
 30
0.0
 10
4.5790416185
 20
5.495736608
 30
0.0
 10
4.5729353182
 20
5.496561568
 30
0.0
 10
4.5668288815
 20
5.4957368406
 30
0.0
 10
4.5615459051
 20
5.4933496032
 30
0.0
 10
4.5577870515
 20
5.4896331503
 30
0.0
 10
4.5568052438
 20
5.4863864214
 30
0.0
 10
4.5568052438
 20
5.4848747336
 30
0.0
  0
SPLINE
  5
52D
100
AcDbEntity
  8
0
100
AcDbSpline
 62
7
  6
CONTINUOUS
 70
0
 71
3
 72
15
 73
11
 74
0
 42
0.0000001
 43
0.0000001
 44
0.0000000001
 40
0.0
 40
0.0
 40
0.0
 40
0.0
 40
0.1047540588
 40
0.2223334687
 40
0.3560082615
 40
0.4999880437
 40
0.6439681158
 40
0.7776503626
 40
0.8952411333
 40
1.0
 40
1.0
 40
1.0
 40
1.0
 10
4.6080392404
 20
5.5823584313
 30
0.0
 10
4.6080392404
 20
5.5835114508
 30
0.0
 10
4.6087880342
 20
5.5859877831
 30
0.0
 10
4.6116548416
 20
5.5888225282
 30
0.0
 10
4.6156842653
 20
5.5906435602
 30
0.0
 10
4.6203419776
 20
5.5912728162
 30
0.0
 10
4.6249997939
 20
5.5906437376
 30
0.0
 10
4.629029498
 20
5.5888228208
 30
0.0
 10
4.6318966447
 20
5.5859880162
 30
0.0
 10
4.6326455396
 20
5.5835115037
 30
0.0
 10
4.6326455396
 20
5.5823584313
 30
0.0
  0
LINE
  5
52E
100
AcDbEntity
  8
0
100
AcDbLine
 62
7
  6
CONTINUOUS
 10
4.6326455396
 20
5.5823584313
 11
4.6324054252
 21
5.580650619
  0
LINE
  5
52F
100
AcDbEntity
  8
0
100
AcDbLine
 62
7
  6
CONTINUOUS
 10
4.4726348454
 20
5.484737037
 11
4.4723950915
 21
5.4864435338
  0
LINE
  5
530
100
AcDbEntity
  8
0
100
AcDbLine
 62
7
  6
CONTINUOUS
 10
4.5568052438
 20
5.4848747336
 11
4.5571200359
 21
5.4826357772
  0
SPLINE
  5
531
100
AcDbEntity
  8
0
100
AcDbSpline
 62
7
  6
CONTINUOUS
 70
0
 71
3
 72
15
 73
11
 74
0
 42
0.0000001
 43
0.0000001
 44
0.0000000001
 40
0.0
 40
0.0
 40
0.0
 40
0.0
 40
0.1047540588
 40
0.2223334687
 40
0.3560082615
 40
0.4999880437
 40
0.6439681158
 40
0.7776503626
 40
0.8952411333
 40
1.0
 40
1.0
 40
1.0
 40
1.0
 10
4.6583755815
 20
5.5338852029
 30
0.0
 10
4.6583755815
 20
5.5353968213
 30
0.0
 10
4.6573939064
 20
5.5386433139
 30
0.0
 10
4.6536354976
 20
5.5423596889
 30
0.0
 10
4.6483528888
 20
5.5447470773
 30
0.0
 10
4.6422465885
 20
5.5455720373
 30
0.0
 10
4.6361401518
 20
5.5447473099
 30
0.0
 10
4.6308571754
 20
5.5423600725
 30
0.0
 10
4.6270983218
 20
5.5386436196
 30
0.0
 10
4.6261165142
 20
5.5353968906
 30
0.0
 10
4.6261165142
 20
5.5338852029
 30
0.0
  0
SPLINE
  5
532
100
AcDbEntity
  8
0
100
AcDbSpline
 62
7
  6
CONTINUOUS
 70
0
 71
3
 72
15
 73
11
 74
0
 42
0.0000001
 43
0.0000001
 44
0.0000000001
 40
0.0
 40
0.0
 40
0.0
 40
0.0
 40
0.104740222
 40
0.2223288362
 40
0.3559991838
 40
0.4999812765
 40
0.6439632335
 40
0.7776452584
 40
0.8952531632
 40
1.0
 40
1.0
 40
1.0
 40
1.0
 10
4.3838620838
 20
5.4729528844
 30
0.0
 10
4.3838620838
 20
5.472491737
 30
0.0
 10
4.3841616634
 20
5.4715012856
 30
0.0
 10
4.3853080969
 20
5.4703671493
 30
0.0
 10
4.3869200252
 20
5.4696389044
 30
0.0
 10
4.3887830853
 20
5.4693871852
 30
0.0
 10
4.3906462071
 20
5.4696387901
 30
0.0
 10
4.3922583284
 20
5.4703669468
 30
0.0
 10
4.3934049502
 20
5.4715011477
 30
0.0
 10
4.3937046035
 20
5.4724917079
 30
0.0
 10
4.3937046035
 20
5.4729528844
 30
0.0
  0
LINE
  5
533
100
AcDbEntity
  8
0
100
AcDbLine
 62
7
  6
CONTINUOUS
 10
4.4045985579
 20
5.4846350775
 11
4.4049128773
 21
5.4868723092
  0
SPLINE
  5
534
100
AcDbEntity
  8
0
100
AcDbSpline
 62
7
  6
CONTINUOUS
 70
0
 71
3
 72
15
 73
11
 74
0
 42
0.0000001
 43
0.0000001
 44
0.0000000001
 40
0.0
 40
0.0
 40
0.0
 40
0.0
 40
0.1047522642
 40
0.2223274557
 40
0.3559989806
 40
0.4999780718
 40
0.6439605267
 40
0.7776559668
 40
0.895249911
 40
1.0
 40
1.0
 40
1.0
 40
1.0
 10
4.6897773261
 20
5.6501805057
 30
0.0
 10
4.6897773261
 20
5.6513335055
 30
0.0
 10
4.6905260821
 20
5.6538097712
 30
0.0
 10
4.6933927596
 20
5.6566444895
 30
0.0
 10
4.6974220659
 20
5.6584655674
 30
0.0
 10
4.7020797497
 20
5.6590948872
 30
0.0
 10
4.7067377507
 20
5.6584658796
 30
0.0
 10
4.7107676296
 20
5.656644832
 30
0.0
 10
4.7136348478
 20
5.653809948
 30
0.0
 10
4.7143836253
 20
5.6513334816
 30
0.0
 10
4.7143836253
 20
5.6501805057
 30
0.0
  0
LINE
  5
535
100
AcDbEntity
  8
0
100
AcDbLine
 62
7
  6
CONTINUOUS
 10
4.7143836253
 20
5.6501805057
 11
4.714143511
 21
5.6484726934
  0
LINE
  5
536
100
AcDbEntity
  8
0
100
AcDbLine
 62
7
  6
CONTINUOUS
 10
4.6261165142
 20
5.5338852029
 11
4.6264313062
 21
5.5316462465
  0
SPLINE
  5
537
100
AcDbEntity
  8
0
100
AcDbSpline
 62
7
  6
CONTINUOUS
 70
0
 71
3
 72
15
 73
11
 74
0
 42
0.0000001
 43
0.0000001
 44
0.0000000001
 40
0.0
 40
0.0
 40
0.0
 40
0.0
 40
0.1047540588
 40
0.2223334687
 40
0.3560082615
 40
0.4999880437
 40
0.6439681158
 40
0.7776503626
 40
0.8952411333
 40
1.0
 40
1.0
 40
1.0
 40
1.0
 10
4.7028761563
 20
5.5956419969
 30
0.0
 10
4.7028761563
 20
5.5971536153
 30
0.0
 10
4.7018944813
 20
5.600400108
 30
0.0
 10
4.6981360725
 20
5.604116483
 30
0.0
 10
4.6928534637
 20
5.6065038713
 30
0.0
 10
4.6867471633
 20
5.6073288313
 30
0.0
 10
4.6806407266
 20
5.6065041039
 30
0.0
 10
4.6753577503
 20
5.6041168665
 30
0.0
 10
4.6715988967
 20
5.6004004136
 30
0.0
 10
4.670617089
 20
5.5971536847
 30
0.0
 10
4.670617089
 20
5.5956419969
 30
0.0
  0
LINE
  5
538
100
AcDbEntity
  8
0
100
AcDbLine
 62
7
  6
CONTINUOUS
 10
4.3767199479
 20
5.4712463876
 11
4.3764801941
 21
5.4729528844
  0
LINE
  5
539
100
AcDbEntity
  8
0
100
AcDbLine
 62
7
  6
CONTINUOUS
 10
4.670617089
 20
5.5956419969
 11
4.670931881
 21
5.5934030405
  0
SPLINE
  5
53A
100
AcDbEntity
  8
0
100
AcDbSpline
 62
9
  6
CONTINUOUS
 70
0
 71
3
 72
21
 73
17
 74
0
 42
0.0000001
 43
0.0000001
 44
0.0000000001
 40
0.0
 40
0.0
 40
0.0
 40
0.0
 40
0.1433989153
 40
0.2119815913
 40
0.2769957149
 40
0.3379117951
 40
0.3947791524
 40
0.4483410215
 40
0.5000246399
 40
0.5517059442
 40
0.6052615109
 40
0.6621200481
 40
0.7230263621
 40
0.7880313294
 40
0.8566068688
 40
1.0
 40
1.0
 40
1.0
 40
1.0
 10
4.3887834959
 20
5.9355287069
 30
0.0
 10
4.4382239314
 20
5.9355287069
 30
0.0
 10
4.5119562534
 20
5.9255799776
 30
0.0
 10
4.6016782562
 20
5.8920328284
 30
0.0
 10
4.6601657307
 20
5.8585125175
 30
0.0
 10
4.7085043466
 20
5.8174480337
 30
0.0
 10
4.7448118522
 20
5.7702042093
 30
0.0
 10
4.767452907
 20
5.7184241464
 30
0.0
 10
4.7751807322
 20
5.6641627419
 30
0.0
 10
4.7674881165
 20
5.6098984229
 30
0.0
 10
4.7448801497
 20
5.5581101948
 30
0.0
 10
4.7086023724
 20
5.5108540343
 30
0.0
 10
4.6602894838
 20
5.469773742
 30
0.0
 10
4.6018229855
 20
5.4362346368
 30
0.0
 10
4.5121199097
 20
5.4026581828
 30
0.0
 10
4.4383949419
 20
5.3926869596
 30
0.0
 10
4.3889565031
 20
5.3926711541
 30
0.0
  0
SPLINE
  5
53B
100
AcDbEntity
  8
0
100
AcDbSpline
 62
7
  6
CONTINUOUS
 70
0
 71
3
 72
15
 73
11
 74
0
 42
0.0000001
 43
0.0000001
 44
0.0000000001
 40
0.0
 40
0.0
 40
0.0
 40
0.0
 40
0.1047540588
 40
0.2223334687
 40
0.3560082615
 40
0.4999880437
 40
0.6439681158
 40
0.7776503626
 40
0.8952411333
 40
1.0
 40
1.0
 40
1.0
 40
1.0
 10
4.6744434731
 20
5.7186384392
 30
0.0
 10
4.6744434731
 20
5.7197914587
 30
0.0
 10
4.6751922669
 20
5.722267791
 30
0.0
 10
4.6780590742
 20
5.7251025362
 30
0.0
 10
4.682088498
 20
5.7269235682
 30
0.0
 10
4.6867462103
 20
5.7275528242
 30
0.0
 10
4.6914040265
 20
5.7269237456
 30
0.0
 10
4.6954337307
 20
5.7251028288
 30
0.0
 10
4.6983008773
 20
5.7222680242
 30
0.0
 10
4.6990497723
 20
5.7197915117
 30
0.0
 10
4.6990497723
 20
5.7186384392
 30
0.0
  0
LINE
  5
53C
100
AcDbEntity
  8
0
100
AcDbLine
 62
7
  6
CONTINUOUS
 10
4.6990497723
 20
5.7186384392
 11
4.6988096579
 21
5.716930627
  0
SPLINE
  5
53D
100
AcDbEntity
  8
0
100
AcDbSpline
 62
7
  6
CONTINUOUS
 70
0
 71
3
 72
15
 73
11
 74
0
 42
0.0000001
 43
0.0000001
 44
0.0000000001
 40
0.0
 40
0.0
 40
0.0
 40
0.0
 40
0.104740222
 40
0.2223288362
 40
0.3559991838
 40
0.4999812765
 40
0.6439632335
 40
0.7776452584
 40
0.8952531632
 40
1.0
 40
1.0
 40
1.0
 40
1.0
 10
4.2879471863
 20
5.4864435338
 30
0.0
 10
4.2879471863
 20
5.4859823864
 30
0.0
 10
4.288246766
 20
5.484991935
 30
0.0
 10
4.2893931994
 20
5.4838577986
 30
0.0
 10
4.2910051277
 20
5.4831295538
 30
0.0
 10
4.2928681879
 20
5.4828778346
 30
0.0
 10
4.2947313097
 20
5.4831294394
 30
0.0
 10
4.2963434309
 20
5.4838575962
 30
0.0
 10
4.2974900527
 20
5.4849917971
 30
0.0
 10
4.297789706
 20
5.4859823573
 30
0.0
 10
4.297789706
 20
5.4864435338
 30
0.0
  0
LINE
  5
53E
100
AcDbEntity
  8
0
100
AcDbLine
 62
7
  6
CONTINUOUS
 10
4.3086836605
 20
5.4981257269
 11
4.3089979798
 21
5.5003629586
  0
LINE
  5
53F
100
AcDbEntity
  8
0
100
AcDbLine
 62
7
  6
CONTINUOUS
 10
4.2808050505
 20
5.484737037
 11
4.2805652966
 21
5.4864435338
  0
SPLINE
  5
540
100
AcDbEntity
  8
0
100
AcDbSpline
 62
7
  6
CONTINUOUS
 70
0
 71
3
 72
15
 73
11
 74
0
 42
0.0000001
 43
0.0000001
 44
0.0000000001
 40
0.0
 40
0.0
 40
0.0
 40
0.0
 40
0.1047540588
 40
0.2223334687
 40
0.3560082615
 40
0.4999880437
 40
0.6439681158
 40
0.7776503626
 40
0.8952411333
 40
1.0
 40
1.0
 40
1.0
 40
1.0
 10
4.6299428982
 20
5.7803952333
 30
0.0
 10
4.6299428982
 20
5.7815482528
 30
0.0
 10
4.630691692
 20
5.7840245851
 30
0.0
 10
4.6335584994
 20
5.7868593303
 30
0.0
 10
4.6375879231
 20
5.7886803622
 30
0.0
 10
4.6422456354
 20
5.7893096182
 30
0.0
 10
4.6469034517
 20
5.7886805396
 30
0.0
 10
4.6509331558
 20
5.7868596228
 30
0.0
 10
4.6538003025
 20
5.7840248182
 30
0.0
 10
4.6545491974
 20
5.7815483057
 30
0.0
 10
4.6545491974
 20
5.7803952333
 30
0.0
  0
LINE
  5
541
100
AcDbEntity
  8
0
100
AcDbLine
 62
7
  6
CONTINUOUS
 10
4.6545491974
 20
5.7803952333
 11
4.654309083
 21
5.778687421
  0
SPLINE
  5
542
100
AcDbEntity
  8
0
100
AcDbSpline
 62
7
  6
CONTINUOUS
 70
0
 71
3
 72
15
 73
11
 74
0
 42
0.0000001
 43
0.0000001
 44
0.0000000001
 40
0.0
 40
0.0
 40
0.0
 40
0.0
 40
0.104740222
 40
0.2223288362
 40
0.3559991838
 40
0.4999812765
 40
0.6439632335
 40
0.7776452584
 40
0.8952531632
 40
1.0
 40
1.0
 40
1.0
 40
1.0
 10
4.2066344625
 20
5.5248616529
 30
0.0
 10
4.2066344625
 20
5.5244005055
 30
0.0
 10
4.2069340421
 20
5.5234100541
 30
0.0
 10
4.2080804756
 20
5.5222759177
 30
0.0
 10
4.2096924039
 20
5.5215476729
 30
0.0
 10
4.2115554641
 20
5.5212959537
 30
0.0
 10
4.2134185859
 20
5.5215475585
 30
0.0
 10
4.2150307071
 20
5.5222757153
 30
0.0
 10
4.2161773289
 20
5.5234099162
 30
0.0
 10
4.2164769822
 20
5.5244004764
 30
0.0
 10
4.2164769822
 20
5.5248616529
 30
0.0
  0
LINE
  5
543
100
AcDbEntity
  8
0
100
AcDbLine
 62
7
  6
CONTINUOUS
 10
4.2273709367
 20
5.5365438459
 11
4.227685256
 21
5.5387810777
  0
SPLINE
  5
544
100
AcDbEntity
  8
0
100
AcDbSpline
 62
7
  6
CONTINUOUS
 70
0
 71
3
 72
15
 73
11
 74
0
 42
0.0000001
 43
0.0000001
 44
0.0000000001
 40
0.0
 40
0.0
 40
0.0
 40
0.0
 40
0.104740222
 40
0.2223288362
 40
0.3559991838
 40
0.4999812765
 40
0.6439632335
 40
0.7776452584
 40
0.8952531632
 40
1.0
 40
1.0
 40
1.0
 40
1.0
 10
4.6818253628
 20
5.5817225721
 30
0.0
 10
4.6818253628
 20
5.5812614248
 30
0.0
 10
4.6821249424
 20
5.5802709733
 30
0.0
 10
4.6832713759
 20
5.579136837
 30
0.0
 10
4.6848833042
 20
5.5784085921
 30
0.0
 10
4.6867463643
 20
5.578156873
 30
0.0
 10
4.6886094861
 20
5.5784084778
 30
0.0
 10
4.6902216074
 20
5.5791366346
 30
0.0
 10
4.6913682292
 20
5.5802708355
 30
0.0
 10
4.6916678825
 20
5.5812613956
 30
0.0
 10
4.6916678825
 20
5.5817225721
 30
0.0
  0
SPLINE
  5
545
100
AcDbEntity
  8
0
100
AcDbSpline
 62
7
  6
CONTINUOUS
 70
0
 71
3
 72
15
 73
11
 74
0
 42
0.0000001
 43
0.0000001
 44
0.0000000001
 40
0.0
 40
0.0
 40
0.0
 40
0.0
 40
0.1047540588
 40
0.2223334687
 40
0.3560082615
 40
0.4999880437
 40
0.6439681158
 40
0.7776503626
 40
0.8952411333
 40
1.0
 40
1.0
 40
1.0
 40
1.0
 10
4.5606316279
 20
5.8294057026
 30
0.0
 10
4.5606316279
 20
5.8305587221
 30
0.0
 10
4.5613804217
 20
5.8330350544
 30
0.0
 10
4.5642472291
 20
5.8358697995
 30
0.0
 10
4.5682766528
 20
5.8376908315
 30
0.0
 10
4.5729343651
 20
5.8383200875
 30
0.0
 10
4.5775921814
 20
5.8376910089
 30
0.0
 10
4.5816218855
 20
5.8358700921
 30
0.0
 10
4.5844890321
 20
5.8330352875
 30
0.0
 10
4.5852379271
 20
5.830558775
 30
0.0
 10
4.5852379271
 20
5.8294057026
 30
0.0
  0
LINE
  5
546
100
AcDbEntity
  8
0
100
AcDbLine
 62
7
  6
CONTINUOUS
 10
4.5852379271
 20
5.8294057026
 11
4.5849978127
 21
5.8276978903
  0
LINE
  5
547
100
AcDbEntity
  8
0
100
AcDbLine
 62
7
  6
CONTINUOUS
 10
4.1994923267
 20
5.5231551561
 11
4.1992525728
 21
5.5248616529
  0
SPLINE
  5
548
100
AcDbEntity
  8
0
100
AcDbSpline
 62
9
  6
CONTINUOUS
 70
0
 71
3
 72
14
 73
10
 74
0
 42
0.0000001
 43
0.0000001
 44
0.0000000001
 40
0.0
 40
0.0
 40
0.0
 40
0.0
 40
0.2867928992
 40
0.4239494193
 40
0.5539668333
 40
0.675787962
 40
0.7895141497
 40
0.8966330187
 40
1.0
 40
1.0
 40
1.0
 40
1.0
 10
4.3886135315
 20
6.1512797735
 30
0.0
 10
4.3379139383
 20
6.1512643106
 30
0.0
 10
4.2623077696
 20
6.1410414908
 30
0.0
 10
4.17031347
 20
6.1066136663
 30
0.0
 10
4.1103500256
 20
6.0722236048
 30
0.0
 10
4.0607970834
 20
6.0301027801
 30
0.0
 10
4.0235834329
 20
5.9816360265
 30
0.0
 10
4.0003837672
 20
5.9285641173
 30
0.0
 10
3.9950829103
 20
5.8911646429
 30
0.0
 10
3.9950829146
 20
5.8728913029
 30
0.0
  0
SPLINE
  5
549
100
AcDbEntity
  8
0
100
AcDbSpline
 62
7
  6
CONTINUOUS
 70
0
 71
3
 72
15
 73
11
 74
0
 42
0.0000001
 43
0.0000001
 44
0.0000000001
 40
0.0
 40
0.0
 40
0.0
 40
0.0
 40
0.104740222
 40
0.2223288362
 40
0.3559991838
 40
0.4999812765
 40
0.6439632335
 40
0.7776452584
 40
0.8952531632
 40
1.0
 40
1.0
 40
1.0
 40
1.0
 10
4.1523030375
 20
5.5823584313
 30
0.0
 10
4.1523030375
 20
5.5818972839
 30
0.0
 10
4.1526026171
 20
5.5809068325
 30
0.0
 10
4.1537490505
 20
5.5797726961
 30
0.0
 10
4.1553609789
 20
5.5790444513
 30
0.0
 10
4.157224039
 20
5.5787927321
 30
0.0
 10
4.1590871608
 20
5.5790443369
 30
0.0
 10
4.160699282
 20
5.5797724937
 30
0.0
 10
4.1618459038
 20
5.5809066946
 30
0.0
 10
4.1621455572
 20
5.5818972548
 30
0.0
 10
4.1621455572
 20
5.5823584313
 30
0.0
  0
SPLINE
  5
54A
100
AcDbEntity
  8
0
100
AcDbSpline
 62
7
  6
CONTINUOUS
 70
0
 71
3
 72
15
 73
11
 74
0
 42
0.0000001
 43
0.0000001
 44
0.0000000001
 40
0.0
 40
0.0
 40
0.0
 40
0.0
 40
0.1047540588
 40
0.2223334687
 40
0.3560082615
 40
0.4999880437
 40
0.6439681158
 40
0.7776503626
 40
0.8952411333
 40
1.0
 40
1.0
 40
1.0
 40
1.0
 10
4.4732943322
 20
5.8608723608
 30
0.0
 10
4.4732943322
 20
5.8620253803
 30
0.0
 10
4.474043126
 20
5.8645017126
 30
0.0
 10
4.4769099333
 20
5.8673364578
 30
0.0
 10
4.4809393571
 20
5.8691574897
 30
0.0
 10
4.4855970694
 20
5.8697867457
 30
0.0
 10
4.4902548856
 20
5.8691576671
 30
0.0
 10
4.4942845898
 20
5.8673367503
 30
0.0
 10
4.4971517364
 20
5.8645019458
 30
0.0
 10
4.4979006314
 20
5.8620254332
 30
0.0
 10
4.4979006314
 20
5.8608723608
 30
0.0
  0
LINE
  5
54B
100
AcDbEntity
  8
0
100
AcDbLine
 62
7
  6
CONTINUOUS
 10
4.4979006314
 20
5.8608723608
 11
4.497660517
 21
5.8591645485
  0
LINE
  5
54C
100
AcDbEntity
  8
0
100
AcDbLine
 62
7
  6
CONTINUOUS
 10
4.1730395116
 20
5.5940406243
 11
4.173353831
 21
5.5962778561
  0
LINE
  5
54D
100
AcDbEntity
  8
0
100
AcDbLine
 62
7
  6
CONTINUOUS
 10
4.7025618369
 20
5.5934047652
 11
4.7028761563
 21
5.5956419969
  0
SPLINE
  5
54E
100
AcDbEntity
  8
0
100
AcDbSpline
 62
7
  6
CONTINUOUS
 70
0
 71
3
 72
13
 73
9
 74
0
 42
0.0000001
 43
0.0000001
 44
0.0000000001
 40
0.0
 40
0.0
 40
0.0
 40
0.0
 40
0.287055441
 40
0.5535698825
 40
0.6755014035
 40
0.7893308545
 40
0.8965439801
 40
1.0
 40
1.0
 40
1.0
 40
1.0
 10
4.3887833437
 20
5.6171218717
 30
0.0
 10
4.3973418462
 20
5.6171218717
 30
0.0
 10
4.4139306403
 20
5.6193503701
 30
0.0
 10
4.4326412171
 20
5.6278105822
 30
0.0
 10
4.444125375
 20
5.637564065
 30
0.0
 10
4.4504084489
 20
5.6457455568
 30
0.0
 10
4.454325141
 20
5.6547038436
 30
0.0
 10
4.4552199897
 20
5.6610169813
 30
0.0
 10
4.4552198545
 20
5.6641015025
 30
0.0
  0
LINE
  5
54F
100
AcDbEntity
  8
0
100
AcDbLine
 62
7
  6
CONTINUOUS
 10
4.1451609016
 20
5.5806519345
 11
4.1449211477
 21
5.5823584313
  0
SPLINE
  5
550
100
AcDbEntity
  8
0
100
AcDbSpline
 62
9
  6
CONTINUOUS
 70
0
 71
3
 72
21
 73
17
 74
0
 42
0.0000001
 43
0.0000001
 44
0.0000000001
 40
0.0
 40
0.0
 40
0.0
 40
0.0
 40
0.1433989153
 40
0.2119815913
 40
0.2769957149
 40
0.3379117951
 40
0.3947791524
 40
0.4483410215
 40
0.5000246399
 40
0.5517059442
 40
0.6052615109
 40
0.6621200481
 40
0.7230263621
 40
0.7880313294
 40
0.8566068688
 40
1.0
 40
1.0
 40
1.0
 40
1.0
 10
4.3887831915
 20
5.3926711541
 30
0.0
 10
4.3393427559
 20
5.3926711541
 30
0.0
 10
4.2656104339
 20
5.4026198835
 30
0.0
 10
4.1758884311
 20
5.4361670326
 30
0.0
 10
4.1174009566
 20
5.4696873435
 30
0.0
 10
4.0690623407
 20
5.5107518273
 30
0.0
 10
4.0327548351
 20
5.5579956517
 30
0.0
 10
4.0101137804
 20
5.6097757146
 30
0.0
 10
4.0023859552
 20
5.6640371191
 30
0.0
 10
4.0100785708
 20
5.7183014381
 30
0.0
 10
4.0326865377
 20
5.7700896662
 30
0.0
 10
4.0689643149
 20
5.8173458267
 30
0.0
 10
4.1172772036
 20
5.858426119
 30
0.0
 10
4.1757437018
 20
5.8919652242
 30
0.0
 10
4.2654467776
 20
5.9255416782
 30
0.0
 10
4.3391717454
 20
5.9355129014
 30
0.0
 10
4.3886101842
 20
5.9355287069
 30
0.0
  0
SPLINE
  5
551
100
AcDbEntity
  8
0
100
AcDbSpline
 62
7
  6
CONTINUOUS
 70
0
 71
3
 72
15
 73
11
 74
0
 42
0.0000001
 43
0.0000001
 44
0.0000000001
 40
0.0
 40
0.0
 40
0.0
 40
0.0
 40
0.1047540588
 40
0.2223334687
 40
0.3560082615
 40
0.4999880437
 40
0.6439681158
 40
0.7776503626
 40
0.8952411333
 40
1.0
 40
1.0
 40
1.0
 40
1.0
 10
4.3764801941
 20
5.8717150323
 30
0.0
 10
4.3764801941
 20
5.8728680518
 30
0.0
 10
4.3772289879
 20
5.8753443841
 30
0.0
 10
4.3800957952
 20
5.8781791293
 30
0.0
 10
4.384125219
 20
5.8800001612
 30
0.0
 10
4.3887829313
 20
5.8806294172
 30
0.0
 10
4.3934407475
 20
5.8800003386
 30
0.0
 10
4.3974704517
 20
5.8781794218
 30
0.0
 10
4.4003375983
 20
5.8753446172
 30
0.0
 10
4.4010864933
 20
5.8728681047
 30
0.0
 10
4.4010864933
 20
5.8717150323
 30
0.0
  0
LINE
  5
552
100
AcDbEntity
  8
0
100
AcDbLine
 62
7
  6
CONTINUOUS
 10
4.4010864933
 20
5.8717150323
 11
4.4008463789
 21
5.87000722
  0
LINE
  5
553
100
AcDbEntity
  8
0
100
AcDbLine
 62
7
  6
CONTINUOUS
 10
4.6746832269
 20
5.5800160754
 11
4.6744434731
 21
5.5817225721
  0
SPLINE
  5
554
100
AcDbEntity
  8
0
100
AcDbSpline
 62
7
  6
CONTINUOUS
 70
0
 71
3
 72
15
 73
11
 74
0
 42
0.0000001
 43
0.0000001
 44
0.0000000001
 40
0.0
 40
0.0
 40
0.0
 40
0.0
 40
0.104740222
 40
0.2223288362
 40
0.3559991838
 40
0.4999812765
 40
0.6439632335
 40
0.7776452584
 40
0.8952531632
 40
1.0
 40
1.0
 40
1.0
 40
1.0
 10
4.1332243782
 20
5.6501805057
 30
0.0
 10
4.1332243782
 20
5.6497193583
 30
0.0
 10
4.1335239578
 20
5.6487289069
 30
0.0
 10
4.1346703912
 20
5.6475947705
 30
0.0
 10
4.1362823195
 20
5.6468665257
 30
0.0
 10
4.1381453797
 20
5.6466148065
 30
0.0
 10
4.1400085015
 20
5.6468664114
 30
0.0
 10
4.1416206227
 20
5.6475945681
 30
0.0
 10
4.1427672445
 20
5.648728769
 30
0.0
 10
4.1430668979
 20
5.6497193292
 30
0.0
 10
4.1430668979
 20
5.6501805057
 30
0.0
  0
LINE
  5
555
100
AcDbEntity
  8
0
100
AcDbLine
 62
7
  6
CONTINUOUS
 10
4.1539608523
 20
5.6618626988
 11
4.1542751717
 21
5.6640999305
  0
SPLINE
  5
556
100
AcDbEntity
  8
0
100
AcDbSpline
 62
7
  6
CONTINUOUS
 70
0
 71
3
 72
15
 73
11
 74
0
 42
0.0000001
 43
0.0000001
 44
0.0000000001
 40
0.0
 40
0.0
 40
0.0
 40
0.0
 40
0.1047540588
 40
0.2223334687
 40
0.3560082615
 40
0.4999880437
 40
0.6439681158
 40
0.7776503626
 40
0.8952411333
 40
1.0
 40
1.0
 40
1.0
 40
1.0
 10
4.5928911566
 20
5.6640999305
 30
0.0
 10
4.5928911566
 20
5.6656115489
 30
0.0
 10
4.5919094815
 20
5.6688580416
 30
0.0
 10
4.5881510727
 20
5.6725744165
 30
0.0
 10
4.5828684639
 20
5.6749618049
 30
0.0
 10
4.5767621636
 20
5.6757867649
 30
0.0
 10
4.5706557269
 20
5.6749620375
 30
0.0
 10
4.5653727505
 20
5.6725748001
 30
0.0
 10
4.5616138969
 20
5.6688583472
 30
0.0
 10
4.5606320893
 20
5.6656116182
 30
0.0
 10
4.5606320893
 20
5.6640999305
 30
0.0
  0
LINE
  5
557
100
AcDbEntity
  8
0
100
AcDbLine
 62
7
  6
CONTINUOUS
 10
4.5606320893
 20
5.6640999305
 11
4.5609468813
 21
5.6618609741
  0
SPLINE
  5
558
100
AcDbEntity
  8
0
100
AcDbSpline
 62
7
  6
CONTINUOUS
 70
0
 71
3
 72
15
 73
11
 74
0
 42
0.0000001
 43
0.0000001
 44
0.0000000001
 40
0.0
 40
0.0
 40
0.0
 40
0.0
 40
0.1047540588
 40
0.2223334687
 40
0.3560082615
 40
0.4999880437
 40
0.6439681158
 40
0.7776503626
 40
0.8952411333
 40
1.0
 40
1.0
 40
1.0
 40
1.0
 10
4.279666056
 20
5.8608723608
 30
0.0
 10
4.279666056
 20
5.8620253803
 30
0.0
 10
4.2804148498
 20
5.8645017126
 30
0.0
 10
4.2832816571
 20
5.8673364578
 30
0.0
 10
4.2873110809
 20
5.8691574897
 30
0.0
 10
4.2919687932
 20
5.8697867457
 30
0.0
 10
4.2966266094
 20
5.8691576671
 30
0.0
 10
4.3006563136
 20
5.8673367503
 30
0.0
 10
4.3035234602
 20
5.8645019458
 30
0.0
 10
4.3042723552
 20
5.8620254332
 30
0.0
 10
4.3042723552
 20
5.8608723608
 30
0.0
  0
LINE
  5
559
100
AcDbEntity
  8
0
100
AcDbLine
 62
7
  6
CONTINUOUS
 10
4.3042723552
 20
5.8608723608
 11
4.3040322408
 21
5.8591645485
  0
LINE
  5
55A
100
AcDbEntity
  8
0
100
AcDbLine
 62
7
  6
CONTINUOUS
 10
4.1260822423
 20
5.6484740089
 11
4.1258424884
 21
5.6501805057
  0
SPLINE
  5
55B
100
AcDbEntity
  8
0
100
AcDbSpline
 62
7
  6
CONTINUOUS
 70
0
 71
3
 72
15
 73
11
 74
0
 42
0.0000001
 43
0.0000001
 44
0.0000000001
 40
0.0
 40
0.0
 40
0.0
 40
0.0
 40
0.104740222
 40
0.2223288362
 40
0.3559991838
 40
0.4999812765
 40
0.6439632335
 40
0.7776452584
 40
0.8952531632
 40
1.0
 40
1.0
 40
1.0
 40
1.0
 10
4.637324788
 20
5.5199657781
 30
0.0
 10
4.637324788
 20
5.5195046307
 30
0.0
 10
4.6376243676
 20
5.5185141793
 30
0.0
 10
4.638770801
 20
5.5173800429
 30
0.0
 10
4.6403827293
 20
5.5166517981
 30
0.0
 10
4.6422457895
 20
5.5164000789
 30
0.0
 10
4.6441089113
 20
5.5166516837
 30
0.0
 10
4.6457210325
 20
5.5173798405
 30
0.0
 10
4.6468676543
 20
5.5185140414
 30
0.0
 10
4.6471673076
 20
5.5195046016
 30
0.0
 10
4.6471673076
 20
5.5199657781
 30
0.0
  0
SPLINE
  5
55C
100
AcDbEntity
  8
0
100
AcDbSpline
 62
7
  6
CONTINUOUS
 70
0
 71
3
 72
15
 73
11
 74
0
 42
0.0000001
 43
0.0000001
 44
0.0000000001
 40
0.0
 40
0.0
 40
0.0
 40
0.0
 40
0.104740222
 40
0.2223288362
 40
0.3559991838
 40
0.4999812765
 40
0.6439632335
 40
0.7776452584
 40
0.8952531632
 40
1.0
 40
1.0
 40
1.0
 40
1.0
 10
4.1523030375
 20
5.7180025801
 30
0.0
 10
4.1523030375
 20
5.7175414328
 30
0.0
 10
4.1526026171
 20
5.7165509813
 30
0.0
 10
4.1537490505
 20
5.715416845
 30
0.0
 10
4.1553609789
 20
5.7146886001
 30
0.0
 10
4.157224039
 20
5.7144368809
 30
0.0
 10
4.1590871608
 20
5.7146884858
 30
0.0
 10
4.160699282
 20
5.7154166425
 30
0.0
 10
4.1618459038
 20
5.7165508435
 30
0.0
 10
4.1621455572
 20
5.7175414036
 30
0.0
 10
4.1621455572
 20
5.7180025801
 30
0.0
  0
LINE
  5
55D
100
AcDbEntity
  8
0
100
AcDbLine
 62
7
  6
CONTINUOUS
 10
4.1730395116
 20
5.7296847732
 11
4.173353831
 21
5.7319220049
  0
SPLINE
  5
55E
100
AcDbEntity
  8
0
100
AcDbSpline
 62
7
  6
CONTINUOUS
 70
0
 71
3
 72
15
 73
11
 74
0
 42
0.0000001
 43
0.0000001
 44
0.0000000001
 40
0.0
 40
0.0
 40
0.0
 40
0.0
 40
0.1047540588
 40
0.2223334687
 40
0.3560082615
 40
0.4999880437
 40
0.6439681158
 40
0.7776503626
 40
0.8952411333
 40
1.0
 40
1.0
 40
1.0
 40
1.0
 10
4.1923287602
 20
5.8294057026
 30
0.0
 10
4.1923287602
 20
5.8305587221
 30
0.0
 10
4.193077554
 20
5.8330350544
 30
0.0
 10
4.1959443614
 20
5.8358697995
 30
0.0
 10
4.1999737852
 20
5.8376908315
 30
0.0
 10
4.2046314974
 20
5.8383200875
 30
0.0
 10
4.2092893137
 20
5.8376910089
 30
0.0
 10
4.2133190179
 20
5.8358700921
 30
0.0
 10
4.2161861645
 20
5.8330352875
 30
0.0
 10
4.2169350595
 20
5.830558775
 30
0.0
 10
4.2169350595
 20
5.8294057026
 30
0.0
  0
LINE
  5
55F
100
AcDbEntity
  8
0
100
AcDbLine
 62
7
  6
CONTINUOUS
 10
4.2169350595
 20
5.8294057026
 11
4.2166949451
 21
5.8276978903
  0
SPLINE
  5
560
100
AcDbEntity
  8
0
100
AcDbSpline
 62
9
  6
CONTINUOUS
 70
0
 71
3
 72
14
 73
10
 74
0
 42
0.0000001
 43
0.0000001
 44
0.0000000001
 40
0.0
 40
0.0
 40
0.0
 40
0.0
 40
0.2867898737
 40
0.4239497684
 40
0.5539710508
 40
0.6757947649
 40
0.7895210801
 40
0.8966373737
 40
1.0
 40
1.0
 40
1.0
 40
1.0
 10
4.3887833437
 20
5.9494481394
 30
0.0
 10
4.4394985539
 20
5.9494481394
 30
0.0
 10
4.515132097
 20
5.9392420019
 30
0.0
 10
4.6071645409
 20
5.9048245858
 30
0.0
 10
4.6671561022
 20
5.8704355951
 30
0.0
 10
4.7167339198
 20
5.8283100719
 30
0.0
 10
4.7539673253
 20
5.779833681
 30
0.0
 10
4.7771798734
 20
5.7267482807
 30
0.0
 10
4.7824837682
 20
5.6893380335
 30
0.0
 10
4.7824837727
 20
5.6710596429
 30
0.0
  0
LINE
  5
561
100
AcDbEntity
  8
0
100
AcDbLine
 62
7
  6
CONTINUOUS
 10
4.1451609016
 20
5.7162960833
 11
4.1449211477
 21
5.7180025801
  0
LINE
  5
562
100
AcDbEntity
  8
0
100
AcDbLine
 62
7
  6
CONTINUOUS
 10
4.6580612621
 20
5.5316479711
 11
4.6583755815
 21
5.5338852029
  0
SPLINE
  5
563
100
AcDbEntity
  8
0
100
AcDbSpline
 62
7
  6
CONTINUOUS
 70
0
 71
3
 72
15
 73
11
 74
0
 42
0.0000001
 43
0.0000001
 44
0.0000000001
 40
0.0
 40
0.0
 40
0.0
 40
0.0
 40
0.1047540588
 40
0.2223334687
 40
0.3560082615
 40
0.4999880437
 40
0.6439681158
 40
0.7776503626
 40
0.8952411333
 40
1.0
 40
1.0
 40
1.0
 40
1.0
 10
4.1230174899
 20
5.7803952333
 30
0.0
 10
4.1230174899
 20
5.7815482528
 30
0.0
 10
4.1237662837
 20
5.7840245851
 30
0.0
 10
4.1266330911
 20
5.7868593303
 30
0.0
 10
4.1306625149
 20
5.7886803622
 30
0.0
 10
4.1353202271
 20
5.7893096182
 30
0.0
 10
4.1399780434
 20
5.7886805396
 30
0.0
 10
4.1440077475
 20
5.7868596228
 30
0.0
 10
4.1468748942
 20
5.7840248182
 30
0.0
 10
4.1476237891
 20
5.7815483057
 30
0.0
 10
4.1476237891
 20
5.7803952333
 30
0.0
  0
LINE
  5
564
100
AcDbEntity
  8
0
100
AcDbLine
 62
7
  6
CONTINUOUS
 10
4.1476237891
 20
5.7803952333
 11
4.1473836748
 21
5.778687421
  0
SPLINE
  5
565
100
AcDbEntity
  8
0
100
AcDbSpline
 62
7
  6
CONTINUOUS
 70
0
 71
3
 72
15
 73
11
 74
0
 42
0.0000001
 43
0.0000001
 44
0.0000000001
 40
0.0
 40
0.0
 40
0.0
 40
0.0
 40
0.104740222
 40
0.2223288362
 40
0.3559991838
 40
0.4999812765
 40
0.6439632335
 40
0.7776452584
 40
0.8952531632
 40
1.0
 40
1.0
 40
1.0
 40
1.0
 10
4.2066344625
 20
5.7754993585
 30
0.0
 10
4.2066344625
 20
5.7750382112
 30
0.0
 10
4.2069340421
 20
5.7740477597
 30
0.0
 10
4.2080804756
 20
5.7729136234
 30
0.0
 10
4.2096924039
 20
5.7721853785
 30
0.0
 10
4.2115554641
 20
5.7719336594
 30
0.0
 10
4.2134185859
 20
5.7721852642
 30
0.0
 10
4.2150307071
 20
5.7729134209
 30
0.0
 10
4.2161773289
 20
5.7740476219
 30
0.0
 10
4.2164769822
 20
5.775038182
 30
0.0
 10
4.2164769822
 20
5.7754993585
 30
0.0
  0
LINE
  5
566
100
AcDbEntity
  8
0
100
AcDbLine
 62
7
  6
CONTINUOUS
 10
4.2273709367
 20
5.7871815516
 11
4.227685256
 21
5.7894187833
  0
SPLINE
  5
567
100
AcDbEntity
  8
0
100
AcDbSpline
 62
7
  6
CONTINUOUS
 70
0
 71
3
 72
15
 73
11
 74
0
 42
0.0000001
 43
0.0000001
 44
0.0000000001
 40
0.0
 40
0.0
 40
0.0
 40
0.0
 40
0.1047540588
 40
0.2223334687
 40
0.3560082615
 40
0.4999880437
 40
0.6439681158
 40
0.7776503626
 40
0.8952411333
 40
1.0
 40
1.0
 40
1.0
 40
1.0
 10
4.5677068425
 20
5.7305602885
 30
0.0
 10
4.5677068425
 20
5.7320719069
 30
0.0
 10
4.5667251675
 20
5.7353183995
 30
0.0
 10
4.5629667587
 20
5.7390347745
 30
0.0
 10
4.5576841499
 20
5.7414221629
 30
0.0
 10
4.5515778495
 20
5.7422471229
 30
0.0
 10
4.5454714128
 20
5.7414223955
 30
0.0
 10
4.5401884365
 20
5.7390351581
 30
0.0
 10
4.5364295829
 20
5.7353187052
 30
0.0
 10
4.5354477752
 20
5.7320719762
 30
0.0
 10
4.5354477752
 20
5.7305602885
 30
0.0
  0
LINE
  5
568
100
AcDbEntity
  8
0
100
AcDbLine
 62
7
  6
CONTINUOUS
 10
4.1994923267
 20
5.7737928618
 11
4.1992525728
 21
5.7754993585
  0
SPLINE
  5
569
100
AcDbEntity
  8
0
100
AcDbSpline
 62
7
  6
CONTINUOUS
 70
0
 71
3
 72
15
 73
11
 74
0
 42
0.0000001
 43
0.0000001
 44
0.0000000001
 40
0.0
 40
0.0
 40
0.0
 40
0.0
 40
0.1047540588
 40
0.2223334687
 40
0.3560082615
 40
0.4999880437
 40
0.6439681158
 40
0.7776503626
 40
0.8952411333
 40
1.0
 40
1.0
 40
1.0
 40
1.0
 10
4.0785169151
 20
5.7186384392
 30
0.0
 10
4.0785169151
 20
5.7197914587
 30
0.0
 10
4.0792657089
 20
5.722267791
 30
0.0
 10
4.0821325162
 20
5.7251025362
 30
0.0
 10
4.08616194
 20
5.7269235682
 30
0.0
 10
4.0908196523
 20
5.7275528242
 30
0.0
 10
4.0954774685
 20
5.7269237456
 30
0.0
 10
4.0995071727
 20
5.7251028288
 30
0.0
 10
4.1023743193
 20
5.7222680242
 30
0.0
 10
4.1031232143
 20
5.7197915117
 30
0.0
 10
4.1031232143
 20
5.7186384392
 30
0.0
  0
LINE
  5
56A
100
AcDbEntity
  8
0
100
AcDbLine
 62
7
  6
CONTINUOUS
 10
4.1031232143
 20
5.7186384392
 11
4.1028830999
 21
5.716930627
  0
LINE
  5
56B
100
AcDbEntity
  8
0
100
AcDbLine
 62
7
  6
CONTINUOUS
 10
4.5354477752
 20
5.7305602885
 11
4.5357625672
 21
5.7283213321
  0
LINE
  5
56C
100
AcDbEntity
  8
0
100
AcDbLine
 62
7
  6
CONTINUOUS
 10
4.6301826521
 20
5.5182592813
 11
4.6299428982
 21
5.5199657781
  0
SPLINE
  5
56D
100
AcDbEntity
  8
0
100
AcDbSpline
 62
7
  6
CONTINUOUS
 70
0
 71
3
 72
15
 73
11
 74
0
 42
0.0000001
 43
0.0000001
 44
0.0000000001
 40
0.0
 40
0.0
 40
0.0
 40
0.0
 40
0.104740222
 40
0.2223288362
 40
0.3559991838
 40
0.4999812765
 40
0.6439632335
 40
0.7776452584
 40
0.8952531632
 40
1.0
 40
1.0
 40
1.0
 40
1.0
 10
4.2879471863
 20
5.8139174776
 30
0.0
 10
4.2879471863
 20
5.8134563302
 30
0.0
 10
4.288246766
 20
5.8124658788
 30
0.0
 10
4.2893931994
 20
5.8113317425
 30
0.0
 10
4.2910051277
 20
5.8106034976
 30
0.0
 10
4.2928681879
 20
5.8103517784
 30
0.0
 10
4.2947313097
 20
5.8106033833
 30
0.0
 10
4.2963434309
 20
5.81133154
 30
0.0
 10
4.2974900527
 20
5.8124657409
 30
0.0
 10
4.297789706
 20
5.8134563011
 30
0.0
 10
4.297789706
 20
5.8139174776
 30
0.0
  0
LINE
  5
56E
100
AcDbEntity
  8
0
100
AcDbLine
 62
7
  6
CONTINUOUS
 10
4.3086836605
 20
5.8255996707
 11
4.3089979798
 21
5.8278369024
  0
SPLINE
  5
56F
100
AcDbEntity
  8
0
100
AcDbSpline
 62
7
  6
CONTINUOUS
 70
0
 71
3
 72
15
 73
11
 74
0
 42
0.0000001
 43
0.0000001
 44
0.0000000001
 40
0.0
 40
0.0
 40
0.0
 40
0.0
 40
0.1047540588
 40
0.2223334687
 40
0.3560082615
 40
0.4999880437
 40
0.6439681158
 40
0.7776503626
 40
0.8952411333
 40
1.0
 40
1.0
 40
1.0
 40
1.0
 10
4.063183062
 20
5.6501805057
 30
0.0
 10
4.063183062
 20
5.6513335252
 30
0.0
 10
4.0639318558
 20
5.6538098575
 30
0.0
 10
4.0667986632
 20
5.6566446026
 30
0.0
 10
4.0708280869
 20
5.6584656346
 30
0.0
 10
4.0754857992
 20
5.6590948906
 30
0.0
 10
4.0801436155
 20
5.658465812
 30
0.0
 10
4.0841733196
 20
5.6566448952
 30
0.0
 10
4.0870404663
 20
5.6538100906
 30
0.0
 10
4.0877893612
 20
5.6513335781
 30
0.0
 10
4.0877893612
 20
5.6501805057
 30
0.0
  0
LINE
  5
570
100
AcDbEntity
  8
0
100
AcDbLine
 62
7
  6
CONTINUOUS
 10
4.0877893612
 20
5.6501805057
 11
4.0875491083
 21
5.6484721889
  0
LINE
  5
571
100
AcDbEntity
  8
0
100
AcDbLine
 62
7
  6
CONTINUOUS
 10
4.2808050505
 20
5.8122109808
 11
4.2805652966
 21
5.8139174776
  0
SPLINE
  5
572
100
AcDbEntity
  8
0
100
AcDbSpline
 62
7
  6
CONTINUOUS
 70
0
 71
3
 72
15
 73
11
 74
0
 42
0.0000001
 43
0.0000001
 44
0.0000000001
 40
0.0
 40
0.0
 40
0.0
 40
0.0
 40
0.104740222
 40
0.2223288362
 40
0.3559991838
 40
0.4999812765
 40
0.6439632335
 40
0.7776452584
 40
0.8952531632
 40
1.0
 40
1.0
 40
1.0
 40
1.0
 10
4.3838620838
 20
5.827408127
 30
0.0
 10
4.3838620838
 20
5.8269469796
 30
0.0
 10
4.3841616634
 20
5.8259565282
 30
0.0
 10
4.3853080969
 20
5.8248223918
 30
0.0
 10
4.3869200252
 20
5.824094147
 30
0.0
 10
4.3887830853
 20
5.8238424278
 30
0.0
 10
4.3906462071
 20
5.8240940326
 30
0.0
 10
4.3922583284
 20
5.8248221894
 30
0.0
 10
4.3934049502
 20
5.8259563903
 30
0.0
 10
4.3937046035
 20
5.8269469505
 30
0.0
 10
4.3937046035
 20
5.827408127
 30
0.0
  0
SPLINE
  5
573
100
AcDbEntity
  8
0
100
AcDbSpline
 62
7
  6
CONTINUOUS
 70
0
 71
3
 72
15
 73
11
 74
0
 42
0.0000001
 43
0.0000001
 44
0.0000000001
 40
0.0
 40
0.0
 40
0.0
 40
0.0
 40
0.1047540588
 40
0.2223334687
 40
0.3560082615
 40
0.4999880437
 40
0.6439681158
 40
0.7776503626
 40
0.8952411333
 40
1.0
 40
1.0
 40
1.0
 40
1.0
 10
4.0785169151
 20
5.5817225721
 30
0.0
 10
4.0785169151
 20
5.5828755916
 30
0.0
 10
4.0792657089
 20
5.5853519239
 30
0.0
 10
4.0821325162
 20
5.5881866691
 30
0.0
 10
4.08616194
 20
5.590007701
 30
0.0
 10
4.0908196523
 20
5.590636957
 30
0.0
 10
4.0954774685
 20
5.5900078784
 30
0.0
 10
4.0995071727
 20
5.5881869617
 30
0.0
 10
4.1023743193
 20
5.5853521571
 30
0.0
 10
4.1031232143
 20
5.5828756445
 30
0.0
 10
4.1031232143
 20
5.5817225721
 30
0.0
  0
LINE
  5
574
100
AcDbEntity
  8
0
100
AcDbLine
 62
7
  6
CONTINUOUS
 10
4.1031232143
 20
5.5817225721
 11
4.1028830999
 21
5.5800147598
  0
LINE
  5
575
100
AcDbEntity
  8
0
100
AcDbLine
 62
7
  6
CONTINUOUS
 10
4.4045985579
 20
5.8390903201
 11
4.4049128773
 21
5.8413275518
  0
SPLINE
  5
576
100
AcDbEntity
  8
0
100
AcDbSpline
 62
7
  6
CONTINUOUS
 70
0
 71
3
 72
15
 73
11
 74
0
 42
0.0000001
 43
0.0000001
 44
0.0000000001
 40
0.0
 40
0.0
 40
0.0
 40
0.0
 40
0.1047540588
 40
0.2223334687
 40
0.3560082615
 40
0.4999880437
 40
0.6439681158
 40
0.7776503626
 40
0.8952411333
 40
1.0
 40
1.0
 40
1.0
 40
1.0
 10
4.4989020169
 20
5.7792126472
 30
0.0
 10
4.4989020169
 20
5.7807242656
 30
0.0
 10
4.4979203419
 20
5.7839707583
 30
0.0
 10
4.4941619331
 20
5.7876871333
 30
0.0
 10
4.4888793243
 20
5.7900745216
 30
0.0
 10
4.482773024
 20
5.7908994816
 30
0.0
 10
4.4766665873
 20
5.7900747542
 30
0.0
 10
4.4713836109
 20
5.7876875168
 30
0.0
 10
4.4676247573
 20
5.7839710639
 30
0.0
 10
4.4666429496
 20
5.780724335
 30
0.0
 10
4.4666429496
 20
5.7792126472
 30
0.0
  0
LINE
  5
577
100
AcDbEntity
  8
0
100
AcDbLine
 62
7
  6
CONTINUOUS
 10
4.3767199479
 20
5.8257016302
 11
4.3764801941
 21
5.827408127
  0
SPLINE
  5
578
100
AcDbEntity
  8
0
100
AcDbSpline
 62
7
  6
CONTINUOUS
 70
0
 71
3
 72
15
 73
11
 74
0
 42
0.0000001
 43
0.0000001
 44
0.0000000001
 40
0.0
 40
0.0
 40
0.0
 40
0.0
 40
0.1047540588
 40
0.2223334687
 40
0.3560082615
 40
0.4999880437
 40
0.6439681158
 40
0.7776503626
 40
0.8952411333
 40
1.0
 40
1.0
 40
1.0
 40
1.0
 10
4.1230174899
 20
5.5199657781
 30
0.0
 10
4.1230174899
 20
5.5211187976
 30
0.0
 10
4.1237662837
 20
5.5235951299
 30
0.0
 10
4.1266330911
 20
5.526429875
 30
0.0
 10
4.1306625149
 20
5.528250907
 30
0.0
 10
4.1353202271
 20
5.528880163
 30
0.0
 10
4.1399780434
 20
5.5282510844
 30
0.0
 10
4.1440077475
 20
5.5264301676
 30
0.0
 10
4.1468748942
 20
5.523595363
 30
0.0
 10
4.1476237891
 20
5.5211188505
 30
0.0
 10
4.1476237891
 20
5.5199657781
 30
0.0
  0
LINE
  5
579
100
AcDbEntity
  8
0
100
AcDbLine
 62
7
  6
CONTINUOUS
 10
4.1476237891
 20
5.5199657781
 11
4.1473836748
 21
5.5182579658
  0
LINE
  5
57A
100
AcDbEntity
  8
0
100
AcDbLine
 62
7
  6
CONTINUOUS
 10
4.4666429496
 20
5.7792126472
 11
4.4669577417
 21
5.7769736908
  0
SPLINE
  5
57B
100
AcDbEntity
  8
0
100
AcDbSpline
 62
7
  6
CONTINUOUS
 70
0
 71
3
 72
15
 73
11
 74
0
 42
0.0000001
 43
0.0000001
 44
0.0000000001
 40
0.0
 40
0.0
 40
0.0
 40
0.0
 40
0.104740222
 40
0.2223288362
 40
0.3559991838
 40
0.4999812765
 40
0.6439632335
 40
0.7776452584
 40
0.8952531632
 40
1.0
 40
1.0
 40
1.0
 40
1.0
 10
4.4797769813
 20
5.8139174776
 30
0.0
 10
4.4797769813
 20
5.8134563302
 30
0.0
 10
4.4800765609
 20
5.8124658788
 30
0.0
 10
4.4812229943
 20
5.8113317425
 30
0.0
 10
4.4828349227
 20
5.8106034976
 30
0.0
 10
4.4846979828
 20
5.8103517784
 30
0.0
 10
4.4865611046
 20
5.8106033833
 30
0.0
 10
4.4881732259
 20
5.81133154
 30
0.0
 10
4.4893198477
 20
5.8124657409
 30
0.0
 10
4.489619501
 20
5.8134563011
 30
0.0
 10
4.489619501
 20
5.8139174776
 30
0.0
  0
LINE
  5
57C
100
AcDbEntity
  8
0
100
AcDbLine
 62
7
  6
CONTINUOUS
 10
4.5005134554
 20
5.8255996707
 11
4.5008277748
 21
5.8278369024
  0
SPLINE
  5
57D
100
AcDbEntity
  8
0
100
AcDbSpline
 62
7
  6
CONTINUOUS
 70
0
 71
3
 72
15
 73
11
 74
0
 42
0.0000001
 43
0.0000001
 44
0.0000000001
 40
0.0
 40
0.0
 40
0.0
 40
0.0
 40
0.104740222
 40
0.2223288362
 40
0.3559991838
 40
0.4999812765
 40
0.6439632335
 40
0.7776452584
 40
0.8952531632
 40
1.0
 40
1.0
 40
1.0
 40
1.0
 10
4.5680135176
 20
5.4709553088
 30
0.0
 10
4.5680135176
 20
5.4704941615
 30
0.0
 10
4.5683130973
 20
5.46950371
 30
0.0
 10
4.5694595307
 20
5.4683695737
 30
0.0
 10
4.571071459
 20
5.4676413288
 30
0.0
 10
4.5729345192
 20
5.4673896097
 30
0.0
 10
4.574797641
 20
5.4676412145
 30
0.0
 10
4.5764097622
 20
5.4683693713
 30
0.0
 10
4.577556384
 20
5.4695035722
 30
0.0
 10
4.5778560373
 20
5.4704941323
 30
0.0
 10
4.5778560373
 20
5.4709553088
 30
0.0
  0
LINE
  5
57E
100
AcDbEntity
  8
0
100
AcDbLine
 62
7
  6
CONTINUOUS
 10
4.5887499918
 20
5.4826375019
 11
4.5890643111
 21
5.4848747336
  0
SPLINE
  5
57F
100
AcDbEntity
  8
0
100
AcDbSpline
 62
7
  6
CONTINUOUS
 70
0
 71
3
 72
15
 73
11
 74
0
 42
0.0000001
 43
0.0000001
 44
0.0000000001
 40
0.0
 40
0.0
 40
0.0
 40
0.0
 40
0.1047540588
 40
0.2223334687
 40
0.3560082615
 40
0.4999880437
 40
0.6439681158
 40
0.7776503626
 40
0.8952411333
 40
1.0
 40
1.0
 40
1.0
 40
1.0
 10
4.1923287602
 20
5.4709553088
 30
0.0
 10
4.1923287602
 20
5.4721083283
 30
0.0
 10
4.193077554
 20
5.4745846606
 30
0.0
 10
4.1959443614
 20
5.4774194058
 30
0.0
 10
4.1999737852
 20
5.4792404377
 30
0.0
 10
4.2046314974
 20
5.4798696937
 30
0.0
 10
4.2092893137
 20
5.4792406151
 30
0.0
 10
4.2133190179
 20
5.4774196983
 30
0.0
 10
4.2161861645
 20
5.4745848938
 30
0.0
 10
4.2169350595
 20
5.4721083812
 30
0.0
 10
4.2169350595
 20
5.4709553088
 30
0.0
  0
LINE
  5
580
100
AcDbEntity
  8
0
100
AcDbLine
 62
7
  6
CONTINUOUS
 10
4.2169350595
 20
5.4709553088
 11
4.2166949451
 21
5.4692474965
  0
LINE
  5
581
100
AcDbEntity
  8
0
100
AcDbLine
 62
7
  6
CONTINUOUS
 10
4.4726348454
 20
5.8122109808
 11
4.4723950915
 21
5.8139174776
  0
SPLINE
  5
582
100
AcDbEntity
  8
0
100
AcDbSpline
 62
7
  6
CONTINUOUS
 70
0
 71
3
 72
15
 73
11
 74
0
 42
0.0000001
 43
0.0000001
 44
0.0000000001
 40
0.0
 40
0.0
 40
0.0
 40
0.0
 40
0.1047540588
 40
0.2223334687
 40
0.3560082615
 40
0.4999880437
 40
0.6439681158
 40
0.7776503626
 40
0.8952411333
 40
1.0
 40
1.0
 40
1.0
 40
1.0
 10
4.4049128773
 20
5.7970206465
 30
0.0
 10
4.4049128773
 20
5.7985322648
 30
0.0
 10
4.4039312023
 20
5.8017787575
 30
0.0
 10
4.4001727935
 20
5.8054951325
 30
0.0
 10
4.3948901847
 20
5.8078825209
 30
0.0
 10
4.3887838843
 20
5.8087074808
 30
0.0
 10
4.3826774476
 20
5.8078827535
 30
0.0
 10
4.3773944713
 20
5.8054955161
 30
0.0
 10
4.3736356177
 20
5.8017790632
 30
0.0
 10
4.37265381
 20
5.7985323342
 30
0.0
 10
4.37265381
 20
5.7970206465
 30
0.0
  0
SPLINE
  5
583
100
AcDbEntity
  8
0
100
AcDbSpline
 62
7
  6
CONTINUOUS
 70
0
 71
3
 72
15
 73
11
 74
0
 42
0.0000001
 43
0.0000001
 44
0.0000000001
 40
0.0
 40
0.0
 40
0.0
 40
0.0
 40
0.104740222
 40
0.2223288362
 40
0.3559991838
 40
0.4999812765
 40
0.6439632335
 40
0.7776452584
 40
0.8952531632
 40
1.0
 40
1.0
 40
1.0
 40
1.0
 10
4.5610897051
 20
5.7754993585
 30
0.0
 10
4.5610897051
 20
5.7750382112
 30
0.0
 10
4.5613892847
 20
5.7740477597
 30
0.0
 10
4.5625357182
 20
5.7729136234
 30
0.0
 10
4.5641476465
 20
5.7721853785
 30
0.0
 10
4.5660107066
 20
5.7719336594
 30
0.0
 10
4.5678738284
 20
5.7721852642
 30
0.0
 10
4.5694859497
 20
5.7729134209
 30
0.0
 10
4.5706325715
 20
5.7740476219
 30
0.0
 10
4.5709322248
 20
5.775038182
 30
0.0
 10
4.5709322248
 20
5.7754993585
 30
0.0
  0
LINE
  5
584
100
AcDbEntity
  8
0
100
AcDbLine
 62
7
  6
CONTINUOUS
 10
4.5818261792
 20
5.7871815516
 11
4.5821404986
 21
5.7894187833
  0
SPLINE
  5
585
100
AcDbEntity
  8
0
100
AcDbSpline
 62
7
  6
CONTINUOUS
 70
0
 71
3
 72
15
 73
11
 74
0
 42
0.0000001
 43
0.0000001
 44
0.0000000001
 40
0.0
 40
0.0
 40
0.0
 40
0.0
 40
0.1047540588
 40
0.2223334687
 40
0.3560082615
 40
0.4999880437
 40
0.6439681158
 40
0.7776503626
 40
0.8952411333
 40
1.0
 40
1.0
 40
1.0
 40
1.0
 10
4.279666056
 20
5.4394886506
 30
0.0
 10
4.279666056
 20
5.4406416701
 30
0.0
 10
4.2804148498
 20
5.4431180024
 30
0.0
 10
4.2832816571
 20
5.4459527475
 30
0.0
 10
4.2873110809
 20
5.4477737795
 30
0.0
 10
4.2919687932
 20
5.4484030355
 30
0.0
 10
4.2966266094
 20
5.4477739569
 30
0.0
 10
4.3006563136
 20
5.4459530401
 30
0.0
 10
4.3035234602
 20
5.4431182355
 30
0.0
 10
4.3042723552
 20
5.440641723
 30
0.0
 10
4.3042723552
 20
5.4394886506
 30
0.0
  0
LINE
  5
586
100
AcDbEntity
  8
0
100
AcDbLine
 62
7
  6
CONTINUOUS
 10
4.3042723552
 20
5.4394886506
 11
4.3040322408
 21
5.4377808383
  0
LINE
  5
587
100
AcDbEntity
  8
0
100
AcDbLine
 62
7
  6
CONTINUOUS
 10
4.37265381
 20
5.7970206465
 11
4.372968602
 21
5.7947816901
  0
SPLINE
  5
588
100
AcDbEntity
  8
0
100
AcDbSpline
 62
7
  6
CONTINUOUS
 70
0
 71
3
 72
15
 73
11
 74
0
 42
0.0000001
 43
0.0000001
 44
0.0000000001
 40
0.0
 40
0.0
 40
0.0
 40
0.0
 40
0.1047540588
 40
0.2223334687
 40
0.3560082615
 40
0.4999880437
 40
0.6439681158
 40
0.7776503626
 40
0.8952411333
 40
1.0
 40
1.0
 40
1.0
 40
1.0
 10
4.3109237377
 20
5.7792126472
 30
0.0
 10
4.3109237377
 20
5.7807242656
 30
0.0
 10
4.3099420627
 20
5.7839707583
 30
0.0
 10
4.3061836539
 20
5.7876871333
 30
0.0
 10
4.3009010451
 20
5.7900745216
 30
0.0
 10
4.2947947447
 20
5.7908994816
 30
0.0
 10
4.288688308
 20
5.7900747542
 30
0.0
 10
4.2834053317
 20
5.7876875168
 30
0.0
 10
4.2796464781
 20
5.7839710639
 30
0.0
 10
4.2786646704
 20
5.780724335
 30
0.0
 10
4.2786646704
 20
5.7792126472
 30
0.0
  0
LINE
  5
589
100
AcDbEntity
  8
0
100
AcDbLine
 62
7
  6
CONTINUOUS
 10
4.5539475692
 20
5.7737928618
 11
4.5537078154
 21
5.7754993585
  0
LINE
  5
58A
100
AcDbEntity
  8
0
100
AcDbLine
 62
7
  6
CONTINUOUS
 10
4.5608713818
 20
5.4692488121
 11
4.5606316279
 21
5.4709553088
  0
SPLINE
  5
58B
100
AcDbEntity
  8
0
100
AcDbSpline
 62
7
  6
CONTINUOUS
 70
0
 71
3
 72
15
 73
11
 74
0
 42
0.0000001
 43
0.0000001
 44
0.0000000001
 40
0.0
 40
0.0
 40
0.0
 40
0.0
 40
0.1047540588
 40
0.2223334687
 40
0.3560082615
 40
0.4999880437
 40
0.6439681158
 40
0.7776503626
 40
0.8952411333
 40
1.0
 40
1.0
 40
1.0
 40
1.0
 10
4.3764801941
 20
5.4286459791
 30
0.0
 10
4.3764801941
 20
5.4297989986
 30
0.0
 10
4.3772289879
 20
5.4322753309
 30
0.0
 10
4.3800957952
 20
5.435110076
 30
0.0
 10
4.384125219
 20
5.436931108
 30
0.0
 10
4.3887829313
 20
5.437560364
 30
0.0
 10
4.3934407475
 20
5.4369312854
 30
0.0
 10
4.3974704517
 20
5.4351103686
 30
0.0
 10
4.4003375983
 20
5.432275564
 30
0.0
 10
4.4010864933
 20
5.4297990515
 30
0.0
 10
4.4010864933
 20
5.4286459791
 30
0.0
  0
LINE
  5
58C
100
AcDbEntity
  8
0
100
AcDbLine
 62
7
  6
CONTINUOUS
 10
4.4010864933
 20
5.4286459791
 11
4.4008463789
 21
5.4269381668
  0
SPLINE
  5
58D
100
AcDbEntity
  8
0
100
AcDbSpline
 62
7
  6
CONTINUOUS
 70
0
 71
3
 72
15
 73
11
 74
0
 42
0.0000001
 43
0.0000001
 44
0.0000000001
 40
0.0
 40
0.0
 40
0.0
 40
0.0
 40
0.104740222
 40
0.2223288362
 40
0.3559991838
 40
0.4999812765
 40
0.6439632335
 40
0.7776452584
 40
0.8952531632
 40
1.0
 40
1.0
 40
1.0
 40
1.0
 10
4.6154211302
 20
5.7180025801
 30
0.0
 10
4.6154211302
 20
5.7175414328
 30
0.0
 10
4.6157207098
 20
5.7165509813
 30
0.0
 10
4.6168671432
 20
5.715416845
 30
0.0
 10
4.6184790715
 20
5.7146886001
 30
0.0
 10
4.6203421317
 20
5.7144368809
 30
0.0
 10
4.6222052535
 20
5.7146884858
 30
0.0
 10
4.6238173747
 20
5.7154166425
 30
0.0
 10
4.6249639965
 20
5.7165508435
 30
0.0
 10
4.6252636498
 20
5.7175414036
 30
0.0
 10
4.6252636498
 20
5.7180025801
 30
0.0
  0
LINE
  5
58E
100
AcDbEntity
  8
0
100
AcDbLine
 62
7
  6
CONTINUOUS
 10
4.6361576043
 20
5.7296847732
 11
4.6364719236
 21
5.7319220049
  0
SPLINE
  5
58F
100
AcDbEntity
  8
0
100
AcDbSpline
 62
9
  6
CONTINUOUS
 70
0
 71
3
 72
9
 73
5
 74
0
 42
0.0000001
 43
0.0000001
 44
0.0000000001
 40
0.0
 40
0.0
 40
0.0
 40
0.0
 40
0.2577035812
 40
1.0
 40
1.0
 40
1.0
 40
1.0
 10
4.3886135315
 20
6.1669390986
 30
0.0
 10
4.3791901739
 20
6.1669331265
 30
0.0
 10
4.342674119
 20
6.1649935896
 30
0.0
 10
4.3063758816
 20
6.1554046293
 30
0.0
 10
4.2819329772
 20
6.1436019493
 30
0.0
  0
LINE
  5
590
100
AcDbEntity
  8
0
100
AcDbLine
 62
7
  6
CONTINUOUS
 10
4.6082789943
 20
5.7162960833
 11
4.6080392404
 21
5.7180025801
  0
SPLINE
  5
591
100
AcDbEntity
  8
0
100
AcDbSpline
 62
7
  6
CONTINUOUS
 70
0
 71
3
 72
15
 73
11
 74
0
 42
0.0000001
 43
0.0000001
 44
0.0000000001
 40
0.0
 40
0.0
 40
0.0
 40
0.0
 40
0.1047540588
 40
0.2223334687
 40
0.3560082615
 40
0.4999880437
 40
0.6439681158
 40
0.7776503626
 40
0.8952411333
 40
1.0
 40
1.0
 40
1.0
 40
1.0
 10
4.4732943322
 20
5.4394886506
 30
0.0
 10
4.4732943322
 20
5.4406416701
 30
0.0
 10
4.474043126
 20
5.4431180024
 30
0.0
 10
4.4769099333
 20
5.4459527475
 30
0.0
 10
4.4809393571
 20
5.4477737795
 30
0.0
 10
4.4855970694
 20
5.4484030355
 30
0.0
 10
4.4902548856
 20
5.4477739569
 30
0.0
 10
4.4942845898
 20
5.4459530401
 30
0.0
 10
4.4971517364
 20
5.4431182355
 30
0.0
 10
4.4979006314
 20
5.440641723
 30
0.0
 10
4.4979006314
 20
5.4394886506
 30
0.0
  0
LINE
  5
592
100
AcDbEntity
  8
0
100
AcDbLine
 62
7
  6
CONTINUOUS
 10
4.4979006314
 20
5.4394886506
 11
4.497660517
 21
5.4377808383
  0
SPLINE
  5
593
100
AcDbEntity
  8
0
100
AcDbSpline
 62
7
  6
CONTINUOUS
 70
0
 71
3
 72
15
 73
11
 74
0
 42
0.0000001
 43
0.0000001
 44
0.0000000001
 40
0.0
 40
0.0
 40
0.0
 40
0.0
 40
0.104740222
 40
0.2223288362
 40
0.3559991838
 40
0.4999812765
 40
0.6439632335
 40
0.7776452584
 40
0.8952531632
 40
1.0
 40
1.0
 40
1.0
 40
1.0
 10
4.6344997895
 20
5.6501805057
 30
0.0
 10
4.6344997895
 20
5.6497193583
 30
0.0
 10
4.6347993691
 20
5.6487289069
 30
0.0
 10
4.6359458025
 20
5.6475947705
 30
0.0
 10
4.6375577309
 20
5.6468665257
 30
0.0
 10
4.639420791
 20
5.6466148065
 30
0.0
 10
4.6412839128
 20
5.6468664114
 30
0.0
 10
4.642896034
 20
5.6475945681
 30
0.0
 10
4.6440426558
 20
5.648728769
 30
0.0
 10
4.6443423092
 20
5.6497193292
 30
0.0
 10
4.6443423092
 20
5.6501805057
 30
0.0
  0
LINE
  5
594
100
AcDbEntity
  8
0
100
AcDbLine
 62
7
  6
CONTINUOUS
 10
4.6552362636
 20
5.6618626988
 11
4.655550583
 21
5.6640999305
  0
LINE
  5
595
100
AcDbEntity
  8
0
100
AcDbLine
 62
7
  6
CONTINUOUS
 10
4.2786646704
 20
5.7792126472
 11
4.2789794624
 21
5.7769736908
  0
SPLINE
  5
596
100
AcDbEntity
  8
0
100
AcDbSpline
 62
7
  6
CONTINUOUS
 70
0
 71
3
 72
15
 73
11
 74
0
 42
0.0000001
 43
0.0000001
 44
0.0000000001
 40
0.0
 40
0.0
 40
0.0
 40
0.0
 40
0.1047540588
 40
0.2223334687
 40
0.3560082615
 40
0.4999880437
 40
0.6439681158
 40
0.7776503626
 40
0.8952411333
 40
1.0
 40
1.0
 40
1.0
 40
1.0
 10
4.5606316279
 20
5.4709553088
 30
0.0
 10
4.5606316279
 20
5.4721083283
 30
0.0
 10
4.5613804217
 20
5.4745846606
 30
0.0
 10
4.5642472291
 20
5.4774194058
 30
0.0
 10
4.5682766528
 20
5.4792404377
 30
0.0
 10
4.5729343651
 20
5.4798696937
 30
0.0
 10
4.5775921814
 20
5.4792406151
 30
0.0
 10
4.5816218855
 20
5.4774196983
 30
0.0
 10
4.5844890321
 20
5.4745848938
 30
0.0
 10
4.5852379271
 20
5.4721083812
 30
0.0
 10
4.5852379271
 20
5.4709553088
 30
0.0
  0
LINE
  5
597
100
AcDbEntity
  8
0
100
AcDbLine
 62
7
  6
CONTINUOUS
 10
4.5852379271
 20
5.4709553088
 11
4.5849978127
 21
5.4692474965
  0
LINE
  5
598
100
AcDbEntity
  8
0
100
AcDbLine
 62
7
  6
CONTINUOUS
 10
4.6273576536
 20
5.6484740089
 11
4.6271178997
 21
5.6501805057
  0
SPLINE
  5
599
100
AcDbEntity
  8
0
100
AcDbSpline
 62
7
  6
CONTINUOUS
 70
0
 71
3
 72
15
 73
11
 74
0
 42
0.0000001
 43
0.0000001
 44
0.0000000001
 40
0.0
 40
0.0
 40
0.0
 40
0.0
 40
0.1047540588
 40
0.2223334687
 40
0.3560082615
 40
0.4999880437
 40
0.6439681158
 40
0.7776503626
 40
0.8952411333
 40
1.0
 40
1.0
 40
1.0
 40
1.0
 10
4.2421189121
 20
5.7305602885
 30
0.0
 10
4.2421189121
 20
5.7320719069
 30
0.0
 10
4.2411372371
 20
5.7353183995
 30
0.0
 10
4.2373788283
 20
5.7390347745
 30
0.0
 10
4.2320962195
 20
5.7414221629
 30
0.0
 10
4.2259899192
 20
5.7422471229
 30
0.0
 10
4.2198834825
 20
5.7414223955
 30
0.0
 10
4.2146005061
 20
5.7390351581
 30
0.0
 10
4.2108416525
 20
5.7353187052
 30
0.0
 10
4.2098598448
 20
5.7320719762
 30
0.0
 10
4.2098598448
 20
5.7305602885
 30
0.0
  0
LINE
  5
59A
100
AcDbEntity
  8
0
100
AcDbLine
 62
7
  6
CONTINUOUS
 10
4.2098598448
 20
5.7305602885
 11
4.2101746369
 21
5.7283213321
  0
SPLINE
  5
59B
100
AcDbEntity
  8
0
100
AcDbSpline
 62
7
  6
CONTINUOUS
 70
0
 71
3
 72
15
 73
11
 74
0
 42
0.0000001
 43
0.0000001
 44
0.0000000001
 40
0.0
 40
0.0
 40
0.0
 40
0.0
 40
0.104740222
 40
0.2223288362
 40
0.3559991838
 40
0.4999812765
 40
0.6439632335
 40
0.7776452584
 40
0.8952531632
 40
1.0
 40
1.0
 40
1.0
 40
1.0
 10
4.546656049
 20
5.5837201477
 30
0.0
 10
4.546656049
 20
5.5832590003
 30
0.0
 10
4.5469556286
 20
5.5822685489
 30
0.0
 10
4.548102062
 20
5.5811344126
 30
0.0
 10
4.5497139904
 20
5.5804061677
 30
0.0
 10
4.5515770505
 20
5.5801544485
 30
0.0
 10
4.5534401723
 20
5.5804060534
 30
0.0
 10
4.5550522936
 20
5.5811342101
 30
0.0
 10
4.5561989154
 20
5.5822684111
 30
0.0
 10
4.5564985687
 20
5.5832589712
 30
0.0
 10
4.5564985687
 20
5.5837201477
 30
0.0
  0
SPLINE
  5
59C
100
AcDbEntity
  8
0
100
AcDbSpline
 62
7
  6
CONTINUOUS
 70
0
 71
3
 72
15
 73
11
 74
0
 42
0.0000001
 43
0.0000001
 44
0.0000000001
 40
0.0
 40
0.0
 40
0.0
 40
0.0
 40
0.1047540588
 40
0.2223334687
 40
0.3560082615
 40
0.4999880437
 40
0.6439681158
 40
0.7776503626
 40
0.8952411333
 40
1.0
 40
1.0
 40
1.0
 40
1.0
 10
4.6299428982
 20
5.5199657781
 30
0.0
 10
4.6299428982
 20
5.5211187976
 30
0.0
 10
4.630691692
 20
5.5235951299
 30
0.0
 10
4.6335584994
 20
5.526429875
 30
0.0
 10
4.6375879231
 20
5.528250907
 30
0.0
 10
4.6422456354
 20
5.528880163
 30
0.0
 10
4.6469034517
 20
5.5282510844
 30
0.0
 10
4.6509331558
 20
5.5264301676
 30
0.0
 10
4.6538003025
 20
5.523595363
 30
0.0
 10
4.6545491974
 20
5.5211188505
 30
0.0
 10
4.6545491974
 20
5.5199657781
 30
0.0
  0
LINE
  5
59D
100
AcDbEntity
  8
0
100
AcDbLine
 62
7
  6
CONTINUOUS
 10
4.6545491974
 20
5.5199657781
 11
4.654309083
 21
5.5182579658
  0
LINE
  5
59E
100
AcDbEntity
  8
0
100
AcDbLine
 62
7
  6
CONTINUOUS
 10
4.5673925231
 20
5.5954023408
 11
4.5677068425
 21
5.5976395725
  0
LINE
  5
59F
100
AcDbEntity
  8
0
100
AcDbLine
 62
7
  6
CONTINUOUS
 10
4.5395138152
 20
5.5820140339
 11
4.5392741592
 21
5.5837201477
  0
SPLINE
  5
5A0
100
AcDbEntity
  8
0
100
AcDbSpline
 62
7
  6
CONTINUOUS
 70
0
 71
3
 72
15
 73
11
 74
0
 42
0.0000001
 43
0.0000001
 44
0.0000000001
 40
0.0
 40
0.0
 40
0.0
 40
0.0
 40
0.104740222
 40
0.2223288362
 40
0.3559991838
 40
0.4999812765
 40
0.6439632335
 40
0.7776452584
 40
0.8952531632
 40
1.0
 40
1.0
 40
1.0
 40
1.0
 10
4.4806762219
 20
5.4394886506
 30
0.0
 10
4.4806762219
 20
5.4390275032
 30
0.0
 10
4.4809758015
 20
5.4380370518
 30
0.0
 10
4.482122235
 20
5.4369029154
 30
0.0
 10
4.4837341633
 20
5.4361746706
 30
0.0
 10
4.4855972234
 20
5.4359229514
 30
0.0
 10
4.4874603452
 20
5.4361745562
 30
0.0
 10
4.4890724665
 20
5.436902713
 30
0.0
 10
4.4902190883
 20
5.4380369139
 30
0.0
 10
4.4905187416
 20
5.4390274741
 30
0.0
 10
4.4905187416
 20
5.4394886506
 30
0.0
  0
SPLINE
  5
5A1
100
AcDbEntity
  8
0
100
AcDbSpline
 62
7
  6
CONTINUOUS
 70
0
 71
3
 72
15
 73
11
 74
0
 42
0.0000001
 43
0.0000001
 44
0.0000000001
 40
0.0
 40
0.0
 40
0.0
 40
0.0
 40
0.1047540588
 40
0.2223334687
 40
0.3560082615
 40
0.4999880437
 40
0.6439681158
 40
0.7776503626
 40
0.8952411333
 40
1.0
 40
1.0
 40
1.0
 40
1.0
 10
4.6744434731
 20
5.5817225721
 30
0.0
 10
4.6744434731
 20
5.5828755916
 30
0.0
 10
4.6751922669
 20
5.5853519239
 30
0.0
 10
4.6780590742
 20
5.5881866691
 30
0.0
 10
4.682088498
 20
5.590007701
 30
0.0
 10
4.6867462103
 20
5.590636957
 30
0.0
 10
4.6914040265
 20
5.5900078784
 30
0.0
 10
4.6954337307
 20
5.5881869617
 30
0.0
 10
4.6983008773
 20
5.5853521571
 30
0.0
 10
4.6990497723
 20
5.5828756445
 30
0.0
 10
4.6990497723
 20
5.5817225721
 30
0.0
  0
LINE
  5
5A2
100
AcDbEntity
  8
0
100
AcDbLine
 62
7
  6
CONTINUOUS
 10
4.6990497723
 20
5.5817225721
 11
4.6988096579
 21
5.5800147598
  0
SPLINE
  5
5A3
100
AcDbEntity
  8
0
100
AcDbSpline
 62
7
  6
CONTINUOUS
 70
0
 71
3
 72
15
 73
11
 74
0
 42
0.0000001
 43
0.0000001
 44
0.0000000001
 40
0.0
 40
0.0
 40
0.0
 40
0.0
 40
0.104740222
 40
0.2223288362
 40
0.3559991838
 40
0.4999812765
 40
0.6439632335
 40
0.7776452584
 40
0.8952531632
 40
1.0
 40
1.0
 40
1.0
 40
1.0
 10
4.4778512235
 20
5.535067789
 30
0.0
 10
4.4778512235
 20
5.5346066416
 30
0.0
 10
4.4781508031
 20
5.5336161902
 30
0.0
 10
4.4792972365
 20
5.5324820538
 30
0.0
 10
4.4809091648
 20
5.531753809
 30
0.0
 10
4.482772225
 20
5.5315020898
 30
0.0
 10
4.4846353468
 20
5.5317536946
 30
0.0
 10
4.486247468
 20
5.5324818514
 30
0.0
 10
4.4873940898
 20
5.5336160523
 30
0.0
 10
4.4876937431
 20
5.5346066125
 30
0.0
 10
4.4876937431
 20
5.535067789
 30
0.0
  0
LINE
  5
5A4
100
AcDbEntity
  8
0
100
AcDbLine
 62
7
  6
CONTINUOUS
 10
4.4985876976
 20
5.546749982
 11
4.4989020169
 21
5.5489872138
  0
LINE
  5
5A5
100
AcDbEntity
  8
0
100
AcDbLine
 62
7
  6
CONTINUOUS
 10
4.501412696
 20
5.4511708436
 11
4.5017270154
 21
5.4534080754
  0
SPLINE
  5
5A6
100
AcDbEntity
  8
0
100
AcDbSpline
 62
9
  6
CONTINUOUS
 70
0
 71
3
 72
14
 73
10
 74
0
 42
0.0000001
 43
0.0000001
 44
0.0000000001
 40
0.0
 40
0.0
 40
0.0
 40
0.0
 40
0.1033671915
 40
0.2104861847
 40
0.3242123663
 40
0.4460333704
 40
0.5760505979
 40
0.7132069552
 40
1.0
 40
1.0
 40
1.0
 40
1.0
 10
3.9950829146
 20
5.6710596429
 30
0.0
 10
3.99508291
 20
5.6893327393
 30
0.0
 10
4.0003836202
 20
5.7267316942
 30
0.0
 10
4.0235826647
 20
5.7798029528
 30
0.0
 10
4.0607953627
 20
5.8282692413
 30
0.0
 10
4.1103471052
 20
5.8703898395
 30
0.0
 10
4.1703091936
 20
5.9047799523
 30
0.0
 10
4.2623016535
 20
5.9392082785
 30
0.0
 10
4.3379065019
 20
5.9494319025
 30
0.0
 10
4.3886053417
 20
5.949448111
 30
0.0
  0
SPLINE
  5
5A7
100
AcDbEntity
  8
0
100
AcDbSpline
 62
7
  6
CONTINUOUS
 70
0
 71
3
 72
15
 73
11
 74
0
 42
0.0000001
 43
0.0000001
 44
0.0000000001
 40
0.0
 40
0.0
 40
0.0
 40
0.0
 40
0.1047540588
 40
0.2223334687
 40
0.3560082615
 40
0.4999880437
 40
0.6439681158
 40
0.7776503626
 40
0.8952411333
 40
1.0
 40
1.0
 40
1.0
 40
1.0
 10
4.2169345981
 20
5.6640999305
 30
0.0
 10
4.2169345981
 20
5.6656115489
 30
0.0
 10
4.215952923
 20
5.6688580416
 30
0.0
 10
4.2121945142
 20
5.6725744165
 30
0.0
 10
4.2069119055
 20
5.6749618049
 30
0.0
 10
4.2008056051
 20
5.6757867649
 30
0.0
 10
4.1946991684
 20
5.6749620375
 30
0.0
 10
4.189416192
 20
5.6725748001
 30
0.0
 10
4.1856573384
 20
5.6688583472
 30
0.0
 10
4.1846755308
 20
5.6656116182
 30
0.0
 10
4.1846755308
 20
5.6640999305
 30
0.0
  0
LINE
  5
5A8
100
AcDbEntity
  8
0
100
AcDbLine
 62
7
  6
CONTINUOUS
 10
4.4707090876
 20
5.5333612922
 11
4.4704693337
 21
5.535067789
  0
SPLINE
  5
5A9
100
AcDbEntity
  8
0
100
AcDbSpline
 62
7
  6
CONTINUOUS
 70
0
 71
3
 72
13
 73
9
 74
0
 42
0.0000001
 43
0.0000001
 44
0.0000000001
 40
0.0
 40
0.0
 40
0.0
 40
0.0
 40
0.2870558734
 40
0.553569801
 40
0.6755009466
 40
0.7893303038
 40
0.8965436271
 40
1.0
 40
1.0
 40
1.0
 40
1.0
 10
4.3887833437
 20
5.7093380612
 30
0.0
 10
4.397024877
 20
5.7093380612
 30
0.0
 10
4.4129992697
 20
5.7071920969
 30
0.0
 10
4.4310168455
 20
5.6990452276
 30
0.0
 10
4.4420756491
 20
5.6896530119
 30
0.0
 10
4.4481260178
 20
5.6817745496
 30
0.0
 10
4.4518976621
 20
5.6731480428
 30
0.0
 10
4.4527593704
 20
5.6670687089
 30
0.0
 10
4.4527592415
 20
5.6640984191
 30
0.0
  0
SPLINE
  5
5AA
100
AcDbEntity
  8
0
100
AcDbSpline
 62
7
  6
CONTINUOUS
 70
0
 71
3
 72
15
 73
11
 74
0
 42
0.0000001
 43
0.0000001
 44
0.0000000001
 40
0.0
 40
0.0
 40
0.0
 40
0.0
 40
0.104740222
 40
0.2223288362
 40
0.3559991838
 40
0.4999812765
 40
0.6439632335
 40
0.7776452584
 40
0.8952531632
 40
1.0
 40
1.0
 40
1.0
 40
1.0
 10
4.3838620838
 20
5.5172597897
 30
0.0
 10
4.3838620838
 20
5.5167986424
 30
0.0
 10
4.3841616634
 20
5.5158081909
 30
0.0
 10
4.3853080969
 20
5.5146740546
 30
0.0
 10
4.3869200252
 20
5.5139458097
 30
0.0
 10
4.3887830853
 20
5.5136940906
 30
0.0
 10
4.3906462071
 20
5.5139456954
 30
0.0
 10
4.3922583284
 20
5.5146738522
 30
0.0
 10
4.3934049502
 20
5.5158080531
 30
0.0
 10
4.3937046035
 20
5.5167986132
 30
0.0
 10
4.3937046035
 20
5.5172597897
 30
0.0
  0
SPLINE
  5
5AB
100
AcDbEntity
  8
0
100
AcDbSpline
 62
9
  6
CONTINUOUS
 70
0
 71
3
 72
14
 73
10
 74
0
 42
0.0000001
 43
0.0000001
 44
0.0000000001
 40
0.0
 40
0.0
 40
0.0
 40
0.0
 40
0.1033626263
 40
0.2104789199
 40
0.324205235
 40
0.4460289492
 40
0.5760502316
 40
0.7132101263
 40
1.0
 40
1.0
 40
1.0
 40
1.0
 10
4.7824837727
 20
5.8728913029
 30
0.0
 10
4.7824837684
 20
5.8911696935
 30
0.0
 10
4.7771798734
 20
5.9285799408
 30
0.0
 10
4.7539673252
 20
5.9816653409
 30
0.0
 10
4.7167339199
 20
6.030141732
 30
0.0
 10
4.6671561021
 20
6.072267255
 30
0.0
 10
4.6071645409
 20
6.1066562459
 30
0.0
 10
4.515132097
 20
6.1410736618
 30
0.0
 10
4.4394985539
 20
6.1512797994
 30
0.0
 10
4.3887833437
 20
6.1512797994
 30
0.0
  0
SPLINE
  5
5AC
100
AcDbEntity
  8
0
100
AcDbSpline
 62
7
  6
CONTINUOUS
 70
0
 71
3
 72
15
 73
11
 74
0
 42
0.0000001
 43
0.0000001
 44
0.0000000001
 40
0.0
 40
0.0
 40
0.0
 40
0.0
 40
0.1047540588
 40
0.2223334687
 40
0.3560082615
 40
0.4999880437
 40
0.6439681158
 40
0.7776503626
 40
0.8952411333
 40
1.0
 40
1.0
 40
1.0
 40
1.0
 10
4.5644584733
 20
5.6501805057
 30
0.0
 10
4.5644584733
 20
5.6513335252
 30
0.0
 10
4.5652072671
 20
5.6538098575
 30
0.0
 10
4.5680740745
 20
5.6566446026
 30
0.0
 10
4.5721034982
 20
5.6584656346
 30
0.0
 10
4.5767612105
 20
5.6590948906
 30
0.0
 10
4.5814190268
 20
5.658465812
 30
0.0
 10
4.5854487309
 20
5.6566448952
 30
0.0
 10
4.5883158776
 20
5.6538100906
 30
0.0
 10
4.5890647725
 20
5.6513335781
 30
0.0
 10
4.5890647725
 20
5.6501805057
 30
0.0
  0
LINE
  5
5AD
100
AcDbEntity
  8
0
100
AcDbLine
 62
7
  6
CONTINUOUS
 10
4.4045985579
 20
5.5289419828
 11
4.4049128773
 21
5.5311792145
  0
LINE
  5
5AE
100
AcDbEntity
  8
0
100
AcDbLine
 62
7
  6
CONTINUOUS
 10
4.5890647725
 20
5.6501805057
 11
4.5888246581
 21
5.6484726934
  0
LINE
  5
5AF
100
AcDbEntity
  8
0
100
AcDbLine
 62
7
  6
CONTINUOUS
 10
4.1846755308
 20
5.6640999305
 11
4.1849903228
 21
5.6618609741
  0
SPLINE
  5
5B0
100
AcDbEntity
  8
0
100
AcDbSpline
 62
7
  6
CONTINUOUS
 70
0
 71
3
 72
15
 73
11
 74
0
 42
0.0000001
 43
0.0000001
 44
0.0000000001
 40
0.0
 40
0.0
 40
0.0
 40
0.0
 40
0.1047540588
 40
0.2223334687
 40
0.3560082615
 40
0.4999880437
 40
0.6439681158
 40
0.7776503626
 40
0.8952411333
 40
1.0
 40
1.0
 40
1.0
 40
1.0
 10
4.2421189121
 20
5.5976395725
 30
0.0
 10
4.2421189121
 20
5.5991511909
 30
0.0
 10
4.2411372371
 20
5.6023976836
 30
0.0
 10
4.2373788283
 20
5.6061140586
 30
0.0
 10
4.2320962195
 20
5.6085014469
 30
0.0
 10
4.2259899192
 20
5.6093264069
 30
0.0
 10
4.2198834825
 20
5.6085016795
 30
0.0
 10
4.2146005061
 20
5.6061144421
 30
0.0
 10
4.2108416525
 20
5.6023979892
 30
0.0
 10
4.2098598448
 20
5.5991512603
 30
0.0
 10
4.2098598448
 20
5.5976395725
 30
0.0
  0
LINE
  5
5B1
100
AcDbEntity
  8
0
100
AcDbLine
 62
7
  6
CONTINUOUS
 10
4.3767199479
 20
5.515553293
 11
4.3764801941
 21
5.5172597897
  0
LINE
  5
5B2
100
AcDbEntity
  8
0
100
AcDbLine
 62
7
  6
CONTINUOUS
 10
4.473534086
 20
5.4377821538
 11
4.4732943322
 21
5.4394886506
  0
LINE
  5
5B3
100
AcDbEntity
  8
0
100
AcDbLine
 62
7
  6
CONTINUOUS
 10
4.2098598448
 20
5.5976395725
 11
4.2101746369
 21
5.5954006161
  0
SPLINE
  5
5B4
100
AcDbEntity
  8
0
100
AcDbSpline
 62
7
  6
CONTINUOUS
 70
0
 71
3
 72
15
 73
11
 74
0
 42
0.0000001
 43
0.0000001
 44
0.0000000001
 40
0.0
 40
0.0
 40
0.0
 40
0.0
 40
0.104740222
 40
0.2223288362
 40
0.3559991838
 40
0.4999812765
 40
0.6439632335
 40
0.7776452584
 40
0.8952531632
 40
1.0
 40
1.0
 40
1.0
 40
1.0
 10
4.2898729442
 20
5.535067789
 30
0.0
 10
4.2898729442
 20
5.5346066416
 30
0.0
 10
4.2901725238
 20
5.5336161902
 30
0.0
 10
4.2913189572
 20
5.5324820538
 30
0.0
 10
4.2929308856
 20
5.531753809
 30
0.0
 10
4.2947939457
 20
5.5315020898
 30
0.0
 10
4.2966570675
 20
5.5317536946
 30
0.0
 10
4.2982691888
 20
5.5324818514
 30
0.0
 10
4.2994158106
 20
5.5336160523
 30
0.0
 10
4.2997154639
 20
5.5346066125
 30
0.0
 10
4.2997154639
 20
5.535067789
 30
0.0
  0
SPLINE
  5
5B5
100
AcDbEntity
  8
0
100
AcDbSpline
 62
7
  6
CONTINUOUS
 70
0
 71
3
 72
15
 73
11
 74
0
 42
0.0000001
 43
0.0000001
 44
0.0000000001
 40
0.0
 40
0.0
 40
0.0
 40
0.0
 40
0.1047540588
 40
0.2223334687
 40
0.3560082615
 40
0.4999880437
 40
0.6439681158
 40
0.7776503626
 40
0.8952411333
 40
1.0
 40
1.0
 40
1.0
 40
1.0
 10
4.3109237377
 20
5.5489872138
 30
0.0
 10
4.3109237377
 20
5.5504988321
 30
0.0
 10
4.3099420627
 20
5.5537453248
 30
0.0
 10
4.3061836539
 20
5.5574616998
 30
0.0
 10
4.3009010451
 20
5.5598490882
 30
0.0
 10
4.2947947447
 20
5.5606740482
 30
0.0
 10
4.288688308
 20
5.5598493208
 30
0.0
 10
4.2834053317
 20
5.5574620834
 30
0.0
 10
4.2796464781
 20
5.5537456305
 30
0.0
 10
4.2786646704
 20
5.5504989015
 30
0.0
 10
4.2786646704
 20
5.5489872138
 30
0.0
  0
LINE
  5
5B6
100
AcDbEntity
  8
0
100
AcDbLine
 62
7
  6
CONTINUOUS
 10
4.3106094183
 20
5.546749982
 11
4.3109237377
 21
5.5489872138
  0
SPLINE
  5
5B7
100
AcDbEntity
  8
0
100
AcDbSpline
 62
9
  6
CONTINUOUS
 70
0
 71
3
 72
9
 73
5
 74
0
 42
0.0000001
 43
0.0000001
 44
0.0000000001
 40
0.0
 40
0.0
 40
0.0
 40
0.0
 40
0.2413157895
 40
1.0
 40
1.0
 40
1.0
 40
1.0
 10
4.4956427792
 20
6.1435975725
 30
0.0
 10
4.4876821954
 20
6.1474419498
 30
0.0
 10
4.4536910098
 20
6.1612562202
 30
0.0
 10
4.4165766466
 20
6.1669391524
 30
0.0
 10
4.3887833437
 20
6.1669391524
 30
0.0
  0
LINE
  5
5B8
100
AcDbEntity
  8
0
100
AcDbLine
 62
7
  6
CONTINUOUS
 10
4.2827308083
 20
5.5333612922
 11
4.2824910544
 21
5.535067789
  0
SPLINE
  5
5B9
100
AcDbEntity
  8
0
100
AcDbSpline
 62
7
  6
CONTINUOUS
 70
0
 71
3
 72
15
 73
11
 74
0
 42
0.0000001
 43
0.0000001
 44
0.0000000001
 40
0.0
 40
0.0
 40
0.0
 40
0.0
 40
0.1047540588
 40
0.2223334687
 40
0.3560082615
 40
0.4999880437
 40
0.6439681158
 40
0.7776503626
 40
0.8952411333
 40
1.0
 40
1.0
 40
1.0
 40
1.0
 10
4.5392741592
 20
5.7166408637
 30
0.0
 10
4.5392741592
 20
5.7177938832
 30
0.0
 10
4.540022953
 20
5.7202702155
 30
0.0
 10
4.5428897604
 20
5.7231049606
 30
0.0
 10
4.5469191842
 20
5.7249259926
 30
0.0
 10
4.5515768964
 20
5.7255552486
 30
0.0
 10
4.5562347127
 20
5.72492617
 30
0.0
 10
4.5602644169
 20
5.7231052532
 30
0.0
 10
4.5631315635
 20
5.7202704486
 30
0.0
 10
4.5638804585
 20
5.7177939361
 30
0.0
 10
4.5638804585
 20
5.7166408637
 30
0.0
  0
LINE
  5
5BA
100
AcDbEntity
  8
0
100
AcDbLine
 62
7
  6
CONTINUOUS
 10
4.5638804585
 20
5.7166408637
 11
4.5636403659
 21
5.7149331513
  0
SPLINE
  5
5BB
100
AcDbEntity
  8
0
100
AcDbSpline
 62
7
  6
CONTINUOUS
 70
0
 71
3
 72
15
 73
11
 74
0
 42
0.0000001
 43
0.0000001
 44
0.0000000001
 40
0.0
 40
0.0
 40
0.0
 40
0.0
 40
0.104740222
 40
0.2223288362
 40
0.3559991838
 40
0.4999812765
 40
0.6439632335
 40
0.7776452584
 40
0.8952531632
 40
1.0
 40
1.0
 40
1.0
 40
1.0
 10
4.3838620838
 20
5.4286459791
 30
0.0
 10
4.3838620838
 20
5.4281848317
 30
0.0
 10
4.3841616634
 20
5.4271943803
 30
0.0
 10
4.3853080969
 20
5.4260602439
 30
0.0
 10
4.3869200252
 20
5.4253319991
 30
0.0
 10
4.3887830853
 20
5.4250802799
 30
0.0
 10
4.3906462071
 20
5.4253318847
 30
0.0
 10
4.3922583284
 20
5.4260600415
 30
0.0
 10
4.3934049502
 20
5.4271942424
 30
0.0
 10
4.3937046035
 20
5.4281848026
 30
0.0
 10
4.3937046035
 20
5.4286459791
 30
0.0
  0
LINE
  5
5BC
100
AcDbEntity
  8
0
100
AcDbLine
 62
7
  6
CONTINUOUS
 10
4.4045985579
 20
5.4403281722
 11
4.4049128773
 21
5.4425654039
  0
SPLINE
  5
5BD
100
AcDbEntity
  8
0
100
AcDbSpline
 62
7
  6
CONTINUOUS
 70
0
 71
3
 72
15
 73
11
 74
0
 42
0.0000001
 43
0.0000001
 44
0.0000000001
 40
0.0
 40
0.0
 40
0.0
 40
0.0
 40
0.104740222
 40
0.2223288362
 40
0.3559991838
 40
0.4999812765
 40
0.6439632335
 40
0.7776452584
 40
0.8952531632
 40
1.0
 40
1.0
 40
1.0
 40
1.0
 10
4.2210681186
 20
5.5837201477
 30
0.0
 10
4.2210681186
 20
5.5832590003
 30
0.0
 10
4.2213676983
 20
5.5822685489
 30
0.0
 10
4.2225141317
 20
5.5811344126
 30
0.0
 10
4.22412606
 20
5.5804061677
 30
0.0
 10
4.2259891202
 20
5.5801544485
 30
0.0
 10
4.227852242
 20
5.5804060534
 30
0.0
 10
4.2294643632
 20
5.5811342101
 30
0.0
 10
4.230610985
 20
5.5822684111
 30
0.0
 10
4.2309106383
 20
5.5832589712
 30
0.0
 10
4.2309106383
 20
5.5837201477
 30
0.0
  0
LINE
  5
5BE
100
AcDbEntity
  8
0
100
AcDbLine
 62
7
  6
CONTINUOUS
 10
4.2418045928
 20
5.5954023408
 11
4.2421189121
 21
5.5976395725
  0
LINE
  5
5BF
100
AcDbEntity
  8
0
100
AcDbLine
 62
7
  6
CONTINUOUS
 10
4.2786646704
 20
5.5489872138
 11
4.2789794624
 21
5.5467482574
  0
SPLINE
  5
5C0
100
AcDbEntity
  8
0
100
AcDbSpline
 62
7
  6
CONTINUOUS
 70
0
 71
3
 72
15
 73
11
 74
0
 42
0.0000001
 43
0.0000001
 44
0.0000000001
 40
0.0
 40
0.0
 40
0.0
 40
0.0
 40
0.1047540588
 40
0.2223334687
 40
0.3560082615
 40
0.4999880437
 40
0.6439681158
 40
0.7776503626
 40
0.8952411333
 40
1.0
 40
1.0
 40
1.0
 40
1.0
 10
4.4049128773
 20
5.5311792145
 30
0.0
 10
4.4049128773
 20
5.5326908329
 30
0.0
 10
4.4039312023
 20
5.5359373256
 30
0.0
 10
4.4001727935
 20
5.5396537006
 30
0.0
 10
4.3948901847
 20
5.5420410889
 30
0.0
 10
4.3887838843
 20
5.5428660489
 30
0.0
 10
4.3826774476
 20
5.5420413215
 30
0.0
 10
4.3773944713
 20
5.5396540841
 30
0.0
 10
4.3736356177
 20
5.5359376312
 30
0.0
 10
4.37265381
 20
5.5326909023
 30
0.0
 10
4.37265381
 20
5.5311792145
 30
0.0
  0
LINE
  5
5C1
100
AcDbEntity
  8
0
100
AcDbLine
 62
7
  6
CONTINUOUS
 10
4.2139259828
 20
5.5820136509
 11
4.2136862289
 21
5.5837201477
  0
LINE
  5
5C2
100
AcDbEntity
  8
0
100
AcDbLine
 62
7
  6
CONTINUOUS
 10
4.3767199479
 20
5.4269394823
 11
4.3764801941
 21
5.4286459791
  0
SPLINE
  5
5C3
100
AcDbEntity
  8
0
100
AcDbSpline
 62
7
  6
CONTINUOUS
 70
0
 71
3
 72
15
 73
11
 74
0
 42
0.0000001
 43
0.0000001
 44
0.0000000001
 40
0.0
 40
0.0
 40
0.0
 40
0.0
 40
0.104740222
 40
0.2223288362
 40
0.3559991838
 40
0.4999812765
 40
0.6439632335
 40
0.7776452584
 40
0.8952531632
 40
1.0
 40
1.0
 40
1.0
 40
1.0
 10
4.1958838046
 20
5.6501805057
 30
0.0
 10
4.1958838046
 20
5.6497193583
 30
0.0
 10
4.1961833842
 20
5.6487289069
 30
0.0
 10
4.1973298176
 20
5.6475947705
 30
0.0
 10
4.198941746
 20
5.6468665257
 30
0.0
 10
4.2008048061
 20
5.6466148065
 30
0.0
 10
4.2026679279
 20
5.6468664114
 30
0.0
 10
4.2042800491
 20
5.6475945681
 30
0.0
 10
4.2054266709
 20
5.648728769
 30
0.0
 10
4.2057263243
 20
5.6497193292
 30
0.0
 10
4.2057263243
 20
5.6501805057
 30
0.0
  0
LINE
  5
5C4
100
AcDbEntity
  8
0
100
AcDbLine
 62
7
  6
CONTINUOUS
 10
4.2166202787
 20
5.6618626988
 11
4.2169345981
 21
5.6640999305
  0
SPLINE
  5
5C5
100
AcDbEntity
  8
0
100
AcDbSpline
 62
7
  6
CONTINUOUS
 70
0
 71
3
 72
15
 73
11
 74
0
 42
0.0000001
 43
0.0000001
 44
0.0000000001
 40
0.0
 40
0.0
 40
0.0
 40
0.0
 40
0.1047540588
 40
0.2223334687
 40
0.3560082615
 40
0.4999880437
 40
0.6439681158
 40
0.7776503626
 40
0.8952411333
 40
1.0
 40
1.0
 40
1.0
 40
1.0
 10
4.4704693337
 20
5.7652932224
 30
0.0
 10
4.4704693337
 20
5.7664462419
 30
0.0
 10
4.4712181275
 20
5.7689225742
 30
0.0
 10
4.4740849349
 20
5.7717573194
 30
0.0
 10
4.4781143586
 20
5.7735783513
 30
0.0
 10
4.4827720709
 20
5.7742076073
 30
0.0
 10
4.4874298872
 20
5.7735785287
 30
0.0
 10
4.4914595913
 20
5.7717576119
 30
0.0
 10
4.4943267379
 20
5.7689228073
 30
0.0
 10
4.4950756329
 20
5.7664462948
 30
0.0
 10
4.4950756329
 20
5.7652932224
 30
0.0
  0
SPLINE
  5
5C6
100
AcDbEntity
  8
0
100
AcDbSpline
 62
7
  6
CONTINUOUS
 70
0
 71
3
 72
13
 73
9
 74
0
 42
0.0000001
 43
0.0000001
 44
0.0000000001
 40
0.0
 40
0.0
 40
0.0
 40
0.0
 40
0.1034547388
 40
0.2106666037
 40
0.324494904
 40
0.4464260117
 40
0.7129424931
 40
1.0
 40
1.0
 40
1.0
 40
1.0
 10
4.3223468329
 20
5.6640983585
 30
0.0
 10
4.322346968
 20
5.6610139833
 30
0.0
 10
4.3232423654
 20
5.654701234
 30
0.0
 10
4.3271594499
 20
5.6457436394
 30
0.0
 10
4.3334426251
 20
5.6375628036
 30
0.0
 10
4.3449266515
 20
5.6278099831
 30
0.0
 10
4.3636367436
 20
5.6193502496
 30
0.0
 10
4.3802250788
 20
5.6171218717
 30
0.0
 10
4.3887833437
 20
5.6171218717
 30
0.0
  0
LINE
  5
5C7
100
AcDbEntity
  8
0
100
AcDbLine
 62
7
  6
CONTINUOUS
 10
4.4950756329
 20
5.7652932224
 11
4.4948355185
 21
5.7635854101
  0
LINE
  5
5C8
100
AcDbEntity
  8
0
100
AcDbLine
 62
7
  6
CONTINUOUS
 10
4.37265381
 20
5.5311792145
 11
4.372968602
 21
5.5289402581
  0
SPLINE
  5
5C9
100
AcDbEntity
  8
0
100
AcDbSpline
 62
7
  6
CONTINUOUS
 70
0
 71
3
 72
13
 73
9
 74
0
 42
0.0000001
 43
0.0000001
 44
0.0000000001
 40
0.0
 40
0.0
 40
0.0
 40
0.0
 40
0.1034550349
 40
0.2106670574
 40
0.324495272
 40
0.4464260761
 40
0.7129421961
 40
1.0
 40
1.0
 40
1.0
 40
1.0
 10
4.3248074459
 20
5.664101442
 30
0.0
 10
4.3248075748
 20
5.6670715896
 30
0.0
 10
4.3256698141
 20
5.6731505469
 30
0.0
 10
4.3294418319
 20
5.681776386
 30
0.0
 10
4.3354922979
 20
5.689654219
 30
0.0
 10
4.346550978
 20
5.6990458044
 30
0.0
 10
4.3645680911
 20
5.7071922138
 30
0.0
 10
4.3805420428
 20
5.7093380612
 30
0.0
 10
4.3887833437
 20
5.7093380612
 30
0.0
  0
SPLINE
  5
5CA
100
AcDbEntity
  8
0
100
AcDbSpline
 62
7
  6
CONTINUOUS
 70
0
 71
3
 72
15
 73
11
 74
0
 42
0.0000001
 43
0.0000001
 44
0.0000000001
 40
0.0
 40
0.0
 40
0.0
 40
0.0
 40
0.1047540588
 40
0.2223334687
 40
0.3560082615
 40
0.4999880437
 40
0.6439681158
 40
0.7776503626
 40
0.8952411333
 40
1.0
 40
1.0
 40
1.0
 40
1.0
 10
4.4989020169
 20
5.5489872138
 30
0.0
 10
4.4989020169
 20
5.5504988321
 30
0.0
 10
4.4979203419
 20
5.5537453248
 30
0.0
 10
4.4941619331
 20
5.5574616998
 30
0.0
 10
4.4888793243
 20
5.5598490882
 30
0.0
 10
4.482773024
 20
5.5606740482
 30
0.0
 10
4.4766665873
 20
5.5598493208
 30
0.0
 10
4.4713836109
 20
5.5574620834
 30
0.0
 10
4.4676247573
 20
5.5537456305
 30
0.0
 10
4.4666429496
 20
5.5504989015
 30
0.0
 10
4.4666429496
 20
5.5489872138
 30
0.0
  0
SPLINE
  5
5CB
100
AcDbEntity
  8
0
100
AcDbSpline
 62
7
  6
CONTINUOUS
 70
0
 71
3
 72
15
 73
11
 74
0
 42
0.0000001
 43
0.0000001
 44
0.0000000001
 40
0.0
 40
0.0
 40
0.0
 40
0.0
 40
0.104740222
 40
0.2223288362
 40
0.3559991838
 40
0.4999812765
 40
0.6439632335
 40
0.7776452584
 40
0.8952531632
 40
1.0
 40
1.0
 40
1.0
 40
1.0
 10
4.2870479457
 20
5.4394886506
 30
0.0
 10
4.2870479457
 20
5.4390275032
 30
0.0
 10
4.2873475253
 20
5.4380370518
 30
0.0
 10
4.2884939588
 20
5.4369029154
 30
0.0
 10
4.2901058871
 20
5.4361746706
 30
0.0
 10
4.2919689472
 20
5.4359229514
 30
0.0
 10
4.293832069
 20
5.4361745562
 30
0.0
 10
4.2954441903
 20
5.436902713
 30
0.0
 10
4.2965908121
 20
5.4380369139
 30
0.0
 10
4.2968904654
 20
5.4390274741
 30
0.0
 10
4.2968904654
 20
5.4394886506
 30
0.0
  0
LINE
  5
5CC
100
AcDbEntity
  8
0
100
AcDbLine
 62
7
  6
CONTINUOUS
 10
4.5646982272
 20
5.6484740089
 11
4.5644584733
 21
5.6501805057
  0
LINE
  5
5CD
100
AcDbEntity
  8
0
100
AcDbLine
 62
7
  6
CONTINUOUS
 10
4.1887416687
 20
5.6484740089
 11
4.1885019148
 21
5.6501805057
  0
LINE
  5
5CE
100
AcDbEntity
  8
0
100
AcDbLine
 62
7
  6
CONTINUOUS
 10
4.3077844198
 20
5.4511708436
 11
4.3080987392
 21
5.4534080754
  0
LINE
  5
5CF
100
AcDbEntity
  8
0
100
AcDbLine
 62
7
  6
CONTINUOUS
 10
4.4666429496
 20
5.5489872138
 11
4.4669577417
 21
5.5467482574
  0
LINE
  5
5D0
100
AcDbEntity
  8
0
100
AcDbLine
 62
7
  6
CONTINUOUS
 10
4.5925768372
 20
5.6618626988
 11
4.5928911566
 21
5.6640999305
  0
SPLINE
  5
5D1
100
AcDbEntity
  8
0
100
AcDbSpline
 62
7
  6
CONTINUOUS
 70
0
 71
3
 72
15
 73
11
 74
0
 42
0.0000001
 43
0.0000001
 44
0.0000000001
 40
0.0
 40
0.0
 40
0.0
 40
0.0
 40
0.104740222
 40
0.2223288362
 40
0.3559991838
 40
0.4999812765
 40
0.6439632335
 40
0.7776452584
 40
0.8952531632
 40
1.0
 40
1.0
 40
1.0
 40
1.0
 10
4.5718403631
 20
5.6501805057
 30
0.0
 10
4.5718403631
 20
5.6497193583
 30
0.0
 10
4.5721399427
 20
5.6487289069
 30
0.0
 10
4.5732863761
 20
5.6475947705
 30
0.0
 10
4.5748983044
 20
5.6468665257
 30
0.0
 10
4.5767613646
 20
5.6466148065
 30
0.0
 10
4.5786244864
 20
5.6468664114
 30
0.0
 10
4.5802366076
 20
5.6475945681
 30
0.0
 10
4.5813832294
 20
5.648728769
 30
0.0
 10
4.5816828828
 20
5.6497193292
 30
0.0
 10
4.5816828828
 20
5.6501805057
 30
0.0
  0
SPLINE
  5
5D2
100
AcDbEntity
  8
0
100
AcDbSpline
 62
7
  6
CONTINUOUS
 70
0
 71
3
 72
15
 73
11
 74
0
 42
0.0000001
 43
0.0000001
 44
0.0000000001
 40
0.0
 40
0.0
 40
0.0
 40
0.0
 40
0.104740222
 40
0.2223288362
 40
0.3559991838
 40
0.4999812765
 40
0.6439632335
 40
0.7776452584
 40
0.8952531632
 40
1.0
 40
1.0
 40
1.0
 40
1.0
 10
4.2210681186
 20
5.7166408637
 30
0.0
 10
4.2210681186
 20
5.7161797163
 30
0.0
 10
4.2213676983
 20
5.7151892649
 30
0.0
 10
4.2225141317
 20
5.7140551285
 30
0.0
 10
4.22412606
 20
5.7133268837
 30
0.0
 10
4.2259891202
 20
5.7130751645
 30
0.0
 10
4.227852242
 20
5.7133267693
 30
0.0
 10
4.2294643632
 20
5.7140549261
 30
0.0
 10
4.230610985
 20
5.715189127
 30
0.0
 10
4.2309106383
 20
5.7161796872
 30
0.0
 10
4.2309106383
 20
5.7166408637
 30
0.0
  0
LINE
  5
5D3
100
AcDbEntity
  8
0
100
AcDbLine
 62
7
  6
CONTINUOUS
 10
4.2418045928
 20
5.7283230567
 11
4.2421189121
 21
5.7305602885
  0
SPLINE
  5
5D4
100
AcDbEntity
  8
0
100
AcDbSpline
 62
7
  6
CONTINUOUS
 70
0
 71
3
 72
15
 73
11
 74
0
 42
0.0000001
 43
0.0000001
 44
0.0000000001
 40
0.0
 40
0.0
 40
0.0
 40
0.0
 40
0.1047540588
 40
0.2223334687
 40
0.3560082615
 40
0.4999880437
 40
0.6439681158
 40
0.7776503626
 40
0.8952411333
 40
1.0
 40
1.0
 40
1.0
 40
1.0
 10
4.3764801941
 20
5.7831012216
 30
0.0
 10
4.3764801941
 20
5.7842542411
 30
0.0
 10
4.3772289879
 20
5.7867305735
 30
0.0
 10
4.3800957952
 20
5.7895653186
 30
0.0
 10
4.384125219
 20
5.7913863506
 30
0.0
 10
4.3887829313
 20
5.7920156066
 30
0.0
 10
4.3934407475
 20
5.791386528
 30
0.0
 10
4.3974704517
 20
5.7895656112
 30
0.0
 10
4.4003375983
 20
5.7867308066
 30
0.0
 10
4.4010864933
 20
5.7842542941
 30
0.0
 10
4.4010864933
 20
5.7831012216
 30
0.0
  0
LINE
  5
5D5
100
AcDbEntity
  8
0
100
AcDbLine
 62
7
  6
CONTINUOUS
 10
4.4010864933
 20
5.7831012216
 11
4.4008463789
 21
5.7813934094
  0
LINE
  5
5D6
100
AcDbEntity
  8
0
100
AcDbLine
 62
7
  6
CONTINUOUS
 10
4.5395138152
 20
5.7149347499
 11
4.5392741592
 21
5.7166408637
  0
SPLINE
  5
5D7
100
AcDbEntity
  8
0
100
AcDbSpline
 62
7
  6
CONTINUOUS
 70
0
 71
3
 72
15
 73
11
 74
0
 42
0.0000001
 43
0.0000001
 44
0.0000000001
 40
0.0
 40
0.0
 40
0.0
 40
0.0
 40
0.1047540588
 40
0.2223334687
 40
0.3560082615
 40
0.4999880437
 40
0.6439681158
 40
0.7776503626
 40
0.8952411333
 40
1.0
 40
1.0
 40
1.0
 40
1.0
 10
4.5677068425
 20
5.5976395725
 30
0.0
 10
4.5677068425
 20
5.5991511909
 30
0.0
 10
4.5667251675
 20
5.6023976836
 30
0.0
 10
4.5629667587
 20
5.6061140586
 30
0.0
 10
4.5576841499
 20
5.6085014469
 30
0.0
 10
4.5515778495
 20
5.6093264069
 30
0.0
 10
4.5454714128
 20
5.6085016795
 30
0.0
 10
4.5401884365
 20
5.6061144421
 30
0.0
 10
4.5364295829
 20
5.6023979892
 30
0.0
 10
4.5354477752
 20
5.5991512603
 30
0.0
 10
4.5354477752
 20
5.5976395725
 30
0.0
  0
LINE
  5
5D8
100
AcDbEntity
  8
0
100
AcDbLine
 62
7
  6
CONTINUOUS
 10
4.2799058098
 20
5.4377821538
 11
4.279666056
 21
5.4394886506
  0
LINE
  5
5D9
100
AcDbEntity
  8
0
100
AcDbLine
 62
7
  6
CONTINUOUS
 10
4.5354477752
 20
5.5976395725
 11
4.5357625672
 21
5.5954006161
  0
LINE
  5
5DA
100
AcDbEntity
  8
0
100
AcDbLine
 62
7
  6
CONTINUOUS
 10
4.5673925231
 20
5.7283230567
 11
4.5677068425
 21
5.7305602885
  0
LINE
  5
5DB
100
AcDbEntity
  8
0
100
AcDbLine
 62
7
  6
CONTINUOUS
 10
4.2139259828
 20
5.7149343669
 11
4.2136862289
 21
5.7166408637
  0
SPLINE
  5
5DC
100
AcDbEntity
  8
0
100
AcDbSpline
 62
7
  6
CONTINUOUS
 70
0
 71
3
 72
15
 73
11
 74
0
 42
0.0000001
 43
0.0000001
 44
0.0000000001
 40
0.0
 40
0.0
 40
0.0
 40
0.0
 40
0.104740222
 40
0.2223288362
 40
0.3559991838
 40
0.4999812765
 40
0.6439632335
 40
0.7776452584
 40
0.8952531632
 40
1.0
 40
1.0
 40
1.0
 40
1.0
 10
4.546656049
 20
5.7166408637
 30
0.0
 10
4.546656049
 20
5.7161797163
 30
0.0
 10
4.5469556286
 20
5.7151892649
 30
0.0
 10
4.548102062
 20
5.7140551285
 30
0.0
 10
4.5497139904
 20
5.7133268837
 30
0.0
 10
4.5515770505
 20
5.7130751645
 30
0.0
 10
4.5534401723
 20
5.7133267693
 30
0.0
 10
4.5550522936
 20
5.7140549261
 30
0.0
 10
4.5561989154
 20
5.715189127
 30
0.0
 10
4.5564985687
 20
5.7161796872
 30
0.0
 10
4.5564985687
 20
5.7166408637
 30
0.0
  0
SPLINE
  5
5DD
100
AcDbEntity
  8
0
100
AcDbSpline
 62
7
  6
CONTINUOUS
 70
0
 71
3
 72
15
 73
11
 74
0
 42
0.0000001
 43
0.0000001
 44
0.0000000001
 40
0.0
 40
0.0
 40
0.0
 40
0.0
 40
0.1047540588
 40
0.2223334687
 40
0.3560082615
 40
0.4999880437
 40
0.6439681158
 40
0.7776503626
 40
0.8952411333
 40
1.0
 40
1.0
 40
1.0
 40
1.0
 10
4.655550583
 20
5.6640999305
 30
0.0
 10
4.655550583
 20
5.6656115489
 30
0.0
 10
4.6545689079
 20
5.6688580416
 30
0.0
 10
4.6508104991
 20
5.6725744165
 30
0.0
 10
4.6455278904
 20
5.6749618049
 30
0.0
 10
4.63942159
 20
5.6757867649
 30
0.0
 10
4.6333151533
 20
5.6749620375
 30
0.0
 10
4.6280321769
 20
5.6725748001
 30
0.0
 10
4.6242733233
 20
5.6688583472
 30
0.0
 10
4.6232915157
 20
5.6656116182
 30
0.0
 10
4.6232915157
 20
5.6640999305
 30
0.0
  0
SPLINE
  5
5DE
100
AcDbEntity
  8
0
100
AcDbSpline
 62
7
  6
CONTINUOUS
 70
0
 71
3
 72
15
 73
11
 74
0
 42
0.0000001
 43
0.0000001
 44
0.0000000001
 40
0.0
 40
0.0
 40
0.0
 40
0.0
 40
0.104740222
 40
0.2223288362
 40
0.3559991838
 40
0.4999812765
 40
0.6439632335
 40
0.7776452584
 40
0.8952531632
 40
1.0
 40
1.0
 40
1.0
 40
1.0
 10
4.19971065
 20
5.4709553088
 30
0.0
 10
4.19971065
 20
5.4704941615
 30
0.0
 10
4.2000102296
 20
5.46950371
 30
0.0
 10
4.201156663
 20
5.4683695737
 30
0.0
 10
4.2027685914
 20
5.4676413288
 30
0.0
 10
4.2046316515
 20
5.4673896097
 30
0.0
 10
4.2064947733
 20
5.4676412145
 30
0.0
 10
4.2081068946
 20
5.4683693713
 30
0.0
 10
4.2092535164
 20
5.4695035722
 30
0.0
 10
4.2095531697
 20
5.4704941323
 30
0.0
 10
4.2095531697
 20
5.4709553088
 30
0.0
  0
LINE
  5
5DF
100
AcDbEntity
  8
0
100
AcDbLine
 62
7
  6
CONTINUOUS
 10
4.4707090876
 20
5.7635867256
 11
4.4704693337
 21
5.7652932224
  0
SPLINE
  5
5E0
100
AcDbEntity
  8
0
100
AcDbSpline
 62
7
  6
CONTINUOUS
 70
0
 71
3
 72
15
 73
11
 74
0
 42
0.0000001
 43
0.0000001
 44
0.0000000001
 40
0.0
 40
0.0
 40
0.0
 40
0.0
 40
0.104740222
 40
0.2223288362
 40
0.3559991838
 40
0.4999812765
 40
0.6439632335
 40
0.7776452584
 40
0.8952531632
 40
1.0
 40
1.0
 40
1.0
 40
1.0
 10
4.2898729442
 20
5.7652932224
 30
0.0
 10
4.2898729442
 20
5.7648320751
 30
0.0
 10
4.2901725238
 20
5.7638416236
 30
0.0
 10
4.2913189572
 20
5.7627074873
 30
0.0
 10
4.2929308856
 20
5.7619792424
 30
0.0
 10
4.2947939457
 20
5.7617275232
 30
0.0
 10
4.2966570675
 20
5.7619791281
 30
0.0
 10
4.2982691888
 20
5.7627072848
 30
0.0
 10
4.2994158106
 20
5.7638414858
 30
0.0
 10
4.2997154639
 20
5.7648320459
 30
0.0
 10
4.2997154639
 20
5.7652932224
 30
0.0
  0
SPLINE
  5
5E1
100
AcDbEntity
  8
0
100
AcDbSpline
 62
7
  6
CONTINUOUS
 70
0
 71
3
 72
15
 73
11
 74
0
 42
0.0000001
 43
0.0000001
 44
0.0000000001
 40
0.0
 40
0.0
 40
0.0
 40
0.0
 40
0.1047540588
 40
0.2223334687
 40
0.3560082615
 40
0.4999880437
 40
0.6439681158
 40
0.7776503626
 40
0.8952411333
 40
1.0
 40
1.0
 40
1.0
 40
1.0
 10
4.2824910544
 20
5.7652932224
 30
0.0
 10
4.2824910544
 20
5.7664462419
 30
0.0
 10
4.2832398482
 20
5.7689225742
 30
0.0
 10
4.2861066556
 20
5.7717573194
 30
0.0
 10
4.2901360794
 20
5.7735783513
 30
0.0
 10
4.2947937916
 20
5.7742076073
 30
0.0
 10
4.2994516079
 20
5.7735785287
 30
0.0
 10
4.3034813121
 20
5.7717576119
 30
0.0
 10
4.3063484587
 20
5.7689228073
 30
0.0
 10
4.3070973537
 20
5.7664462948
 30
0.0
 10
4.3070973537
 20
5.7652932224
 30
0.0
  0
LINE
  5
5E2
100
AcDbEntity
  8
0
100
AcDbLine
 62
7
  6
CONTINUOUS
 10
4.3070973537
 20
5.7652932224
 11
4.3068572393
 21
5.7635854101
  0
LINE
  5
5E3
100
AcDbEntity
  8
0
100
AcDbLine
 62
7
  6
CONTINUOUS
 10
4.4985876976
 20
5.7769754155
 11
4.4989020169
 21
5.7792126472
  0
LINE
  5
5E4
100
AcDbEntity
  8
0
100
AcDbLine
 62
7
  6
CONTINUOUS
 10
4.3106094183
 20
5.7769754155
 11
4.3109237377
 21
5.7792126472
  0
LINE
  5
5E5
100
AcDbEntity
  8
0
100
AcDbLine
 62
7
  6
CONTINUOUS
 10
4.2204471241
 20
5.4826375019
 11
4.2207614435
 21
5.4848747336
  0
SPLINE
  5
5E6
100
AcDbEntity
  8
0
100
AcDbSpline
 62
7
  6
CONTINUOUS
 70
0
 71
3
 72
15
 73
11
 74
0
 42
0.0000001
 43
0.0000001
 44
0.0000000001
 40
0.0
 40
0.0
 40
0.0
 40
0.0
 40
0.104740222
 40
0.2223288362
 40
0.3559991838
 40
0.4999812765
 40
0.6439632335
 40
0.7776452584
 40
0.8952531632
 40
1.0
 40
1.0
 40
1.0
 40
1.0
 10
4.4778512235
 20
5.7652932224
 30
0.0
 10
4.4778512235
 20
5.7648320751
 30
0.0
 10
4.4781508031
 20
5.7638416236
 30
0.0
 10
4.4792972365
 20
5.7627074873
 30
0.0
 10
4.4809091648
 20
5.7619792424
 30
0.0
 10
4.482772225
 20
5.7617275232
 30
0.0
 10
4.4846353468
 20
5.7619791281
 30
0.0
 10
4.486247468
 20
5.7627072848
 30
0.0
 10
4.4873940898
 20
5.7638414858
 30
0.0
 10
4.4876937431
 20
5.7648320459
 30
0.0
 10
4.4876937431
 20
5.7652932224
 30
0.0
  0
LINE
  5
5E7
100
AcDbEntity
  8
0
100
AcDbLine
 62
7
  6
CONTINUOUS
 10
4.6232915157
 20
5.6640999305
 11
4.6236063077
 21
5.6618609741
  0
LINE
  5
5E8
100
AcDbEntity
  8
0
100
AcDbLine
 62
7
  6
CONTINUOUS
 10
4.2827308083
 20
5.7635867256
 11
4.2824910544
 21
5.7652932224
  0
SPLINE
  5
5E9
100
AcDbEntity
  8
0
100
AcDbSpline
 62
7
  6
CONTINUOUS
 70
0
 71
3
 72
15
 73
11
 74
0
 42
0.0000001
 43
0.0000001
 44
0.0000000001
 40
0.0
 40
0.0
 40
0.0
 40
0.0
 40
0.1047540588
 40
0.2223334687
 40
0.3560082615
 40
0.4999880437
 40
0.6439681158
 40
0.7776503626
 40
0.8952411333
 40
1.0
 40
1.0
 40
1.0
 40
1.0
 10
4.6364719236
 20
5.7319220049
 30
0.0
 10
4.6364719236
 20
5.7334336233
 30
0.0
 10
4.6354902486
 20
5.736680116
 30
0.0
 10
4.6317318398
 20
5.740396491
 30
0.0
 10
4.626449231
 20
5.7427838793
 30
0.0
 10
4.6203429307
 20
5.7436088393
 30
0.0
 10
4.614236494
 20
5.7427841119
 30
0.0
 10
4.6089535176
 20
5.7403968745
 30
0.0
 10
4.605194664
 20
5.7366804216
 30
0.0
 10
4.6042128564
 20
5.7334336927
 30
0.0
 10
4.6042128564
 20
5.7319220049
 30
0.0
  0
LINE
  5
5EA
100
AcDbEntity
  8
0
100
AcDbLine
 62
7
  6
CONTINUOUS
 10
4.3767199479
 20
5.7813947249
 11
4.3764801941
 21
5.7831012216
  0
LINE
  5
5EB
100
AcDbEntity
  8
0
100
AcDbLine
 62
7
  6
CONTINUOUS
 10
4.1925685141
 20
5.4692488121
 11
4.1923287602
 21
5.4709553088
  0
LINE
  5
5EC
100
AcDbEntity
  8
0
100
AcDbLine
 62
7
  6
CONTINUOUS
 10
4.6042128564
 20
5.7319220049
 11
4.6045276484
 21
5.7296830485
  0
LINE
  5
5ED
100
AcDbEntity
  8
0
100
AcDbLine
 62
7
  6
CONTINUOUS
 10
4.4045985579
 20
5.7947834147
 11
4.4049128773
 21
5.7970206465
  0
SPLINE
  5
5EE
100
AcDbEntity
  8
0
100
AcDbSpline
 62
7
  6
CONTINUOUS
 70
0
 71
3
 72
15
 73
11
 74
0
 42
0.0000001
 43
0.0000001
 44
0.0000000001
 40
0.0
 40
0.0
 40
0.0
 40
0.0
 40
0.104740222
 40
0.2223288362
 40
0.3559991838
 40
0.4999812765
 40
0.6439632335
 40
0.7776452584
 40
0.8952531632
 40
1.0
 40
1.0
 40
1.0
 40
1.0
 10
4.3838620838
 20
5.7831012216
 30
0.0
 10
4.3838620838
 20
5.7826400743
 30
0.0
 10
4.3841616634
 20
5.7816496229
 30
0.0
 10
4.3853080969
 20
5.7805154865
 30
0.0
 10
4.3869200252
 20
5.7797872417
 30
0.0
 10
4.3887830853
 20
5.7795355225
 30
0.0
 10
4.3906462071
 20
5.7797871273
 30
0.0
 10
4.3922583284
 20
5.7805152841
 30
0.0
 10
4.3934049502
 20
5.781649485
 30
0.0
 10
4.3937046035
 20
5.7826400452
 30
0.0
 10
4.3937046035
 20
5.7831012216
 30
0.0
  0
LINE
  5
5EF
100
AcDbEntity
  8
0
100
AcDbLine
 62
9
  6
CONTINUOUS
 10
4.0013922272
 20
3.0889559585
 11
4.0000109379
 21
3.0864123157
  0
LINE
  5
5F0
100
AcDbEntity
  8
0
100
AcDbLine
 62
9
  6
CONTINUOUS
 10
4.0000109379
 20
3.0864123157
 11
3.9950825563
 21
3.0775647953
  0
LINE
  5
5F1
100
AcDbEntity
  8
0
100
AcDbLine
 62
9
  6
CONTINUOUS
 10
4.7775556638
 20
3.0864124693
 11
4.782484131
 21
3.0775647953
  0
SPLINE
  5
5F2
100
AcDbEntity
  8
0
100
AcDbSpline
 62
9
  6
CONTINUOUS
 70
0
 71
3
 72
15
 73
11
 74
0
 42
0.0000001
 43
0.0000001
 44
0.0000000001
 40
0.0
 40
0.0
 40
0.0
 40
0.0
 40
0.1249719331
 40
0.2499657043
 40
0.3749796557
 40
0.5000051462
 40
0.6250294865
 40
0.7500408649
 40
0.8750311467
 40
1.0
 40
1.0
 40
1.0
 40
1.0
 10
4.784533307
 20
4.4914478538
 30
0.0
 10
4.8440366495
 20
4.4565259314
 30
0.0
 10
4.9543089103
 20
4.3704011965
 30
0.0
 10
5.0796680766
 20
4.2027359951
 30
0.0
 10
5.1568612287
 20
4.00796656
 30
0.0
 10
5.1803282592
 20
3.7997893987
 30
0.0
 10
5.148501354
 20
3.5927274316
 30
0.0
 10
5.0635349673
 20
3.401224654
 30
0.0
 10
4.9315235108
 20
3.2387521712
 30
0.0
 10
4.8178759973
 20
3.1571383146
 30
0.0
 10
4.7570135428
 20
3.1246465394
 30
0.0
  0
SPLINE
  5
5F3
100
AcDbEntity
  8
0
100
AcDbSpline
 62
9
  6
CONTINUOUS
 70
0
 71
3
 72
27
 73
23
 74
0
 42
0.0000001
 43
0.0000001
 44
0.0000000001
 40
0.0
 40
0.0
 40
0.0
 40
0.0
 40
0.0624724056
 40
0.0937501533
 40
0.1250298257
 40
0.187518372
 40
0.2500142248
 40
0.2813027404
 40
0.3125921863
 40
0.3750946418
 40
0.4375950016
 40
0.5000900077
 40
0.5625774821
 40
0.6250566317
 40
0.6875280234
 40
0.7188000658
 40
0.7500707438
 40
0.8125323307
 40
0.8749929776
 40
0.9062624973
 40
0.9375329111
 40
1.0
 40
1.0
 40
1.0
 40
1.0
 10
4.0205531457
 20
3.1246465387
 30
0.0
 10
3.9748539657
 20
3.1490433119
 30
0.0
 10
3.9096909096
 20
3.1926636377
 30
0.0
 10
3.8329818769
 20
3.2625933376
 30
0.0
 10
3.7635423553
 20
3.3398099565
 30
0.0
 10
3.6916663342
 20
3.4487138549
 30
0.0
 10
3.6427416653
 20
3.5696906207
 30
0.0
 10
3.6185235973
 20
3.670691567
 30
0.0
 10
3.6044134472
 20
3.7735952975
 30
0.0
 10
3.6060785647
 20
3.9041145641
 30
0.0
 10
3.6389381485
 20
4.0571073067
 30
0.0
 10
3.7013404472
 20
4.2006236339
 30
0.0
 10
3.7908476989
 20
4.3289751488
 30
0.0
 10
3.9039014508
 20
4.4370980644
 30
0.0
 10
4.0141691865
 20
4.5068447755
 30
0.0
 10
4.1091796288
 20
4.548677613
 30
0.0
 10
4.2078652104
 20
4.5808803857
 30
0.0
 10
4.3364989207
 20
4.6024606693
 30
0.0
 10
4.4668546593
 20
4.5981298605
 30
0.0
 10
4.5689401666
 20
4.5792879097
 30
0.0
 10
4.668630172
 20
4.5504356541
 30
0.0
 10
4.739859533
 20
4.5176664493
 30
0.0
 10
4.784533307
 20
4.4914478538
 30
0.0
  0
ENDSEC
  0
SECTION
  2
OBJECTS
  0
DICTIONARY
  5
C
100
AcDbDictionary
280
0
281
1
  3
ACAD_GROUP
350
D
  3
ACAD_MLINESTYLE
350
17
  3
ACAD_LAYOUT
350
1A
  3
ACAD_PLOTSETTINGS
350
19
  3
ACAD_PLOTSTYLENAME
350
E
  0
DICTIONARY
  5
D
102
{ACAD_REACTORS
330
C
102
}
100
AcDbDictionary
280
0
281
1
  0
ACDBDICTIONARYWDFLT
  5
E
102
{ACAD_REACTORS
330
C
102
}
100
AcDbDictionary
281
1
  3
Normal
350
F
100
AcDbDictionaryWithDefault
340
F
  0
DICTIONARY
  5
17
102
{ACAD_REACTORS
330
C
102
}
100
AcDbDictionary
280
0
281
1
  3
Standard
350
18
  0
DICTIONARY
  5
19
102
{ACAD_REACTORS
330
C
102
}
100
AcDbDictionary
281
1
  0
DICTIONARY
  5
1A
102
{ACAD_REACTORS
330
C
102
}
100
AcDbDictionary
281
1
  3
Model
350
5F4
  3
Layout1
350
5F5
  0
ACDBPLACEHOLDER
  5
F
102
{ACAD_REACTORS
330
E
102
}
  0
MLINESTYLE
  5
18
102
{ACAD_REACTORS
330
17
102
}
100
AcDbMlineStyle
  2
STANDARD
 70
0
  3

 62
256
 51
90.0
 52
90.0
 71
2
 49
0.5
 62
256
  6
BYLAYER
 49
-0.5
 62
256
  6
BYLAYER
  0
LAYOUT
  5
5F4
102
{ACAD_REACTORS
330
1A
102
}
100
AcDbPlotSettings
  1

  2
none_device
  4
ANSI_A_(11.00_x_8.50_Inches)
  6

 40
0.0
 41
0.0
 42
0.0
 43
0.0
 44
279.4
 45
215.9
 46
0.0
 47
0.0
 48
0.0
 49
0.0
140
0.0
141
0.0
142
1.0
143
1.0
 70
1024
 72
0
 73
0
 74
0
  7

 75
0
147
1.0
148
0.0
149
0.0
100
AcDbLayout
  1
Model
 70
0
 71
0
 10
0.0
 20
0.0
 11
11.0
 21
8.5
 12
0.0
 22
0.0
 32
0.0
 14
0.0
 24
0.0
 34
0.0
 15
0.0
 25
0.0
 35
0.0
146
0.0
 13
0.0
 23
0.0
 33
0.0
 16
1.0
 26
0.0
 36
0.0
 17
0.0
 27
1.0
 37
0.0
 76
0
330
210
345
0
346
0
  0
LAYOUT
  5
5F5
102
{ACAD_REACTORS
330
1A
102
}
100
AcDbPlotSettings
  1

  2
none_device
  4
ANSI_A_(11.00_x_8.50_Inches)
  6

 40
0.0
 41
0.0
 42
0.0
 43
0.0
 44
279.4
 45
215.9
 46
0.0
 47
0.0
 48
0.0
 49
0.0
140
0.0
141
0.0
142
1.0
143
1.0
 70
0
 72
0
 73
0
 74
0
  7

 75
0
147
1.0
148
0.0
149
0.0
100
AcDbLayout
  1
Layout1
 70
0
 71
1
 10
0.0
 20
0.0
 11
11.0
 21
8.5
 12
0.0
 22
0.0
 32
0.0
 14
0.0
 24
0.0
 34
0.0
 15
0.0
 25
0.0
 35
0.0
146
0.0
 13
0.0
 23
0.0
 33
0.0
 16
1.0
 26
0.0
 36
0.0
 17
0.0
 27
1.0
 37
0.0
 76
0
330
211
345
0
346
0
  0
ENDSEC
  0
EOF
