999
DXF file: 3-8202bp_top.dxf
999
Pro/ENGINEER 2013150 by Parametric Technology Corporation
  0
SECTION
  2
HEADER
  9
$ACADVER
  1
AC1021
  9
$DWGCODEPAGE
  3
ANSI_1252
  9
$EXTMAX
 10
11.0
 20
8.5
 30
0.0
  9
$EXTMIN
 10
0.0
 20
0.0
 30
0.0
  9
$LIMMIN
 10
0.0
 20
0.0
  9
$LIMMAX
 10
11.0
 20
8.5
  9
$VIEWCTR
 10
5.5
 20
4.25
  9
$VIEWSIZE
 40
8.5
  9
$CLAYER
  8
0
  9
$LTSCALE
 40
0.605
  9
$CELTYPE
  6
BYLAYER
  9
$DIMSCALE
 40
1.0
  9
$DIMASZ
 40
0.1
  9
$DIMEXO
 40
0.0625
  9
$DIMDLI
 40
0.418
  9
$DIMEXE
 40
0.125
  9
$DIMCEN
 40
0.099
  9
$DIMLFAC
 40
1.0
  9
$DIMBLK
  1
_FILLED
  9
$DIMTXT
 40
0.08
  9
$DIMTOL
 70
1
  9
$DIMLIM
 70
0
  9
$DIMTFAC
 40
1.0
  9
$DIMTP
 40
0.001
  9
$DIMTM
 40
0.001
  9
$DIMGAP
 40
0.09
  9
$DIMDSEP
 70
46
  9
$PDMODE
 70
3
  9
$PDSIZE
 40
0.06
  9
$HANDSEED
  5
39B
  9
$TILEMODE
 70
1
  9
$MEASUREMENT
 70
0
  9
$INSUNITS
 70
1
  0
ENDSEC
  0
SECTION
  2
CLASSES
  0
CLASS
  1
ACDBDICTIONARYWDFLT
  2
AcDbDictionaryWithDefault
  3
AutoCAD 2000
 90
0
 91
1
280
0
281
0
  0
CLASS
  1
ACDBPLACEHOLDER
  2
AcDbPlaceHolder
  3
AutoCAD 2000
 90
0
 91
1
280
0
281
0
  0
CLASS
  1
LAYOUT
  2
AcDbLayout
  3
AutoCAD 2000
 90
0
 91
0
280
0
281
0
  0
ENDSEC
  0
SECTION
  2
TABLES
  0
TABLE
  2
VPORT
  5
8
100
AcDbSymbolTable
 70
2
  0
VPORT
  5
1F4
100
AcDbSymbolTableRecord
100
AcDbViewportTableRecord
  2
*ACTIVE
 70
0
 10
0.0
 20
0.0
 11
1.0
 21
1.0
 12
5.5
 22
4.25
 13
0.0
 23
0.0
 14
1.0
 24
1.0
 15
0.0
 25
0.0
 16
0.0
 26
0.0
 36
1.0
 17
0.0
 27
0.0
 37
0.0
 40
8.5
 41
1.2941176471
 42
50.0
 43
0.0
 44
0.0
 50
0.0
 51
0.0
 71
0
 72
100
 73
1
 74
1
 75
0
 76
0
 77
0
 78
0
  0
ENDTAB
  0
TABLE
  2
LTYPE
  5
5
100
AcDbSymbolTable
 70
6
  0
LTYPE
  5
14
100
AcDbSymbolTableRecord
100
AcDbLinetypeTableRecord
  2
BYBLOCK
 70
0
  3

 72
65
 73
0
 40
0.0
  0
LTYPE
  5
15
100
AcDbSymbolTableRecord
100
AcDbLinetypeTableRecord
  2
BYLAYER
 70
0
  3

 72
65
 73
0
 40
0.0
  0
LTYPE
  5
16
100
AcDbSymbolTableRecord
100
AcDbLinetypeTableRecord
  2
CONTINUOUS
 70
64
  3
Solid line
 72
65
 73
0
 40
0.0
  0
LTYPE
  5
1F5
100
AcDbSymbolTableRecord
100
AcDbLinetypeTableRecord
  2
CENTER
 70
64
  3
____ _ ____ _ ____ _ ____ _ ____ _ ____ _ ____
 72
65
 73
4
 40
0.6
 49
0.375
 74
0
 49
-0.075
 74
0
 49
0.075
 74
0
 49
-0.075
 74
0
  0
LTYPE
  5
1F6
100
AcDbSymbolTableRecord
100
AcDbLinetypeTableRecord
  2
HIDDEN
 70
64
  3
- - - - - - - - - - - - - - - - - - - -
 72
65
 73
2
 40
0.2
 49
0.1
 74
0
 49
-0.1
 74
0
  0
LTYPE
  5
1F7
100
AcDbSymbolTableRecord
100
AcDbLinetypeTableRecord
  2
PHANTOM
 70
64
  3
_____ _ _ _____ _ _ _____ _ _ _____
 72
65
 73
6
 40
0.8
 49
0.45
 74
0
 49
-0.05
 74
0
 49
0.1
 74
0
 49
-0.05
 74
0
 49
0.1
 74
0
 49
-0.05
 74
0
  0
LTYPE
  5
1F8
100
AcDbSymbolTableRecord
100
AcDbLinetypeTableRecord
  2
DOT
 70
64
  3
. . . . . . . . . . . . . . . . . . . .
 72
65
 73
2
 40
0.2
 49
0.1
 74
0
 49
-0.1
 74
0
  0
LTYPE
  5
1F9
100
AcDbSymbolTableRecord
100
AcDbLinetypeTableRecord
  2
DASHED
 70
64
  3
- - - - - - - - - - - - - - - - - - - -
 72
65
 73
2
 40
0.2
 49
0.1
 74
0
 49
-0.1
 74
0
  0
ENDTAB
  0
TABLE
  2
LAYER
  5
2
100
AcDbSymbolTable
 70
36
  0
LAYER
  5
10
100
AcDbSymbolTableRecord
100
AcDbLayerTableRecord
  2
0
 70
0
 62
7
  6
CONTINUOUS
370
-3
390
F
  0
LAYER
  5
1FA
100
AcDbSymbolTableRecord
100
AcDbLayerTableRecord
  2
DEFAULT_1
 70
0
 62
7
  6
CENTER
370
-3
390
F
  0
LAYER
  5
1FB
100
AcDbSymbolTableRecord
100
AcDbLayerTableRecord
  2
DEFAULT_2
 70
0
 62
8
  6
HIDDEN
370
-3
390
F
  0
LAYER
  5
1FC
100
AcDbSymbolTableRecord
100
AcDbLayerTableRecord
  2
DEFAULT_3
 70
0
 62
7
  6
PHANTOM
370
-3
390
F
  0
LAYER
  5
1FD
100
AcDbSymbolTableRecord
100
AcDbLayerTableRecord
  2
2-217_ASSY_DATUMS
 70
0
 62
7
  6
CONTINUOUS
370
-3
390
F
  0
LAYER
  5
1FE
100
AcDbSymbolTableRecord
100
AcDbLayerTableRecord
  2
ALL_ASSEMBLY_MEMBERS
 70
0
 62
7
  6
CONTINUOUS
370
-3
390
F
  0
LAYER
  5
1FF
100
AcDbSymbolTableRecord
100
AcDbLayerTableRecord
  2
ALL_FEATURES
 70
0
 62
7
  6
CONTINUOUS
370
-3
390
F
  0
LAYER
  5
200
100
AcDbSymbolTableRecord
100
AcDbLayerTableRecord
  2
AXES_FEATURES
 70
0
 62
7
  6
CONTINUOUS
370
-3
390
F
  0
LAYER
  5
201
100
AcDbSymbolTableRecord
100
AcDbLayerTableRecord
  2
CHAMFER_FEATURES
 70
0
 62
7
  6
CONTINUOUS
370
-3
390
F
  0
LAYER
  5
202
100
AcDbSymbolTableRecord
100
AcDbLayerTableRecord
  2
CUT_FEATURES
 70
0
 62
7
  6
CONTINUOUS
370
-3
390
F
  0
LAYER
  5
203
100
AcDbSymbolTableRecord
100
AcDbLayerTableRecord
  2
DEFAULT_COORDINATE_SYSTEM
 70
0
 62
7
  6
CONTINUOUS
370
-3
390
F
  0
LAYER
  5
204
100
AcDbSymbolTableRecord
100
AcDbLayerTableRecord
  2
DEFAULT_DATUM_AXES
 70
0
 62
7
  6
CONTINUOUS
370
-3
390
F
  0
LAYER
  5
205
100
AcDbSymbolTableRecord
100
AcDbLayerTableRecord
  2
DEFAULT_DATUM_CURVES
 70
0
 62
7
  6
CONTINUOUS
370
-3
390
F
  0
LAYER
  5
206
100
AcDbSymbolTableRecord
100
AcDbLayerTableRecord
  2
DEFAULT_DATUM_PLANES
 70
0
 62
7
  6
CONTINUOUS
370
-3
390
F
  0
LAYER
  5
207
100
AcDbSymbolTableRecord
100
AcDbLayerTableRecord
  2
DIMENSIONS
 70
0
 62
7
  6
CONTINUOUS
370
-3
390
F
  0
LAYER
  5
208
100
AcDbSymbolTableRecord
100
AcDbLayerTableRecord
  2
PART_REFERENCE_DIMENSIONS
 70
0
 62
7
  6
CONTINUOUS
370
-3
390
F
  0
LAYER
  5
209
100
AcDbSymbolTableRecord
100
AcDbLayerTableRecord
  2
PLATED_AREA
 70
0
 62
7
  6
CONTINUOUS
370
-3
390
F
  0
LAYER
  5
20A
100
AcDbSymbolTableRecord
100
AcDbLayerTableRecord
  2
PROTRUSION_FEATURES
 70
0
 62
7
  6
CONTINUOUS
370
-3
390
F
  0
LAYER
  5
20B
100
AcDbSymbolTableRecord
100
AcDbLayerTableRecord
  2
QUILTS
 70
0
 62
7
  6
CONTINUOUS
370
-3
390
F
  0
LAYER
  5
20C
100
AcDbSymbolTableRecord
100
AcDbLayerTableRecord
  2
REFERENCE_DIMENSIONS
 70
0
 62
7
  6
CONTINUOUS
370
-3
390
F
  0
LAYER
  5
20D
100
AcDbSymbolTableRecord
100
AcDbLayerTableRecord
  2
ROUND_FEATURES
 70
0
 62
7
  6
CONTINUOUS
370
-3
390
F
  0
ENDTAB
  0
TABLE
  2
STYLE
  5
3
100
AcDbSymbolTable
 70
1
  0
STYLE
  5
11
100
AcDbSymbolTableRecord
100
AcDbTextStyleTableRecord
  2
STANDARD
 70
0
 40
0.0
 41
0.8
 50
0.0
 71
0
 42
0.2
  3
txt
  4

  0
STYLE
  5
20E
100
AcDbSymbolTableRecord
100
AcDbTextStyleTableRecord
  2
TEXTSTYLE_1
 70
0
 40
0.0
 41
0.8
 50
0.0
 71
0
 42
0.2
  3
gdt
  4

  0
ENDTAB
  0
TABLE
  2
VIEW
  5
6
100
AcDbSymbolTable
 70
0
  0
ENDTAB
  0
TABLE
  2
UCS
  5
7
100
AcDbSymbolTable
 70
0
  0
ENDTAB
  0
TABLE
  2
APPID
  5
9
100
AcDbSymbolTable
 70
1
  0
APPID
  5
20F
100
AcDbSymbolTableRecord
100
AcDbRegAppTableRecord
  2
ACAD
 70
0
  0
ENDTAB
  0
TABLE
  2
BLOCK_RECORD
  5
1
100
AcDbSymbolTable
 70
0
  0
BLOCK_RECORD
  5
210
100
AcDbSymbolTableRecord
100
AcDbBlockTableRecord
  2
*Model_Space
  0
BLOCK_RECORD
  5
211
100
AcDbSymbolTableRecord
100
AcDbBlockTableRecord
  2
*Paper_Space
  0
ENDTAB
  0
TABLE
  2
DIMSTYLE
  5
A
100
AcDbSymbolTable
 70
1
100
AcDbDimStyleTable
 71
0
  0
DIMSTYLE
105
212
100
AcDbSymbolTableRecord
100
AcDbDimStyleTableRecord
  2
STANDARD
 70
0
  3

  4

 40
1.0
 41
0.1
 42
0.0625
 43
0.38
 44
0.125
 45
0.0
 46
0.0
 47
0.001
 48
0.001
140
0.08
141
0.09
142
0.0
143
25.4
144
1.0
145
0.0
146
1.0
147
0.09
 71
1.0
 72
0.0
 73
1
 74
1
 75
0
 76
0
 77
0
 78
4
170
0
171
2
172
0
173
0
174
0
175
0
176
0
177
0
178
0
270
2
271
3
272
3
273
2
274
2
275
0
280
0
281
0
282
0
283
1
284
4
285
0
286
0
287
3
288
0
340
11
278
46
  0
ENDTAB
  0
ENDSEC
  0
SECTION
  2
BLOCKS
  0
BLOCK
  5
20
100
AcDbEntity
  8
0
100
AcDbBlockBegin
  2
*Model_Space
 70
0
 10
0.0
 20
0.0
 30
0.0
  3
*Model_Space
  1

  0
ENDBLK
  5
21
100
AcDbEntity
  8
0
100
AcDbBlockEnd
  0
BLOCK
  5
1C
100
AcDbEntity
  8
0
100
AcDbBlockBegin
  2
*Paper_Space
 70
0
 10
0.0
 20
0.0
 30
0.0
  3
*Paper_Space
  1

  0
ENDBLK
  5
1D
100
AcDbEntity
  8
0
100
AcDbBlockEnd
  0
ENDSEC
  0
SECTION
  2
ENTITIES
  0
LINE
  5
213
100
AcDbEntity
  8
0
100
AcDbLine
 62
7
  6
CONTINUOUS
 10
0.0
 20
0.0
 11
0.0
 21
8.5
  0
LINE
  5
214
100
AcDbEntity
  8
0
100
AcDbLine
 62
7
  6
CONTINUOUS
 10
0.0
 20
0.0
 11
11.0
 21
0.0
  0
LINE
  5
215
100
AcDbEntity
  8
0
100
AcDbLine
 62
7
  6
CONTINUOUS
 10
0.0
 20
8.5
 11
11.0
 21
8.5
  0
LINE
  5
216
100
AcDbEntity
  8
0
100
AcDbLine
 62
7
  6
CONTINUOUS
 10
11.0
 20
0.0
 11
11.0
 21
8.5
  0
LINE
  5
217
100
AcDbEntity
  8
0
100
AcDbLine
 62
9
  6
CONTINUOUS
 10
4.3886053417
 20
2.9125530194
 11
4.3887833437
 21
2.9125529909
  0
LINE
  5
218
100
AcDbEntity
  8
0
100
AcDbLine
 62
9
  6
CONTINUOUS
 10
4.3886181191
 20
3.1283040836
 11
4.3887834977
 21
3.1283040836
  0
LINE
  5
219
100
AcDbEntity
  8
0
100
AcDbLine
 62
9
  6
CONTINUOUS
 10
4.3887833437
 20
3.1143846509
 11
4.3886135315
 21
3.1143846768
  0
LINE
  5
21A
100
AcDbEntity
  8
0
100
AcDbLine
 62
9
  6
CONTINUOUS
 10
4.3887833437
 20
3.2796778207
 11
4.3889466225
 21
3.2796778705
  0
LINE
  5
21B
100
AcDbEntity
  8
0
100
AcDbLine
 62
9
  6
CONTINUOUS
 10
4.3889629157
 20
3.2518389863
 11
4.3887830846
 21
3.2518389863
  0
LWPOLYLINE
  5
21C
100
AcDbEntity
  8
0
100
AcDbPolyline
 62
7
  6
CONTINUOUS
 90
19
 70
0
 10
3.5521691744
 20
4.82138777
 10
3.5521944402
 20
4.8197341722
 10
3.5525696972
 20
4.8148153901
 10
3.5533964601
 20
4.8099270786
 10
3.5546592775
 20
4.8051596139
 10
3.556339753
 20
4.8005533897
 10
3.5584404146
 20
4.7960987744
 10
3.560940139
 20
4.7918492003
 10
3.5638029123
 20
4.7878615374
 10
3.5670290443
 20
4.7841350494
 10
3.5705807455
 20
4.780717552
 10
3.5744119189
 20
4.7776494868
 10
3.5785231151
 20
4.7749304358
 10
3.5828606095
 20
4.7725985943
 10
3.5873717979
 20
4.7706782117
 10
3.5920644689
 20
4.7691667865
 10
3.5968995928
 20
4.7680843229
 10
3.6017895735
 20
4.7674505453
 10
3.6062941742
 20
4.7672627699
  0
LINE
  5
21D
100
AcDbEntity
  8
0
100
AcDbLine
 62
7
  6
CONTINUOUS
 10
3.5521691704
 20
4.8214089693
 11
3.5521691704
 21
4.8952155256
  0
LINE
  5
21E
100
AcDbEntity
  8
0
100
AcDbLine
 62
9
  6
CONTINUOUS
 10
4.3886404982
 20
3.4606303576
 11
4.3887835699
 21
3.4606303576
  0
LINE
  5
21F
100
AcDbEntity
  8
0
100
AcDbLine
 62
9
  6
CONTINUOUS
 10
4.3887833437
 20
3.418872069
 11
4.3886135315
 21
3.4188721228
  0
LINE
  5
220
100
AcDbEntity
  8
0
100
AcDbLine
 62
9
  6
CONTINUOUS
 10
4.3887833437
 20
3.5284875395
 11
4.3888508597
 21
3.5284875532
  0
LINE
  5
221
100
AcDbEntity
  8
0
100
AcDbLine
 62
9
  6
CONTINUOUS
 10
4.3888541159
 20
3.6259235283
 11
4.3887833437
 21
3.6259235133
  0
LINE
  5
222
100
AcDbEntity
  8
0
100
AcDbLine
 62
7
  6
CONTINUOUS
 10
4.2140648397
 20
4.65742025
 11
4.2115648397
 21
4.65492025
  0
LINE
  5
223
100
AcDbEntity
  8
0
100
AcDbLine
 62
9
  6
CONTINUOUS
 10
4.2137334348
 20
4.65492025
 11
4.2162328124
 21
4.65742025
  0
LINE
  5
224
100
AcDbEntity
  8
0
100
AcDbLine
 62
7
  6
CONTINUOUS
 10
3.9950825563
 20
3.1909414875
 11
3.9950825563
 21
3.3927731475
  0
LINE
  5
225
100
AcDbEntity
  8
0
100
AcDbLine
 62
7
  6
CONTINUOUS
 10
4.0762833437
 20
4.8766755695
 11
4.0762833437
 21
4.8952155256
  0
LINE
  5
226
100
AcDbEntity
  8
0
100
AcDbLine
 62
9
  6
CONTINUOUS
 10
4.2134843412
 20
4.65492025
 11
4.214812056
 21
4.65742025
  0
LINE
  5
227
100
AcDbEntity
  8
0
100
AcDbLine
 62
9
  6
CONTINUOUS
 10
4.4711879111
 20
3.7107783664
 11
4.4734681781
 21
3.7086028274
  0
LINE
  5
228
100
AcDbEntity
  8
0
100
AcDbLine
 62
7
  6
CONTINUOUS
 10
4.1737393457
 20
3.6323349437
 11
4.1743684808
 21
3.6287349517
  0
LINE
  5
229
100
AcDbEntity
  8
0
100
AcDbLine
 62
7
  6
CONTINUOUS
 10
4.1737393457
 20
3.6323349437
 11
4.1732081012
 21
3.6354381375
  0
LWPOLYLINE
  5
22A
100
AcDbEntity
  8
0
100
AcDbPolyline
 62
7
  6
CONTINUOUS
 90
13
 70
0
 10
4.1703445654
 20
3.6607270994
 10
4.1704669496
 20
3.6589588257
 10
4.1706018389
 20
3.6571436127
 10
4.1707512658
 20
3.6552772894
 10
4.1709209491
 20
3.65331736
 10
4.1711166027
 20
3.6512358087
 10
4.1713406281
 20
3.6490472661
 10
4.1715950469
 20
3.6467679038
 10
4.1718879893
 20
3.6443623749
 10
4.1722217249
 20
3.6418502836
 10
4.1725862634
 20
3.63932818
 10
4.1729780736
 20
3.6368245424
 10
4.1732081012
 20
3.6354381375
  0
LINE
  5
22B
100
AcDbEntity
  8
0
100
AcDbLine
 62
7
  6
CONTINUOUS
 10
4.1218170436
 20
4.7672627697
 11
4.1224319707
 21
4.75742025
  0
LINE
  5
22C
100
AcDbEntity
  8
0
100
AcDbLine
 62
7
  6
CONTINUOUS
 10
4.170127972
 20
3.6641799625
 11
4.1703445654
 21
3.6607270994
  0
LWPOLYLINE
  5
22D
100
AcDbEntity
  8
0
100
AcDbPolyline
 62
7
  6
CONTINUOUS
 90
7
 70
0
 10
4.1286427604
 20
4.65742025
 10
4.134733724
 20
4.5519000168
 10
4.1405846179
 20
4.4428054154
 10
4.1458365085
 20
4.3379055231
 10
4.1506345878
 20
4.2355389976
 10
4.1550200855
 20
4.1356846808
 10
4.1589644937
 20
4.0397870706
  0
LINE
  5
22E
100
AcDbEntity
  8
0
100
AcDbLine
 62
7
  6
CONTINUOUS
 10
4.1699349781
 20
3.6676505306
 11
4.170127972
 21
3.6641799625
  0
LINE
  5
22F
100
AcDbEntity
  8
0
100
AcDbLine
 62
7
  6
CONTINUOUS
 10
4.1697560937
 20
3.6712338251
 11
4.1699349781
 21
3.6676505306
  0
LINE
  5
230
100
AcDbEntity
  8
0
100
AcDbLine
 62
7
  6
CONTINUOUS
 10
4.1695028463
 20
3.6769487175
 11
4.1697560937
 21
3.6712338251
  0
LINE
  5
231
100
AcDbEntity
  8
0
100
AcDbLine
 62
7
  6
CONTINUOUS
 10
4.1692579354
 20
3.6832074901
 11
4.1695028463
 21
3.6769487175
  0
LINE
  5
232
100
AcDbEntity
  8
0
100
AcDbLine
 62
7
  6
CONTINUOUS
 10
4.1624053909
 20
3.9503336359
 11
4.1589644937
 21
4.0397870706
  0
LWPOLYLINE
  5
233
100
AcDbEntity
  8
0
100
AcDbPolyline
 62
7
  6
CONTINUOUS
 90
6
 70
0
 10
4.1624053912
 20
3.9503336291
 10
4.1627979617
 20
3.9389005868
 10
4.1632157302
 20
3.9249962422
 10
4.1636134044
 20
3.9103433738
 10
4.163983148
 20
3.8957045871
 10
4.1643343295
 20
3.8811000947
  0
LINE
  5
234
100
AcDbEntity
  8
0
100
AcDbLine
 62
7
  6
CONTINUOUS
 10
4.1689325464
 20
3.692600891
 11
4.1692579354
 21
3.6832074901
  0
LINE
  5
235
100
AcDbEntity
  8
0
100
AcDbLine
 62
7
  6
CONTINUOUS
 10
4.1685143299
 20
3.7063199079
 11
4.1689325464
 21
3.692600891
  0
LINE
  5
236
100
AcDbEntity
  8
0
100
AcDbLine
 62
7
  6
CONTINUOUS
 10
4.1679816957
 20
3.7259935911
 11
4.1685143299
 21
3.7063199079
  0
LWPOLYLINE
  5
237
100
AcDbEntity
  8
0
100
AcDbPolyline
 62
7
  6
CONTINUOUS
 90
3
 70
0
 10
4.1669772267
 20
3.7673410243
 10
4.1670860378
 20
3.7627047075
 10
4.1679816957
 20
3.7259935911
  0
LINE
  5
238
100
AcDbEntity
  8
0
100
AcDbLine
 62
7
  6
CONTINUOUS
 10
4.1654431918
 20
3.8329520535
 11
4.1669772267
 21
3.7673410243
  0
LINE
  5
239
100
AcDbEntity
  8
0
100
AcDbLine
 62
7
  6
CONTINUOUS
 10
4.1643343295
 20
3.8811000947
 11
4.1654431918
 21
3.8329520535
  0
LINE
  5
23A
100
AcDbEntity
  8
0
100
AcDbLine
 62
7
  6
CONTINUOUS
 10
4.1137833437
 20
4.75742025
 11
4.1137833437
 21
4.65742025
  0
LINE
  5
23B
100
AcDbEntity
  8
0
100
AcDbLine
 62
9
  6
CONTINUOUS
 10
4.6151612964
 20
3.9503336359
 11
4.4901612964
 21
3.9503336359
  0
LINE
  5
23C
100
AcDbEntity
  8
0
100
AcDbLine
 62
9
  6
CONTINUOUS
 10
4.2874053909
 20
3.9503336359
 11
4.1624053909
 21
3.9503336359
  0
LINE
  5
23D
100
AcDbEntity
  8
0
100
AcDbLine
 62
9
  6
CONTINUOUS
 10
4.4405883892
 20
3.6810742632
 11
4.4454961406
 21
3.6723508714
  0
LINE
  5
23E
100
AcDbEntity
  8
0
100
AcDbLine
 62
7
  6
CONTINUOUS
 10
4.1993148397
 20
3.4136522847
 11
4.1993148397
 21
3.552846533
  0
LINE
  5
23F
100
AcDbEntity
  8
0
100
AcDbLine
 62
7
  6
CONTINUOUS
 10
4.2017754697
 20
4.2222195729
 11
4.2017754697
 21
4.65052025
  0
LINE
  5
240
100
AcDbEntity
  8
0
100
AcDbLine
 62
7
  6
CONTINUOUS
 10
4.2115648397
 20
4.65492025
 11
4.2115648397
 21
4.65052025
  0
LINE
  5
241
100
AcDbEntity
  8
0
100
AcDbLine
 62
9
  6
CONTINUOUS
 10
4.2134843412
 20
4.65492025
 11
4.2134843412
 21
4.65052025
  0
LINE
  5
242
100
AcDbEntity
  8
0
100
AcDbLine
 62
9
  6
CONTINUOUS
 10
4.2137334348
 20
4.65492025
 11
4.2137334348
 21
4.65052025
  0
LINE
  5
243
100
AcDbEntity
  8
0
100
AcDbLine
 62
7
  6
CONTINUOUS
 10
4.2706731075
 20
3.6746415002
 11
4.2706731075
 21
3.6120040885
  0
LINE
  5
244
100
AcDbEntity
  8
0
100
AcDbLine
 62
7
  6
CONTINUOUS
 10
4.2755943673
 20
3.650784808
 11
4.2755943673
 21
3.7337798552
  0
LINE
  5
245
100
AcDbEntity
  8
0
100
AcDbLine
 62
7
  6
CONTINUOUS
 10
4.2874053909
 20
4.7829655256
 11
4.2874053909
 21
3.750076652
  0
LINE
  5
246
100
AcDbEntity
  8
0
100
AcDbLine
 62
9
  6
CONTINUOUS
 10
4.5710213644
 20
4.2173006427
 11
4.4901612964
 21
4.2173006427
  0
LINE
  5
247
100
AcDbEntity
  8
0
100
AcDbLine
 62
9
  6
CONTINUOUS
 10
4.2874053909
 20
4.2173006427
 11
4.2065453229
 21
4.2173006427
  0
LINE
  5
248
100
AcDbEntity
  8
0
100
AcDbLine
 62
9
  6
CONTINUOUS
 10
4.4711864598
 20
3.7116563095
 11
4.4711864598
 21
3.7107797723
  0
LINE
  5
249
100
AcDbEntity
  8
0
100
AcDbLine
 62
7
  6
CONTINUOUS
 10
4.4901612964
 20
4.7829655256
 11
4.4901612964
 21
3.7539918444
  0
LINE
  5
24A
100
AcDbEntity
  8
0
100
AcDbLine
 62
7
  6
CONTINUOUS
 10
4.5019723201
 20
3.650784808
 11
4.5019723201
 21
3.7337798554
  0
LINE
  5
24B
100
AcDbEntity
  8
0
100
AcDbLine
 62
9
  6
CONTINUOUS
 10
4.2017754697
 20
4.2222195729
 11
4.2874053909
 21
4.2222195729
  0
LINE
  5
24C
100
AcDbEntity
  8
0
100
AcDbLine
 62
9
  6
CONTINUOUS
 10
4.4901612964
 20
4.2222195729
 11
4.5757912177
 21
4.2222195729
  0
LINE
  5
24D
100
AcDbEntity
  8
0
100
AcDbLine
 62
9
  6
CONTINUOUS
 10
4.2874053909
 20
4.3017115886
 11
4.4901612964
 21
4.3017115886
  0
LINE
  5
24E
100
AcDbEntity
  8
0
100
AcDbLine
 62
7
  6
CONTINUOUS
 10
4.5068935799
 20
3.6746415002
 11
4.5068935799
 21
3.6120040885
  0
LINE
  5
24F
100
AcDbEntity
  8
0
100
AcDbLine
 62
9
  6
CONTINUOUS
 10
4.5638332525
 20
4.65492025
 11
4.5638332525
 21
4.65052025
  0
LINE
  5
250
100
AcDbEntity
  8
0
100
AcDbLine
 62
9
  6
CONTINUOUS
 10
4.5640823461
 20
4.65492025
 11
4.5640823461
 21
4.65052025
  0
LINE
  5
251
100
AcDbEntity
  8
0
100
AcDbLine
 62
7
  6
CONTINUOUS
 10
4.5660018476
 20
4.65492025
 11
4.5660018476
 21
4.65052025
  0
LINE
  5
252
100
AcDbEntity
  8
0
100
AcDbLine
 62
7
  6
CONTINUOUS
 10
4.5757912177
 20
4.2222195729
 11
4.5757912177
 21
4.65052025
  0
LINE
  5
253
100
AcDbEntity
  8
0
100
AcDbLine
 62
7
  6
CONTINUOUS
 10
4.5782518476
 20
3.4136522847
 11
4.5782518476
 21
3.552846533
  0
LINE
  5
254
100
AcDbEntity
  8
0
100
AcDbLine
 62
7
  6
CONTINUOUS
 10
4.6637833437
 20
4.75742025
 11
4.6637833437
 21
4.65742025
  0
LINE
  5
255
100
AcDbEntity
  8
0
100
AcDbLine
 62
7
  6
CONTINUOUS
 10
4.7012833437
 20
4.8766755695
 11
4.7012833437
 21
4.8952155256
  0
LWPOLYLINE
  5
256
100
AcDbEntity
  8
0
100
AcDbPolyline
 62
7
  6
CONTINUOUS
 90
7
 70
0
 10
4.6121234943
 20
3.8329520029
 10
4.6132323572
 20
3.8811000652
 10
4.6135835388
 20
3.8957045632
 10
4.6139532825
 20
3.9103433561
 10
4.6143509568
 20
3.9249962309
 10
4.6147687255
 20
3.9389005815
 10
4.6151612962
 20
3.9503336291
  0
LINE
  5
257
100
AcDbEntity
  8
0
100
AcDbLine
 62
7
  6
CONTINUOUS
 10
4.6117768862
 20
3.818131265
 11
4.6117768523
 21
3.818129838
  0
LINE
  5
258
100
AcDbEntity
  8
0
100
AcDbLine
 62
7
  6
CONTINUOUS
 10
4.6102406658
 20
3.752572854
 11
4.6121234943
 21
3.8329520029
  0
LINE
  5
259
100
AcDbEntity
  8
0
100
AcDbLine
 62
7
  6
CONTINUOUS
 10
4.609312882
 20
3.7156730546
 11
4.6102406658
 21
3.752572854
  0
LINE
  5
25A
100
AcDbEntity
  8
0
100
AcDbLine
 62
7
  6
CONTINUOUS
 10
4.6087830816
 20
3.6972871682
 11
4.609312882
 21
3.7156730546
  0
LINE
  5
25B
100
AcDbEntity
  8
0
100
AcDbLine
 62
7
  6
CONTINUOUS
 10
4.6084208601
 20
3.6863084295
 11
4.6087830816
 21
3.6972871682
  0
LWPOLYLINE
  5
25C
100
AcDbEntity
  8
0
100
AcDbPolyline
 62
7
  6
CONTINUOUS
 90
8
 70
0
 10
4.6151612964
 20
3.9503336359
 10
4.6186021936
 20
4.0397870704
 10
4.6225466018
 20
4.1356846805
 10
4.6269320995
 20
4.235538997
 10
4.6317301788
 20
4.3379055222
 10
4.6369820694
 20
4.4428054144
 10
4.6428329633
 20
4.5519000156
 10
4.648923927
 20
4.65742025
  0
LINE
  5
25D
100
AcDbEntity
  8
0
100
AcDbLine
 62
7
  6
CONTINUOUS
 10
4.6081326787
 20
3.6786353821
 11
4.6084208601
 21
3.6863084295
  0
LINE
  5
25E
100
AcDbEntity
  8
0
100
AcDbLine
 62
7
  6
CONTINUOUS
 10
4.6079106236
 20
3.6733996143
 11
4.6081326787
 21
3.6786353821
  0
LINE
  5
25F
100
AcDbEntity
  8
0
100
AcDbLine
 62
7
  6
CONTINUOUS
 10
4.6076746276
 20
3.668477089
 11
4.6079106236
 21
3.6733996143
  0
LINE
  5
260
100
AcDbEntity
  8
0
100
AcDbLine
 62
7
  6
CONTINUOUS
 10
4.6075039522
 20
3.6653092342
 11
4.6076746276
 21
3.668477089
  0
LINE
  5
261
100
AcDbEntity
  8
0
100
AcDbLine
 62
7
  6
CONTINUOUS
 10
4.6073139955
 20
3.6621384153
 11
4.6075039522
 21
3.6653092342
  0
LINE
  5
262
100
AcDbEntity
  8
0
100
AcDbLine
 62
7
  6
CONTINUOUS
 10
4.6551347167
 20
4.75742025
 11
4.6557496437
 21
4.7672627697
  0
LWPOLYLINE
  5
263
100
AcDbEntity
  8
0
100
AcDbPolyline
 62
7
  6
CONTINUOUS
 90
12
 70
0
 10
4.6046104515
 20
3.6369591687
 10
4.6050084703
 20
3.6395150938
 10
4.6053772748
 20
3.6420842857
 10
4.6057131051
 20
3.6446343242
 10
4.6060049111
 20
3.6470550414
 10
4.606254733
 20
3.6493171082
 10
4.6064723397
 20
3.6514639658
 10
4.6066612966
 20
3.6534906766
 10
4.6068241236
 20
3.6553821638
 10
4.6069663357
 20
3.6571629195
 10
4.6070941555
 20
3.6588810286
 10
4.6073139955
 20
3.6621384153
  0
LINE
  5
264
100
AcDbEntity
  8
0
100
AcDbLine
 62
7
  6
CONTINUOUS
 10
4.6046104515
 20
3.6369591687
 11
4.604337315
 21
3.6353127148
  0
LINE
  5
265
100
AcDbEntity
  8
0
100
AcDbLine
 62
7
  6
CONTINUOUS
 10
4.6035297996
 20
3.6306212077
 11
4.6043373197
 21
3.6353127427
  0
LINE
  5
266
100
AcDbEntity
  8
0
100
AcDbLine
 62
7
  6
CONTINUOUS
 10
4.6032009743
 20
3.6287504957
 11
4.6035297996
 21
3.6306212077
  0
LINE
  5
267
100
AcDbEntity
  8
0
100
AcDbLine
 62
7
  6
CONTINUOUS
 10
4.7824841311
 20
3.1909414875
 11
4.7824841311
 21
3.3927731475
  0
LINE
  5
268
100
AcDbEntity
  8
0
100
AcDbLine
 62
7
  6
CONTINUOUS
 10
4.7981772831
 20
4.7682838279
 11
4.7981772831
 21
4.7679707819
  0
LINE
  5
269
100
AcDbEntity
  8
0
100
AcDbLine
 62
9
  6
CONTINUOUS
 10
4.5640823461
 20
4.65492025
 11
4.5627546312
 21
4.65742025
  0
LINE
  5
26A
100
AcDbEntity
  8
0
100
AcDbLine
 62
7
  6
CONTINUOUS
 10
4.8357530383
 20
4.7682838279
 11
4.8357530383
 21
4.7679707819
  0
LINE
  5
26B
100
AcDbEntity
  8
0
100
AcDbLine
 62
7
  6
CONTINUOUS
 10
4.5757910137
 20
4.65052025
 11
4.4901612964
 21
4.65052025
  0
LINE
  5
26C
100
AcDbEntity
  8
0
100
AcDbLine
 62
7
  6
CONTINUOUS
 10
4.2874053909
 20
4.65052025
 11
4.2017756736
 21
4.65052025
  0
LINE
  5
26D
100
AcDbEntity
  8
0
100
AcDbLine
 62
7
  6
CONTINUOUS
 10
4.5660018476
 20
4.65492025
 11
4.4901612964
 21
4.65492025
  0
LINE
  5
26E
100
AcDbEntity
  8
0
100
AcDbLine
 62
7
  6
CONTINUOUS
 10
4.2874053909
 20
4.65492025
 11
4.2115648397
 21
4.65492025
  0
LINE
  5
26F
100
AcDbEntity
  8
0
100
AcDbLine
 62
7
  6
CONTINUOUS
 10
4.1137856855
 20
4.65742025
 11
4.2874053909
 21
4.65742025
  0
LINE
  5
270
100
AcDbEntity
  8
0
100
AcDbLine
 62
7
  6
CONTINUOUS
 10
4.4901612964
 20
4.65742025
 11
4.6637810019
 21
4.65742025
  0
LINE
  5
271
100
AcDbEntity
  8
0
100
AcDbLine
 62
7
  6
CONTINUOUS
 10
4.5635018476
 20
4.65742025
 11
4.5660018476
 21
4.65492025
  0
LINE
  5
272
100
AcDbEntity
  8
0
100
AcDbLine
 62
9
  6
CONTINUOUS
 10
4.5638332525
 20
4.65492025
 11
4.561333875
 21
4.65742025
  0
LINE
  5
273
100
AcDbEntity
  8
0
100
AcDbLine
 62
7
  6
CONTINUOUS
 10
4.9543515212
 20
4.7682054392
 11
4.9543515212
 21
4.7681777104
  0
LWPOLYLINE
  5
274
100
AcDbEntity
  8
0
100
AcDbPolyline
 62
7
  6
CONTINUOUS
 90
19
 70
0
 10
5.1712725132
 20
4.7672627699
 10
5.1757771037
 20
4.7674505445
 10
5.180667076
 20
4.7680843197
 10
5.1855021937
 20
4.7691667798
 10
5.1901948614
 20
4.7706782012
 10
5.1947060491
 20
4.7725985805
 10
5.1990435443
 20
4.7749304191
 10
5.2031547426
 20
4.7776494679
 10
5.2069859192
 20
4.7807175322
 10
5.2105376241
 20
4.7841350295
 10
5.2137637601
 20
4.7878615184
 10
5.2166265372
 20
4.7918491832
 10
5.2191262651
 20
4.7960987599
 10
5.2212269296
 20
4.8005533782
 10
5.2229074073
 20
4.8051596058
 10
5.2241702261
 20
4.8099270735
 10
5.2249969898
 20
4.8148153873
 10
5.2253722471
 20
4.8197341711
 10
5.2253975129
 20
4.82138777
  0
LINE
  5
275
100
AcDbEntity
  8
0
100
AcDbLine
 62
7
  6
CONTINUOUS
 10
4.9531772833
 20
4.7681571855
 11
4.9543515212
 21
4.7681777104
  0
LINE
  5
276
100
AcDbEntity
  8
0
100
AcDbLine
 62
7
  6
CONTINUOUS
 10
4.9496545561
 20
4.7681301811
 11
4.9531772833
 21
4.7681571855
  0
LINE
  5
277
100
AcDbEntity
  8
0
100
AcDbLine
 62
7
  6
CONTINUOUS
 10
4.6637810019
 20
4.75742025
 11
4.4901612964
 21
4.75742025
  0
LINE
  5
278
100
AcDbEntity
  8
0
100
AcDbLine
 62
7
  6
CONTINUOUS
 10
4.2874053909
 20
4.75742025
 11
4.1137856855
 21
4.75742025
  0
LINE
  5
279
100
AcDbEntity
  8
0
100
AcDbLine
 62
7
  6
CONTINUOUS
 10
5.1704006286
 20
4.7672627697
 11
4.4901612964
 21
4.7672627697
  0
LINE
  5
27A
100
AcDbEntity
  8
0
100
AcDbLine
 62
7
  6
CONTINUOUS
 10
4.2874053909
 20
4.7672627697
 11
3.6071959379
 21
4.7672627697
  0
LINE
  5
27B
100
AcDbEntity
  8
0
100
AcDbLine
 62
7
  6
CONTINUOUS
 10
4.7981772831
 20
4.7679707819
 11
4.8075712225
 21
4.7679707819
  0
LINE
  5
27C
100
AcDbEntity
  8
0
100
AcDbLine
 62
7
  6
CONTINUOUS
 10
4.8263591014
 20
4.7679707819
 11
4.8357530383
 21
4.7679707819
  0
LINE
  5
27D
100
AcDbEntity
  8
0
100
AcDbLine
 62
7
  6
CONTINUOUS
 10
4.8545409155
 20
4.7679707819
 11
4.8615863699
 21
4.7679707819
  0
LINE
  5
27E
100
AcDbEntity
  8
0
100
AcDbLine
 62
7
  6
CONTINUOUS
 10
4.8944651591
 20
4.7679707819
 11
4.9015106135
 21
4.7679707819
  0
LINE
  5
27F
100
AcDbEntity
  8
0
100
AcDbLine
 62
7
  6
CONTINUOUS
 10
4.9109045571
 20
4.7679707819
 11
4.9179500115
 21
4.7679707819
  0
LINE
  5
280
100
AcDbEntity
  8
0
100
AcDbLine
 62
7
  6
CONTINUOUS
 10
4.9543515212
 20
4.7679707819
 11
4.9555257592
 21
4.7679707819
  0
LINE
  5
281
100
AcDbEntity
  8
0
100
AcDbLine
 62
7
  6
CONTINUOUS
 10
4.9649197028
 20
4.7679707819
 11
4.9719651571
 21
4.7679707819
  0
LINE
  5
282
100
AcDbEntity
  8
0
100
AcDbLine
 62
7
  6
CONTINUOUS
 10
4.9884045551
 20
4.7679707819
 11
4.9977984853
 21
4.7679707819
  0
LINE
  5
283
100
AcDbEntity
  8
0
100
AcDbLine
 62
7
  6
CONTINUOUS
 10
5.0142378833
 20
4.7679707819
 11
5.0212833377
 21
4.7679707819
  0
LINE
  5
284
100
AcDbEntity
  8
0
100
AcDbLine
 62
7
  6
CONTINUOUS
 10
4.8662833417
 20
4.7680452755
 11
4.8674575863
 21
4.7680452755
  0
LINE
  5
285
100
AcDbEntity
  8
0
100
AcDbLine
 62
7
  6
CONTINUOUS
 10
4.8885939494
 20
4.7680452755
 11
4.8897681873
 21
4.7680452755
  0
LINE
  5
286
100
AcDbEntity
  8
0
100
AcDbLine
 62
7
  6
CONTINUOUS
 10
5.0212833377
 20
4.7682838279
 11
5.0107151562
 21
4.7682838279
  0
LINE
  5
287
100
AcDbEntity
  8
0
100
AcDbLine
 62
7
  6
CONTINUOUS
 10
4.9754878843
 20
4.7682838279
 11
4.9649197028
 21
4.7682838279
  0
LINE
  5
288
100
AcDbEntity
  8
0
100
AcDbLine
 62
7
  6
CONTINUOUS
 10
4.882722733
 20
4.7682838279
 11
4.873328796
 21
4.7682838279
  0
LINE
  5
289
100
AcDbEntity
  8
0
100
AcDbLine
 62
7
  6
CONTINUOUS
 10
4.8451469786
 20
4.7682838279
 11
4.8381015242
 21
4.7682838279
  0
LINE
  5
28A
100
AcDbEntity
  8
0
100
AcDbLine
 62
7
  6
CONTINUOUS
 10
4.8216621296
 20
4.7682838279
 11
4.812268191
 21
4.7682838279
  0
LINE
  5
28B
100
AcDbEntity
  8
0
100
AcDbLine
 62
7
  6
CONTINUOUS
 10
4.795828798
 20
4.7682838279
 11
4.7887833437
 21
4.7682838279
  0
LINE
  5
28C
100
AcDbEntity
  8
0
100
AcDbLine
 62
7
  6
CONTINUOUS
 10
4.2627464282
 20
4.7829655256
 11
4.5148202766
 21
4.7829655256
  0
LINE
  5
28D
100
AcDbEntity
  8
0
100
AcDbLine
 62
9
  6
CONTINUOUS
 10
4.5274018918
 20
4.7863621279
 11
4.2765370686
 21
4.7863617258
  0
LINE
  5
28E
100
AcDbEntity
  8
0
100
AcDbLine
 62
9
  6
CONTINUOUS
 10
4.2765370686
 20
4.7863617258
 11
4.2501654143
 21
4.7863621218
  0
LINE
  5
28F
100
AcDbEntity
  8
0
100
AcDbLine
 62
7
  6
CONTINUOUS
 10
4.9449575776
 20
4.7682765723
 11
4.9109045571
 21
4.7682838279
  0
LINE
  5
290
100
AcDbEntity
  8
0
100
AcDbLine
 62
7
  6
CONTINUOUS
 10
4.9179500115
 20
4.7682478086
 11
4.9437833397
 21
4.7682406824
  0
LINE
  5
291
100
AcDbEntity
  8
0
100
AcDbLine
 62
7
  6
CONTINUOUS
 10
4.9461320344
 20
4.7682711466
 11
4.9449575776
 21
4.7682765723
  0
LINE
  5
292
100
AcDbEntity
  8
0
100
AcDbLine
 62
7
  6
CONTINUOUS
 10
4.9531772833
 20
4.7682265075
 11
4.9496545561
 21
4.7682549607
  0
LINE
  5
293
100
AcDbEntity
  8
0
100
AcDbLine
 62
7
  6
CONTINUOUS
 10
4.946131829
 20
4.7682265075
 11
4.9473060669
 21
4.7682054392
  0
LINE
  5
294
100
AcDbEntity
  8
0
100
AcDbLine
 62
7
  6
CONTINUOUS
 10
4.9543515212
 20
4.7682054392
 11
4.9531772833
 21
4.7682265075
  0
LINE
  5
295
100
AcDbEntity
  8
0
100
AcDbLine
 62
7
  6
CONTINUOUS
 10
5.0212833377
 20
4.7682838279
 11
5.0212833377
 21
4.7679707819
  0
LINE
  5
296
100
AcDbEntity
  8
0
100
AcDbLine
 62
9
  6
CONTINUOUS
 10
4.1033550846
 20
4.8431865099
 11
4.674212883
 21
4.8431865158
  0
LINE
  5
297
100
AcDbEntity
  8
0
100
AcDbLine
 62
9
  6
CONTINUOUS
 10
4.0762833437
 20
4.8766755695
 11
4.7012833437
 21
4.8766755695
  0
LINE
  5
298
100
AcDbEntity
  8
0
100
AcDbLine
 62
7
  6
CONTINUOUS
 10
3.5521694264
 20
4.8952155256
 11
5.2253972609
 21
4.8952155256
  0
LINE
  5
299
100
AcDbEntity
  8
0
100
AcDbLine
 62
9
  6
CONTINUOUS
 10
4.103353803
 20
4.8431865161
 11
4.1033550846
 21
4.8431865099
  0
LINE
  5
29A
100
AcDbEntity
  8
0
100
AcDbLine
 62
7
  6
CONTINUOUS
 10
5.2253975169
 20
4.8214089794
 11
5.2253975169
 21
4.8952155256
  0
ARC
  5
29B
100
AcDbEntity
  8
0
100
AcDbCircle
 62
9
  6
CONTINUOUS
 10
4.3888355083
 20
-58.4089909367
 40
63.2359138667
100
AcDbArc
 50
90.204972218
 51
90.7448860364
  0
ARC
  5
29C
100
AcDbEntity
  8
0
100
AcDbCircle
 62
9
  6
CONTINUOUS
 10
4.3887268926
 20
-50.494141015
 40
55.2669443336
100
AcDbArc
 50
89.5036201453
 51
89.8948349607
  0
ARC
  5
29D
100
AcDbEntity
  8
0
100
AcDbCircle
 62
9
  6
CONTINUOUS
 10
-28.1153358094
 20
2.7642982947
 40
32.2995240323
100
AcDbArc
 50
2.1046511839
 51
3.3601154317
  0
ARC
  5
29E
100
AcDbEntity
  8
0
100
AcDbCircle
 62
7
  6
CONTINUOUS
 10
3.9985283374
 20
4.3542983676
 40
0.5
100
AcDbArc
 50
59.783228339
 51
77.89810329
  0
ARC
  5
29F
100
AcDbEntity
  8
0
100
AcDbCircle
 62
7
  6
CONTINUOUS
 10
4.1105333437
 20
4.8766755695
 40
0.03425
100
AcDbArc
 50
180.0
 51
257.8982156923
  0
ARC
  5
2A0
100
AcDbEntity
  8
0
100
AcDbCircle
 62
9
  6
CONTINUOUS
 10
4.3721052441
 20
3.6691060108
 40
0.2017265457
100
AcDbArc
 50
189.643684514
 51
191.529851386
  0
ARC
  5
2A1
100
AcDbEntity
  8
0
100
AcDbCircle
 62
7
  6
CONTINUOUS
 10
4.3878293742
 20
3.8167464712
 40
0.1378846957
100
AcDbArc
 50
270.2270398358
 51
270.4167030863
  0
ARC
  5
2A2
100
AcDbEntity
  8
0
100
AcDbCircle
 62
7
  6
CONTINUOUS
 10
4.38591869
 20
3.7996964262
 40
0.1300850181
100
AcDbArc
 50
271.262810264
 51
272.0012122723
  0
ARC
  5
2A3
100
AcDbEntity
  8
0
100
AcDbCircle
 62
7
  6
CONTINUOUS
 10
4.3859389602
 20
3.786977734
 40
0.1299932816
100
AcDbArc
 50
271.2549202845
 51
272.0680272013
  0
ARC
  5
2A4
100
AcDbEntity
  8
0
100
AcDbCircle
 62
7
  6
CONTINUOUS
 10
4.3859349911
 20
3.7741687509
 40
0.1298123306
100
AcDbArc
 50
271.2592263969
 51
272.565052471
  0
ARC
  5
2A5
100
AcDbEntity
  8
0
100
AcDbCircle
 62
7
  6
CONTINUOUS
 10
4.3861356966
 20
3.797141064
 40
0.1275237004
100
AcDbArc
 50
271.9438645482
 51
281.8644119136
  0
ARC
  5
2A6
100
AcDbEntity
  8
0
100
AcDbCircle
 62
7
  6
CONTINUOUS
 10
4.3861697705
 20
3.7842044287
 40
0.1272135206
100
AcDbArc
 50
272.0092140955
 51
281.9971996386
  0
ARC
  5
2A7
100
AcDbEntity
  8
0
100
AcDbCircle
 62
7
  6
CONTINUOUS
 10
4.3861887768
 20
3.771393677
 40
0.1270287452
100
AcDbArc
 50
272.506715674
 51
282.227215826
  0
ARC
  5
2A8
100
AcDbEntity
  8
0
100
AcDbCircle
 62
9
  6
CONTINUOUS
 10
4.3536100145
 20
3.7226265054
 40
0.0867377687
100
AcDbArc
 50
222.193785352
 51
222.4667291046
  0
ARC
  5
2A9
100
AcDbEntity
  8
0
100
AcDbCircle
 62
7
  6
CONTINUOUS
 10
4.3517527892
 20
3.6996592364
 40
0.083662646
100
AcDbArc
 50
140.2948357858
 51
141.9129668711
  0
ARC
  5
2AA
100
AcDbEntity
  8
0
100
AcDbCircle
 62
7
  6
CONTINUOUS
 10
4.3498525846
 20
3.7198238275
 40
0.0640602818
100
AcDbArc
 50
215.5308193399
 51
216.3751813735
  0
ARC
  5
2AB
100
AcDbEntity
  8
0
100
AcDbCircle
 62
7
  6
CONTINUOUS
 10
4.3498519048
 20
3.7450771516
 40
0.0640594447
100
AcDbArc
 50
215.5308170691
 51
216.3736542425
  0
ARC
  5
2AC
100
AcDbEntity
  8
0
100
AcDbCircle
 62
7
  6
CONTINUOUS
 10
4.3394033984
 20
3.7125468179
 40
0.054000246
100
AcDbArc
 50
164.4677344342
 51
167.3360615219
  0
ARC
  5
2AD
100
AcDbEntity
  8
0
100
AcDbCircle
 62
7
  6
CONTINUOUS
 10
4.3390717821
 20
3.7132143216
 40
0.0536594442
100
AcDbArc
 50
192.6595799504
 51
193.7666586909
  0
ARC
  5
2AE
100
AcDbEntity
  8
0
100
AcDbCircle
 62
7
  6
CONTINUOUS
 10
4.3381946903
 20
3.7128130394
 40
0.0527625785
100
AcDbArc
 50
167.3303684385
 51
175.6927092984
  0
ARC
  5
2AF
100
AcDbEntity
  8
0
100
AcDbCircle
 62
7
  6
CONTINUOUS
 10
4.3375715555
 20
3.7129357589
 40
0.0521346709
100
AcDbArc
 50
180.0174086119
 51
192.7222182317
  0
ARC
  5
2B0
100
AcDbEntity
  8
0
100
AcDbCircle
 62
7
  6
CONTINUOUS
 10
4.3371447257
 20
3.7129161751
 40
0.0517078389
100
AcDbArc
 50
175.7192875827
 51
179.9958521005
  0
ARC
  5
2B1
100
AcDbEntity
  8
0
100
AcDbCircle
 62
7
  6
CONTINUOUS
 10
4.3382499873
 20
3.7504537944
 40
0.0508794807
100
AcDbArc
 50
193.3371622831
 51
194.3560693816
  0
ARC
  5
2B2
100
AcDbEntity
  8
0
100
AcDbCircle
 62
7
  6
CONTINUOUS
 10
4.3374169868
 20
3.7261607197
 40
0.0500435305
100
AcDbArc
 50
192.832925303
 51
194.4558177883
  0
ARC
  5
2B3
100
AcDbEntity
  8
0
100
AcDbCircle
 62
7
  6
CONTINUOUS
 10
4.3374169819
 20
3.7135338113
 40
0.0500435254
100
AcDbArc
 50
192.8328847937
 51
194.4558175942
  0
ARC
  5
2B4
100
AcDbEntity
  8
0
100
AcDbCircle
 62
7
  6
CONTINUOUS
 10
4.337416979
 20
3.7387876247
 40
0.0500435225
100
AcDbArc
 50
192.8328851508
 51
194.4558179902
  0
ARC
  5
2B5
100
AcDbEntity
  8
0
100
AcDbCircle
 62
7
  6
CONTINUOUS
 10
4.3367296788
 20
3.7501226742
 40
0.0493238008
100
AcDbArc
 50
180.0494408252
 51
193.3702876715
  0
ARC
  5
2B6
100
AcDbEntity
  8
0
100
AcDbCircle
 62
7
  6
CONTINUOUS
 10
4.3360379317
 20
3.7258596542
 40
0.048632054
100
AcDbArc
 50
180.0540289427
 51
192.8479523833
  0
ARC
  5
2B7
100
AcDbEntity
  8
0
100
AcDbCircle
 62
7
  6
CONTINUOUS
 10
4.3360379281
 20
3.713232747
 40
0.0486320504
100
AcDbArc
 50
180.0540284184
 51
192.8479116636
  0
ARC
  5
2B8
100
AcDbEntity
  8
0
100
AcDbCircle
 62
7
  6
CONTINUOUS
 10
4.3360379263
 20
3.7384865604
 40
0.0486320486
100
AcDbArc
 50
180.0540282589
 51
192.8479118506
  0
ARC
  5
2B9
100
AcDbEntity
  8
0
100
AcDbCircle
 62
7
  6
CONTINUOUS
 10
4.3355325952
 20
3.7147873124
 40
0.048126694
100
AcDbArc
 50
173.4164339033
 51
179.9961586727
  0
ARC
  5
2BA
100
AcDbEntity
  8
0
100
AcDbCircle
 62
7
  6
CONTINUOUS
 10
4.335532299
 20
3.7274142309
 40
0.0481263998
100
AcDbArc
 50
173.4160929851
 51
179.9961300852
  0
ARC
  5
2BB
100
AcDbEntity
  8
0
100
AcDbCircle
 62
7
  6
CONTINUOUS
 10
4.3354082054
 20
3.7147932302
 40
0.0480023042
100
AcDbArc
 50
180.0032121285
 51
182.8390459095
  0
ARC
  5
2BC
100
AcDbEntity
  8
0
100
AcDbCircle
 62
7
  6
CONTINUOUS
 10
4.3354081637
 20
3.7274201496
 40
0.0480022644
100
AcDbArc
 50
180.0031846712
 51
182.8427304104
  0
ARC
  5
2BD
100
AcDbEntity
  8
0
100
AcDbCircle
 62
7
  6
CONTINUOUS
 10
4.3348062235
 20
3.7410312019
 40
0.0474003267
100
AcDbArc
 50
174.5579578811
 51
179.9976753252
  0
ARC
  5
2BE
100
AcDbEntity
  8
0
100
AcDbCircle
 62
7
  6
CONTINUOUS
 10
4.3347205145
 20
3.7410349625
 40
0.0473146177
100
AcDbArc
 50
180.0022250892
 51
183.1333859748
  0
ARC
  5
2BF
100
AcDbEntity
  8
0
100
AcDbCircle
 62
7
  6
CONTINUOUS
 10
4.2066967295
 20
4.2222195729
 40
0.0049212598
100
AcDbArc
 50
180.0
 51
268.2369701886
  0
ARC
  5
2C0
100
AcDbEntity
  8
0
100
AcDbCircle
 62
7
  6
CONTINUOUS
 10
4.2627462583
 20
4.8079655256
 40
0.025
100
AcDbArc
 50
239.7832733809
 51
269.9999994383
  0
ARC
  5
2C1
100
AcDbEntity
  8
0
100
AcDbCircle
 62
7
  6
CONTINUOUS
 10
4.3887833437
 20
10.1378890165
 40
5.9233923885
100
AcDbArc
 50
270.9807632465
 51
271.7630298109
  0
ARC
  5
2C2
100
AcDbEntity
  8
0
100
AcDbCircle
 62
7
  6
CONTINUOUS
 10
4.3887833437
 20
10.1378890165
 40
5.9233923885
100
AcDbArc
 50
268.2369701891
 51
269.0192367535
  0
ARC
  5
2C3
100
AcDbEntity
  8
0
100
AcDbCircle
 62
9
  6
CONTINUOUS
 10
4.4054615287
 20
3.669106019
 40
0.2017264628
100
AcDbArc
 50
348.4747784746
 51
350.3563170633
  0
ARC
  5
2C4
100
AcDbEntity
  8
0
100
AcDbCircle
 62
9
  6
CONTINUOUS
 10
4.3909151616
 20
3.7798423251
 40
0.14676417
100
AcDbArc
 50
283.781020992
 51
284.6411562147
  0
ARC
  5
2C5
100
AcDbEntity
  8
0
100
AcDbCircle
 62
7
  6
CONTINUOUS
 10
4.3927435375
 20
3.7890278746
 40
0.1181001361
100
AcDbArc
 50
293.4987591775
 51
293.8691360651
  0
ARC
  5
2C6
100
AcDbEntity
  8
0
100
AcDbCircle
 62
7
  6
CONTINUOUS
 10
4.394162417
 20
3.7858808029
 40
0.1146480813
100
AcDbArc
 50
293.8571089154
 51
296.5995586657
  0
ARC
  5
2C7
100
AcDbEntity
  8
0
100
AcDbCircle
 62
7
  6
CONTINUOUS
 10
4.3945794202
 20
3.7723657104
 40
0.1136648662
100
AcDbArc
 50
295.0388855351
 51
296.9841869859
  0
ARC
  5
2C8
100
AcDbEntity
  8
0
100
AcDbCircle
 62
7
  6
CONTINUOUS
 10
4.3961317023
 20
3.7693062603
 40
0.1102341536
100
AcDbArc
 50
296.9867447301
 51
298.395122
  0
ARC
  5
2C9
100
AcDbEntity
  8
0
100
AcDbCircle
 62
7
  6
CONTINUOUS
 10
4.4134348686
 20
3.7691299529
 40
0.0815222019
100
AcDbArc
 50
313.556035503
 51
314.7398544339
  0
ARC
  5
2CA
100
AcDbEntity
  8
0
100
AcDbCircle
 62
7
  6
CONTINUOUS
 10
4.4149243247
 20
3.7676304434
 40
0.0794086736
100
AcDbArc
 50
314.7380596825
 51
316.3275058102
  0
ARC
  5
2CB
100
AcDbEntity
  8
0
100
AcDbCircle
 62
7
  6
CONTINUOUS
 10
4.4164560557
 20
3.7661648594
 40
0.0772887371
100
AcDbArc
 50
316.3292411112
 51
317.5322370083
  0
ARC
  5
2CC
100
AcDbEntity
  8
0
100
AcDbCircle
 62
7
  6
CONTINUOUS
 10
4.416055071
 20
3.7595243296
 40
0.0767415835
100
AcDbArc
 50
318.4296726414
 51
321.5311893449
  0
ARC
  5
2CD
100
AcDbEntity
  8
0
100
AcDbCircle
 62
7
  6
CONTINUOUS
 10
4.416672871
 20
3.76243632
 40
0.0751026952
100
AcDbArc
 50
316.5419105388
 51
320.4705517606
  0
ARC
  5
2CE
100
AcDbEntity
  8
0
100
AcDbCircle
 62
7
  6
CONTINUOUS
 10
4.4176493317
 20
3.7582408063
 40
0.0746948981
100
AcDbArc
 50
321.5412834189
 51
322.4147903372
  0
ARC
  5
2CF
100
AcDbEntity
  8
0
100
AcDbCircle
 62
7
  6
CONTINUOUS
 10
4.4186644191
 20
3.7536797685
 40
0.0738566892
100
AcDbArc
 50
320.5434761493
 51
321.8846114974
  0
ARC
  5
2D0
100
AcDbEntity
  8
0
100
AcDbCircle
 62
7
  6
CONTINUOUS
 10
4.4259098667
 20
3.6997372979
 40
0.0835389466
100
AcDbArc
 50
37.9069876102
 51
39.6876367753
  0
ARC
  5
2D1
100
AcDbEntity
  8
0
100
AcDbCircle
 62
9
  6
CONTINUOUS
 10
4.4474599971
 20
3.6120266147
 40
0.0594343083
100
AcDbArc
 50
353.537720851
 51
354.6491138759
  0
ARC
  5
2D2
100
AcDbEntity
  8
0
100
AcDbCircle
 62
9
  6
CONTINUOUS
 10
4.4476228246
 20
3.612011621
 40
0.0592707921
100
AcDbArc
 50
354.648866291
 51
357.1989022301
  0
ARC
  5
2D3
100
AcDbEntity
  8
0
100
AcDbCircle
 62
9
  6
CONTINUOUS
 10
4.4477509833
 20
3.6120045655
 40
0.0591424418
100
AcDbArc
 50
357.1996618449
 51
359.9995378549
  0
ARC
  5
2D4
100
AcDbEntity
  8
0
100
AcDbCircle
 62
9
  6
CONTINUOUS
 10
4.4271864906
 20
3.7198416339
 40
0.0824725889
100
AcDbArc
 50
320.55985903
 51
321.1015465652
  0
ARC
  5
2D5
100
AcDbEntity
  8
0
100
AcDbCircle
 62
9
  6
CONTINUOUS
 10
4.430469066
 20
3.7065850971
 40
0.072947968
100
AcDbArc
 50
32.8887737396
 51
35.0509359832
  0
ARC
  5
2D6
100
AcDbEntity
  8
0
100
AcDbCircle
 62
9
  6
CONTINUOUS
 10
4.4316141697
 20
3.7073343043
 40
0.0715795678
100
AcDbArc
 50
32.5043418069
 51
32.882909423
  0
ARC
  5
2D7
100
AcDbEntity
  8
0
100
AcDbCircle
 62
9
  6
CONTINUOUS
 10
4.43175033
 20
3.7184182291
 40
0.0714178237
100
AcDbArc
 50
327.1390089242
 51
327.8237606031
  0
ARC
  5
2D8
100
AcDbEntity
  8
0
100
AcDbCircle
 62
7
  6
CONTINUOUS
 10
4.421019444
 20
3.7518626778
 40
0.0708822379
100
AcDbArc
 50
321.8652106315
 51
326.1264906573
  0
ARC
  5
2D9
100
AcDbEntity
  8
0
100
AcDbCircle
 62
7
  6
CONTINUOUS
 10
4.4229868202
 20
3.7505088539
 40
0.0684942208
100
AcDbArc
 50
326.1494946229
 51
326.4702160795
  0
ARC
  5
2DA
100
AcDbEntity
  8
0
100
AcDbCircle
 62
7
  6
CONTINUOUS
 10
4.4326042076
 20
3.7553697664
 40
0.0577516229
100
AcDbArc
 50
338.0894246628
 51
339.3606360835
  0
ARC
  5
2DB
100
AcDbEntity
  8
0
100
AcDbCircle
 62
7
  6
CONTINUOUS
 10
4.4355004921
 20
3.7141307892
 40
0.0567929704
100
AcDbArc
 50
339.197077322
 51
339.9800466129
  0
ARC
  5
2DC
100
AcDbEntity
  8
0
100
AcDbCircle
 62
7
  6
CONTINUOUS
 10
4.4339721855
 20
3.7342044464
 40
0.0562286536
100
AcDbArc
 50
344.9760092411
 51
345.260817682
  0
ARC
  5
2DD
100
AcDbEntity
  8
0
100
AcDbCircle
 62
7
  6
CONTINUOUS
 10
4.434106709
 20
3.7215304243
 40
0.0560947445
100
AcDbArc
 50
345.4053331985
 51
346.3145220917
  0
ARC
  5
2DE
100
AcDbEntity
  8
0
100
AcDbCircle
 62
7
  6
CONTINUOUS
 10
4.4343816189
 20
3.7324816978
 40
0.0558117112
100
AcDbArc
 50
346.4371676631
 51
346.8370852167
  0
ARC
  5
2DF
100
AcDbEntity
  8
0
100
AcDbCircle
 62
7
  6
CONTINUOUS
 10
4.4343820842
 20
3.7198546803
 40
0.0558112329
100
AcDbArc
 50
346.4371662078
 51
346.8397654457
  0
ARC
  5
2E0
100
AcDbEntity
  8
0
100
AcDbCircle
 62
7
  6
CONTINUOUS
 10
4.434747638
 20
3.7497797961
 40
0.0554148338
100
AcDbArc
 50
354.3007784236
 51
354.7533732268
  0
ARC
  5
2E1
100
AcDbEntity
  8
0
100
AcDbCircle
 62
7
  6
CONTINUOUS
 10
4.4347954258
 20
3.7449777823
 40
0.0553874389
100
AcDbArc
 50
344.9185770264
 51
349.951352383
  0
ARC
  5
2E2
100
AcDbEntity
  8
0
100
AcDbCircle
 62
7
  6
CONTINUOUS
 10
4.4350708022
 20
3.7339378716
 40
0.0550983705
100
AcDbArc
 50
345.2382455063
 51
355.0501037773
  0
ARC
  5
2E3
100
AcDbEntity
  8
0
100
AcDbCircle
 62
7
  6
CONTINUOUS
 10
4.4350990162
 20
3.749750675
 40
0.055062265
100
AcDbArc
 50
354.7501142229
 51
359.9961931323
  0
ARC
  5
2E4
100
AcDbEntity
  8
0
100
AcDbCircle
 62
7
  6
CONTINUOUS
 10
4.4352094602
 20
3.749744083
 40
0.0549518209
100
AcDbArc
 50
0.0030586698
 51
2.3187576406
  0
ARC
  5
2E5
100
AcDbEntity
  8
0
100
AcDbCircle
 62
7
  6
CONTINUOUS
 10
4.4355722408
 20
3.721196813
 40
0.0545918954
100
AcDbArc
 50
346.2908099417
 51
357.1527843833
  0
ARC
  5
2E6
100
AcDbEntity
  8
0
100
AcDbCircle
 62
7
  6
CONTINUOUS
 10
4.435845143
 20
3.732169994
 40
0.0543156658
100
AcDbArc
 50
346.8056919505
 51
359.9498698859
  0
ARC
  5
2E7
100
AcDbEntity
  8
0
100
AcDbCircle
 62
7
  6
CONTINUOUS
 10
4.4358455051
 20
3.7195430516
 40
0.0543153037
100
AcDbArc
 50
346.8083934566
 51
359.9499071126
  0
ARC
  5
2E8
100
AcDbEntity
  8
0
100
AcDbCircle
 62
7
  6
CONTINUOUS
 10
4.4361997615
 20
3.7447307492
 40
0.0539615424
100
AcDbArc
 50
349.9494507935
 51
359.9666430788
  0
ARC
  5
2E9
100
AcDbEntity
  8
0
100
AcDbCircle
 62
7
  6
CONTINUOUS
 10
4.436284997
 20
3.7337787479
 40
0.053876298
100
AcDbArc
 50
0.0073296046
 51
5.8851184368
  0
ARC
  5
2EA
100
AcDbEntity
  8
0
100
AcDbCircle
 62
7
  6
CONTINUOUS
 10
4.4363520061
 20
3.7337910556
 40
0.0538092887
100
AcDbArc
 50
355.0881386566
 51
359.9942336586
  0
ARC
  5
2EB
100
AcDbEntity
  8
0
100
AcDbCircle
 62
7
  6
CONTINUOUS
 10
4.4363691442
 20
3.7211023746
 40
0.0537916441
100
AcDbArc
 50
0.0068495622
 51
5.8861293363
  0
ARC
  5
2EC
100
AcDbEntity
  8
0
100
AcDbCircle
 62
7
  6
CONTINUOUS
 10
4.4364628109
 20
3.7211068864
 40
0.0536979772
100
AcDbArc
 50
357.2014166326
 51
0.0020473919
  0
ARC
  5
2ED
100
AcDbEntity
  8
0
100
AcDbCircle
 62
7
  6
CONTINUOUS
 10
4.436620882
 20
3.7541626611
 40
0.0535517525
100
AcDbArc
 50
349.1368402577
 51
349.952708025
  0
ARC
  5
2EE
100
AcDbEntity
  8
0
100
AcDbCircle
 62
7
  6
CONTINUOUS
 10
4.4386868763
 20
3.7126812326
 40
0.0534602017
100
AcDbArc
 50
9.3264331559
 51
16.4960938622
  0
ARC
  5
2EF
100
AcDbEntity
  8
0
100
AcDbCircle
 62
7
  6
CONTINUOUS
 10
4.4371304993
 20
3.7540766223
 40
0.0530349404
100
AcDbArc
 50
349.9481824398
 51
354.1454619379
  0
ARC
  5
2F0
100
AcDbEntity
  8
0
100
AcDbCircle
 62
7
  6
CONTINUOUS
 10
4.4394381722
 20
3.7128134188
 40
0.052697416
100
AcDbArc
 50
8.4945410243
 51
9.3169908496
  0
ARC
  5
2F1
100
AcDbEntity
  8
0
100
AcDbCircle
 62
7
  6
CONTINUOUS
 10
4.4396018952
 20
3.7128377971
 40
0.052531888
100
AcDbArc
 50
7.4671854397
 51
8.494621213
  0
ARC
  5
2F2
100
AcDbEntity
  8
0
100
AcDbCircle
 62
7
  6
CONTINUOUS
 10
4.437786961
 20
3.7540058098
 40
0.0523746798
100
AcDbArc
 50
354.1492709616
 51
357.7433637986
  0
ARC
  5
2F3
100
AcDbEntity
  8
0
100
AcDbCircle
 62
7
  6
CONTINUOUS
 10
4.4400645958
 20
3.712940739
 40
0.0520652087
100
AcDbArc
 50
351.4968830703
 51
359.9770878274
  0
ARC
  5
2F4
100
AcDbEntity
  8
0
100
AcDbCircle
 62
7
  6
CONTINUOUS
 10
4.4381014495
 20
3.7539907334
 40
0.0520598416
100
AcDbArc
 50
357.7463150768
 51
359.2232737103
  0
ARC
  5
2F5
100
AcDbEntity
  8
0
100
AcDbCircle
 62
7
  6
CONTINUOUS
 10
4.4381512108
 20
3.7539896697
 40
0.0520100704
100
AcDbArc
 50
359.2237023296
 51
0.0023645922
  0
ARC
  5
2F6
100
AcDbEntity
  8
0
100
AcDbCircle
 62
7
  6
CONTINUOUS
 10
4.4401720093
 20
3.7129056355
 40
0.051957793
100
AcDbArc
 50
0.01575041
 51
7.4747149398
  0
ARC
  5
2F7
100
AcDbEntity
  8
0
100
AcDbCircle
 62
7
  6
CONTINUOUS
 10
4.7790383499
 20
4.3542983676
 40
0.5
100
AcDbArc
 50
102.10189671
 51
120.216771661
  0
ARC
  5
2F8
100
AcDbEntity
  8
0
100
AcDbCircle
 62
7
  6
CONTINUOUS
 10
4.6670333437
 20
4.8766755695
 40
0.03425
100
AcDbArc
 50
282.1017843077
 51
360.0
  0
ARC
  5
2F9
100
AcDbEntity
  8
0
100
AcDbCircle
 62
7
  6
CONTINUOUS
 10
4.514820429
 20
4.8079655256
 40
0.025
100
AcDbArc
 50
270.0000005617
 51
300.2167266191
  0
ARC
  5
2FA
100
AcDbEntity
  8
0
100
AcDbCircle
 62
7
  6
CONTINUOUS
 10
4.5708699578
 20
4.2222195729
 40
0.0049212598
100
AcDbArc
 50
271.7630298114
 51
360.0
  0
ARC
  5
2FB
100
AcDbEntity
  8
0
100
AcDbCircle
 62
9
  6
CONTINUOUS
 10
36.8939464031
 20
2.7642455662
 40
32.3005692345
100
AcDbArc
 50
176.6398997293
 51
177.8956060646
  0
SPLINE
  5
2FC
100
AcDbEntity
  8
0
100
AcDbSpline
 62
7
  6
CONTINUOUS
 70
0
 71
3
 72
9
 73
5
 74
0
 42
0.0000001
 43
0.0000001
 44
0.0000000001
 40
0.0
 40
0.0
 40
0.0
 40
0.0
 40
0.5050243508
 40
1.0
 40
1.0
 40
1.0
 40
1.0
 10
4.5019723201
 20
3.6984981924
 30
0.0
 10
4.5035731781
 20
3.6947005267
 30
0.0
 10
4.5060468869
 20
3.6868624887
 30
0.0
 10
4.5068935324
 20
3.6786807846
 30
0.0
 10
4.5068935324
 20
3.6746415002
 30
0.0
  0
SPLINE
  5
2FD
100
AcDbEntity
  8
0
100
AcDbSpline
 62
7
  6
CONTINUOUS
 70
0
 71
3
 72
9
 73
5
 74
0
 42
0.0000001
 43
0.0000001
 44
0.0000000001
 40
0.0
 40
0.0
 40
0.0
 40
0.0
 40
0.2450626519
 40
1.0
 40
1.0
 40
1.0
 40
1.0
 10
4.2755943153
 20
3.7337797092
 30
0.0
 10
4.2762290176
 20
3.7353149084
 30
0.0
 10
4.2790468533
 20
3.7414841009
 30
0.0
 10
4.2827474643
 20
3.7472391008
 30
0.0
 10
4.2859040417
 20
3.7512671892
 30
0.0
  0
SPLINE
  5
2FE
100
AcDbEntity
  8
0
100
AcDbSpline
 62
7
  6
CONTINUOUS
 70
0
 71
3
 72
9
 73
5
 74
0
 42
0.0000001
 43
0.0000001
 44
0.0000000001
 40
0.0
 40
0.0
 40
0.0
 40
0.0
 40
0.2557908943
 40
1.0
 40
1.0
 40
1.0
 40
1.0
 10
4.4918228611
 20
3.7510620753
 30
0.0
 10
4.4928744303
 20
3.7497114201
 30
0.0
 10
4.4968202851
 20
3.7443057903
 30
0.0
 10
4.5000695802
 20
3.7383821108
 30
0.0
 10
4.5019723689
 20
3.7337797194
 30
0.0
  0
SPLINE
  5
2FF
100
AcDbEntity
  8
0
100
AcDbSpline
 62
7
  6
CONTINUOUS
 70
0
 71
3
 72
9
 73
5
 74
0
 42
0.0000001
 43
0.0000001
 44
0.0000000001
 40
0.0
 40
0.0
 40
0.0
 40
0.0
 40
0.4949756492
 40
1.0
 40
1.0
 40
1.0
 40
1.0
 10
4.270673155
 20
3.6746415002
 30
0.0
 10
4.270673155
 20
3.6786807846
 30
0.0
 10
4.2715198004
 20
3.6868624887
 30
0.0
 10
4.2739935093
 20
3.6947005267
 30
0.0
 10
4.2755943673
 20
3.6984981924
 30
0.0
  0
SPLINE
  5
300
100
AcDbEntity
  8
0
100
AcDbSpline
 62
7
  6
CONTINUOUS
 70
0
 71
3
 72
14
 73
10
 74
0
 42
0.0000001
 43
0.0000001
 44
0.0000000001
 40
0.0
 40
0.0
 40
0.0
 40
0.0
 40
0.1060189552
 40
0.2151568614
 40
0.32992725
 40
0.4517998721
 40
0.5810486383
 40
0.7168470897
 40
1.0
 40
1.0
 40
1.0
 40
1.0
 10
4.5068935799
 20
3.6120040885
 30
0.0
 10
4.5068935799
 20
3.6063414957
 30
0.0
 10
4.5052716331
 20
3.594791555
 30
0.0
 10
4.4981927874
 20
3.5784525985
 30
0.0
 10
4.4869036781
 20
3.5636329801
 30
0.0
 10
4.4719625665
 20
3.5508431689
 30
0.0
 10
4.4539697203
 20
3.5404586998
 30
0.0
 10
4.4264829583
 20
3.5301140011
 30
0.0
 10
4.403906862
 20
3.5270461359
 30
0.0
 10
4.3887833437
 20
3.5270461359
 30
0.0
  0
SPLINE
  5
301
100
AcDbEntity
  8
0
100
AcDbSpline
 62
7
  6
CONTINUOUS
 70
0
 71
3
 72
14
 73
10
 74
0
 42
0.0000001
 43
0.0000001
 44
0.0000000001
 40
0.0
 40
0.0
 40
0.0
 40
0.0
 40
0.2831533517
 40
0.4189518104
 40
0.5482004443
 40
0.6700728629
 40
0.7848430617
 40
0.8939808823
 40
1.0
 40
1.0
 40
1.0
 40
1.0
 10
4.3887833437
 20
3.5270461359
 30
0.0
 10
4.3736598018
 20
3.5270461359
 30
0.0
 10
4.3510836812
 20
3.5301140119
 30
0.0
 10
4.3235969073
 20
3.5404587269
 30
0.0
 10
4.3056040823
 20
3.5508431974
 30
0.0
 10
4.2906629974
 20
3.5636329958
 30
0.0
 10
4.2793739057
 20
3.5784525941
 30
0.0
 10
4.2722950554
 20
3.5947915416
 30
0.0
 10
4.2706731075
 20
3.6063414871
 30
0.0
 10
4.2706731075
 20
3.6120040885
 30
0.0
  0
SPLINE
  5
302
100
AcDbEntity
  8
0
100
AcDbSpline
 62
9
  6
CONTINUOUS
 70
0
 71
3
 72
12
 73
8
 74
0
 42
0.0000001
 43
0.0000001
 44
0.0000000001
 40
0.0
 40
0.0
 40
0.0
 40
0.0
 40
0.2681317485
 40
0.3997713358
 40
0.5284676779
 40
0.773676196
 40
1.0
 40
1.0
 40
1.0
 40
1.0
 10
4.3887833437
 20
3.6259235133
 30
0.0
 10
4.3790391246
 20
3.6259235133
 30
0.0
 10
4.3644650961
 20
3.627192594
 30
0.0
 10
4.3457148239
 20
3.6314430179
 30
0.0
 10
4.3282353084
 20
3.6371772578
 30
0.0
 10
4.308569023
 20
3.6469690953
 30
0.0
 10
4.2951793152
 20
3.6579972175
 30
0.0
 10
4.2896262064
 20
3.6640644629
 30
0.0
  0
SPLINE
  5
303
100
AcDbEntity
  8
0
100
AcDbSpline
 62
9
  6
CONTINUOUS
 70
0
 71
3
 72
9
 73
5
 74
0
 42
0.0000001
 43
0.0000001
 44
0.0000000001
 40
0.0
 40
0.0
 40
0.0
 40
0.0
 40
0.5112508885
 40
1.0
 40
1.0
 40
1.0
 40
1.0
 10
4.2893479575
 20
3.6643699302
 30
0.0
 10
4.2864438932
 20
3.6675733763
 30
0.0
 10
4.2812220211
 20
3.6742770459
 30
0.0
 10
4.2771999851
 20
3.681774413
 30
0.0
 10
4.2755943673
 20
3.6855833701
 30
0.0
  0
SPLINE
  5
304
100
AcDbEntity
  8
0
100
AcDbSpline
 62
9
  6
CONTINUOUS
 70
0
 71
3
 72
13
 73
9
 74
0
 42
0.0000001
 43
0.0000001
 44
0.0000000001
 40
0.0
 40
0.0
 40
0.0
 40
0.0
 40
0.1055517987
 40
0.2167815785
 40
0.3344150011
 40
0.4584742867
 40
0.722547812
 40
1.0
 40
1.0
 40
1.0
 40
1.0
 10
4.2994725647
 20
3.556293285
 30
0.0
 10
4.3009597068
 20
3.5528726367
 30
0.0
 10
4.3047700293
 20
3.5461578098
 30
0.0
 10
4.3124640182
 20
3.537111607
 30
0.0
 10
4.3220599025
 20
3.5290610608
 30
0.0
 10
4.3373667221
 20
3.5197268968
 30
0.0
 10
4.3597774188
 20
3.5117541725
 30
0.0
 10
4.3789788772
 20
3.5096415775
 30
0.0
 10
4.3887833437
 20
3.5096415775
 30
0.0
  0
SPLINE
  5
305
100
AcDbEntity
  8
0
100
AcDbSpline
 62
7
  6
CONTINUOUS
 70
0
 71
3
 72
9
 73
5
 74
0
 42
0.0000001
 43
0.0000001
 44
0.0000000001
 40
0.0
 40
0.0
 40
0.0
 40
0.0
 40
0.5050243508
 40
1.0
 40
1.0
 40
1.0
 40
1.0
 10
4.2755943673
 20
3.650784808
 30
0.0
 10
4.2739935093
 20
3.6545824737
 30
0.0
 10
4.2715198004
 20
3.6624205117
 30
0.0
 10
4.270673155
 20
3.6706022158
 30
0.0
 10
4.270673155
 20
3.6746415002
 30
0.0
  0
SPLINE
  5
306
100
AcDbEntity
  8
0
100
AcDbSpline
 62
9
  6
CONTINUOUS
 70
0
 71
3
 72
9
 73
5
 74
0
 42
0.0000001
 43
0.0000001
 44
0.0000000001
 40
0.0
 40
0.0
 40
0.0
 40
0.0
 40
0.2370385477
 40
1.0
 40
1.0
 40
1.0
 40
1.0
 10
4.328855439
 20
3.5387336449
 30
0.0
 10
4.3330064949
 20
3.5360371593
 30
0.0
 10
4.3515001705
 20
3.5261943091
 30
0.0
 10
4.3728507294
 20
3.5222237983
 30
0.0
 10
4.3887833437
 20
3.5222237983
 30
0.0
  0
SPLINE
  5
307
100
AcDbEntity
  8
0
100
AcDbSpline
 62
9
  6
CONTINUOUS
 70
0
 71
3
 72
10
 73
6
 74
0
 42
0.0000001
 43
0.0000001
 44
0.0000000001
 40
0.0
 40
0.0
 40
0.0
 40
0.0
 40
0.2428297764
 40
0.4888615182
 40
1.0
 40
1.0
 40
1.0
 40
1.0
 10
4.2755943673
 20
3.7129199143
 30
0.0
 10
4.275594367
 20
3.7159991507
 30
0.0
 10
4.2761058165
 20
3.7222113107
 30
0.0
 10
4.2791705723
 20
3.7345570536
 30
0.0
 10
4.2836933331
 20
3.7432348234
 30
0.0
 10
4.2874202741
 20
3.7485377051
 30
0.0
  0
SPLINE
  5
308
100
AcDbEntity
  8
0
100
AcDbSpline
 62
9
  6
CONTINUOUS
 70
0
 71
3
 72
9
 73
5
 74
0
 42
0.0000001
 43
0.0000001
 44
0.0000000001
 40
0.0
 40
0.0
 40
0.0
 40
0.0
 40
0.5102239441
 40
1.0
 40
1.0
 40
1.0
 40
1.0
 10
4.4919808503
 20
3.7457985526
 30
0.0
 10
4.4951537149
 20
3.740818956
 30
0.0
 10
4.5001905119
 20
3.7302212321
 30
0.0
 10
4.5019723198
 20
3.7185878191
 30
0.0
 10
4.5019723201
 20
3.7129199226
 30
0.0
  0
SPLINE
  5
309
100
AcDbEntity
  8
0
100
AcDbSpline
 62
9
  6
CONTINUOUS
 70
0
 71
3
 72
9
 73
5
 74
0
 42
0.0000001
 43
0.0000001
 44
0.0000000001
 40
0.0
 40
0.0
 40
0.0
 40
0.0
 40
0.4899842776
 40
1.0
 40
1.0
 40
1.0
 40
1.0
 10
4.5019723201
 20
3.7129199226
 30
0.0
 10
4.5019723206
 20
3.7073157328
 30
0.0
 10
4.5002320929
 20
3.6958191378
 30
0.0
 10
4.4953057174
 20
3.6853238441
 30
0.0
 10
4.4921993814
 20
3.6803864302
 30
0.0
  0
SPLINE
  5
30A
100
AcDbEntity
  8
0
100
AcDbSpline
 62
9
  6
CONTINUOUS
 70
0
 71
3
 72
11
 73
7
 74
0
 42
0.0000001
 43
0.0000001
 44
0.0000000001
 40
0.0
 40
0.0
 40
0.0
 40
0.0
 40
0.226491172
 40
0.4692037108
 40
0.7278627221
 40
1.0
 40
1.0
 40
1.0
 40
1.0
 10
4.4917405507
 20
3.6796667264
 30
0.0
 10
4.4885519252
 20
3.6747304018
 30
0.0
 10
4.4806688463
 20
3.6652957569
 30
0.0
 10
4.4657526527
 20
3.6535360732
 30
0.0
 10
4.4479424057
 20
3.6440815806
 30
0.0
 10
4.4348435804
 20
3.6396287486
 30
0.0
 10
4.4280119204
 20
3.6378439023
 30
0.0
  0
SPLINE
  5
30B
100
AcDbEntity
  8
0
100
AcDbSpline
 62
9
  6
CONTINUOUS
 70
0
 71
3
 72
9
 73
5
 74
0
 42
0.0000001
 43
0.0000001
 44
0.0000000001
 40
0.0
 40
0.0
 40
0.0
 40
0.0
 40
0.2471976889
 40
1.0
 40
1.0
 40
1.0
 40
1.0
 10
4.4258761128
 20
3.63730302
 30
0.0
 10
4.4228880417
 20
3.63657009
 30
0.0
 10
4.4107098464
 20
3.6339838439
 30
0.0
 10
4.3982206181
 20
3.6328872099
 30
0.0
 10
4.3888511671
 20
3.6328832401
 30
0.0
  0
SPLINE
  5
30C
100
AcDbEntity
  8
0
100
AcDbSpline
 62
9
  6
CONTINUOUS
 70
0
 71
3
 72
11
 73
7
 74
0
 42
0.0000001
 43
0.0000001
 44
0.0000000001
 40
0.0
 40
0.0
 40
0.0
 40
0.0
 40
0.2714706704
 40
0.5331871817
 40
0.7773130138
 40
1.0
 40
1.0
 40
1.0
 40
1.0
 10
4.3888511671
 20
3.6328832401
 30
0.0
 10
4.3786269279
 20
3.6328789081
 30
0.0
 10
4.3584890493
 20
3.6347865949
 30
0.0
 10
4.3302571586
 20
3.6432745135
 30
0.0
 10
4.3061125469
 20
3.6568016833
 30
0.0
 10
4.2933010341
 20
3.6692688443
 30
0.0
 10
4.2883358348
 20
3.6760280878
 30
0.0
  0
LINE
  5
30D
100
AcDbEntity
  8
0
100
AcDbLine
 62
9
  6
CONTINUOUS
 10
4.2883358348
 20
3.6760280878
 11
4.2881953313
 21
3.6762199911
  0
SPLINE
  5
30E
100
AcDbEntity
  8
0
100
AcDbSpline
 62
9
  6
CONTINUOUS
 70
0
 71
3
 72
10
 73
6
 74
0
 42
0.0000001
 43
0.0000001
 44
0.0000000001
 40
0.0
 40
0.0
 40
0.0
 40
0.0
 40
0.5117998708
 40
0.7575977452
 40
1.0
 40
1.0
 40
1.0
 40
1.0
 10
4.2881953313
 20
3.6762199911
 30
0.0
 10
4.28423665
 20
3.6816447757
 30
0.0
 10
4.2794138816
 20
3.6905666235
 30
0.0
 10
4.2761405661
 20
3.703318935
 30
0.0
 10
4.2755943675
 20
3.7097392189
 30
0.0
 10
4.2755943673
 20
3.7129199143
 30
0.0
  0
SPLINE
  5
30F
100
AcDbEntity
  8
0
100
AcDbSpline
 62
7
  6
CONTINUOUS
 70
0
 71
3
 72
13
 73
9
 74
0
 42
0.0000001
 43
0.0000001
 44
0.0000000001
 40
0.0
 40
0.0
 40
0.0
 40
0.0
 40
0.2786901692
 40
0.543215433
 40
0.6670958357
 40
0.784300746
 40
0.8949655622
 40
1.0
 40
1.0
 40
1.0
 40
1.0
 10
4.3887833437
 20
3.6398429381
 30
0.0
 10
4.3999264223
 20
3.6398429381
 30
0.0
 10
4.4217239829
 20
3.6423095116
 30
0.0
 10
4.4470690502
 20
3.6516073641
 30
0.0
 10
4.4641956118
 20
3.6624775722
 30
0.0
 10
4.4747954456
 20
3.6718228155
 30
0.0
 10
4.4831289281
 20
3.6822948371
 30
0.0
 10
4.4870994886
 20
3.6900346059
 30
0.0
 10
4.4885909902
 20
3.6939605018
 30
0.0
  0
SPLINE
  5
310
100
AcDbEntity
  8
0
100
AcDbSpline
 62
7
  6
CONTINUOUS
 70
0
 71
3
 72
9
 73
5
 74
0
 42
0.0000001
 43
0.0000001
 44
0.0000000001
 40
0.0
 40
0.0
 40
0.0
 40
0.0
 40
0.2525849562
 40
1.0
 40
1.0
 40
1.0
 40
1.0
 10
4.4888616594
 20
3.694687865
 30
0.0
 10
4.4891759341
 20
3.6955504144
 30
0.0
 10
4.4903371722
 20
3.6989948649
 30
0.0
 10
4.4911562388
 20
3.7025555295
 30
0.0
 10
4.4915574944
 20
3.7052422099
 30
0.0
  0
SPLINE
  5
311
100
AcDbEntity
  8
0
100
AcDbSpline
 62
7
  6
CONTINUOUS
 70
0
 71
3
 72
9
 73
5
 74
0
 42
0.0000001
 43
0.0000001
 44
0.0000000001
 40
0.0
 40
0.0
 40
0.0
 40
0.0
 40
0.4949756492
 40
1.0
 40
1.0
 40
1.0
 40
1.0
 10
4.5068935324
 20
3.6746415002
 30
0.0
 10
4.5068935324
 20
3.6706022158
 30
0.0
 10
4.5060468869
 20
3.6624205117
 30
0.0
 10
4.5035731781
 20
3.6545824737
 30
0.0
 10
4.5019723201
 20
3.650784808
 30
0.0
  0
SPLINE
  5
312
100
AcDbEntity
  8
0
100
AcDbSpline
 62
9
  6
CONTINUOUS
 70
0
 71
3
 72
13
 73
9
 74
0
 42
0.0000001
 43
0.0000001
 44
0.0000000001
 40
0.0
 40
0.0
 40
0.0
 40
0.0
 40
0.2774498098
 40
0.54152404
 40
0.6655841572
 40
0.7832182415
 40
0.8944483096
 40
1.0
 40
1.0
 40
1.0
 40
1.0
 10
4.3887833437
 20
3.5096391129
 30
0.0
 10
4.3985880177
 20
3.5096391129
 30
0.0
 10
4.4177895964
 20
3.5117552549
 30
0.0
 10
4.4402010285
 20
3.5197271807
 30
0.0
 10
4.4555081988
 20
3.5290620703
 30
0.0
 10
4.4651042385
 20
3.5371130929
 30
0.0
 10
4.47279819
 20
3.5461598491
 30
0.0
 10
4.4766083131
 20
3.5528750667
 30
0.0
 10
4.4780953269
 20
3.5562958876
 30
0.0
  0
SPLINE
  5
313
100
AcDbEntity
  8
0
100
AcDbSpline
 62
7
  6
CONTINUOUS
 70
0
 71
3
 72
13
 73
9
 74
0
 42
0.0000001
 43
0.0000001
 44
0.0000000001
 40
0.0
 40
0.0
 40
0.0
 40
0.0
 40
0.1040138243
 40
0.2133216418
 40
0.3293991825
 40
0.4527397222
 40
0.7182436583
 40
1.0
 40
1.0
 40
1.0
 40
1.0
 10
4.286953817
 20
3.700445075
 30
0.0
 10
4.2879990067
 20
3.6961788911
 30
0.0
 10
4.2912334549
 20
3.6876673525
 30
0.0
 10
4.2989836497
 20
3.6760003981
 30
0.0
 10
4.3094443556
 20
3.6655117091
 30
0.0
 10
4.3269691257
 20
3.6532098073
 30
0.0
 10
4.3536808848
 20
3.6426413598
 30
0.0
 10
4.3768851874
 20
3.6398429381
 30
0.0
 10
4.3887833437
 20
3.6398429381
 30
0.0
  0
SPLINE
  5
314
100
AcDbEntity
  8
0
100
AcDbSpline
 62
9
  6
CONTINUOUS
 70
0
 71
3
 72
9
 73
5
 74
0
 42
0.0000001
 43
0.0000001
 44
0.0000000001
 40
0.0
 40
0.0
 40
0.0
 40
0.0
 40
0.2618563742
 40
1.0
 40
1.0
 40
1.0
 40
1.0
 10
4.3887833437
 20
3.5222237983
 30
0.0
 10
4.3942490808
 20
3.5222237983
 30
0.0
 10
4.4150661068
 20
3.5235717067
 30
0.0
 10
4.4357938387
 20
3.5303419017
 30
0.0
 10
4.4487140786
 20
3.5387354833
 30
0.0
  0
SPLINE
  5
315
100
AcDbEntity
  8
0
100
AcDbSpline
 62
9
  6
CONTINUOUS
 70
0
 71
3
 72
14
 73
10
 74
0
 42
0.0000001
 43
0.0000001
 44
0.0000000001
 40
0.0
 40
0.0
 40
0.0
 40
0.0
 40
0.2844670318
 40
0.4210951606
 40
0.5512369464
 40
0.6737925593
 40
0.7885921724
 40
0.8966047266
 40
1.0
 40
1.0
 40
1.0
 40
1.0
 10
4.3888508597
 20
3.5284875532
 30
0.0
 10
4.403308156
 20
3.5284933969
 30
0.0
 10
4.4248757148
 20
3.5312716656
 30
0.0
 10
4.4513664174
 20
3.5406108237
 30
0.0
 10
4.4688945414
 20
3.5499817863
 30
0.0
 10
4.4837177765
 20
3.5615084292
 30
0.0
 10
4.4953260053
 20
3.5748438559
 30
0.0
 10
4.5032729082
 20
3.5895590395
 30
0.0
 10
4.5059252689
 20
3.6001159283
 30
0.0
 10
4.5065166698
 20
3.6053373387
 30
0.0
  0
SPLINE
  5
316
100
AcDbEntity
  8
0
100
AcDbSpline
 62
9
  6
CONTINUOUS
 70
0
 71
3
 72
9
 73
5
 74
0
 42
0.0000001
 43
0.0000001
 44
0.0000000001
 40
0.0
 40
0.0
 40
0.0
 40
0.0
 40
0.2437424262
 40
1.0
 40
1.0
 40
1.0
 40
1.0
 10
4.5019723201
 20
3.6855833701
 30
0.0
 10
4.5013245887
 20
3.6840467772
 30
0.0
 10
4.4984302352
 20
3.6778435841
 30
0.0
 10
4.4946204647
 20
3.6720802482
 30
0.0
 10
4.4913716158
 20
3.6680536273
 30
0.0
  0
SPLINE
  5
317
100
AcDbEntity
  8
0
100
AcDbSpline
 62
9
  6
CONTINUOUS
 70
0
 71
3
 72
12
 73
8
 74
0
 42
0.0000001
 43
0.0000001
 44
0.0000000001
 40
0.0
 40
0.0
 40
0.0
 40
0.0
 40
0.2244681228
 40
0.4691094993
 40
0.5980678427
 40
0.730261326
 40
1.0
 40
1.0
 40
1.0
 40
1.0
 10
4.4908791388
 20
3.6674491298
 30
0.0
 10
4.4854886654
 20
3.6608959359
 30
0.0
 10
4.4720830915
 20
3.6489033707
 30
0.0
 10
4.4519357402
 20
3.638249236
 30
0.0
 10
4.4338419475
 20
3.6319847202
 30
0.0
 10
4.414297069
 20
3.6273230024
 30
0.0
 10
4.3990508112
 20
3.6259278487
 30
0.0
 10
4.3888541159
 20
3.6259235283
 30
0.0
  0
SPLINE
  5
318
100
AcDbEntity
  8
0
100
AcDbSpline
 62
9
  6
CONTINUOUS
 70
0
 71
3
 72
14
 73
10
 74
0
 42
0.0000001
 43
0.0000001
 44
0.0000000001
 40
0.0
 40
0.0
 40
0.0
 40
0.0
 40
0.103362636
 40
0.2104787945
 40
0.3242053899
 40
0.4460290016
 40
0.5760499927
 40
0.7132109583
 40
1.0
 40
1.0
 40
1.0
 40
1.0
 10
4.2706732623
 20
3.6120040885
 30
0.0
 10
4.2706732643
 20
3.6065205723
 30
0.0
 10
4.2722644878
 20
3.5952975345
 30
0.0
 10
4.2792280117
 20
3.5793717895
 30
0.0
 10
4.2903983183
 20
3.5648290736
 30
0.0
 10
4.3052715163
 20
3.5521913214
 30
0.0
 10
4.3232689605
 20
3.5418744581
 30
0.0
 10
4.3508788379
 20
3.5315496648
 30
0.0
 10
4.373568829
 20
3.5284875395
 30
0.0
 10
4.3887833437
 20
3.5284875395
 30
0.0
  0
SPLINE
  5
319
100
AcDbEntity
  8
0
100
AcDbSpline
 62
9
  6
CONTINUOUS
 70
0
 71
3
 72
18
 73
14
 74
0
 42
0.0000001
 43
0.0000001
 44
0.0000000001
 40
0.0
 40
0.0
 40
0.0
 40
0.0
 40
0.0046520706
 40
0.0185793462
 40
0.0416616991
 40
0.0737181917
 40
0.1144853757
 40
0.1636353149
 40
0.2854258199
 40
0.4351543393
 40
0.6079809256
 40
0.7983159392
 40
1.0
 40
1.0
 40
1.0
 40
1.0
 10
3.6062957113
 20
4.7672628589
 30
0.0
 10
3.6052404564
 20
4.767217607
 30
0.0
 10
3.6145935311
 20
4.7674234834
 30
0.0
 10
3.6191066089
 20
4.7674153135
 30
0.0
 10
3.6375863807
 20
4.7677111387
 30
0.0
 10
3.658134916
 20
4.7679692192
 30
0.0
 10
3.6862931973
 20
4.7683424467
 30
0.0
 10
3.7341397284
 20
4.7689345666
 30
0.0
 10
3.8070781281
 20
4.7697678815
 30
0.0
 10
3.9079027796
 20
4.7707468807
 30
0.0
 10
4.0243669307
 20
4.7716478312
 30
0.0
 10
4.1526039283
 20
4.7723521941
 30
0.0
 10
4.2416106331
 20
4.7726263037
 30
0.0
 10
4.287401711
 20
4.7727102278
 30
0.0
  0
LINE
  5
31A
100
AcDbEntity
  8
0
100
AcDbLine
 62
9
  6
CONTINUOUS
 10
4.8675240197
 20
4.7707292851
 11
4.8733970082
 21
4.7706780915
  0
LINE
  5
31B
100
AcDbEntity
  8
0
100
AcDbLine
 62
9
  6
CONTINUOUS
 10
4.8733970082
 20
4.7706780915
 11
4.8828611259
 21
4.770594276
  0
LINE
  5
31C
100
AcDbEntity
  8
0
100
AcDbLine
 62
9
  6
CONTINUOUS
 10
4.8828611259
 20
4.770594276
 11
4.8887183164
 21
4.7705415898
  0
LINE
  5
31D
100
AcDbEntity
  8
0
100
AcDbLine
 62
9
  6
CONTINUOUS
 10
4.8887183164
 20
4.7705415898
 11
4.8970062524
 21
4.7704659765
  0
LINE
  5
31E
100
AcDbEntity
  8
0
100
AcDbLine
 62
9
  6
CONTINUOUS
 10
4.8970062524
 20
4.7704659765
 11
4.9016023486
 21
4.7704235089
  0
LINE
  5
31F
100
AcDbEntity
  8
0
100
AcDbLine
 62
9
  6
CONTINUOUS
 10
4.9016023486
 20
4.7704235089
 11
4.9110460592
 21
4.7703350505
  0
LINE
  5
320
100
AcDbEntity
  8
0
100
AcDbLine
 62
9
  6
CONTINUOUS
 10
4.9110460592
 20
4.7703350505
 11
4.9180426382
 21
4.7702684745
  0
LINE
  5
321
100
AcDbEntity
  8
0
100
AcDbLine
 62
9
  6
CONTINUOUS
 10
4.9180426382
 20
4.7702684745
 11
4.9227024799
 21
4.770223643
  0
LINE
  5
322
100
AcDbEntity
  8
0
100
AcDbLine
 62
9
  6
CONTINUOUS
 10
4.9227024799
 20
4.770223643
 11
4.9392209999
 21
4.7700615616
  0
LINE
  5
323
100
AcDbEntity
  8
0
100
AcDbLine
 62
9
  6
CONTINUOUS
 10
4.9392209999
 20
4.7700615616
 11
4.9403872627
 21
4.7700499318
  0
LINE
  5
324
100
AcDbEntity
  8
0
100
AcDbLine
 62
9
  6
CONTINUOUS
 10
4.9403872627
 20
4.7700499318
 11
4.9438669823
 21
4.7700150866
  0
LINE
  5
325
100
AcDbEntity
  8
0
100
AcDbLine
 62
9
  6
CONTINUOUS
 10
4.9438669823
 20
4.7700150866
 11
4.9450222202
 21
4.7700034699
  0
LINE
  5
326
100
AcDbEntity
  8
0
100
AcDbLine
 62
9
  6
CONTINUOUS
 10
4.9450222202
 20
4.7700034699
 11
4.9461741561
 21
4.7699918624
  0
LINE
  5
327
100
AcDbEntity
  8
0
100
AcDbLine
 62
9
  6
CONTINUOUS
 10
4.9461741561
 20
4.7699918624
 11
4.9473432731
 21
4.7699800572
  0
LINE
  5
328
100
AcDbEntity
  8
0
100
AcDbLine
 62
9
  6
CONTINUOUS
 10
4.9473432731
 20
4.7699800572
 11
4.9497206527
 21
4.7699559755
  0
LINE
  5
329
100
AcDbEntity
  8
0
100
AcDbLine
 62
9
  6
CONTINUOUS
 10
4.9497206527
 20
4.7699559755
 11
4.9532978975
 21
4.769919547
  0
LINE
  5
32A
100
AcDbEntity
  8
0
100
AcDbLine
 62
9
  6
CONTINUOUS
 10
4.9532978975
 20
4.769919547
 11
4.9544851315
 21
4.7699074059
  0
LINE
  5
32B
100
AcDbEntity
  8
0
100
AcDbLine
 62
9
  6
CONTINUOUS
 10
4.9544851315
 20
4.7699074059
 11
4.9556719083
 21
4.7698952439
  0
LINE
  5
32C
100
AcDbEntity
  8
0
100
AcDbLine
 62
9
  6
CONTINUOUS
 10
4.9556719083
 20
4.7698952439
 11
4.9650448755
 21
4.7697982951
  0
LINE
  5
32D
100
AcDbEntity
  8
0
100
AcDbLine
 62
9
  6
CONTINUOUS
 10
4.9650448755
 20
4.7697982951
 11
4.9709469958
 21
4.7697364306
  0
LINE
  5
32E
100
AcDbEntity
  8
0
100
AcDbLine
 62
9
  6
CONTINUOUS
 10
4.9709469958
 20
4.7697364306
 11
4.9720106547
 21
4.7697252145
  0
LINE
  5
32F
100
AcDbEntity
  8
0
100
AcDbLine
 62
9
  6
CONTINUOUS
 10
4.9720106547
 20
4.7697252145
 11
4.975599283
 21
4.7696872218
  0
LINE
  5
330
100
AcDbEntity
  8
0
100
AcDbLine
 62
9
  6
CONTINUOUS
 10
4.975599283
 20
4.7696872218
 11
4.993128131
 21
4.7694982912
  0
LINE
  5
331
100
AcDbEntity
  8
0
100
AcDbLine
 62
9
  6
CONTINUOUS
 10
4.993128131
 20
4.7694982912
 11
4.9934840606
 21
4.7694943972
  0
LINE
  5
332
100
AcDbEntity
  8
0
100
AcDbLine
 62
9
  6
CONTINUOUS
 10
4.9934840606
 20
4.7694943972
 11
5.0108198704
 21
4.7693019592
  0
LINE
  5
333
100
AcDbEntity
  8
0
100
AcDbLine
 62
9
  6
CONTINUOUS
 10
5.0108198704
 20
4.7693019592
 11
5.0142644586
 21
4.7692630738
  0
LINE
  5
334
100
AcDbEntity
  8
0
100
AcDbLine
 62
9
  6
CONTINUOUS
 10
5.0142644586
 20
4.7692630738
 11
5.0148224547
 21
4.7692567545
  0
LINE
  5
335
100
AcDbEntity
  8
0
100
AcDbLine
 62
9
  6
CONTINUOUS
 10
5.0148224547
 20
4.7692567545
 11
5.0214301537
 21
4.769181493
  0
LINE
  5
336
100
AcDbEntity
  8
0
100
AcDbLine
 62
9
  6
CONTINUOUS
 10
5.0214301537
 20
4.769181493
 11
5.1712709761
 21
4.7672628589
  0
SPLINE
  5
337
100
AcDbEntity
  8
0
100
AcDbSpline
 62
9
  6
CONTINUOUS
 70
0
 71
3
 72
19
 73
15
 74
0
 42
0.0000001
 43
0.0000001
 44
0.0000000001
 40
0.0
 40
0.0
 40
0.0
 40
0.0
 40
0.0045002364
 40
0.0101203324
 40
0.0179747857
 40
0.0403320078
 40
0.0714263329
 40
0.1110541732
 40
0.1589525997
 40
0.2782563303
 40
0.4262060276
 40
0.5989210055
 40
0.7918724568
 40
1.0
 40
1.0
 40
1.0
 40
1.0
 10
5.2253970015
 20
4.821387819
 30
0.0
 10
5.2244830133
 20
4.8214445898
 30
0.0
 10
5.2224211627
 20
4.8214013388
 30
0.0
 10
5.2187651752
 20
4.8214859051
 30
0.0
 10
5.2114736427
 20
4.8215606882
 30
0.0
 10
5.1990001554
 20
4.8217375302
 30
0.0
 10
5.1800607537
 20
4.8219705767
 30
0.0
 10
5.1559246893
 20
4.8222714992
 30
0.0
 10
5.1138399598
 20
4.8227721449
 30
0.0
 10
5.0497139404
 20
4.8234861737
 30
0.0
 10
4.9601894008
 20
4.8243659494
 30
0.0
 10
4.8556776021
 20
4.8252317992
 30
0.0
 10
4.738919136
 20
4.8259928238
 30
0.0
 10
4.65730468
 20
4.8263667961
 30
0.0
 10
4.6149532418
 20
4.8265182809
 30
0.0
  0
LINE
  5
338
100
AcDbEntity
  8
0
100
AcDbLine
 62
9
  6
CONTINUOUS
 10
3.5667466432
 20
4.8215789836
 11
3.5521696862
 21
4.8213878012
  0
SPLINE
  5
339
100
AcDbEntity
  8
0
100
AcDbSpline
 62
7
  6
CONTINUOUS
 70
0
 71
3
 72
9
 73
5
 74
0
 42
0.0000001
 43
0.0000001
 44
0.0000000001
 40
0.0
 40
0.0
 40
0.0
 40
0.0
 40
0.2445113238
 40
1.0
 40
1.0
 40
1.0
 40
1.0
 10
4.4886369275
 20
3.7067663
 30
0.0
 10
4.4882313675
 20
3.7050851342
 30
0.0
 10
4.4862559771
 20
3.6982873436
 30
0.0
 10
4.4830233891
 20
3.6918752073
 30
0.0
 10
4.4800729963
 20
3.6874201278
 30
0.0
  0
LINE
  5
33A
100
AcDbEntity
  8
0
100
AcDbLine
 62
7
  6
CONTINUOUS
 10
4.4800729963
 20
3.6874201278
 11
4.4799604595
 21
3.6872507449
  0
SPLINE
  5
33B
100
AcDbEntity
  8
0
100
AcDbSpline
 62
7
  6
CONTINUOUS
 70
0
 71
3
 72
11
 73
7
 74
0
 42
0.0000001
 43
0.0000001
 44
0.0000000001
 40
0.0
 40
0.0
 40
0.0
 40
0.0
 40
0.2236211962
 40
0.4679938478
 40
0.7294391468
 40
1.0
 40
1.0
 40
1.0
 40
1.0
 10
4.4799604595
 20
3.6872507449
 30
0.0
 10
4.4756549394
 20
3.6807911918
 30
0.0
 10
4.4642955823
 20
3.668776209
 30
0.0
 10
4.4424323788
 20
3.6555445325
 30
0.0
 10
4.4166568611
 20
3.6470145582
 30
0.0
 10
4.3981739235
 20
3.6448433146
 30
0.0
 10
4.3887833437
 20
3.6446562555
 30
0.0
  0
SPLINE
  5
33C
100
AcDbEntity
  8
0
100
AcDbSpline
 62
7
  6
CONTINUOUS
 70
0
 71
3
 72
9
 73
5
 74
0
 42
0.0000001
 43
0.0000001
 44
0.0000000001
 40
0.0
 40
0.0
 40
0.0
 40
0.0
 40
0.2440030886
 40
1.0
 40
1.0
 40
1.0
 40
1.0
 10
4.4398335113
 20
3.6807219351
 30
0.0
 10
4.4359272763
 20
3.6790235396
 30
0.0
 10
4.4195522333
 20
3.6729224557
 30
0.0
 10
4.4019779776
 20
3.6701704214
 30
0.0
 10
4.3887833437
 20
3.6699100691
 30
0.0
  0
SPLINE
  5
33D
100
AcDbEntity
  8
0
100
AcDbSpline
 62
7
  6
CONTINUOUS
 70
0
 71
3
 72
9
 73
5
 74
0
 42
0.0000001
 43
0.0000001
 44
0.0000000001
 40
0.0
 40
0.0
 40
0.0
 40
0.0
 40
0.4759616253
 40
1.0
 40
1.0
 40
1.0
 40
1.0
 10
4.4696088559
 20
3.7100507471
 30
0.0
 10
4.4595514176
 20
3.7004871569
 30
0.0
 10
4.4333531966
 20
3.6856581596
 30
0.0
 10
4.4040626254
 20
3.6807564496
 30
0.0
 10
4.3887833437
 20
3.6805695176
 30
0.0
  0
SPLINE
  5
33E
100
AcDbEntity
  8
0
100
AcDbSpline
 62
7
  6
CONTINUOUS
 70
0
 71
3
 72
9
 73
5
 74
0
 42
0.0000001
 43
0.0000001
 44
0.0000000001
 40
0.0
 40
0.0
 40
0.0
 40
0.0
 40
0.2445145408
 40
1.0
 40
1.0
 40
1.0
 40
1.0
 10
4.4886369275
 20
3.7193932067
 30
0.0
 10
4.4882315616
 20
3.7177128455
 30
0.0
 10
4.4862572935
 20
3.7109183614
 30
0.0
 10
4.483027037
 20
3.7045091093
 30
0.0
 10
4.4800787912
 20
3.7000557869
 30
0.0
  0
LINE
  5
33F
100
AcDbEntity
  8
0
100
AcDbLine
 62
7
  6
CONTINUOUS
 10
4.4800787912
 20
3.7000557869
 11
4.4799604594
 21
3.6998776523
  0
SPLINE
  5
340
100
AcDbEntity
  8
0
100
AcDbSpline
 62
7
  6
CONTINUOUS
 70
0
 71
3
 72
9
 73
5
 74
0
 42
0.0000001
 43
0.0000001
 44
0.0000000001
 40
0.0
 40
0.0
 40
0.0
 40
0.0
 40
0.4803434293
 40
1.0
 40
1.0
 40
1.0
 40
1.0
 10
4.4799604594
 20
3.6998776523
 30
0.0
 10
4.4762234356
 20
3.6942710116
 30
0.0
 10
4.4666892561
 20
3.6837257561
 30
0.0
 10
4.4549656881
 20
3.6758012987
 30
0.0
 10
4.4485534787
 20
3.6723344811
 30
0.0
  0
SPLINE
  5
341
100
AcDbEntity
  8
0
100
AcDbSpline
 62
7
  6
CONTINUOUS
 70
0
 71
3
 72
9
 73
5
 74
0
 42
0.0000001
 43
0.0000001
 44
0.0000000001
 40
0.0
 40
0.0
 40
0.0
 40
0.0
 40
0.2431492956
 40
1.0
 40
1.0
 40
1.0
 40
1.0
 10
4.4426861718
 20
3.6693829824
 30
0.0
 10
4.4386129612
 20
3.6674797697
 30
0.0
 10
4.4214136999
 20
3.6606289498
 30
0.0
 10
4.4027750391
 20
3.6575601433
 30
0.0
 10
4.3887833437
 20
3.6572831623
 30
0.0
  0
SPLINE
  5
342
100
AcDbEntity
  8
0
100
AcDbSpline
 62
7
  6
CONTINUOUS
 70
0
 71
3
 72
10
 73
6
 74
0
 42
0.0000001
 43
0.0000001
 44
0.0000000001
 40
0.0
 40
0.0
 40
0.0
 40
0.0
 40
0.2748457568
 40
0.5385980192
 40
1.0
 40
1.0
 40
1.0
 40
1.0
 10
4.3887833437
 20
3.6805695176
 30
0.0
 10
4.3794460166
 20
3.6804552815
 30
0.0
 10
4.3610351449
 20
3.682029279
 30
0.0
 10
4.3284030472
 20
3.6915226505
 30
0.0
 10
4.3067897508
 20
3.706436362
 30
0.0
 10
4.2977308473
 20
3.7192302991
 30
0.0
  0
SPLINE
  5
343
100
AcDbEntity
  8
0
100
AcDbSpline
 62
7
  6
CONTINUOUS
 70
0
 71
3
 72
9
 73
5
 74
0
 42
0.0000001
 43
0.0000001
 44
0.0000000001
 40
0.0
 40
0.0
 40
0.0
 40
0.0
 40
0.2584072961
 40
1.0
 40
1.0
 40
1.0
 40
1.0
 10
4.2977308473
 20
3.7192302991
 30
0.0
 10
4.296703709
 20
3.7206809318
 30
0.0
 10
4.2929609504
 20
3.7264529173
 30
0.0
 10
4.2902240313
 20
3.7328965977
 30
0.0
 10
4.288959292
 20
3.7378383712
 30
0.0
  0
SPLINE
  5
344
100
AcDbEntity
  8
0
100
AcDbSpline
 62
7
  6
CONTINUOUS
 70
0
 71
3
 72
10
 73
6
 74
0
 42
0.0000001
 43
0.0000001
 44
0.0000000001
 40
0.0
 40
0.0
 40
0.0
 40
0.0
 40
0.274928787
 40
0.5386196731
 40
1.0
 40
1.0
 40
1.0
 40
1.0
 10
4.3887833437
 20
3.6572831623
 30
0.0
 10
4.3795525003
 20
3.6571004275
 30
0.0
 10
4.3613448188
 20
3.6585043447
 30
0.0
 10
4.3289977507
 20
3.6675640105
 30
0.0
 10
4.3074677286
 20
3.6819795438
 30
0.0
 10
4.2982777564
 20
3.6944539337
 30
0.0
  0
SPLINE
  5
345
100
AcDbEntity
  8
0
100
AcDbSpline
 62
7
  6
CONTINUOUS
 70
0
 71
3
 72
9
 73
5
 74
0
 42
0.0000001
 43
0.0000001
 44
0.0000000001
 40
0.0
 40
0.0
 40
0.0
 40
0.0
 40
0.2590329153
 40
1.0
 40
1.0
 40
1.0
 40
1.0
 10
4.2982777564
 20
3.6944539337
 30
0.0
 10
4.2971803762
 20
3.6959435082
 30
0.0
 10
4.2931913431
 20
3.7018691004
 30
0.0
 10
4.2902788404
 20
3.7085433113
 30
0.0
 10
4.2889578131
 20
3.7136681847
 30
0.0
  0
SPLINE
  5
346
100
AcDbEntity
  8
0
100
AcDbSpline
 62
7
  6
CONTINUOUS
 70
0
 71
3
 72
10
 73
6
 74
0
 42
0.0000001
 43
0.0000001
 44
0.0000000001
 40
0.0
 40
0.0
 40
0.0
 40
0.0
 40
0.2749319668
 40
0.5386239591
 40
1.0
 40
1.0
 40
1.0
 40
1.0
 10
4.3887833437
 20
3.6446562555
 30
0.0
 10
4.3795519143
 20
3.6444723666
 30
0.0
 10
4.3613430764
 20
3.6458783507
 30
0.0
 10
4.3289943659
 20
3.654938016
 30
0.0
 10
4.3074636899
 20
3.6693558255
 30
0.0
 10
4.2982743993
 20
3.6818315848
 30
0.0
  0
SPLINE
  5
347
100
AcDbEntity
  8
0
100
AcDbSpline
 62
7
  6
CONTINUOUS
 70
0
 71
3
 72
9
 73
5
 74
0
 42
0.0000001
 43
0.0000001
 44
0.0000000001
 40
0.0
 40
0.0
 40
0.0
 40
0.0
 40
0.2585264866
 40
1.0
 40
1.0
 40
1.0
 40
1.0
 10
4.2977201324
 20
3.6825957851
 30
0.0
 10
4.2966942679
 20
3.684032406
 30
0.0
 10
4.2929571197
 20
3.6897481145
 30
0.0
 10
4.2902215837
 20
3.6961385295
 30
0.0
 10
4.2889578131
 20
3.7010412778
 30
0.0
  0
SPLINE
  5
348
100
AcDbEntity
  8
0
100
AcDbSpline
 62
7
  6
CONTINUOUS
 70
0
 71
3
 72
10
 73
6
 74
0
 42
0.0000001
 43
0.0000001
 44
0.0000000001
 40
0.0
 40
0.0
 40
0.0
 40
0.0
 40
0.2749326045
 40
0.5386256594
 40
1.0
 40
1.0
 40
1.0
 40
1.0
 10
4.3887833437
 20
3.6699100691
 30
0.0
 10
4.3795517036
 20
3.6697279133
 30
0.0
 10
4.3613425051
 20
3.6711311385
 30
0.0
 10
4.328993418
 20
3.6801928192
 30
0.0
 10
4.3074624601
 20
3.6946106131
 30
0.0
 10
4.298273381
 20
3.7070867801
 30
0.0
  0
SPLINE
  5
349
100
AcDbEntity
  8
0
100
AcDbSpline
 62
7
  6
CONTINUOUS
 70
0
 71
3
 72
9
 73
5
 74
0
 42
0.0000001
 43
0.0000001
 44
0.0000000001
 40
0.0
 40
0.0
 40
0.0
 40
0.0
 40
0.2585264868
 40
1.0
 40
1.0
 40
1.0
 40
1.0
 10
4.2977201325
 20
3.7078495978
 30
0.0
 10
4.2966942678
 20
3.7092862188
 30
0.0
 10
4.2929571198
 20
3.7150019277
 30
0.0
 10
4.2902215837
 20
3.721392343
 30
0.0
 10
4.2889578131
 20
3.7262950916
 30
0.0
  0
SPLINE
  5
34A
100
AcDbEntity
  8
0
100
AcDbSpline
 62
7
  6
CONTINUOUS
 70
0
 71
3
 72
9
 73
5
 74
0
 42
0.0000001
 43
0.0000001
 44
0.0000000001
 40
0.0
 40
0.0
 40
0.0
 40
0.0
 40
0.2446497754
 40
1.0
 40
1.0
 40
1.0
 40
1.0
 10
4.4882751575
 20
3.7305664437
 30
0.0
 10
4.4878568258
 20
3.7290130737
 30
0.0
 10
4.4858752451
 20
3.7227381974
 30
0.0
 10
4.48282706
 20
3.7168150528
 30
0.0
 10
4.4800835203
 20
3.7126746746
 30
0.0
  0
SPLINE
  5
34B
100
AcDbEntity
  8
0
100
AcDbSpline
 62
7
  6
CONTINUOUS
 70
0
 71
3
 72
9
 73
5
 74
0
 42
0.0000001
 43
0.0000001
 44
0.0000000001
 40
0.0
 40
0.0
 40
0.0
 40
0.0
 40
0.2376753577
 40
1.0
 40
1.0
 40
1.0
 40
1.0
 10
4.4756896873
 20
3.7067443945
 30
0.0
 10
4.4737591628
 20
3.7043986728
 30
0.0
 10
4.4650342909
 20
3.6950266508
 30
0.0
 10
4.4542067605
 20
3.6877349334
 30
0.0
 10
4.4454963477
 20
3.6833673399
 30
0.0
  0
SPLINE
  5
34C
100
AcDbEntity
  8
0
100
AcDbSpline
 62
7
  6
CONTINUOUS
 70
0
 71
3
 72
9
 73
5
 74
0
 42
0.0000001
 43
0.0000001
 44
0.0000000001
 40
0.0
 40
0.0
 40
0.0
 40
0.0
 40
0.248090221
 40
1.0
 40
1.0
 40
1.0
 40
1.0
 10
4.4892129922
 20
3.7440700825
 30
0.0
 10
4.4890661932
 20
3.7433051001
 30
0.0
 10
4.4884075392
 20
3.7402347519
 30
0.0
 10
4.4874812897
 20
3.7372225073
 30
0.0
 10
4.4866491921
 20
3.7350132049
 30
0.0
  0
SPLINE
  5
34D
100
AcDbEntity
  8
0
100
AcDbSpline
 62
7
  6
CONTINUOUS
 70
0
 71
3
 72
9
 73
5
 74
0
 42
0.0000001
 43
0.0000001
 44
0.0000000001
 40
0.0
 40
0.0
 40
0.0
 40
0.0
 40
0.2455999362
 40
1.0
 40
1.0
 40
1.0
 40
1.0
 10
4.4861842803
 20
3.7338192267
 30
0.0
 10
4.4857752237
 20
3.7328021442
 30
0.0
 10
4.4839930193
 20
3.7287083855
 30
0.0
 10
4.4817522836
 20
3.7248177127
 30
0.0
 10
4.4798575522
 20
3.7220340175
 30
0.0
  0
SPLINE
  5
34E
100
AcDbEntity
  8
0
100
AcDbSpline
 62
7
  6
CONTINUOUS
 70
0
 71
3
 72
9
 73
5
 74
0
 42
0.0000001
 43
0.0000001
 44
0.0000000001
 40
0.0
 40
0.0
 40
0.0
 40
0.0
 40
0.2463125552
 40
1.0
 40
1.0
 40
1.0
 40
1.0
 10
4.4798575522
 20
3.7220340175
 30
0.0
 10
4.4793824388
 20
3.721335992
 30
0.0
 10
4.4774005323
 20
3.7185384116
 30
0.0
 10
4.4752125566
 20
3.7158877983
 30
0.0
 10
4.4734686596
 20
3.7139814148
 30
0.0
  0
SPLINE
  5
34F
100
AcDbEntity
  8
0
100
AcDbSpline
 62
9
  6
CONTINUOUS
 70
0
 71
3
 72
13
 73
9
 74
0
 42
0.0000001
 43
0.0000001
 44
0.0000000001
 40
0.0
 40
0.0
 40
0.0
 40
0.0
 40
0.287052713
 40
0.5535697983
 40
0.6755027993
 40
0.7893316781
 40
0.896544278
 40
1.0
 40
1.0
 40
1.0
 40
1.0
 10
4.3887833437
 20
3.8611617929
 30
0.0
 10
4.3757240338
 20
3.8611617929
 30
0.0
 10
4.3504111688
 20
3.8645621351
 30
0.0
 10
4.3218605124
 20
3.8774713324
 30
0.0
 10
4.3043364024
 20
3.8923539408
 30
0.0
 10
4.2947487386
 20
3.9048378662
 30
0.0
 10
4.2887718022
 20
3.9185070453
 30
0.0
 10
4.2874059033
 20
3.9281401679
 30
0.0
 10
4.2874059033
 20
3.9328468307
 30
0.0
  0
SPLINE
  5
350
100
AcDbEntity
  8
0
100
AcDbSpline
 62
7
  6
CONTINUOUS
 70
0
 71
3
 72
9
 73
5
 74
0
 42
0.0000001
 43
0.0000001
 44
0.0000000001
 40
0.0
 40
0.0
 40
0.0
 40
0.0
 40
0.2460541029
 40
1.0
 40
1.0
 40
1.0
 40
1.0
 10
4.4809384288
 20
3.723698905
 30
0.0
 10
4.4804816512
 20
3.7229144943
 30
0.0
 10
4.4785572647
 20
3.7197664193
 30
0.0
 10
4.476368974
 20
3.7167811905
 30
0.0
 10
4.4745993963
 20
3.7146353525
 30
0.0
  0
SPLINE
  5
351
100
AcDbEntity
  8
0
100
AcDbSpline
 62
7
  6
CONTINUOUS
 70
0
 71
3
 72
12
 73
8
 74
0
 42
0.0000001
 43
0.0000001
 44
0.0000000001
 40
0.0
 40
0.0
 40
0.0
 40
0.0
 40
0.2790257296
 40
0.5437175777
 40
0.7836358432
 40
0.894336715
 40
1.0
 40
1.0
 40
1.0
 40
1.0
 10
4.3887833437
 20
3.6462645851
 30
0.0
 10
4.4003570524
 20
3.6464943105
 30
0.0
 10
4.4229644451
 20
3.6496661998
 30
0.0
 10
4.453344509
 20
3.6622090633
 30
0.0
 10
4.4734452355
 20
3.6788465169
 30
0.0
 10
4.4839890749
 20
3.6947084704
 30
0.0
 10
4.4872868628
 20
3.7031534809
 30
0.0
 10
4.4883914236
 20
3.7073957109
 30
0.0
  0
SPLINE
  5
352
100
AcDbEntity
  8
0
100
AcDbSpline
 62
7
  6
CONTINUOUS
 70
0
 71
3
 72
9
 73
5
 74
0
 42
0.0000001
 43
0.0000001
 44
0.0000000001
 40
0.0
 40
0.0
 40
0.0
 40
0.0
 40
0.2559038352
 40
1.0
 40
1.0
 40
1.0
 40
1.0
 10
4.3887833437
 20
3.673485857
 30
0.0
 10
4.393638936
 20
3.6736189319
 30
0.0
 10
4.4125648362
 20
3.6750965944
 30
0.0
 10
4.4312696365
 20
3.6804119002
 30
0.0
 10
4.4439408492
 20
3.6866510973
 30
0.0
  0
SPLINE
  5
353
100
AcDbEntity
  8
0
100
AcDbSpline
 62
7
  6
CONTINUOUS
 70
0
 71
3
 72
9
 73
5
 74
0
 42
0.0000001
 43
0.0000001
 44
0.0000000001
 40
0.0
 40
0.0
 40
0.0
 40
0.0
 40
0.2619270322
 40
1.0
 40
1.0
 40
1.0
 40
1.0
 10
4.4439408492
 20
3.6866510973
 30
0.0
 10
4.4468326442
 20
3.6880749925
 30
0.0
 10
4.457632407
 20
3.6939687836
 30
0.0
 10
4.4674446497
 20
3.7018054497
 30
0.0
 10
4.4734686596
 20
3.7086033076
 30
0.0
  0
SPLINE
  5
354
100
AcDbEntity
  8
0
100
AcDbSpline
 62
7
  6
CONTINUOUS
 70
0
 71
3
 72
9
 73
5
 74
0
 42
0.0000001
 43
0.0000001
 44
0.0000000001
 40
0.0
 40
0.0
 40
0.0
 40
0.0
 40
0.2524310824
 40
1.0
 40
1.0
 40
1.0
 40
1.0
 10
4.3887859092
 20
3.6570156312
 30
0.0
 10
4.3864642018
 20
3.6569647741
 30
0.0
 10
4.3772634749
 20
3.6570102534
 30
0.0
 10
4.3680643112
 20
3.658037923
 30
0.0
 10
4.3613190937
 20
3.6593794715
 30
0.0
  0
SPLINE
  5
355
100
AcDbEntity
  8
0
100
AcDbSpline
 62
7
  6
CONTINUOUS
 70
0
 71
3
 72
9
 73
5
 74
0
 42
0.0000001
 43
0.0000001
 44
0.0000000001
 40
0.0
 40
0.0
 40
0.0
 40
0.0
 40
0.257121323
 40
1.0
 40
1.0
 40
1.0
 40
1.0
 10
4.4768410885
 20
3.7126813537
 30
0.0
 10
4.4778952336
 20
3.7140509637
 30
0.0
 10
4.4818086732
 20
3.7195167844
 30
0.0
 10
4.4849297565
 20
3.7255633715
 30
0.0
 10
4.4866482228
 20
3.7302518129
 30
0.0
  0
SPLINE
  5
356
100
AcDbEntity
  8
0
100
AcDbSpline
 62
7
  6
CONTINUOUS
 70
0
 71
3
 72
9
 73
5
 74
0
 42
0.0000001
 43
0.0000001
 44
0.0000000001
 40
0.0
 40
0.0
 40
0.0
 40
0.0
 40
0.252989498
 40
1.0
 40
1.0
 40
1.0
 40
1.0
 10
4.4866482228
 20
3.7302518129
 30
0.0
 10
4.4870665914
 20
3.7313932355
 30
0.0
 10
4.4885837635
 20
3.7359536438
 30
0.0
 10
4.4895320874
 20
3.7407049222
 30
0.0
 10
4.4898885518
 20
3.7442767578
 30
0.0
  0
SPLINE
  5
357
100
AcDbEntity
  8
0
100
AcDbSpline
 62
7
  6
CONTINUOUS
 70
0
 71
3
 72
9
 73
5
 74
0
 42
0.0000001
 43
0.0000001
 44
0.0000000001
 40
0.0
 40
0.0
 40
0.0
 40
0.0
 40
0.2478241102
 40
1.0
 40
1.0
 40
1.0
 40
1.0
 10
4.2874766326
 20
3.738448715
 30
0.0
 10
4.2875416085
 20
3.7372617596
 30
0.0
 10
4.2879830919
 20
3.7324831303
 30
0.0
 10
4.2891547419
 20
3.7277769941
 30
0.0
 10
4.2903892038
 20
3.7243868061
 30
0.0
  0
SPLINE
  5
358
100
AcDbEntity
  8
0
100
AcDbSpline
 62
7
  6
CONTINUOUS
 70
0
 71
3
 72
11
 73
7
 74
0
 42
0.0000001
 43
0.0000001
 44
0.0000000001
 40
0.0
 40
0.0
 40
0.0
 40
0.0
 40
0.2113078461
 40
0.4506420704
 40
0.7169900606
 40
1.0
 40
1.0
 40
1.0
 40
1.0
 10
4.2903892038
 20
3.7243868061
 30
0.0
 10
4.2932137382
 20
3.7166298211
 30
0.0
 10
4.3033559876
 20
3.7015026683
 30
0.0
 10
4.326649923
 20
3.6851628772
 30
0.0
 10
4.356116775
 20
3.6750657037
 30
0.0
 10
4.3777310564
 20
3.6731829525
 30
0.0
 10
4.3887833437
 20
3.673485857
 30
0.0
  0
SPLINE
  5
359
100
AcDbEntity
  8
0
100
AcDbSpline
 62
7
  6
CONTINUOUS
 70
0
 71
3
 72
9
 73
5
 74
0
 42
0.0000001
 43
0.0000001
 44
0.0000000001
 40
0.0
 40
0.0
 40
0.0
 40
0.0
 40
0.2524617813
 40
1.0
 40
1.0
 40
1.0
 40
1.0
 10
4.388787731
 20
3.6443877698
 30
0.0
 10
4.3864535014
 20
3.6443364681
 30
0.0
 10
4.377204234
 20
3.6443835235
 30
0.0
 10
4.3679567592
 20
3.6454242826
 30
0.0
 10
4.3611779771
 20
3.6467814872
 30
0.0
  0
SPLINE
  5
35A
100
AcDbEntity
  8
0
100
AcDbSpline
 62
7
  6
CONTINUOUS
 70
0
 71
3
 72
9
 73
5
 74
0
 42
0.0000001
 43
0.0000001
 44
0.0000000001
 40
0.0
 40
0.0
 40
0.0
 40
0.0
 40
0.2524460571
 40
1.0
 40
1.0
 40
1.0
 40
1.0
 10
4.3887855573
 20
3.6696430025
 30
0.0
 10
4.3864625303
 20
3.6695917969
 30
0.0
 10
4.3772570929
 20
3.6696360219
 30
0.0
 10
4.3680530353
 20
3.6706645949
 30
0.0
 10
4.3613048046
 20
3.6720083395
 30
0.0
  0
SPLINE
  5
35B
100
AcDbEntity
  8
0
100
AcDbSpline
 62
7
  6
CONTINUOUS
 70
0
 71
3
 72
10
 73
6
 74
0
 42
0.0000001
 43
0.0000001
 44
0.0000000001
 40
0.0
 40
0.0
 40
0.0
 40
0.0
 40
0.4738369778
 40
0.7337676024
 40
1.0
 40
1.0
 40
1.0
 40
1.0
 10
4.4711864598
 20
3.7107797723
 30
0.0
 10
4.4613796372
 20
3.7004400377
 30
0.0
 10
4.4417303529
 20
3.6884798638
 30
0.0
 10
4.4127068842
 20
3.6804378448
 30
0.0
 10
4.3968389643
 20
3.6789236551
 30
0.0
 10
4.3888321788
 20
3.6788654221
 30
0.0
  0
SPLINE
  5
35C
100
AcDbEntity
  8
0
100
AcDbSpline
 62
7
  6
CONTINUOUS
 70
0
 71
3
 72
9
 73
5
 74
0
 42
0.0000001
 43
0.0000001
 44
0.0000000001
 40
0.0
 40
0.0
 40
0.0
 40
0.0
 40
0.2635047573
 40
1.0
 40
1.0
 40
1.0
 40
1.0
 10
4.3883757536
 20
3.678862858
 30
0.0
 10
4.3825240624
 20
3.6788396701
 30
0.0
 10
4.3603737261
 20
3.680142172
 30
0.0
 10
4.3382485385
 20
3.6871104454
 30
0.0
 10
4.324467202
 20
3.6959184069
 30
0.0
  0
SPLINE
  5
35D
100
AcDbEntity
  8
0
100
AcDbSpline
 62
7
  6
CONTINUOUS
 70
0
 71
3
 72
9
 73
5
 74
0
 42
0.0000001
 43
0.0000001
 44
0.0000000001
 40
0.0
 40
0.0
 40
0.0
 40
0.0
 40
0.2566835072
 40
1.0
 40
1.0
 40
1.0
 40
1.0
 10
4.3887833437
 20
3.6588961468
 30
0.0
 10
4.3937917522
 20
3.6589958943
 30
0.0
 10
4.4132587858
 20
3.6603900633
 30
0.0
 10
4.432527948
 20
3.66585043
 30
0.0
 10
4.4454963359
 20
3.6723510847
 30
0.0
  0
SPLINE
  5
35E
100
AcDbEntity
  8
0
100
AcDbSpline
 62
7
  6
CONTINUOUS
 70
0
 71
3
 72
11
 73
7
 74
0
 42
0.0000001
 43
0.0000001
 44
0.0000000001
 40
0.0
 40
0.0
 40
0.0
 40
0.0
 40
0.2732297275
 40
0.5303499907
 40
0.7716037999
 40
1.0
 40
1.0
 40
1.0
 40
1.0
 10
4.4454963359
 20
3.6723510847
 30
0.0
 10
4.4508347108
 20
3.6750249182
 30
0.0
 10
4.4608086845
 20
3.6810565745
 30
0.0
 10
4.4734860997
 20
3.6923323615
 30
0.0
 10
4.4829800611
 20
3.7052200113
 30
0.0
 10
4.4869850482
 20
3.7148083897
 30
0.0
 10
4.4882787959
 20
3.7196286596
 30
0.0
  0
SPLINE
  5
35F
100
AcDbEntity
  8
0
100
AcDbSpline
 62
7
  6
CONTINUOUS
 70
0
 71
3
 72
9
 73
5
 74
0
 42
0.0000001
 43
0.0000001
 44
0.0000000001
 40
0.0
 40
0.0
 40
0.0
 40
0.0
 40
0.2478405939
 40
1.0
 40
1.0
 40
1.0
 40
1.0
 10
4.2874649695
 20
3.725039494
 30
0.0
 10
4.287525302
 20
3.7238244452
 30
0.0
 10
4.2879538412
 20
3.7189321983
 30
0.0
 10
4.2891368271
 20
3.7141112971
 30
0.0
 10
4.2903916715
 20
3.7106390509
 30
0.0
  0
SPLINE
  5
360
100
AcDbEntity
  8
0
100
AcDbSpline
 62
7
  6
CONTINUOUS
 70
0
 71
3
 72
11
 73
7
 74
0
 42
0.0000001
 43
0.0000001
 44
0.0000000001
 40
0.0
 40
0.0
 40
0.0
 40
0.0
 40
0.2119645446
 40
0.4515601133
 40
0.7176935466
 40
1.0
 40
1.0
 40
1.0
 40
1.0
 10
4.2903916715
 20
3.7106390509
 30
0.0
 10
4.2932150237
 20
3.7028266287
 30
0.0
 10
4.3033396802
 20
3.6875831225
 30
0.0
 10
4.3266268608
 20
3.6710346301
 30
0.0
 10
4.3560912881
 20
3.6607147659
 30
0.0
 10
4.3777218808
 20
3.6586711918
 30
0.0
 10
4.3887833437
 20
3.6588914919
 30
0.0
  0
SPLINE
  5
361
100
AcDbEntity
  8
0
100
AcDbSpline
 62
7
  6
CONTINUOUS
 70
0
 71
3
 72
9
 73
5
 74
0
 42
0.0000001
 43
0.0000001
 44
0.0000000001
 40
0.0
 40
0.0
 40
0.0
 40
0.0
 40
0.247841995
 40
1.0
 40
1.0
 40
1.0
 40
1.0
 10
4.2874648185
 20
3.7124156557
 30
0.0
 10
4.2875250663
 20
3.7112007349
 30
0.0
 10
4.2879532223
 20
3.7063090181
 30
0.0
 10
4.2891356691
 20
3.701488578
 30
0.0
 10
4.2903900532
 20
3.6980166211
 30
0.0
  0
SPLINE
  5
362
100
AcDbEntity
  8
0
100
AcDbSpline
 62
7
  6
CONTINUOUS
 70
0
 71
3
 72
11
 73
7
 74
0
 42
0.0000001
 43
0.0000001
 44
0.0000000001
 40
0.0
 40
0.0
 40
0.0
 40
0.0
 40
0.2119620771
 40
0.4515566431
 40
0.7176914098
 40
1.0
 40
1.0
 40
1.0
 40
1.0
 10
4.2903900532
 20
3.6980166211
 30
0.0
 10
4.2932127769
 20
3.6902037226
 30
0.0
 10
4.3033367368
 20
3.6749589006
 30
0.0
 10
4.3266242236
 20
3.6584090006
 30
0.0
 10
4.3560897453
 20
3.6480876412
 30
0.0
 10
4.3777213416
 20
3.6460450166
 30
0.0
 10
4.3887833437
 20
3.6462645851
 30
0.0
  0
SPLINE
  5
363
100
AcDbEntity
  8
0
100
AcDbSpline
 62
9
  6
CONTINUOUS
 70
0
 71
3
 72
13
 73
9
 74
0
 42
0.0000001
 43
0.0000001
 44
0.0000000001
 40
0.0
 40
0.0
 40
0.0
 40
0.0
 40
0.103455722
 40
0.2106683219
 40
0.3244972007
 40
0.4464302017
 40
0.712947287
 40
1.0
 40
1.0
 40
1.0
 40
1.0
 10
4.4901607841
 20
3.9328468307
 30
0.0
 10
4.4901607841
 20
3.9281401679
 30
0.0
 10
4.4887948851
 20
3.9185070453
 30
0.0
 10
4.4828179487
 20
3.9048378662
 30
0.0
 10
4.4732302849
 20
3.8923539408
 30
0.0
 10
4.4557061749
 20
3.8774713324
 30
0.0
 10
4.4271555185
 20
3.8645621351
 30
0.0
 10
4.4018426536
 20
3.8611617929
 30
0.0
 10
4.3887833437
 20
3.8611617929
 30
0.0
  0
SPLINE
  5
364
100
AcDbEntity
  8
0
100
AcDbSpline
 62
9
  6
CONTINUOUS
 70
0
 71
3
 72
9
 73
5
 74
0
 42
0.0000001
 43
0.0000001
 44
0.0000000001
 40
0.0
 40
0.0
 40
0.0
 40
0.0
 40
0.2437468571
 40
1.0
 40
1.0
 40
1.0
 40
1.0
 10
4.6117768523
 20
3.818129838
 30
0.0
 10
4.6117459844
 20
3.816833607
 30
0.0
 10
4.6113267653
 20
3.8115231869
 30
0.0
 10
4.6097026682
 20
3.8063365034
 30
0.0
 10
4.6079911239
 20
3.8026959092
 30
0.0
  0
LINE
  5
365
100
AcDbEntity
  8
0
100
AcDbLine
 62
9
  6
CONTINUOUS
 10
4.1224806538
 20
4.7574229185
 11
4.1218484035
 21
4.7672643116
  0
SPLINE
  5
366
100
AcDbEntity
  8
0
100
AcDbSpline
 62
9
  6
CONTINUOUS
 70
0
 71
3
 72
10
 73
6
 74
0
 42
0.0000001
 43
0.0000001
 44
0.0000000001
 40
0.0
 40
0.0
 40
0.0
 40
0.0
 40
0.4300994672
 40
0.697060347
 40
1.0
 40
1.0
 40
1.0
 40
1.0
 10
4.6079911271
 20
3.8026958137
 30
0.0
 10
4.6037575356
 20
3.7936906051
 30
0.0
 10
4.5922534132
 20
3.7814038623
 30
0.0
 10
4.5731520317
 20
3.7684557669
 30
0.0
 10
4.5613636858
 20
3.7624226233
 30
0.0
 10
4.5549823676
 20
3.7595240479
 30
0.0
  0
SPLINE
  5
367
100
AcDbEntity
  8
0
100
AcDbSpline
 62
9
  6
CONTINUOUS
 70
0
 71
3
 72
9
 73
5
 74
0
 42
0.0000001
 43
0.0000001
 44
0.0000000001
 40
0.0
 40
0.0
 40
0.0
 40
0.0
 40
0.4750897444
 40
1.0
 40
1.0
 40
1.0
 40
1.0
 10
4.5549823473
 20
3.7595241747
 30
0.0
 10
4.5464034838
 20
3.7556274163
 30
0.0
 10
4.5278301934
 20
3.7485482708
 30
0.0
 10
4.5086938184
 20
3.7432431481
 30
0.0
 10
4.4985617696
 20
3.7408515425
 30
0.0
  0
SPLINE
  5
368
100
AcDbEntity
  8
0
100
AcDbSpline
 62
9
  6
CONTINUOUS
 70
0
 71
3
 72
9
 73
5
 74
0
 42
0.0000001
 43
0.0000001
 44
0.0000000001
 40
0.0
 40
0.0
 40
0.0
 40
0.0
 40
0.5249104702
 40
1.0
 40
1.0
 40
1.0
 40
1.0
 10
4.2790057475
 20
3.7408513466
 30
0.0
 10
4.2688735506
 20
3.7432429644
 30
0.0
 10
4.2497369034
 20
3.7485481254
 30
0.0
 10
4.231163351
 20
3.755627351
 30
0.0
 10
4.2225843732
 20
3.7595241597
 30
0.0
  0
SPLINE
  5
369
100
AcDbEntity
  8
0
100
AcDbSpline
 62
9
  6
CONTINUOUS
 70
0
 71
3
 72
10
 73
6
 74
0
 42
0.0000001
 43
0.0000001
 44
0.0000000001
 40
0.0
 40
0.0
 40
0.0
 40
0.0
 40
0.3029400688
 40
0.5699011273
 40
1.0
 40
1.0
 40
1.0
 40
1.0
 10
4.2225845513
 20
3.759525276
 30
0.0
 10
4.2162032195
 20
3.7624238256
 30
0.0
 10
4.2044148475
 20
3.7684569152
 30
0.0
 10
4.1853134212
 20
3.7814048944
 30
0.0
 10
4.1738092344
 20
3.793691536
 30
0.0
 10
4.1695755988
 20
3.8026966962
 30
0.0
  0
LINE
  5
36A
100
AcDbEntity
  8
0
100
AcDbLine
 62
9
  6
CONTINUOUS
 10
4.6550860336
 20
4.7574229185
 11
4.6557182839
 21
4.7672643116
  0
SPLINE
  5
36B
100
AcDbEntity
  8
0
100
AcDbSpline
 62
9
  6
CONTINUOUS
 70
0
 71
3
 72
9
 73
5
 74
0
 42
0.0000001
 43
0.0000001
 44
0.0000000001
 40
0.0
 40
0.0
 40
0.0
 40
0.0
 40
0.2599114599
 40
1.0
 40
1.0
 40
1.0
 40
1.0
 10
4.1695755718
 20
3.8026958913
 30
0.0
 10
4.168987447
 20
3.8039468794
 30
0.0
 10
4.1669433404
 20
3.8088575917
 30
0.0
 10
4.1658835426
 20
3.814194792
 30
0.0
 10
4.1657898351
 20
3.818129838
 30
0.0
  0
SPLINE
  5
36C
100
AcDbEntity
  8
0
100
AcDbSpline
 62
7
  6
CONTINUOUS
 70
0
 71
3
 72
19
 73
15
 74
0
 42
0.0000001
 43
0.0000001
 44
0.0000000001
 40
0.0
 40
0.0
 40
0.0
 40
0.0
 40
0.0517993327
 40
0.106000143
 40
0.1636115262
 40
0.2250393417
 40
0.3580565299
 40
0.4999987533
 40
0.641940217
 40
0.7749566603
 40
0.8363849731
 40
0.8939973755
 40
0.9481992642
 40
1.0
 40
1.0
 40
1.0
 40
1.0
 10
4.2891093962
 20
3.5662716078
 30
0.0
 10
4.2897609358
 20
3.5619153962
 30
0.0
 10
4.2922744315
 20
3.5531423893
 30
0.0
 10
4.299258982
 20
3.5409782757
 30
0.0
 10
4.3092115884
 20
3.5299795953
 30
0.0
 10
4.326396973
 20
3.5170000213
 30
0.0
 10
4.3532410828
 20
3.5058098944
 30
0.0
 10
4.3887821251
 20
3.5013251661
 30
0.0
 10
4.4243231711
 20
3.5058092902
 30
0.0
 10
4.4511674217
 20
3.5169987819
 30
0.0
 10
4.4683532311
 20
3.5299778978
 30
0.0
 10
4.4783063347
 20
3.540976419
 30
0.0
 10
4.4852914943
 20
3.5531405318
 30
0.0
 10
4.4878053171
 20
3.5619136689
 30
0.0
 10
4.4884570271
 20
3.5662699757
 30
0.0
  0
SPLINE
  5
36D
100
AcDbEntity
  8
0
100
AcDbSpline
 62
7
  6
CONTINUOUS
 70
0
 71
3
 72
11
 73
7
 74
0
 42
0.0000001
 43
0.0000001
 44
0.0000000001
 40
0.0
 40
0.0
 40
0.0
 40
0.0
 40
0.2648056325
 40
0.5174758914
 40
0.7610832044
 40
1.0
 40
1.0
 40
1.0
 40
1.0
 10
4.2706423111
 20
3.6647185216
 30
0.0
 10
4.2601395614
 20
3.6584634446
 30
0.0
 10
4.2407190094
 20
3.644200113
 30
0.0
 10
4.2176124159
 20
3.6172760322
 30
0.0
 10
4.2027631143
 20
3.5862859565
 30
0.0
 10
4.1993148397
 20
3.5638757275
 30
0.0
 10
4.1993148397
 20
3.552846533
 30
0.0
  0
SPLINE
  5
36E
100
AcDbEntity
  8
0
100
AcDbSpline
 62
7
  6
CONTINUOUS
 70
0
 71
3
 72
11
 73
7
 74
0
 42
0.0000001
 43
0.0000001
 44
0.0000000001
 40
0.0
 40
0.0
 40
0.0
 40
0.0
 40
0.2389137062
 40
0.4825214233
 40
0.7351931915
 40
1.0
 40
1.0
 40
1.0
 40
1.0
 10
4.5782518476
 20
3.552846533
 30
0.0
 10
4.5782518476
 20
3.5638758034
 30
0.0
 10
4.5748034731
 20
3.5862863473
 30
0.0
 10
4.5599537652
 20
3.617276939
 30
0.0
 10
4.5368463312
 20
3.6442014367
 30
0.0
 10
4.5174250931
 20
3.6584648584
 30
0.0
 10
4.5069219966
 20
3.6647199327
 30
0.0
  0
SPLINE
  5
36F
100
AcDbEntity
  8
0
100
AcDbSpline
 62
7
  6
CONTINUOUS
 70
0
 71
3
 72
14
 73
10
 74
0
 42
0.0000001
 43
0.0000001
 44
0.0000000001
 40
0.0
 40
0.0
 40
0.0
 40
0.0
 40
0.2845821635
 40
0.4209137845
 40
0.5504642253
 40
0.6723149182
 40
0.7866737539
 40
0.895018666
 40
1.0
 40
1.0
 40
1.0
 40
1.0
 10
4.3887833437
 20
2.9096701837
 30
0.0
 10
4.4393129911
 20
2.9096701837
 30
0.0
 10
4.5147135439
 20
2.9198862468
 30
0.0
 10
4.6064948514
 20
2.9543386324
 30
0.0
 10
4.6664765442
 20
2.9888580759
 30
0.0
 10
4.7161912517
 20
3.0312852702
 30
0.0
 10
4.7536686018
 20
3.080314075
 30
0.0
 10
4.7771166691
 20
3.1342314039
 30
0.0
 10
4.7824841311
 20
3.1723012828
 30
0.0
 10
4.7824841311
 20
3.1909414875
 30
0.0
  0
SPLINE
  5
370
100
AcDbEntity
  8
0
100
AcDbSpline
 62
7
  6
CONTINUOUS
 70
0
 71
3
 72
13
 73
9
 74
0
 42
0.0000001
 43
0.0000001
 44
0.0000000001
 40
0.0
 40
0.0
 40
0.0
 40
0.0
 40
0.1090618733
 40
0.2203428276
 40
0.3357650747
 40
0.4567133491
 40
0.7167930831
 40
1.0
 40
1.0
 40
1.0
 40
1.0
 10
4.7824841311
 20
3.3927731475
 30
0.0
 10
4.7824841311
 20
3.4074820866
 30
0.0
 10
4.7791894585
 20
3.4372969808
 30
0.0
 10
4.7646117593
 20
3.4805007355
 30
0.0
 10
4.7409119102
 20
3.521298914
 30
0.0
 10
4.6971188549
 20
3.5723629633
 30
0.0
 10
4.6226516481
 20
3.6246834715
 30
0.0
 10
4.5530466923
 20
3.6499885308
 30
0.0
 10
4.5159327592
 20
3.6590136381
 30
0.0
  0
SPLINE
  5
371
100
AcDbEntity
  8
0
100
AcDbSpline
 62
7
  6
CONTINUOUS
 70
0
 71
3
 72
13
 73
9
 74
0
 42
0.0000001
 43
0.0000001
 44
0.0000000001
 40
0.0
 40
0.0
 40
0.0
 40
0.0
 40
0.2832027652
 40
0.5432781947
 40
0.6642262587
 40
0.7796500267
 40
0.8909338425
 40
1.0
 40
1.0
 40
1.0
 40
1.0
 10
4.2615273273
 20
3.6589877421
 30
0.0
 10
4.2244257007
 20
3.6499579805
 30
0.0
 10
4.1548459571
 20
3.6246455585
 30
0.0
 10
4.0804090634
 20
3.5723273238
 30
0.0
 10
4.0366356901
 20
3.5212709126
 30
0.0
 10
4.0129467097
 20
3.4804806192
 30
0.0
 10
3.9983757352
 20
3.437286477
 30
0.0
 10
3.9950825563
 20
3.4074786986
 30
0.0
 10
3.9950825563
 20
3.3927731475
 30
0.0
  0
SPLINE
  5
372
100
AcDbEntity
  8
0
100
AcDbSpline
 62
7
  6
CONTINUOUS
 70
0
 71
3
 72
14
 73
10
 74
0
 42
0.0000001
 43
0.0000001
 44
0.0000000001
 40
0.0
 40
0.0
 40
0.0
 40
0.0
 40
0.1049817615
 40
0.2133262589
 40
0.3276853018
 40
0.4495363519
 40
0.5790864642
 40
0.7154187909
 40
1.0
 40
1.0
 40
1.0
 40
1.0
 10
3.9950825563
 20
3.1909414875
 30
0.0
 10
3.9950825563
 20
3.172301211
 30
0.0
 10
4.0004499573
 20
3.1342312743
 30
0.0
 10
4.0238985973
 20
3.0803142517
 30
0.0
 10
4.0613751578
 20
3.0312847837
 30
0.0
 10
4.1110907391
 20
2.9888585492
 30
0.0
 10
4.1710718644
 20
2.9543379828
 30
0.0
 10
4.2628536574
 20
2.9198869982
 30
0.0
 10
4.338253877
 20
2.9096701837
 30
0.0
 10
4.3887833437
 20
2.9096701837
 30
0.0
  0
SPLINE
  5
373
100
AcDbEntity
  8
0
100
AcDbSpline
 62
9
  6
CONTINUOUS
 70
0
 71
3
 72
14
 73
10
 74
0
 42
0.0000001
 43
0.0000001
 44
0.0000000001
 40
0.0
 40
0.0
 40
0.0
 40
0.0
 40
0.2867898737
 40
0.4239497684
 40
0.5539710508
 40
0.6757947649
 40
0.7895210801
 40
0.8966373737
 40
1.0
 40
1.0
 40
1.0
 40
1.0
 10
4.3887833437
 20
2.9125529909
 30
0.0
 10
4.4394985539
 20
2.9125529909
 30
0.0
 10
4.515132097
 20
2.9227591285
 30
0.0
 10
4.6071645409
 20
2.9571765446
 30
0.0
 10
4.6671561022
 20
2.9915655353
 30
0.0
 10
4.7167339198
 20
3.0336910585
 30
0.0
 10
4.7539673253
 20
3.0821674494
 30
0.0
 10
4.7771798734
 20
3.1352528496
 30
0.0
 10
4.7824837682
 20
3.1726630969
 30
0.0
 10
4.7824837727
 20
3.1909414875
 30
0.0
  0
SPLINE
  5
374
100
AcDbEntity
  8
0
100
AcDbSpline
 62
9
  6
CONTINUOUS
 70
0
 71
3
 72
14
 73
10
 74
0
 42
0.0000001
 43
0.0000001
 44
0.0000000001
 40
0.0
 40
0.0
 40
0.0
 40
0.0
 40
0.2867928992
 40
0.4239494193
 40
0.5539668333
 40
0.675787962
 40
0.7895141497
 40
0.8966330187
 40
1.0
 40
1.0
 40
1.0
 40
1.0
 10
4.3886135315
 20
3.1143846768
 30
0.0
 10
4.3379139383
 20
3.1144001398
 30
0.0
 10
4.2623077696
 20
3.1246229596
 30
0.0
 10
4.17031347
 20
3.159050784
 30
0.0
 10
4.1103500256
 20
3.1934408456
 30
0.0
 10
4.0607970834
 20
3.2355616703
 30
0.0
 10
4.0235834329
 20
3.2840284239
 30
0.0
 10
4.0003837672
 20
3.3371003331
 30
0.0
 10
3.9950829103
 20
3.3744998075
 30
0.0
 10
3.9950829146
 20
3.3927731475
 30
0.0
  0
SPLINE
  5
375
100
AcDbEntity
  8
0
100
AcDbSpline
 62
9
  6
CONTINUOUS
 70
0
 71
3
 72
13
 73
9
 74
0
 42
0.0000001
 43
0.0000001
 44
0.0000000001
 40
0.0
 40
0.0
 40
0.0
 40
0.0
 40
0.2870530558
 40
0.5535599539
 40
0.6754887367
 40
0.7893174871
 40
0.8965353808
 40
1.0
 40
1.0
 40
1.0
 40
1.0
 10
4.3889466225
 20
3.2796778705
 30
0.0
 10
4.4133381396
 20
3.2796927339
 30
0.0
 10
4.4606112733
 20
3.2860691963
 30
0.0
 10
4.5139244957
 20
3.3102027199
 30
0.0
 10
4.5466438362
 20
3.3380108676
 30
0.0
 10
4.5645436491
 20
3.3613333663
 30
0.0
 10
4.575701697
 20
3.3868673043
 30
0.0
 10
4.5782514829
 20
3.4048606713
 30
0.0
 10
4.5782514768
 20
3.4136522847
 30
0.0
  0
SPLINE
  5
376
100
AcDbEntity
  8
0
100
AcDbSpline
 62
9
  6
CONTINUOUS
 70
0
 71
3
 72
9
 73
5
 74
0
 42
0.0000001
 43
0.0000001
 44
0.0000000001
 40
0.0
 40
0.0
 40
0.0
 40
0.0
 40
0.2564631502
 40
1.0
 40
1.0
 40
1.0
 40
1.0
 10
4.3886181191
 20
3.1283040836
 30
0.0
 10
4.3711192927
 20
3.1283094206
 30
0.0
 10
4.302959833
 20
3.1316122122
 30
0.0
 10
4.2351895843
 20
3.148004849
 30
0.0
 10
4.1886188771
 20
3.1681284225
 30
0.0
  0
SPLINE
  5
377
100
AcDbEntity
  8
0
100
AcDbSpline
 62
9
  6
CONTINUOUS
 70
0
 71
3
 72
21
 73
17
 74
0
 42
0.0000001
 43
0.0000001
 44
0.0000000001
 40
0.0
 40
0.0
 40
0.0
 40
0.0
 40
0.1375220905
 40
0.2018031511
 40
0.2629978717
 40
0.3214219124
 40
0.3776667222
 40
0.4325712219
 40
0.4871423963
 40
0.5424311196
 40
0.5993949069
 40
0.6587877046
 40
0.7211000002
 40
0.7865465157
 40
0.8550864556
 40
1.0
 40
1.0
 40
1.0
 40
1.0
 10
4.1886188771
 20
3.1681284225
 30
0.0
 10
4.1593854803
 20
3.1807604061
 30
0.0
 10
4.1181791236
 20
3.2041454479
 30
0.0
 10
4.0723589133
 20
3.2445171464
 30
0.0
 10
4.044827569
 20
3.2772437773
 30
0.0
 10
4.0239781143
 20
3.3124598303
 30
0.0
 10
4.0102687989
 20
3.3495011744
 30
0.0
 10
4.0040391767
 20
3.3876185523
 30
0.0
 10
4.0054541461
 20
3.4259992867
 30
0.0
 10
4.014475471
 20
3.463811027
 30
0.0
 10
4.0308689013
 20
3.5002612513
 30
0.0
 10
4.0542454518
 20
3.5346313719
 30
0.0
 10
4.0840953679
 20
3.5662763816
 30
0.0
 10
4.119820546
 20
3.5946229101
 30
0.0
 10
4.1753175226
 20
3.6279138796
 30
0.0
 10
4.2221170813
 20
3.6454649067
 30
0.0
 10
4.2545637011
 20
3.6540277214
 30
0.0
  0
SPLINE
  5
378
100
AcDbEntity
  8
0
100
AcDbSpline
 62
9
  6
CONTINUOUS
 70
0
 71
3
 72
17
 73
13
 74
0
 42
0.0000001
 43
0.0000001
 44
0.0000000001
 40
0.0
 40
0.0
 40
0.0
 40
0.0
 40
0.2927442806
 40
0.426234458
 40
0.5471321057
 40
0.6036113434
 40
0.6581767065
 40
0.7117884268
 40
0.7655374201
 40
0.8204953292
 40
0.877570557
 40
1.0
 40
1.0
 40
1.0
 40
1.0
 10
4.3886404982
 20
3.4606303576
 30
0.0
 10
4.358909394
 20
3.4606491996
 30
0.0
 10
4.3146279851
 20
3.4691769133
 30
0.0
 10
4.2667126218
 20
3.4982352233
 30
0.0
 10
4.2449910822
 20
3.5219907399
 30
0.0
 10
4.2342406437
 20
3.5430897199
 30
0.0
 10
4.229586767
 20
3.5592666215
 30
0.0
 10
4.2283048758
 20
3.5757777055
 30
0.0
 10
4.2304289988
 20
3.5922402834
 30
0.0
 10
4.2359027257
 20
3.608278936
 30
0.0
 10
4.2477122219
 20
3.6290801198
 30
0.0
 10
4.2608021286
 20
3.6423355078
 30
0.0
 10
4.2706303505
 20
3.6499518577
 30
0.0
  0
SPLINE
  5
379
100
AcDbEntity
  8
0
100
AcDbSpline
 62
9
  6
CONTINUOUS
 70
0
 71
3
 72
17
 73
13
 74
0
 42
0.0000001
 43
0.0000001
 44
0.0000000001
 40
0.0
 40
0.0
 40
0.0
 40
0.0
 40
0.1224187612
 40
0.1794877218
 40
0.2344393639
 40
0.2881830131
 40
0.3417912508
 40
0.396355592
 40
0.452836425
 40
0.5737437332
 40
0.7072475679
 40
1.0
 40
1.0
 40
1.0
 40
1.0
 10
4.5069364387
 20
3.6499517766
 30
0.0
 10
4.516768359
 20
3.6423325515
 30
0.0
 10
4.5298626617
 20
3.6290713287
 30
0.0
 10
4.5416728392
 20
3.6082603653
 30
0.0
 10
4.547144206
 20
3.5922144139
 30
0.0
 10
4.5492630622
 20
3.5757448457
 30
0.0
 10
4.547973239
 20
3.5592276033
 30
0.0
 10
4.5433090609
 20
3.5430457955
 30
0.0
 10
4.5325416888
 20
3.5219419005
 30
0.0
 10
4.5107948579
 20
3.4981857231
 30
0.0
 10
4.4628386975
 20
3.4691387067
 30
0.0
 10
4.4185293048
 20
3.4606303576
 30
0.0
 10
4.3887835699
 20
3.4606303576
 30
0.0
  0
SPLINE
  5
37A
100
AcDbEntity
  8
0
100
AcDbSpline
 62
9
  6
CONTINUOUS
 70
0
 71
3
 72
21
 73
17
 74
0
 42
0.0000001
 43
0.0000001
 44
0.0000000001
 40
0.0
 40
0.0
 40
0.0
 40
0.0
 40
0.1449133042
 40
0.2134533789
 40
0.2789000949
 40
0.3412126098
 40
0.4006057036
 40
0.4575698834
 40
0.512859019
 40
0.56743051
 40
0.6223351566
 40
0.6785799503
 40
0.737003842
 40
0.7981982813
 40
0.862478897
 40
1.0
 40
1.0
 40
1.0
 40
1.0
 10
4.5230131979
 20
3.6540250355
 30
0.0
 10
4.5554584339
 20
3.645461857
 30
0.0
 10
4.602255948
 20
3.6279105532
 30
0.0
 10
4.6577504441
 20
3.5946198755
 30
0.0
 10
4.6934740678
 20
3.5662737898
 30
0.0
 10
4.7233226944
 20
3.5346294644
 30
0.0
 10
4.7466982837
 20
3.500260228
 30
0.0
 10
4.7630911404
 20
3.4638110314
 30
0.0
 10
4.7721123126
 20
3.4260004174
 30
0.0
 10
4.7735275824
 20
3.3876208676
 30
0.0
 10
4.7672987345
 20
3.3495046594
 30
0.0
 10
4.7535906586
 20
3.3124643664
 30
0.0
 10
4.7327428538
 20
3.2772491524
 30
0.0
 10
4.7052135072
 20
3.2445230949
 30
0.0
 10
4.6593963946
 20
3.2041517634
 30
0.0
 10
4.6181925348
 20
3.1807664325
 30
0.0
 10
4.5889607916
 20
3.1681340446
 30
0.0
  0
SPLINE
  5
37B
100
AcDbEntity
  8
0
100
AcDbSpline
 62
9
  6
CONTINUOUS
 70
0
 71
3
 72
9
 73
5
 74
0
 42
0.0000001
 43
0.0000001
 44
0.0000000001
 40
0.0
 40
0.0
 40
0.0
 40
0.0
 40
0.2426565254
 40
1.0
 40
1.0
 40
1.0
 40
1.0
 10
4.5889607916
 20
3.1681340446
 30
0.0
 10
4.5737470818
 20
3.1615594971
 30
0.0
 10
4.5095375108
 20
3.1380397944
 30
0.0
 10
4.4405103118
 20
3.1283040836
 30
0.0
 10
4.3887834977
 20
3.1283040836
 30
0.0
  0
SPLINE
  5
37C
100
AcDbEntity
  8
0
100
AcDbSpline
 62
9
  6
CONTINUOUS
 70
0
 71
3
 72
13
 73
9
 74
0
 42
0.0000001
 43
0.0000001
 44
0.0000000001
 40
0.0
 40
0.0
 40
0.0
 40
0.0
 40
0.2870532906
 40
0.553559624
 40
0.6754881976
 40
0.7893169361
 40
0.896535034
 40
1.0
 40
1.0
 40
1.0
 40
1.0
 10
4.3886135315
 20
3.4188721228
 30
0.0
 10
4.3642226158
 20
3.4188875805
 30
0.0
 10
4.3169508706
 20
3.4252648742
 30
0.0
 10
4.2636395021
 20
3.4493987174
 30
0.0
 10
4.230921479
 20
3.477206615
 30
0.0
 10
4.2130224255
 20
3.5005287422
 30
0.0
 10
4.2018648732
 20
3.5260621613
 30
0.0
 10
4.1993152041
 20
3.5440551139
 30
0.0
 10
4.1993152105
 20
3.552846533
 30
0.0
  0
SPLINE
  5
37D
100
AcDbEntity
  8
0
100
AcDbSpline
 62
9
  6
CONTINUOUS
 70
0
 71
3
 72
14
 73
10
 74
0
 42
0.0000001
 43
0.0000001
 44
0.0000000001
 40
0.0
 40
0.0
 40
0.0
 40
0.0
 40
0.1113883646
 40
0.2180916182
 40
0.3265001392
 40
0.4423335374
 40
0.5687071571
 40
0.7057488116
 40
1.0
 40
1.0
 40
1.0
 40
1.0
 10
4.1992416368
 20
3.462258936
 30
0.0
 10
4.1921360354
 20
3.4514899327
 30
0.0
 10
4.1811907068
 20
3.4281375136
 30
0.0
 10
4.1778128305
 20
3.3896636493
 30
0.0
 10
4.18843012
 20
3.3520093787
 30
0.0
 10
4.211783339
 20
3.3180432784
 30
0.0
 10
4.2459012596
 20
3.2896311298
 30
0.0
 10
4.3039444342
 20
3.2604283318
 30
0.0
 10
4.3547003328
 20
3.2518389863
 30
0.0
 10
4.3887830846
 20
3.2518389863
 30
0.0
  0
SPLINE
  5
37E
100
AcDbEntity
  8
0
100
AcDbSpline
 62
9
  6
CONTINUOUS
 70
0
 71
3
 72
14
 73
10
 74
0
 42
0.0000001
 43
0.0000001
 44
0.0000000001
 40
0.0
 40
0.0
 40
0.0
 40
0.0
 40
0.2942490857
 40
0.4312802535
 40
0.5576446478
 40
0.6734744185
 40
0.7818871281
 40
0.888600542
 40
1.0
 40
1.0
 40
1.0
 40
1.0
 10
4.3889629157
 20
3.2518389863
 30
0.0
 10
4.4230286369
 20
3.2518597448
 30
0.0
 10
4.473752913
 20
3.2604710276
 30
0.0
 10
4.5317503997
 20
3.2896879175
 30
0.0
 10
4.5658350844
 20
3.3181014981
 30
0.0
 10
4.5891593993
 20
3.3520614379
 30
0.0
 10
4.5997556717
 20
3.38970245
 30
0.0
 10
4.5963681099
 20
3.4281586704
 30
0.0
 10
4.5854246887
 20
3.4515001404
 30
0.0
 10
4.5783213707
 20
3.4622645784
 30
0.0
  0
SPLINE
  5
37F
100
AcDbEntity
  8
0
100
AcDbSpline
 62
9
  6
CONTINUOUS
 70
0
 71
3
 72
13
 73
9
 74
0
 42
0.0000001
 43
0.0000001
 44
0.0000000001
 40
0.0
 40
0.0
 40
0.0
 40
0.0
 40
0.1034559599
 40
0.2106687577
 40
0.3244978076
 40
0.4464318237
 40
0.7129528372
 40
1.0
 40
1.0
 40
1.0
 40
1.0
 10
4.5782514768
 20
3.552846533
 30
0.0
 10
4.5782514704
 20
3.5440500633
 30
0.0
 10
4.5756987672
 20
3.5260463375
 30
0.0
 10
4.5645283265
 20
3.5004994327
 30
0.0
 10
4.5466095355
 20
3.4771676512
 30
0.0
 10
4.5138572658
 20
3.4493532623
 30
0.0
 10
4.4604977101
 20
3.4252277434
 30
0.0
 10
4.4131898801
 20
3.418872069
 30
0.0
 10
4.3887833437
 20
3.418872069
 30
0.0
  0
SPLINE
  5
380
100
AcDbEntity
  8
0
100
AcDbSpline
 62
9
  6
CONTINUOUS
 70
0
 71
3
 72
13
 73
9
 74
0
 42
0.0000001
 43
0.0000001
 44
0.0000000001
 40
0.0
 40
0.0
 40
0.0
 40
0.0
 40
0.1034559599
 40
0.2106687577
 40
0.3244978077
 40
0.4464318239
 40
0.7129528373
 40
1.0
 40
1.0
 40
1.0
 40
1.0
 10
4.1993152106
 20
3.4136522847
 30
0.0
 10
4.1993152167
 20
3.4048558151
 30
0.0
 10
4.2018679201
 20
3.3868520892
 30
0.0
 10
4.2130383607
 20
3.3613051844
 30
0.0
 10
4.2309571519
 20
3.3379734029
 30
0.0
 10
4.2637094216
 20
3.3101590141
 30
0.0
 10
4.3170689773
 20
3.2860334952
 30
0.0
 10
4.3643768073
 20
3.2796778207
 30
0.0
 10
4.3887833437
 20
3.2796778207
 30
0.0
  0
SPLINE
  5
381
100
AcDbEntity
  8
0
100
AcDbSpline
 62
9
  6
CONTINUOUS
 70
0
 71
3
 72
14
 73
10
 74
0
 42
0.0000001
 43
0.0000001
 44
0.0000000001
 40
0.0
 40
0.0
 40
0.0
 40
0.0
 40
0.1033626263
 40
0.2104789199
 40
0.324205235
 40
0.4460289492
 40
0.5760502316
 40
0.7132101263
 40
1.0
 40
1.0
 40
1.0
 40
1.0
 10
4.7824837727
 20
3.3927731475
 30
0.0
 10
4.7824837684
 20
3.3744947569
 30
0.0
 10
4.7771798734
 20
3.3370845096
 30
0.0
 10
4.7539673252
 20
3.2839991094
 30
0.0
 10
4.7167339199
 20
3.2355227184
 30
0.0
 10
4.6671561021
 20
3.1933971954
 30
0.0
 10
4.6071645409
 20
3.1590082045
 30
0.0
 10
4.515132097
 20
3.1245907885
 30
0.0
 10
4.4394985539
 20
3.1143846509
 30
0.0
 10
4.3887833437
 20
3.1143846509
 30
0.0
  0
SPLINE
  5
382
100
AcDbEntity
  8
0
100
AcDbSpline
 62
9
  6
CONTINUOUS
 70
0
 71
3
 72
14
 73
10
 74
0
 42
0.0000001
 43
0.0000001
 44
0.0000000001
 40
0.0
 40
0.0
 40
0.0
 40
0.0
 40
0.1033671915
 40
0.2104861847
 40
0.3242123663
 40
0.4460333704
 40
0.5760505979
 40
0.7132069552
 40
1.0
 40
1.0
 40
1.0
 40
1.0
 10
3.9950829146
 20
3.1909414875
 30
0.0
 10
3.99508291
 20
3.1726683911
 30
0.0
 10
4.0003836202
 20
3.1352694362
 30
0.0
 10
4.0235826647
 20
3.0821981776
 30
0.0
 10
4.0607953627
 20
3.0337318891
 30
0.0
 10
4.1103471052
 20
2.9916112909
 30
0.0
 10
4.1703091936
 20
2.9572211781
 30
0.0
 10
4.2623016535
 20
2.9227928519
 30
0.0
 10
4.3379065019
 20
2.9125692279
 30
0.0
 10
4.3886053417
 20
2.9125530194
 30
0.0
  0
ELLIPSE
  5
383
100
AcDbEntity
  8
0
100
AcDbEllipse
 62
7
  6
CONTINUOUS
 10
4.7831165367
 20
60.133896628
 30
0.0
 11
-0.0
 21
55.3666338583
 31
0.0
 40
0.1635241264
 41
-3.1362976547
 42
-3.135519464
  0
ELLIPSE
  5
384
100
AcDbEntity
  8
0
100
AcDbEllipse
 62
7
  6
CONTINUOUS
 10
4.894975455
 20
60.133896628
 30
0.0
 11
0.0
 21
55.3666338583
 31
0.0
 40
0.2180321945
 41
-3.1476658432
 42
-3.1468876525
  0
ELLIPSE
  5
385
100
AcDbEntity
  8
0
100
AcDbEllipse
 62
7
  6
CONTINUOUS
 10
4.7389548787
 20
60.133896628
 30
0.0
 11
0.0
 21
55.3666338583
 31
0.0
 40
0.2180321555
 41
-3.1362976547
 42
-3.135519464
  0
ELLIPSE
  5
386
100
AcDbEntity
  8
0
100
AcDbEllipse
 62
7
  6
CONTINUOUS
 10
4.8508137855
 20
60.133896628
 30
0.0
 11
0.0
 21
55.3666338583
 31
0.0
 40
0.1635241264
 41
-3.1476658432
 42
-3.1468876525
  0
ELLIPSE
  5
387
100
AcDbEntity
  8
0
100
AcDbEllipse
 62
7
  6
CONTINUOUS
 10
4.9950325078
 20
60.133896628
 30
0.0
 11
-0.0
 21
55.3666338583
 31
0.0
 40
0.3340067652
 41
-3.1476658432
 42
-3.1466498726
  0
ELLIPSE
  5
388
100
AcDbEntity
  8
0
100
AcDbEllipse
 62
7
  6
CONTINUOUS
 10
4.7610190212
 20
60.133896628
 30
0.0
 11
-0.0
 21
55.3666338583
 31
0.0
 40
0.3340067652
 41
-3.1365354346
 42
-3.135519464
  0
ELLIPSE
  5
389
100
AcDbEntity
  8
0
100
AcDbEllipse
 62
7
  6
CONTINUOUS
 10
5.0630250974
 20
60.133896628
 30
0.0
 11
0.0
 21
55.3666338583
 31
0.0
 40
0.3839262079
 41
-3.1467051158
 42
-3.1466498726
  0
ELLIPSE
  5
38A
100
AcDbEntity
  8
0
100
AcDbEllipse
 62
7
  6
CONTINUOUS
 10
5.3832727084
 20
60.133896628
 30
0.0
 11
72.4303900696
 21
0.0
 31
0.0
 40
0.7644116483
 41
-1.5768316847
 42
-1.5767830506
  0
ELLIPSE
  5
38B
100
AcDbEntity
  8
0
100
AcDbEllipse
 62
7
  6
CONTINUOUS
 10
4.8928901829
 20
60.133896628
 30
0.0
 11
0.0
 21
55.3666338583
 31
0.0
 40
0.3504088423
 41
-3.1364273529
 42
-3.135519464
  0
ELLIPSE
  5
38C
100
AcDbEntity
  8
0
100
AcDbEllipse
 62
7
  6
CONTINUOUS
 10
5.0933128575
 20
60.133896628
 30
0.0
 11
-0.0
 21
55.3666338583
 31
0.0
 40
0.3504088423
 41
-3.1476658432
 42
-3.1467579543
  0
ELLIPSE
  5
38D
100
AcDbEntity
  8
0
100
AcDbEllipse
 62
7
  6
CONTINUOUS
 10
4.9860387136
 20
60.133896628
 30
0.0
 11
0.0
 21
55.3666338583
 31
0.0
 40
0.3270484087
 41
3.1362760384
 42
3.1365354346
  0
ELLIPSE
  5
38E
100
AcDbEntity
  8
0
100
AcDbEllipse
 62
7
  6
CONTINUOUS
 10
4.3415001411
 20
60.133896628
 30
0.0
 11
108.6455851045
 21
-0.0
 31
0.0
 40
0.5096077655
 41
-1.5652203128
 42
-1.5651986986
  0
ELLIPSE
  5
38F
100
AcDbEntity
  8
0
100
AcDbEllipse
 62
7
  6
CONTINUOUS
 10
5.0923528894
 20
60.133896628
 30
0.0
 11
-0.0
 21
55.3666338583
 31
0.0
 40
0.3712440509
 41
3.1357356284
 42
3.1365354346
  0
ELLIPSE
  5
390
100
AcDbEntity
  8
0
100
AcDbEllipse
 62
7
  6
CONTINUOUS
 10
4.8938501511
 20
60.133896628
 30
0.0
 11
-0.0
 21
55.3666338583
 31
0.0
 40
0.3712440509
 41
3.1466498726
 42
3.1474496788
  0
ELLIPSE
  5
391
100
AcDbEntity
  8
0
100
AcDbEllipse
 62
7
  6
CONTINUOUS
 10
4.7497353262
 20
60.133896628
 30
0.0
 11
0.0
 21
55.3666338583
 31
0.0
 40
0.2065567726
 41
3.1466498726
 42
3.1474712952
  0
ELLIPSE
  5
392
100
AcDbEntity
  8
0
100
AcDbEllipse
 62
7
  6
CONTINUOUS
 10
4.8841950081
 20
60.133896628
 30
0.0
 11
0.0
 21
55.3666338583
 31
0.0
 40
0.2065568095
 41
3.1357140119
 42
3.1365354346
  0
ELLIPSE
  5
393
100
AcDbEntity
  8
0
100
AcDbEllipse
 62
7
  6
CONTINUOUS
 10
5.2666484647
 20
60.133896628
 30
0.0
 11
0.0
 21
55.3666338583
 31
0.0
 40
0.9811467443
 41
3.1356491626
 42
3.1356923955
  0
ELLIPSE
  5
394
100
AcDbEntity
  8
0
100
AcDbEllipse
 62
7
  6
CONTINUOUS
 10
4.7889920912
 20
60.133896628
 30
0.0
 11
-0.0
 21
55.3666338583
 31
0.0
 40
0.1670033826
 41
3.1466498726
 42
3.1476658432
  0
ELLIPSE
  5
395
100
AcDbEntity
  8
0
100
AcDbEllipse
 62
7
  6
CONTINUOUS
 10
4.9864300823
 20
60.133896628
 30
0.0
 11
0.0
 21
55.3666338583
 31
0.0
 40
0.3270482401
 41
3.1356059298
 42
3.1361895729
  0
ELLIPSE
  5
396
100
AcDbEntity
  8
0
100
AcDbEllipse
 62
7
  6
CONTINUOUS
 10
4.7696214534
 20
60.133896628
 30
0.0
 11
0.0
 21
55.3666338583
 31
0.0
 40
0.3270482401
 41
3.1469957343
 42
3.1475793774
  0
ELLIPSE
  5
397
100
AcDbEntity
  8
0
100
AcDbEllipse
 62
7
  6
CONTINUOUS
 10
4.8449382261
 20
60.133896628
 30
0.0
 11
0.0
 21
55.3666338583
 31
0.0
 40
0.1670033677
 41
3.135519464
 42
3.1365354346
  0
ELLIPSE
  5
398
100
AcDbEntity
  8
0
100
AcDbEllipse
 62
7
  6
CONTINUOUS
 10
4.7700128154
 20
60.133896628
 30
0.0
 11
0.0
 21
55.3666338583
 31
0.0
 40
0.3270484087
 41
-3.1365354346
 42
-3.1362760384
  0
ENDSEC
  0
SECTION
  2
OBJECTS
  0
DICTIONARY
  5
C
100
AcDbDictionary
280
0
281
1
  3
ACAD_GROUP
350
D
  3
ACAD_MLINESTYLE
350
17
  3
ACAD_LAYOUT
350
1A
  3
ACAD_PLOTSETTINGS
350
19
  3
ACAD_PLOTSTYLENAME
350
E
  0
DICTIONARY
  5
D
102
{ACAD_REACTORS
330
C
102
}
100
AcDbDictionary
280
0
281
1
  0
ACDBDICTIONARYWDFLT
  5
E
102
{ACAD_REACTORS
330
C
102
}
100
AcDbDictionary
281
1
  3
Normal
350
F
100
AcDbDictionaryWithDefault
340
F
  0
DICTIONARY
  5
17
102
{ACAD_REACTORS
330
C
102
}
100
AcDbDictionary
280
0
281
1
  3
Standard
350
18
  0
DICTIONARY
  5
19
102
{ACAD_REACTORS
330
C
102
}
100
AcDbDictionary
281
1
  0
DICTIONARY
  5
1A
102
{ACAD_REACTORS
330
C
102
}
100
AcDbDictionary
281
1
  3
Model
350
399
  3
Layout1
350
39A
  0
ACDBPLACEHOLDER
  5
F
102
{ACAD_REACTORS
330
E
102
}
  0
MLINESTYLE
  5
18
102
{ACAD_REACTORS
330
17
102
}
100
AcDbMlineStyle
  2
STANDARD
 70
0
  3

 62
256
 51
90.0
 52
90.0
 71
2
 49
0.5
 62
256
  6
BYLAYER
 49
-0.5
 62
256
  6
BYLAYER
  0
LAYOUT
  5
399
102
{ACAD_REACTORS
330
1A
102
}
100
AcDbPlotSettings
  1

  2
none_device
  4
ANSI_A_(11.00_x_8.50_Inches)
  6

 40
0.0
 41
0.0
 42
0.0
 43
0.0
 44
279.4
 45
215.9
 46
0.0
 47
0.0
 48
0.0
 49
0.0
140
0.0
141
0.0
142
1.0
143
1.0
 70
1024
 72
0
 73
0
 74
0
  7

 75
0
147
1.0
148
0.0
149
0.0
100
AcDbLayout
  1
Model
 70
0
 71
0
 10
0.0
 20
0.0
 11
11.0
 21
8.5
 12
0.0
 22
0.0
 32
0.0
 14
0.0
 24
0.0
 34
0.0
 15
0.0
 25
0.0
 35
0.0
146
0.0
 13
0.0
 23
0.0
 33
0.0
 16
1.0
 26
0.0
 36
0.0
 17
0.0
 27
1.0
 37
0.0
 76
0
330
210
345
0
346
0
  0
LAYOUT
  5
39A
102
{ACAD_REACTORS
330
1A
102
}
100
AcDbPlotSettings
  1

  2
none_device
  4
ANSI_A_(11.00_x_8.50_Inches)
  6

 40
0.0
 41
0.0
 42
0.0
 43
0.0
 44
279.4
 45
215.9
 46
0.0
 47
0.0
 48
0.0
 49
0.0
140
0.0
141
0.0
142
1.0
143
1.0
 70
0
 72
0
 73
0
 74
0
  7

 75
0
147
1.0
148
0.0
149
0.0
100
AcDbLayout
  1
Layout1
 70
0
 71
1
 10
0.0
 20
0.0
 11
11.0
 21
8.5
 12
0.0
 22
0.0
 32
0.0
 14
0.0
 24
0.0
 34
0.0
 15
0.0
 25
0.0
 35
0.0
146
0.0
 13
0.0
 23
0.0
 33
0.0
 16
1.0
 26
0.0
 36
0.0
 17
0.0
 27
1.0
 37
0.0
 76
0
330
211
345
0
346
0
  0
ENDSEC
  0
EOF
