999
DXF file: 3-8207_front.dxf
999
Pro/ENGINEER 2013150 by Parametric Technology Corporation
  0
SECTION
  2
HEADER
  9
$ACADVER
  1
AC1021
  9
$DWGCODEPAGE
  3
ANSI_1252
  9
$EXTMAX
 10
11.0
 20
8.5
 30
0.0
  9
$EXTMIN
 10
0.0
 20
0.0
 30
0.0
  9
$LIMMIN
 10
0.0
 20
0.0
  9
$LIMMAX
 10
11.0
 20
8.5
  9
$VIEWCTR
 10
5.5
 20
4.25
  9
$VIEWSIZE
 40
8.5
  9
$CLAYER
  8
0
  9
$LTSCALE
 40
0.605
  9
$CELTYPE
  6
BYLAYER
  9
$DIMSCALE
 40
1.0
  9
$DIMASZ
 40
0.1
  9
$DIMEXO
 40
0.0625
  9
$DIMDLI
 40
0.418
  9
$DIMEXE
 40
0.125
  9
$DIMCEN
 40
0.099
  9
$DIMLFAC
 40
1.0
  9
$DIMBLK
  1
_FILLED
  9
$DIMTXT
 40
0.08
  9
$DIMTOL
 70
1
  9
$DIMLIM
 70
0
  9
$DIMTFAC
 40
1.0
  9
$DIMTP
 40
0.001
  9
$DIMTM
 40
0.001
  9
$DIMGAP
 40
0.09
  9
$DIMDSEP
 70
46
  9
$PDMODE
 70
3
  9
$PDSIZE
 40
0.06
  9
$HANDSEED
  5
2E4
  9
$TILEMODE
 70
1
  9
$MEASUREMENT
 70
0
  9
$INSUNITS
 70
1
  0
ENDSEC
  0
SECTION
  2
CLASSES
  0
CLASS
  1
ACDBDICTIONARYWDFLT
  2
AcDbDictionaryWithDefault
  3
AutoCAD 2000
 90
0
 91
1
280
0
281
0
  0
CLASS
  1
ACDBPLACEHOLDER
  2
AcDbPlaceHolder
  3
AutoCAD 2000
 90
0
 91
1
280
0
281
0
  0
CLASS
  1
LAYOUT
  2
AcDbLayout
  3
AutoCAD 2000
 90
0
 91
0
280
0
281
0
  0
ENDSEC
  0
SECTION
  2
TABLES
  0
TABLE
  2
VPORT
  5
8
100
AcDbSymbolTable
 70
2
  0
VPORT
  5
1F4
100
AcDbSymbolTableRecord
100
AcDbViewportTableRecord
  2
*ACTIVE
 70
0
 10
0.0
 20
0.0
 11
1.0
 21
1.0
 12
5.5
 22
4.25
 13
0.0
 23
0.0
 14
1.0
 24
1.0
 15
0.0
 25
0.0
 16
0.0
 26
0.0
 36
1.0
 17
0.0
 27
0.0
 37
0.0
 40
8.5
 41
1.2941176471
 42
50.0
 43
0.0
 44
0.0
 50
0.0
 51
0.0
 71
0
 72
100
 73
1
 74
1
 75
0
 76
0
 77
0
 78
0
  0
ENDTAB
  0
TABLE
  2
LTYPE
  5
5
100
AcDbSymbolTable
 70
6
  0
LTYPE
  5
14
100
AcDbSymbolTableRecord
100
AcDbLinetypeTableRecord
  2
BYBLOCK
 70
0
  3

 72
65
 73
0
 40
0.0
  0
LTYPE
  5
15
100
AcDbSymbolTableRecord
100
AcDbLinetypeTableRecord
  2
BYLAYER
 70
0
  3

 72
65
 73
0
 40
0.0
  0
LTYPE
  5
16
100
AcDbSymbolTableRecord
100
AcDbLinetypeTableRecord
  2
CONTINUOUS
 70
64
  3
Solid line
 72
65
 73
0
 40
0.0
  0
LTYPE
  5
1F5
100
AcDbSymbolTableRecord
100
AcDbLinetypeTableRecord
  2
CENTER
 70
64
  3
____ _ ____ _ ____ _ ____ _ ____ _ ____ _ ____
 72
65
 73
4
 40
0.6
 49
0.375
 74
0
 49
-0.075
 74
0
 49
0.075
 74
0
 49
-0.075
 74
0
  0
LTYPE
  5
1F6
100
AcDbSymbolTableRecord
100
AcDbLinetypeTableRecord
  2
HIDDEN
 70
64
  3
- - - - - - - - - - - - - - - - - - - -
 72
65
 73
2
 40
0.2
 49
0.1
 74
0
 49
-0.1
 74
0
  0
LTYPE
  5
1F7
100
AcDbSymbolTableRecord
100
AcDbLinetypeTableRecord
  2
PHANTOM
 70
64
  3
_____ _ _ _____ _ _ _____ _ _ _____
 72
65
 73
6
 40
0.8
 49
0.45
 74
0
 49
-0.05
 74
0
 49
0.1
 74
0
 49
-0.05
 74
0
 49
0.1
 74
0
 49
-0.05
 74
0
  0
LTYPE
  5
1F8
100
AcDbSymbolTableRecord
100
AcDbLinetypeTableRecord
  2
DOT
 70
64
  3
. . . . . . . . . . . . . . . . . . . .
 72
65
 73
2
 40
0.2
 49
0.1
 74
0
 49
-0.1
 74
0
  0
LTYPE
  5
1F9
100
AcDbSymbolTableRecord
100
AcDbLinetypeTableRecord
  2
DASHED
 70
64
  3
- - - - - - - - - - - - - - - - - - - -
 72
65
 73
2
 40
0.2
 49
0.1
 74
0
 49
-0.1
 74
0
  0
ENDTAB
  0
TABLE
  2
LAYER
  5
2
100
AcDbSymbolTable
 70
36
  0
LAYER
  5
10
100
AcDbSymbolTableRecord
100
AcDbLayerTableRecord
  2
0
 70
0
 62
7
  6
CONTINUOUS
370
-3
390
F
  0
LAYER
  5
1FA
100
AcDbSymbolTableRecord
100
AcDbLayerTableRecord
  2
DEFAULT_1
 70
0
 62
7
  6
CENTER
370
-3
390
F
  0
LAYER
  5
1FB
100
AcDbSymbolTableRecord
100
AcDbLayerTableRecord
  2
DEFAULT_2
 70
0
 62
8
  6
HIDDEN
370
-3
390
F
  0
LAYER
  5
1FC
100
AcDbSymbolTableRecord
100
AcDbLayerTableRecord
  2
DEFAULT_3
 70
0
 62
7
  6
PHANTOM
370
-3
390
F
  0
LAYER
  5
1FD
100
AcDbSymbolTableRecord
100
AcDbLayerTableRecord
  2
ALL_FEATURES
 70
0
 62
7
  6
CONTINUOUS
370
-3
390
F
  0
LAYER
  5
1FE
100
AcDbSymbolTableRecord
100
AcDbLayerTableRecord
  2
AXES_FEATURES
 70
0
 62
7
  6
CONTINUOUS
370
-3
390
F
  0
LAYER
  5
1FF
100
AcDbSymbolTableRecord
100
AcDbLayerTableRecord
  2
CHAMFER_FEATURES
 70
0
 62
7
  6
CONTINUOUS
370
-3
390
F
  0
LAYER
  5
200
100
AcDbSymbolTableRecord
100
AcDbLayerTableRecord
  2
DEFAULT_COORDINATE_SYSTEM
 70
0
 62
7
  6
CONTINUOUS
370
-3
390
F
  0
LAYER
  5
201
100
AcDbSymbolTableRecord
100
AcDbLayerTableRecord
  2
DEFAULT_DATUM_AXES
 70
0
 62
7
  6
CONTINUOUS
370
-3
390
F
  0
LAYER
  5
202
100
AcDbSymbolTableRecord
100
AcDbLayerTableRecord
  2
DEFAULT_DATUM_PLANES
 70
0
 62
7
  6
CONTINUOUS
370
-3
390
F
  0
LAYER
  5
203
100
AcDbSymbolTableRecord
100
AcDbLayerTableRecord
  2
DEFAULT_SURFACES
 70
0
 62
7
  6
CONTINUOUS
370
-3
390
F
  0
LAYER
  5
204
100
AcDbSymbolTableRecord
100
AcDbLayerTableRecord
  2
DIMENSIONS
 70
0
 62
7
  6
CONTINUOUS
370
-3
390
F
  0
LAYER
  5
205
100
AcDbSymbolTableRecord
100
AcDbLayerTableRecord
  2
PROTRUSION_FEATURES
 70
0
 62
7
  6
CONTINUOUS
370
-3
390
F
  0
LAYER
  5
206
100
AcDbSymbolTableRecord
100
AcDbLayerTableRecord
  2
QUILTS
 70
0
 62
7
  6
CONTINUOUS
370
-3
390
F
  0
LAYER
  5
207
100
AcDbSymbolTableRecord
100
AcDbLayerTableRecord
  2
ROUND_FEATURES
 70
0
 62
7
  6
CONTINUOUS
370
-3
390
F
  0
LAYER
  5
208
100
AcDbSymbolTableRecord
100
AcDbLayerTableRecord
  2
WETTED_SURFACE_AREA
 70
0
 62
7
  6
CONTINUOUS
370
-3
390
F
  0
LAYER
  5
209
100
AcDbSymbolTableRecord
100
AcDbLayerTableRecord
  2
WHITE
 70
0
 62
7
  6
CONTINUOUS
370
-3
390
F
  0
ENDTAB
  0
TABLE
  2
STYLE
  5
3
100
AcDbSymbolTable
 70
1
  0
STYLE
  5
11
100
AcDbSymbolTableRecord
100
AcDbTextStyleTableRecord
  2
STANDARD
 70
0
 40
0.0
 41
0.8
 50
0.0
 71
0
 42
0.2
  3
txt
  4

  0
STYLE
  5
20A
100
AcDbSymbolTableRecord
100
AcDbTextStyleTableRecord
  2
TEXTSTYLE_1
 70
0
 40
0.0
 41
0.8
 50
0.0
 71
0
 42
0.2
  3
gdt
  4

  0
ENDTAB
  0
TABLE
  2
VIEW
  5
6
100
AcDbSymbolTable
 70
0
  0
ENDTAB
  0
TABLE
  2
UCS
  5
7
100
AcDbSymbolTable
 70
0
  0
ENDTAB
  0
TABLE
  2
APPID
  5
9
100
AcDbSymbolTable
 70
1
  0
APPID
  5
20B
100
AcDbSymbolTableRecord
100
AcDbRegAppTableRecord
  2
ACAD
 70
0
  0
ENDTAB
  0
TABLE
  2
BLOCK_RECORD
  5
1
100
AcDbSymbolTable
 70
0
  0
BLOCK_RECORD
  5
20C
100
AcDbSymbolTableRecord
100
AcDbBlockTableRecord
  2
*Model_Space
  0
BLOCK_RECORD
  5
20D
100
AcDbSymbolTableRecord
100
AcDbBlockTableRecord
  2
*Paper_Space
  0
ENDTAB
  0
TABLE
  2
DIMSTYLE
  5
A
100
AcDbSymbolTable
 70
1
100
AcDbDimStyleTable
 71
0
  0
DIMSTYLE
105
20E
100
AcDbSymbolTableRecord
100
AcDbDimStyleTableRecord
  2
STANDARD
 70
0
  3

  4

 40
1.0
 41
0.1
 42
0.0625
 43
0.38
 44
0.125
 45
0.0
 46
0.0
 47
0.001
 48
0.001
140
0.08
141
0.09
142
0.0
143
25.4
144
1.0
145
0.0
146
1.0
147
0.09
 71
1.0
 72
0.0
 73
1
 74
1
 75
0
 76
0
 77
0
 78
4
170
0
171
2
172
0
173
0
174
0
175
0
176
0
177
0
178
0
270
2
271
3
272
3
273
2
274
2
275
0
280
0
281
0
282
0
283
1
284
4
285
0
286
0
287
3
288
0
340
11
278
46
  0
ENDTAB
  0
ENDSEC
  0
SECTION
  2
BLOCKS
  0
BLOCK
  5
20
100
AcDbEntity
  8
0
100
AcDbBlockBegin
  2
*Model_Space
 70
0
 10
0.0
 20
0.0
 30
0.0
  3
*Model_Space
  1

  0
ENDBLK
  5
21
100
AcDbEntity
  8
0
100
AcDbBlockEnd
  0
BLOCK
  5
1C
100
AcDbEntity
  8
0
100
AcDbBlockBegin
  2
*Paper_Space
 70
0
 10
0.0
 20
0.0
 30
0.0
  3
*Paper_Space
  1

  0
ENDBLK
  5
1D
100
AcDbEntity
  8
0
100
AcDbBlockEnd
  0
ENDSEC
  0
SECTION
  2
ENTITIES
  0
LINE
  5
20F
100
AcDbEntity
  8
0
100
AcDbLine
 62
7
  6
CONTINUOUS
 10
0.0
 20
0.0
 11
0.0
 21
8.5
  0
LINE
  5
210
100
AcDbEntity
  8
0
100
AcDbLine
 62
7
  6
CONTINUOUS
 10
0.0
 20
0.0
 11
11.0
 21
0.0
  0
LINE
  5
211
100
AcDbEntity
  8
0
100
AcDbLine
 62
7
  6
CONTINUOUS
 10
0.0
 20
8.5
 11
11.0
 21
8.5
  0
LINE
  5
212
100
AcDbEntity
  8
0
100
AcDbLine
 62
7
  6
CONTINUOUS
 10
11.0
 20
0.0
 11
11.0
 21
8.5
  0
LINE
  5
213
100
AcDbEntity
  8
0
100
AcDbLine
 62
7
  6
CONTINUOUS
 10
1.5256119217
 20
1.8390967005
 11
1.5256119217
 21
1.6422463068
  0
LINE
  5
214
100
AcDbEntity
  8
0
100
AcDbLine
 62
9
  6
CONTINUOUS
 10
1.5354544414
 20
1.8489392201
 11
1.5354544414
 21
1.6324037871
  0
LINE
  5
215
100
AcDbEntity
  8
0
100
AcDbLine
 62
7
  6
CONTINUOUS
 10
2.2631020792
 20
1.0182100863
 11
2.2581020792
 21
1.0232100863
  0
LINE
  5
216
100
AcDbEntity
  8
0
100
AcDbLine
 62
7
  6
CONTINUOUS
 10
2.3052407831
 20
1.0182100863
 11
2.3002407831
 21
1.0232100863
  0
LINE
  5
217
100
AcDbEntity
  8
0
100
AcDbLine
 62
9
  6
CONTINUOUS
 10
2.3090007369
 20
1.0232100863
 11
2.3132740014
 21
1.0182100863
  0
LINE
  5
218
100
AcDbEntity
  8
0
100
AcDbLine
 62
9
  6
CONTINUOUS
 10
2.6013520883
 20
1.0232100863
 11
2.6055886782
 21
1.0182100863
  0
LINE
  5
219
100
AcDbEntity
  8
0
100
AcDbLine
 62
9
  6
CONTINUOUS
 10
2.3081308077
 20
1.0232100863
 11
2.3083121824
 21
1.0182100863
  0
LINE
  5
21A
100
AcDbEntity
  8
0
100
AcDbLine
 62
7
  6
CONTINUOUS
 10
2.058289087
 20
1.0182100863
 11
2.058289087
 21
0.8182100863
  0
LINE
  5
21B
100
AcDbEntity
  8
0
100
AcDbLine
 62
9
  6
CONTINUOUS
 10
2.2301736185
 20
1.4774123375
 11
2.2301736185
 21
1.6114109847
  0
LINE
  5
21C
100
AcDbEntity
  8
0
100
AcDbLine
 62
7
  6
CONTINUOUS
 10
2.234273339
 20
1.8886114405
 11
2.234273339
 21
1.8587817398
  0
LINE
  5
21D
100
AcDbEntity
  8
0
100
AcDbLine
 62
7
  6
CONTINUOUS
 10
2.234273339
 20
1.4656715036
 11
2.234273339
 21
1.0320100863
  0
LINE
  5
21E
100
AcDbEntity
  8
0
100
AcDbLine
 62
7
  6
CONTINUOUS
 10
2.2581020792
 20
1.0232100863
 11
2.2581020792
 21
1.0320100863
  0
LINE
  5
21F
100
AcDbEntity
  8
0
100
AcDbLine
 62
9
  6
CONTINUOUS
 10
2.6004751155
 20
1.0232100863
 11
2.600586684
 21
1.0182100863
  0
LINE
  5
220
100
AcDbEntity
  8
0
100
AcDbLine
 62
7
  6
CONTINUOUS
 10
2.3002407831
 20
1.0232100863
 11
2.3002407831
 21
1.0320100863
  0
LINE
  5
221
100
AcDbEntity
  8
0
100
AcDbLine
 62
9
  6
CONTINUOUS
 10
2.3081308076
 20
1.0232100863
 11
2.3081308076
 21
1.0320100863
  0
LINE
  5
222
100
AcDbEntity
  8
0
100
AcDbLine
 62
9
  6
CONTINUOUS
 10
2.3090007369
 20
1.0232100863
 11
2.3090007369
 21
1.0320100863
  0
LINE
  5
223
100
AcDbEntity
  8
0
100
AcDbLine
 62
9
  6
CONTINUOUS
 10
2.6004751154
 20
1.0232100863
 11
2.6004751154
 21
1.0320100863
  0
LINE
  5
224
100
AcDbEntity
  8
0
100
AcDbLine
 62
9
  6
CONTINUOUS
 10
2.6013520884
 20
1.0232100863
 11
2.6013520884
 21
1.0320100863
  0
LINE
  5
225
100
AcDbEntity
  8
0
100
AcDbLine
 62
9
  6
CONTINUOUS
 10
2.6152260857
 20
1.0232100863
 11
2.6152260857
 21
1.0320100863
  0
LINE
  5
226
100
AcDbEntity
  8
0
100
AcDbLine
 62
9
  6
CONTINUOUS
 10
2.6161030587
 20
1.0232100863
 11
2.6161030587
 21
1.0320100863
  0
LINE
  5
227
100
AcDbEntity
  8
0
100
AcDbLine
 62
9
  6
CONTINUOUS
 10
2.9075774372
 20
1.0232100863
 11
2.9075774372
 21
1.0320100863
  0
LINE
  5
228
100
AcDbEntity
  8
0
100
AcDbLine
 62
9
  6
CONTINUOUS
 10
2.9084473665
 20
1.0232100863
 11
2.9084473665
 21
1.0320100863
  0
LINE
  5
229
100
AcDbEntity
  8
0
100
AcDbLine
 62
7
  6
CONTINUOUS
 10
2.916337391
 20
1.0232100863
 11
2.916337391
 21
1.0320100863
  0
LINE
  5
22A
100
AcDbEntity
  8
0
100
AcDbLine
 62
9
  6
CONTINUOUS
 10
2.6161030587
 20
1.0232100863
 11
2.6159914899
 21
1.0182100863
  0
LINE
  5
22B
100
AcDbEntity
  8
0
100
AcDbLine
 62
7
  6
CONTINUOUS
 10
8.5689198283
 20
0.8181707162
 11
9.6476583457
 21
0.8181707162
  0
LINE
  5
22C
100
AcDbEntity
  8
0
100
AcDbLine
 62
7
  6
CONTINUOUS
 10
2.058289087
 20
0.8182100863
 11
3.158289087
 21
0.8182100863
  0
LINE
  5
22D
100
AcDbEntity
  8
0
100
AcDbLine
 62
7
  6
CONTINUOUS
 10
3.9281765242
 20
0.8182100863
 11
5.2884071973
 21
0.8182100863
  0
LINE
  5
22E
100
AcDbEntity
  8
0
100
AcDbLine
 62
7
  6
CONTINUOUS
 10
6.058289087
 20
0.8182100863
 11
7.158289087
 21
0.8182100863
  0
LINE
  5
22F
100
AcDbEntity
  8
0
100
AcDbLine
 62
9
  6
CONTINUOUS
 10
3.9242339689
 20
0.8221470942
 11
5.2923442051
 21
0.8221470942
  0
LINE
  5
230
100
AcDbEntity
  8
0
100
AcDbLine
 62
9
  6
CONTINUOUS
 10
8.5689190083
 20
0.9583281965
 11
9.6476591658
 21
0.9583281965
  0
LINE
  5
231
100
AcDbEntity
  8
0
100
AcDbLine
 62
7
  6
CONTINUOUS
 10
9.6378166461
 20
0.9681707162
 11
8.578761528
 21
0.9681707162
  0
LINE
  5
232
100
AcDbEntity
  8
0
100
AcDbLine
 62
7
  6
CONTINUOUS
 10
8.798289087
 20
0.9731707162
 11
9.4181983479
 21
0.9731707162
  0
LINE
  5
233
100
AcDbEntity
  8
0
100
AcDbLine
 62
9
  6
CONTINUOUS
 10
8.8031709768
 20
0.9830132359
 11
9.4134071973
 21
0.9830132359
  0
LINE
  5
234
100
AcDbEntity
  8
0
100
AcDbLine
 62
9
  6
CONTINUOUS
 10
5.2923442051
 20
1.0111234721
 11
3.9242339689
 21
1.0111234721
  0
LINE
  5
235
100
AcDbEntity
  8
0
100
AcDbLine
 62
7
  6
CONTINUOUS
 10
5.2884015495
 20
1.01506048
 11
3.9281766245
 21
1.01506048
  0
LINE
  5
236
100
AcDbEntity
  8
0
100
AcDbLine
 62
7
  6
CONTINUOUS
 10
7.158289087
 20
1.0182100863
 11
6.058289087
 21
1.0182100863
  0
LINE
  5
237
100
AcDbEntity
  8
0
100
AcDbLine
 62
7
  6
CONTINUOUS
 10
3.158289087
 20
1.0182100863
 11
2.058289087
 21
1.0182100863
  0
LINE
  5
238
100
AcDbEntity
  8
0
100
AcDbLine
 62
7
  6
CONTINUOUS
 10
2.2581020792
 20
1.0232100863
 11
2.9584760949
 21
1.0232100863
  0
LINE
  5
239
100
AcDbEntity
  8
0
100
AcDbLine
 62
7
  6
CONTINUOUS
 10
6.2581020792
 20
1.0232100863
 11
6.9584760949
 21
1.0232100863
  0
LINE
  5
23A
100
AcDbEntity
  8
0
100
AcDbLine
 62
7
  6
CONTINUOUS
 10
2.234273339
 20
1.0320100863
 11
2.9823048351
 21
1.0320100863
  0
LINE
  5
23B
100
AcDbEntity
  8
0
100
AcDbLine
 62
7
  6
CONTINUOUS
 10
6.234273339
 20
1.0320100863
 11
6.9823048351
 21
1.0320100863
  0
LINE
  5
23C
100
AcDbEntity
  8
0
100
AcDbLine
 62
7
  6
CONTINUOUS
 10
2.9584760949
 20
1.0232100863
 11
2.9584760949
 21
1.0320100863
  0
LINE
  5
23D
100
AcDbEntity
  8
0
100
AcDbLine
 62
7
  6
CONTINUOUS
 10
2.9823048351
 20
1.8886114405
 11
2.9823048351
 21
1.0320100863
  0
LINE
  5
23E
100
AcDbEntity
  8
0
100
AcDbLine
 62
7
  6
CONTINUOUS
 10
3.158289087
 20
1.0182100863
 11
3.158289087
 21
0.8182100863
  0
LINE
  5
23F
100
AcDbEntity
  8
0
100
AcDbLine
 62
9
  6
CONTINUOUS
 10
2.9084473664
 20
1.0232100863
 11
2.9082659915
 21
1.0182100863
  0
LINE
  5
240
100
AcDbEntity
  8
0
100
AcDbLine
 62
7
  6
CONTINUOUS
 10
2.2244308193
 20
1.6324037871
 11
1.5354544414
 21
1.6324037871
  0
LINE
  5
241
100
AcDbEntity
  8
0
100
AcDbLine
 62
7
  6
CONTINUOUS
 10
6.9921473547
 20
1.6324037871
 11
7.6811237327
 21
1.6324037871
  0
LINE
  5
242
100
AcDbEntity
  8
0
100
AcDbLine
 62
7
  6
CONTINUOUS
 10
3.9242339689
 20
0.8221470942
 11
3.9242339689
 21
1.0111234721
  0
LINE
  5
243
100
AcDbEntity
  8
0
100
AcDbLine
 62
7
  6
CONTINUOUS
 10
2.2244308193
 20
1.8489392201
 11
1.5354544414
 21
1.8489392201
  0
LINE
  5
244
100
AcDbEntity
  8
0
100
AcDbLine
 62
7
  6
CONTINUOUS
 10
6.9921473547
 20
1.8489392201
 11
7.6811237327
 21
1.8489392201
  0
LINE
  5
245
100
AcDbEntity
  8
0
100
AcDbLine
 62
9
  6
CONTINUOUS
 10
6.9823048351
 20
1.8886114405
 11
6.2342852925
 21
1.8886114405
  0
LINE
  5
246
100
AcDbEntity
  8
0
100
AcDbLine
 62
9
  6
CONTINUOUS
 10
2.9823048351
 20
1.8886114405
 11
2.2342852925
 21
1.8886114405
  0
LINE
  5
247
100
AcDbEntity
  8
0
100
AcDbLine
 62
9
  6
CONTINUOUS
 10
2.2438130455
 20
1.898449301
 11
2.9727651286
 21
1.898449301
  0
LINE
  5
248
100
AcDbEntity
  8
0
100
AcDbLine
 62
9
  6
CONTINUOUS
 10
6.2438130455
 20
1.898449301
 11
6.9727651286
 21
1.898449301
  0
LINE
  5
249
100
AcDbEntity
  8
0
100
AcDbLine
 62
7
  6
CONTINUOUS
 10
4.1358481421
 20
2.8556116611
 11
4.1358481421
 21
1.01506048
  0
LINE
  5
24A
100
AcDbEntity
  8
0
100
AcDbLine
 62
7
  6
CONTINUOUS
 10
6.2631020792
 20
1.0182100863
 11
6.2581020792
 21
1.0232100863
  0
LINE
  5
24B
100
AcDbEntity
  8
0
100
AcDbLine
 62
7
  6
CONTINUOUS
 10
6.3052407831
 20
1.0182100863
 11
6.3002407831
 21
1.0232100863
  0
LINE
  5
24C
100
AcDbEntity
  8
0
100
AcDbLine
 62
7
  6
CONTINUOUS
 10
4.3720686146
 20
2.8556116611
 11
4.3720686146
 21
6.5244541388
  0
LINE
  5
24D
100
AcDbEntity
  8
0
100
AcDbLine
 62
9
  6
CONTINUOUS
 10
4.3819111402
 20
4.3023548032
 11
4.3819111402
 21
4.3023466683
  0
LINE
  5
24E
100
AcDbEntity
  8
0
100
AcDbLine
 62
9
  6
CONTINUOUS
 10
6.3090007369
 20
1.0232100863
 11
6.3132740014
 21
1.0182100863
  0
LINE
  5
24F
100
AcDbEntity
  8
0
100
AcDbLine
 62
9
  6
CONTINUOUS
 10
6.6013520883
 20
1.0232100863
 11
6.6055886782
 21
1.0182100863
  0
LINE
  5
250
100
AcDbEntity
  8
0
100
AcDbLine
 62
9
  6
CONTINUOUS
 10
4.8346670344
 20
4.3023385486
 11
4.8346670344
 21
4.302346682
  0
LINE
  5
251
100
AcDbEntity
  8
0
100
AcDbLine
 62
7
  6
CONTINUOUS
 10
4.8445095595
 20
2.8556116611
 11
4.8445095595
 21
6.5244541388
  0
LINE
  5
252
100
AcDbEntity
  8
0
100
AcDbLine
 62
7
  6
CONTINUOUS
 10
5.0807300319
 20
2.8556116611
 11
4.1358481421
 21
2.8556116611
  0
LINE
  5
253
100
AcDbEntity
  8
0
100
AcDbLine
 62
7
  6
CONTINUOUS
 10
5.0807300319
 20
2.8556116611
 11
5.0807300319
 21
1.01506048
  0
LINE
  5
254
100
AcDbEntity
  8
0
100
AcDbLine
 62
7
  6
CONTINUOUS
 10
5.2923442051
 20
0.8221470942
 11
5.2923442051
 21
1.0111234721
  0
LINE
  5
255
100
AcDbEntity
  8
0
100
AcDbLine
 62
9
  6
CONTINUOUS
 10
2.6152260858
 20
1.0232100863
 11
2.610989496
 21
1.0182100863
  0
LINE
  5
256
100
AcDbEntity
  8
0
100
AcDbLine
 62
9
  6
CONTINUOUS
 10
2.9075774372
 20
1.0232100863
 11
2.9033041726
 21
1.0182100863
  0
LINE
  5
257
100
AcDbEntity
  8
0
100
AcDbLine
 62
7
  6
CONTINUOUS
 10
9.4134067563
 20
3.6109659918
 11
8.8031714178
 21
3.6109659918
  0
LINE
  5
258
100
AcDbEntity
  8
0
100
AcDbLine
 62
7
  6
CONTINUOUS
 10
8.8031725643
 20
3.6158872516
 11
9.4134056098
 21
3.6158872516
  0
LINE
  5
259
100
AcDbEntity
  8
0
100
AcDbLine
 62
7
  6
CONTINUOUS
 10
2.911337391
 20
1.0182100863
 11
2.916337391
 21
1.0232100863
  0
LINE
  5
25A
100
AcDbEntity
  8
0
100
AcDbLine
 62
7
  6
CONTINUOUS
 10
2.9534760949
 20
1.0182100863
 11
2.9584760949
 21
1.0232100863
  0
LINE
  5
25B
100
AcDbEntity
  8
0
100
AcDbLine
 62
9
  6
CONTINUOUS
 10
6.3081308077
 20
1.0232100863
 11
6.3083121824
 21
1.0182100863
  0
LINE
  5
25C
100
AcDbEntity
  8
0
100
AcDbLine
 62
7
  6
CONTINUOUS
 10
6.058289087
 20
1.0182100863
 11
6.058289087
 21
0.8182100863
  0
LINE
  5
25D
100
AcDbEntity
  8
0
100
AcDbLine
 62
7
  6
CONTINUOUS
 10
6.234273339
 20
1.8886114405
 11
6.234273339
 21
1.0320100863
  0
LINE
  5
25E
100
AcDbEntity
  8
0
100
AcDbLine
 62
7
  6
CONTINUOUS
 10
6.2581020792
 20
1.0232100863
 11
6.2581020792
 21
1.0320100863
  0
LINE
  5
25F
100
AcDbEntity
  8
0
100
AcDbLine
 62
7
  6
CONTINUOUS
 10
6.3002407831
 20
1.0232100863
 11
6.3002407831
 21
1.0320100863
  0
LINE
  5
260
100
AcDbEntity
  8
0
100
AcDbLine
 62
9
  6
CONTINUOUS
 10
6.6004751155
 20
1.0232100863
 11
6.600586684
 21
1.0182100863
  0
LINE
  5
261
100
AcDbEntity
  8
0
100
AcDbLine
 62
9
  6
CONTINUOUS
 10
6.3081308076
 20
1.0232100863
 11
6.3081308076
 21
1.0320100863
  0
LINE
  5
262
100
AcDbEntity
  8
0
100
AcDbLine
 62
9
  6
CONTINUOUS
 10
6.3090007369
 20
1.0232100863
 11
6.3090007369
 21
1.0320100863
  0
LINE
  5
263
100
AcDbEntity
  8
0
100
AcDbLine
 62
9
  6
CONTINUOUS
 10
6.6004751154
 20
1.0232100863
 11
6.6004751154
 21
1.0320100863
  0
LINE
  5
264
100
AcDbEntity
  8
0
100
AcDbLine
 62
9
  6
CONTINUOUS
 10
6.6013520884
 20
1.0232100863
 11
6.6013520884
 21
1.0320100863
  0
LINE
  5
265
100
AcDbEntity
  8
0
100
AcDbLine
 62
9
  6
CONTINUOUS
 10
6.6152260857
 20
1.0232100863
 11
6.6152260857
 21
1.0320100863
  0
LINE
  5
266
100
AcDbEntity
  8
0
100
AcDbLine
 62
9
  6
CONTINUOUS
 10
6.6161030587
 20
1.0232100863
 11
6.6161030587
 21
1.0320100863
  0
LINE
  5
267
100
AcDbEntity
  8
0
100
AcDbLine
 62
9
  6
CONTINUOUS
 10
6.9075774372
 20
1.0232100863
 11
6.9075774372
 21
1.0320100863
  0
LINE
  5
268
100
AcDbEntity
  8
0
100
AcDbLine
 62
9
  6
CONTINUOUS
 10
6.9084473665
 20
1.0232100863
 11
6.9084473665
 21
1.0320100863
  0
LINE
  5
269
100
AcDbEntity
  8
0
100
AcDbLine
 62
7
  6
CONTINUOUS
 10
6.916337391
 20
1.0232100863
 11
6.916337391
 21
1.0320100863
  0
LINE
  5
26A
100
AcDbEntity
  8
0
100
AcDbLine
 62
7
  6
CONTINUOUS
 10
6.9584760949
 20
1.0232100863
 11
6.9584760949
 21
1.0320100863
  0
LINE
  5
26B
100
AcDbEntity
  8
0
100
AcDbLine
 62
9
  6
CONTINUOUS
 10
6.6161030587
 20
1.0232100863
 11
6.6159914899
 21
1.0182100863
  0
LINE
  5
26C
100
AcDbEntity
  8
0
100
AcDbLine
 62
7
  6
CONTINUOUS
 10
9.4134056098
 20
5.1070289839
 11
8.8031725643
 21
5.1070289839
  0
LINE
  5
26D
100
AcDbEntity
  8
0
100
AcDbLine
 62
7
  6
CONTINUOUS
 10
6.9823048351
 20
1.8886114405
 11
6.9823048351
 21
1.8587817398
  0
LINE
  5
26E
100
AcDbEntity
  8
0
100
AcDbLine
 62
7
  6
CONTINUOUS
 10
6.9823048351
 20
1.4656715036
 11
6.9823048351
 21
1.0320100863
  0
LINE
  5
26F
100
AcDbEntity
  8
0
100
AcDbLine
 62
9
  6
CONTINUOUS
 10
6.9864045556
 20
1.4774123375
 11
6.9864045556
 21
1.6114109847
  0
LINE
  5
270
100
AcDbEntity
  8
0
100
AcDbLine
 62
7
  6
CONTINUOUS
 10
7.158289087
 20
1.0182100863
 11
7.158289087
 21
0.8182100863
  0
LINE
  5
271
100
AcDbEntity
  8
0
100
AcDbLine
 62
9
  6
CONTINUOUS
 10
6.9084473664
 20
1.0232100863
 11
6.9082659915
 21
1.0182100863
  0
LINE
  5
272
100
AcDbEntity
  8
0
100
AcDbLine
 62
9
  6
CONTINUOUS
 10
7.6811237327
 20
1.6324037871
 11
7.6811237327
 21
1.8489392201
  0
LINE
  5
273
100
AcDbEntity
  8
0
100
AcDbLine
 62
7
  6
CONTINUOUS
 10
7.6909662524
 20
1.8390967005
 11
7.6909662524
 21
1.6422463068
  0
LINE
  5
274
100
AcDbEntity
  8
0
100
AcDbLine
 62
9
  6
CONTINUOUS
 10
6.6152260858
 20
1.0232100863
 11
6.610989496
 21
1.0182100863
  0
LINE
  5
275
100
AcDbEntity
  8
0
100
AcDbLine
 62
7
  6
CONTINUOUS
 10
8.5689190083
 20
0.9583281965
 11
8.5689190083
 21
0.8181707162
  0
LINE
  5
276
100
AcDbEntity
  8
0
100
AcDbLine
 62
9
  6
CONTINUOUS
 10
6.9075774372
 20
1.0232100863
 11
6.9033041726
 21
1.0182100863
  0
LINE
  5
277
100
AcDbEntity
  8
0
100
AcDbLine
 62
7
  6
CONTINUOUS
 10
6.911337391
 20
1.0182100863
 11
6.916337391
 21
1.0232100863
  0
LINE
  5
278
100
AcDbEntity
  8
0
100
AcDbLine
 62
7
  6
CONTINUOUS
 10
6.9534760949
 20
1.0182100863
 11
6.9584760949
 21
1.0232100863
  0
LINE
  5
279
100
AcDbEntity
  8
ALL_FEATURES
100
AcDbLine
 62
7
  6
CONTINUOUS
 10
8.798289087
 20
0.9731707162
 11
8.798289087
 21
0.9681707162
  0
LINE
  5
27A
100
AcDbEntity
  8
0
100
AcDbLine
 62
7
  6
CONTINUOUS
 10
8.8031709768
 20
0.9830132359
 11
8.8031725643
 21
5.1070289839
  0
LINE
  5
27B
100
AcDbEntity
  8
0
100
AcDbLine
 62
7
  6
CONTINUOUS
 10
9.4134071973
 20
0.9830132359
 11
9.4134056098
 21
5.1070289839
  0
LINE
  5
27C
100
AcDbEntity
  8
0
100
AcDbLine
 62
7
  6
CONTINUOUS
 10
9.4181983479
 20
0.9731707162
 11
9.4181983479
 21
0.9681707162
  0
LINE
  5
27D
100
AcDbEntity
  8
0
100
AcDbLine
 62
7
  6
CONTINUOUS
 10
9.6476591658
 20
0.9583281965
 11
9.6476591658
 21
0.8181707162
  0
ARC
  5
27E
100
AcDbEntity
  8
0
100
AcDbCircle
 62
7
  6
CONTINUOUS
 10
2.608289087
 20
-9.9427274465
 40
11.8467847769
100
AcDbArc
 50
88.2369701891
 51
91.7630298109
  0
ARC
  5
27F
100
AcDbEntity
  8
0
100
AcDbCircle
 62
7
  6
CONTINUOUS
 10
4.6082890917
 20
1.9742078984
 40
2.7115141596
100
AcDbArc
 50
89.886314639
 51
90.1139058388
  0
ARC
  5
280
100
AcDbEntity
  8
0
100
AcDbCircle
 62
7
  6
CONTINUOUS
 10
2.6181316067
 20
1.5444116611
 40
0.3937007874
100
AcDbArc
 50
170.2018150924
 51
189.7981849076
  0
ARC
  5
281
100
AcDbEntity
  8
0
100
AcDbCircle
 62
7
  6
CONTINUOUS
 10
4.608289087
 20
6.5249029997
 40
0.2362204724
100
AcDbArc
 50
0.0
 51
180.0
  0
ARC
  5
282
100
AcDbEntity
  8
0
100
AcDbCircle
 62
7
  6
CONTINUOUS
 10
2.2441158587
 20
1.6090031965
 40
0.014148622
100
AcDbArc
 50
130.3143981273
 51
170.2018150925
  0
ARC
  5
283
100
AcDbEntity
  8
0
100
AcDbCircle
 62
7
  6
CONTINUOUS
 10
2.2441158587
 20
1.4798201257
 40
0.014148622
100
AcDbArc
 50
189.7981849075
 51
229.67824546
  0
ARC
  5
284
100
AcDbEntity
  8
0
100
AcDbCircle
 62
7
  6
CONTINUOUS
 10
2.224423016
 20
1.6225494113
 40
0.0098546884
100
AcDbArc
 50
25.7247373921
 51
89.9534521276
  0
ARC
  5
285
100
AcDbEntity
  8
0
100
AcDbCircle
 62
7
  6
CONTINUOUS
 10
2.2244309186
 20
1.858781516
 40
0.0098425698
100
AcDbArc
 50
270.0004602844
 51
0.0013029268
  0
ARC
  5
286
100
AcDbEntity
  8
0
100
AcDbCircle
 62
7
  6
CONTINUOUS
 10
1.5354544414
 20
1.6422463068
 40
0.0098425197
100
AcDbArc
 50
180.0
 51
270.0
  0
ARC
  5
287
100
AcDbEntity
  8
0
100
AcDbCircle
 62
7
  6
CONTINUOUS
 10
1.5354544414
 20
1.8390967005
 40
0.0098425197
100
AcDbArc
 50
90.0
 51
180.0
  0
ARC
  5
288
100
AcDbEntity
  8
0
100
AcDbCircle
 62
7
  6
CONTINUOUS
 10
2.9724623154
 20
1.8886114405
 40
0.0098425197
100
AcDbArc
 50
0.0
 51
88.2369701886
  0
ARC
  5
289
100
AcDbEntity
  8
0
100
AcDbCircle
 62
7
  6
CONTINUOUS
 10
2.2441158587
 20
1.8886114405
 40
0.0098425197
100
AcDbArc
 50
91.7630298114
 51
180.0
  0
ARC
  5
28A
100
AcDbEntity
  8
0
100
AcDbCircle
 62
7
  6
CONTINUOUS
 10
2.2244466012
 20
1.6225648599
 40
0.009826736
100
AcDbArc
 50
3.4243785103
 51
25.703278742
  0
ARC
  5
28B
100
AcDbEntity
  8
0
100
AcDbCircle
 62
7
  6
CONTINUOUS
 10
5.2884071973
 20
0.8221470942
 40
0.0039370079
100
AcDbArc
 50
270.0
 51
360.0
  0
ARC
  5
28C
100
AcDbEntity
  8
0
100
AcDbCircle
 62
7
  6
CONTINUOUS
 10
3.9281709768
 20
0.8221470942
 40
0.0039370079
100
AcDbArc
 50
180.0
 51
270.0
  0
ARC
  5
28D
100
AcDbEntity
  8
0
100
AcDbCircle
 62
7
  6
CONTINUOUS
 10
3.9281709768
 20
1.0111234721
 40
0.0039370079
100
AcDbArc
 50
90.0
 51
180.0
  0
ARC
  5
28E
100
AcDbEntity
  8
0
100
AcDbCircle
 62
7
  6
CONTINUOUS
 10
5.2884071973
 20
1.0111234721
 40
0.0039370079
100
AcDbArc
 50
0.0
 51
90.0
  0
ARC
  5
28F
100
AcDbEntity
  8
0
100
AcDbCircle
 62
7
  6
CONTINUOUS
 10
6.608289087
 20
-9.9427274465
 40
11.8467847769
100
AcDbArc
 50
88.2369701891
 51
91.7630298109
  0
ARC
  5
290
100
AcDbEntity
  8
0
100
AcDbCircle
 62
9
  6
CONTINUOUS
 10
7.4690499859
 20
1.7682642203
 40
0.5080859031
100
AcDbArc
 50
196.1989219175
 51
196.4032857994
  0
ARC
  5
291
100
AcDbEntity
  8
0
100
AcDbCircle
 62
7
  6
CONTINUOUS
 10
6.5984465673
 20
1.5444116611
 40
0.3937007874
100
AcDbArc
 50
350.2018150924
 51
9.7981849076
  0
ARC
  5
292
100
AcDbEntity
  8
0
100
AcDbCircle
 62
7
  6
CONTINUOUS
 10
6.9724623154
 20
1.6090031965
 40
0.014148622
100
AcDbArc
 50
9.7981849075
 51
49.6856757457
  0
ARC
  5
293
100
AcDbEntity
  8
0
100
AcDbCircle
 62
7
  6
CONTINUOUS
 10
6.9724623154
 20
1.4798201257
 40
0.014148622
100
AcDbArc
 50
310.3212635161
 51
350.2018150925
  0
ARC
  5
294
100
AcDbEntity
  8
0
100
AcDbCircle
 62
7
  6
CONTINUOUS
 10
6.9921551581
 20
1.6225494113
 40
0.0098546884
100
AcDbArc
 50
90.0465478724
 51
154.2752626079
  0
ARC
  5
295
100
AcDbEntity
  8
0
100
AcDbCircle
 62
7
  6
CONTINUOUS
 10
6.9921472555
 20
1.858781516
 40
0.0098425698
100
AcDbArc
 50
179.9986970732
 51
269.9995397156
  0
ARC
  5
296
100
AcDbEntity
  8
0
100
AcDbCircle
 62
7
  6
CONTINUOUS
 10
7.6811237327
 20
1.6422463068
 40
0.0098425197
100
AcDbArc
 50
270.0
 51
360.0
  0
ARC
  5
297
100
AcDbEntity
  8
0
100
AcDbCircle
 62
7
  6
CONTINUOUS
 10
7.6811237327
 20
1.8390967005
 40
0.0098425197
100
AcDbArc
 50
0.0
 51
90.0
  0
ARC
  5
298
100
AcDbEntity
  8
0
100
AcDbCircle
 62
7
  6
CONTINUOUS
 10
6.2441158587
 20
1.8886114405
 40
0.0098425197
100
AcDbArc
 50
91.7630298114
 51
180.0
  0
ARC
  5
299
100
AcDbEntity
  8
0
100
AcDbCircle
 62
7
  6
CONTINUOUS
 10
6.9724623154
 20
1.8886114405
 40
0.0098425197
100
AcDbArc
 50
0.0
 51
88.2369701886
  0
ARC
  5
29A
100
AcDbEntity
  8
0
100
AcDbCircle
 62
7
  6
CONTINUOUS
 10
6.9921315729
 20
1.6225648599
 40
0.009826736
100
AcDbArc
 50
154.296721258
 51
176.5756214897
  0
ARC
  5
29B
100
AcDbEntity
  8
0
100
AcDbCircle
 62
7
  6
CONTINUOUS
 10
9.6378166461
 20
0.9583281965
 40
0.0098425197
100
AcDbArc
 50
0.0
 51
90.0
  0
ARC
  5
29C
100
AcDbEntity
  8
0
100
AcDbCircle
 62
7
  6
CONTINUOUS
 10
8.578761528
 20
0.9583281965
 40
0.0098425197
100
AcDbArc
 50
90.0
 51
180.0
  0
ARC
  5
29D
100
AcDbEntity
  8
0
100
AcDbCircle
 62
7
  6
CONTINUOUS
 10
8.8130134965
 20
0.9830132359
 40
0.0098425197
100
AcDbArc
 50
180.0
 51
270.0
  0
ARC
  5
29E
100
AcDbEntity
  8
0
100
AcDbCircle
 62
7
  6
CONTINUOUS
 10
9.4035646776
 20
0.9830132359
 40
0.0098425197
100
AcDbArc
 50
277.5
 51
360.0
  0
CIRCLE
  5
29F
100
AcDbEntity
  8
0
100
AcDbCircle
 62
7
  6
CONTINUOUS
 10
8.9606512918
 20
3.9357691414
 40
0.0147637795
  0
CIRCLE
  5
2A0
100
AcDbEntity
  8
0
100
AcDbCircle
 62
7
  6
CONTINUOUS
 10
9.0590764886
 20
3.9357691414
 40
0.0147637795
  0
CIRCLE
  5
2A1
100
AcDbEntity
  8
0
100
AcDbCircle
 62
7
  6
CONTINUOUS
 10
8.9606512918
 20
4.0341943383
 40
0.0147637795
  0
CIRCLE
  5
2A2
100
AcDbEntity
  8
0
100
AcDbCircle
 62
7
  6
CONTINUOUS
 10
9.0590764886
 20
4.0341943383
 40
0.0147637795
  0
CIRCLE
  5
2A3
100
AcDbEntity
  8
0
100
AcDbCircle
 62
7
  6
CONTINUOUS
 10
8.9606512918
 20
4.1523045745
 40
0.0147637795
  0
CIRCLE
  5
2A4
100
AcDbEntity
  8
0
100
AcDbCircle
 62
7
  6
CONTINUOUS
 10
9.0590764886
 20
4.1523045745
 40
0.0147637795
  0
CIRCLE
  5
2A5
100
AcDbEntity
  8
0
100
AcDbCircle
 62
7
  6
CONTINUOUS
 10
8.9606512918
 20
4.2507297713
 40
0.0147637795
  0
CIRCLE
  5
2A6
100
AcDbEntity
  8
0
100
AcDbCircle
 62
7
  6
CONTINUOUS
 10
9.0590764886
 20
4.2507297713
 40
0.0147637795
  0
CIRCLE
  5
2A7
100
AcDbEntity
  8
0
100
AcDbCircle
 62
7
  6
CONTINUOUS
 10
9.0590764886
 20
4.3491549682
 40
0.0147637795
  0
CIRCLE
  5
2A8
100
AcDbEntity
  8
0
100
AcDbCircle
 62
7
  6
CONTINUOUS
 10
8.9606512918
 20
4.3491549682
 40
0.0147637795
  0
CIRCLE
  5
2A9
100
AcDbEntity
  8
0
100
AcDbCircle
 62
7
  6
CONTINUOUS
 10
9.0590764886
 20
4.447580165
 40
0.0147637795
  0
CIRCLE
  5
2AA
100
AcDbEntity
  8
0
100
AcDbCircle
 62
7
  6
CONTINUOUS
 10
8.9606512918
 20
4.447580165
 40
0.0147637795
  0
CIRCLE
  5
2AB
100
AcDbEntity
  8
0
100
AcDbCircle
 62
7
  6
CONTINUOUS
 10
9.0590764886
 20
4.5460053619
 40
0.0147637795
  0
CIRCLE
  5
2AC
100
AcDbEntity
  8
0
100
AcDbCircle
 62
7
  6
CONTINUOUS
 10
8.9606512918
 20
4.5460053619
 40
0.0147637795
  0
CIRCLE
  5
2AD
100
AcDbEntity
  8
0
100
AcDbCircle
 62
7
  6
CONTINUOUS
 10
9.0590764886
 20
4.6641155981
 40
0.0147637795
  0
CIRCLE
  5
2AE
100
AcDbEntity
  8
0
100
AcDbCircle
 62
7
  6
CONTINUOUS
 10
8.9606512918
 20
4.6641155981
 40
0.0147637795
  0
CIRCLE
  5
2AF
100
AcDbEntity
  8
0
100
AcDbCircle
 62
7
  6
CONTINUOUS
 10
9.0590764886
 20
4.7625407949
 40
0.0147637795
  0
CIRCLE
  5
2B0
100
AcDbEntity
  8
0
100
AcDbCircle
 62
7
  6
CONTINUOUS
 10
8.9606512918
 20
4.7625407949
 40
0.0147637795
  0
CIRCLE
  5
2B1
100
AcDbEntity
  8
0
100
AcDbCircle
 62
7
  6
CONTINUOUS
 10
9.2559268823
 20
3.9357691414
 40
0.0147637795
  0
CIRCLE
  5
2B2
100
AcDbEntity
  8
0
100
AcDbCircle
 62
7
  6
CONTINUOUS
 10
9.1575016855
 20
3.9357691414
 40
0.0147637795
  0
CIRCLE
  5
2B3
100
AcDbEntity
  8
0
100
AcDbCircle
 62
7
  6
CONTINUOUS
 10
9.2559268823
 20
4.0341943383
 40
0.0147637795
  0
CIRCLE
  5
2B4
100
AcDbEntity
  8
0
100
AcDbCircle
 62
7
  6
CONTINUOUS
 10
9.1575016855
 20
4.0341943383
 40
0.0147637795
  0
CIRCLE
  5
2B5
100
AcDbEntity
  8
0
100
AcDbCircle
 62
7
  6
CONTINUOUS
 10
9.2559268823
 20
4.1523045745
 40
0.0147637795
  0
CIRCLE
  5
2B6
100
AcDbEntity
  8
0
100
AcDbCircle
 62
7
  6
CONTINUOUS
 10
9.1575016855
 20
4.1523045745
 40
0.0147637795
  0
CIRCLE
  5
2B7
100
AcDbEntity
  8
0
100
AcDbCircle
 62
7
  6
CONTINUOUS
 10
9.2559268823
 20
4.2507297713
 40
0.0147637795
  0
CIRCLE
  5
2B8
100
AcDbEntity
  8
0
100
AcDbCircle
 62
7
  6
CONTINUOUS
 10
9.1575016855
 20
4.2507297713
 40
0.0147637795
  0
CIRCLE
  5
2B9
100
AcDbEntity
  8
0
100
AcDbCircle
 62
7
  6
CONTINUOUS
 10
9.2559268823
 20
4.3491549682
 40
0.0147637795
  0
CIRCLE
  5
2BA
100
AcDbEntity
  8
0
100
AcDbCircle
 62
7
  6
CONTINUOUS
 10
9.1575016855
 20
4.3491549682
 40
0.0147637795
  0
CIRCLE
  5
2BB
100
AcDbEntity
  8
0
100
AcDbCircle
 62
7
  6
CONTINUOUS
 10
9.2559268823
 20
4.7625407949
 40
0.0147637795
  0
CIRCLE
  5
2BC
100
AcDbEntity
  8
0
100
AcDbCircle
 62
7
  6
CONTINUOUS
 10
9.1575016855
 20
4.7625407949
 40
0.0147637795
  0
CIRCLE
  5
2BD
100
AcDbEntity
  8
0
100
AcDbCircle
 62
7
  6
CONTINUOUS
 10
9.2559268823
 20
4.6641155981
 40
0.0147637795
  0
CIRCLE
  5
2BE
100
AcDbEntity
  8
0
100
AcDbCircle
 62
7
  6
CONTINUOUS
 10
9.1575016855
 20
4.6641155981
 40
0.0147637795
  0
CIRCLE
  5
2BF
100
AcDbEntity
  8
0
100
AcDbCircle
 62
7
  6
CONTINUOUS
 10
9.2559268823
 20
4.5460053619
 40
0.0147637795
  0
CIRCLE
  5
2C0
100
AcDbEntity
  8
0
100
AcDbCircle
 62
7
  6
CONTINUOUS
 10
9.1575016855
 20
4.5460053619
 40
0.0147637795
  0
CIRCLE
  5
2C1
100
AcDbEntity
  8
0
100
AcDbCircle
 62
7
  6
CONTINUOUS
 10
9.2559268823
 20
4.447580165
 40
0.0147637795
  0
CIRCLE
  5
2C2
100
AcDbEntity
  8
0
100
AcDbCircle
 62
7
  6
CONTINUOUS
 10
9.1575016855
 20
4.447580165
 40
0.0147637795
  0
SPLINE
  5
2C3
100
AcDbEntity
  8
0
100
AcDbSpline
 62
7
  6
CONTINUOUS
 70
0
 71
3
 72
11
 73
7
 74
0
 42
0.0000001
 43
0.0000001
 44
0.0000000001
 40
0.0
 40
0.0
 40
0.0
 40
0.0
 40
0.099015208
 40
0.2277680989
 40
0.5605351651
 40
1.0
 40
1.0
 40
1.0
 40
1.0
 10
4.8439156088
 20
4.6665925844
 30
0.0
 10
4.8437226353
 20
4.6668295892
 30
0.0
 10
4.843216595
 20
4.6673208308
 30
0.0
 10
4.8418020543
 20
4.6683184338
 30
0.0
 10
4.8392809809
 20
4.6695120491
 30
0.0
 10
4.8370327353
 20
4.6702898748
 30
0.0
 10
4.8357405186
 20
4.6706915851
 30
0.0
  0
LINE
  5
2C4
100
AcDbEntity
  8
0
100
AcDbLine
 62
7
  6
CONTINUOUS
 10
4.8357405186
 20
4.6706915851
 11
4.8289909088
 21
4.6724731729
  0
LINE
  5
2C5
100
AcDbEntity
  8
0
100
AcDbLine
 62
7
  6
CONTINUOUS
 10
4.3876570598
 20
4.672489095
 11
4.3808776924
 21
4.6707040164
  0
SPLINE
  5
2C6
100
AcDbEntity
  8
0
100
AcDbSpline
 62
7
  6
CONTINUOUS
 70
0
 71
3
 72
13
 73
9
 74
0
 42
0.0000001
 43
0.0000001
 44
0.0000000001
 40
0.0
 40
0.0
 40
0.0
 40
0.0
 40
0.3747660695
 40
0.6584907293
 40
0.7682341837
 40
0.8588528533
 40
0.9339953833
 40
1.0
 40
1.0
 40
1.0
 40
1.0
 10
4.3808776924
 20
4.6707040164
 30
0.0
 10
4.3795796714
 20
4.6703014733
 30
0.0
 10
4.3773214174
 20
4.6695220482
 30
0.0
 10
4.3747888269
 20
4.6683258631
 30
0.0
 10
4.3733490621
 20
4.667312861
 30
0.0
 10
4.3726305442
 20
4.6666100169
 30
0.0
 10
4.372177935
 20
4.6658885742
 30
0.0
 10
4.3720686146
 20
4.665373466
 30
0.0
 10
4.3720686146
 20
4.6651341148
 30
0.0
  0
SPLINE
  5
2C7
100
AcDbEntity
  8
0
100
AcDbSpline
 62
7
  6
CONTINUOUS
 70
0
 71
3
 72
41
 73
37
 74
0
 42
0.0000001
 43
0.0000001
 44
0.0000000001
 40
0.0
 40
0.0
 40
0.0
 40
0.0
 40
0.0021931094
 40
0.0049532904
 40
0.0085861455
 40
0.0132236744
 40
0.018920089
 40
0.0256969377
 40
0.0335602341
 40
0.0425031068
 40
0.0635709547
 40
0.08874582
 40
0.1178123387
 40
0.1505058636
 40
0.1865238945
 40
0.2255286284
 40
0.310993084
 40
0.4036595846
 40
0.4999995509
 40
0.5963395294
 40
0.6890061074
 40
0.7744706523
 40
0.8134753614
 40
0.8494933679
 40
0.8821868744
 40
0.9112534613
 40
0.9364284995
 40
0.957496505
 40
0.9664394823
 40
0.9743028475
 40
0.9810797557
 40
0.9867762368
 40
0.9914138096
 40
0.9950466894
 40
0.9978068867
 40
1.0
 40
1.0
 40
1.0
 40
1.0
 10
4.7854544414
 20
4.3023466755
 30
0.0
 10
4.7854544414
 20
4.3026089538
 30
0.0
 10
4.7852616794
 20
4.3032021399
 30
0.0
 10
4.7845482826
 20
4.3039627879
 30
0.0
 10
4.7834499771
 20
4.3047032751
 30
0.0
 10
4.7819444225
 20
4.3054351858
 30
0.0
 10
4.7800301832
 20
4.3061629743
 30
0.0
 10
4.7777061787
 20
4.3068839685
 30
0.0
 10
4.7749765042
 20
4.3075961301
 30
0.0
 10
4.7705557853
 20
4.3085857555
 30
0.0
 10
4.7640573882
 20
4.3097528272
 30
0.0
 10
4.7551406335
 20
4.3110279673
 30
0.0
 10
4.7448121158
 20
4.3122257391
 30
0.0
 10
4.7331706332
 20
4.3133337576
 30
0.0
 10
4.7203274501
 20
4.3143397269
 30
0.0
 10
4.7011733198
 20
4.3155682034
 30
0.0
 10
4.6752300478
 20
4.3167468901
 30
0.0
 10
4.6424148623
 20
4.3175973682
 30
0.0
 10
4.6082892479
 20
4.3178845978
 30
0.0
 10
4.5741636241
 20
4.3175973742
 30
0.0
 10
4.5413484172
 20
4.3167468992
 30
0.0
 10
4.5154051279
 20
4.3155682182
 30
0.0
 10
4.4962509926
 20
4.3143397444
 30
0.0
 10
4.4834078172
 20
4.3133337821
 30
0.0
 10
4.4717663311
 20
4.3122257665
 30
0.0
 10
4.4614377866
 20
4.3110279964
 30
0.0
 10
4.4525209829
 20
4.309752861
 30
0.0
 10
4.4460225348
 20
4.3085857797
 30
0.0
 10
4.4416017749
 20
4.3075961558
 30
0.0
 10
4.4388720725
 20
4.3068839907
 30
0.0
 10
4.4365480453
 20
4.3061629914
 30
0.0
 10
4.4346337852
 20
4.3054352005
 30
0.0
 10
4.4331282149
 20
4.3047032846
 30
0.0
 10
4.4320299014
 20
4.3039627912
 30
0.0
 10
4.4313164983
 20
4.3032021423
 30
0.0
 10
4.4311237327
 20
4.3026089543
 30
0.0
 10
4.4311237327
 20
4.3023466755
 30
0.0
  0
SPLINE
  5
2C8
100
AcDbEntity
  8
0
100
AcDbSpline
 62
7
  6
CONTINUOUS
 70
0
 71
3
 72
47
 73
43
 74
0
 42
0.0000001
 43
0.0000001
 44
0.0000000001
 40
0.0
 40
0.0
 40
0.0
 40
0.0
 40
0.005861184
 40
0.0111460351
 40
0.0159620579
 40
0.0202729518
 40
0.0240773257
 40
0.0275766685
 40
0.0342449204
 40
0.0410344406
 40
0.0483373724
 40
0.0652112286
 40
0.085586862
 40
0.1096104386
 40
0.137210704
 40
0.1682074406
 40
0.2023494567
 40
0.2393347352
 40
0.2788210703
 40
0.320436565
 40
0.4084504895
 40
0.4999990923
 40
0.5915477319
 40
0.6795617739
 40
0.7211773266
 40
0.7606636653
 40
0.7976490963
 40
0.8317914674
 40
0.8627884436
 40
0.8903889036
 40
0.9144126532
 40
0.9347884216
 40
0.9516624325
 40
0.958965251
 40
0.9657548401
 40
0.9724230566
 40
0.9759219403
 40
0.9797270119
 40
0.9840390165
 40
0.9888540511
 40
0.9941371691
 40
1.0
 40
1.0
 40
1.0
 40
1.0
 10
4.3720686146
 20
4.3121517415
 30
0.0
 10
4.3720686146
 20
4.3111956759
 30
0.0
 10
4.3722904606
 20
4.309368228
 30
0.0
 10
4.373219134
 20
4.3069138036
 30
0.0
 10
4.3744834356
 20
4.3049165416
 30
0.0
 10
4.3758864126
 20
4.3033317163
 30
0.0
 10
4.3773260539
 20
4.3020921468
 30
0.0
 10
4.3792168884
 20
4.3008143292
 30
0.0
 10
4.3816666507
 20
4.2995140195
 30
0.0
 10
4.3848121508
 20
4.298249109
 30
0.0
 10
4.3896200045
 20
4.2966917965
 30
0.0
 10
4.3966896493
 20
4.2949735969
 30
0.0
 10
4.4065198956
 20
4.2931555108
 30
0.0
 10
4.4181431626
 20
4.2914568626
 30
0.0
 10
4.4315280008
 20
4.2898743862
 30
0.0
 10
4.4465860187
 20
4.2884172492
 30
0.0
 10
4.4631925689
 20
4.2870970288
 30
0.0
 10
4.4811981453
 20
4.2859258578
 30
0.0
 10
4.500434189
 20
4.2849147257
 30
0.0
 10
4.527996823
 20
4.2837720665
 30
0.0
 10
4.5640650141
 20
4.2828286335
 30
0.0
 10
4.6082886666
 20
4.2824518546
 30
0.0
 10
4.6525123383
 20
4.2828286241
 30
0.0
 10
4.6885805647
 20
4.2837720342
 30
0.0
 10
4.7161432281
 20
4.2849146897
 30
0.0
 10
4.7353793066
 20
4.2859258232
 30
0.0
 10
4.7533849678
 20
4.287096975
 30
0.0
 10
4.7699916398
 20
4.2884172044
 30
0.0
 10
4.7850497856
 20
4.2898743491
 30
0.0
 10
4.7984347263
 20
4.2914568157
 30
0.0
 10
4.8100580676
 20
4.2931554965
 30
0.0
 10
4.8198884117
 20
4.2949735132
 30
0.0
 10
4.8269580363
 20
4.2966918717
 30
0.0
 10
4.8317659784
 20
4.2982489763
 30
0.0
 10
4.8349114013
 20
4.2995140687
 30
0.0
 10
4.8373611203
 20
4.3008142309
 30
0.0
 10
4.83925227
 20
4.3020916887
 30
0.0
 10
4.8406916422
 20
4.3033319228
 30
0.0
 10
4.8420947607
 20
4.3049167662
 30
0.0
 10
4.8433589139
 20
4.3069138015
 30
0.0
 10
4.844287901
 20
4.309367921
 30
0.0
 10
4.8445095595
 20
4.3111954072
 30
0.0
 10
4.8445095595
 20
4.3121517415
 30
0.0
  0
SPLINE
  5
2C9
100
AcDbEntity
  8
0
100
AcDbSpline
 62
9
  6
CONTINUOUS
 70
0
 71
3
 72
41
 73
37
 74
0
 42
0.0000001
 43
0.0000001
 44
0.0000000001
 40
0.0
 40
0.0
 40
0.0
 40
0.0
 40
0.0021932967
 40
0.0049534255
 40
0.0085863935
 40
0.013223766
 40
0.0189198424
 40
0.0256971083
 40
0.0335602916
 40
0.042502684
 40
0.0635710146
 40
0.0887461844
 40
0.1178119866
 40
0.1505058466
 40
0.1865240628
 40
0.2255282964
 40
0.3109933099
 40
0.4036599014
 40
0.5
 40
0.5963400986
 40
0.6890066901
 40
0.7744717036
 40
0.8134759372
 40
0.8494941534
 40
0.8821880134
 40
0.9112538156
 40
0.9364289854
 40
0.957497316
 40
0.9664397084
 40
0.9743028917
 40
0.9810801576
 40
0.986776234
 40
0.9914136065
 40
0.9950465745
 40
0.9978067033
 40
1.0
 40
1.0
 40
1.0
 40
1.0
 10
4.3720686146
 20
4.3121517415
 30
0.0
 10
4.3720686146
 20
4.3125014758
 30
0.0
 10
4.3723255161
 20
4.3132924377
 30
0.0
 10
4.3732767067
 20
4.3143067421
 30
0.0
 10
4.3747412337
 20
4.3152938576
 30
0.0
 10
4.3767485783
 20
4.3162696969
 30
0.0
 10
4.3793008643
 20
4.3172401515
 30
0.0
 10
4.3823995644
 20
4.3182013742
 30
0.0
 10
4.3860390775
 20
4.3191510099
 30
0.0
 10
4.391933333
 20
4.3204706153
 30
0.0
 10
4.4005979451
 20
4.3220265622
 30
0.0
 10
4.4124869626
 20
4.3237267578
 30
0.0
 10
4.4262583006
 20
4.3253239039
 30
0.0
 10
4.4417802608
 20
4.3268011828
 30
0.0
 10
4.4589045169
 20
4.3281424439
 30
0.0
 10
4.4844433997
 20
4.3297805253
 30
0.0
 10
4.5190344733
 20
4.3313519908
 30
0.0
 10
4.5627881935
 20
4.3324860429
 30
0.0
 10
4.608289087
 20
4.3328689837
 30
0.0
 10
4.6537899806
 20
4.3324860429
 30
0.0
 10
4.6975437008
 20
4.3313519908
 30
0.0
 10
4.7321347743
 20
4.3297805253
 30
0.0
 10
4.7576736572
 20
4.3281424439
 30
0.0
 10
4.7747979132
 20
4.3268011828
 30
0.0
 10
4.7903198735
 20
4.3253239039
 30
0.0
 10
4.8040912115
 20
4.3237267578
 30
0.0
 10
4.815980229
 20
4.3220265622
 30
0.0
 10
4.824644841
 20
4.3204706153
 30
0.0
 10
4.8305390966
 20
4.3191510099
 30
0.0
 10
4.8341786097
 20
4.3182013742
 30
0.0
 10
4.8372773098
 20
4.3172401515
 30
0.0
 10
4.8398295957
 20
4.3162696969
 30
0.0
 10
4.8418369403
 20
4.3152938576
 30
0.0
 10
4.8433014674
 20
4.3143067421
 30
0.0
 10
4.8442526579
 20
4.3132924377
 30
0.0
 10
4.8445095595
 20
4.3125014758
 30
0.0
 10
4.8445095595
 20
4.3121517415
 30
0.0
  0
SPLINE
  5
2CA
100
AcDbEntity
  8
0
100
AcDbSpline
 62
9
  6
CONTINUOUS
 70
0
 71
3
 72
41
 73
37
 74
0
 42
0.0000001
 43
0.0000001
 44
0.0000000001
 40
0.0
 40
0.0
 40
0.0
 40
0.0
 40
0.0021956523
 40
0.0049617429
 40
0.0086019709
 40
0.0132471705
 40
0.0189511229
 40
0.025735718
 40
0.033606328
 40
0.0425558369
 40
0.0636367189
 40
0.0888226156
 40
0.11789809
 40
0.1505994956
 40
0.1866230284
 40
0.2256312595
 40
0.3110986096
 40
0.4037616975
 40
0.5000928411
 40
0.5964200139
 40
0.6890714942
 40
0.7745201581
 40
0.8135165921
 40
0.8495268223
 40
0.8822135912
 40
0.9112733249
 40
0.9364425095
 40
0.9575059111
 40
0.9664464883
 40
0.9743080735
 40
0.981083611
 40
0.9867786121
 40
0.9914151309
 40
0.9950473462
 40
0.9978070553
 40
1.0
 40
1.0
 40
1.0
 40
1.0
 10
4.3819111402
 20
4.3023548032
 30
0.0
 10
4.3819127292
 20
4.3026903156
 30
0.0
 10
4.3821628779
 20
4.3034482122
 30
0.0
 10
4.38307829
 20
4.304419481
 30
0.0
 10
4.3844856847
 20
4.3053653798
 30
0.0
 10
4.3864132989
 20
4.3063003835
 30
0.0
 10
4.3888630208
 20
4.3072302082
 30
0.0
 10
4.3918362084
 20
4.3081512386
 30
0.0
 10
4.3953275332
 20
4.3090610331
 30
0.0
 10
4.4009804228
 20
4.3103252327
 30
0.0
 10
4.4092886448
 20
4.3118159201
 30
0.0
 10
4.4206872365
 20
4.3134447842
 30
0.0
 10
4.4338888992
 20
4.3149747799
 30
0.0
 10
4.4487673584
 20
4.3163899299
 30
0.0
 10
4.4651804385
 20
4.3176747631
 30
0.0
 10
4.4896566081
 20
4.3192436993
 30
0.0
 10
4.5228062731
 20
4.3207487594
 30
0.0
 10
4.5647346605
 20
4.3218344852
 30
0.0
 10
4.6083350404
 20
4.3222007062
 30
0.0
 10
4.6519336338
 20
4.3218329527
 30
0.0
 10
4.6938567461
 20
4.320745762
 30
0.0
 10
4.7269999212
 20
4.3192395237
 30
0.0
 10
4.7514693288
 20
4.3176696834
 30
0.0
 10
4.7678762741
 20
4.316384279
 30
0.0
 10
4.7827479805
 20
4.3149686152
 30
0.0
 10
4.7959423505
 20
4.3134381794
 30
0.0
 10
4.8073331834
 20
4.3118089441
 30
0.0
 10
4.8156346632
 20
4.3103179467
 30
0.0
 10
4.8212819478
 20
4.3090534838
 30
0.0
 10
4.8247689811
 20
4.3081435817
 30
0.0
 10
4.8277378231
 20
4.30722246
 30
0.0
 10
4.8301831661
 20
4.3062925804
 30
0.0
 10
4.8321064322
 20
4.3053575071
 30
0.0
 10
4.8335095348
 20
4.3044115316
 30
0.0
 10
4.8344208591
 20
4.3034396498
 30
0.0
 10
4.8346670344
 20
4.3026817844
 30
0.0
 10
4.8346670344
 20
4.302346682
 30
0.0
  0
SPLINE
  5
2CB
100
AcDbEntity
  8
0
100
AcDbSpline
 62
9
  6
CONTINUOUS
 70
0
 71
3
 72
41
 73
37
 74
0
 42
0.0000001
 43
0.0000001
 44
0.0000000001
 40
0.0
 40
0.0
 40
0.0
 40
0.0
 40
0.0021956522
 40
0.0049617425
 40
0.00860197
 40
0.0132471688
 40
0.0189511203
 40
0.0257357145
 40
0.0336063237
 40
0.0425558318
 40
0.0636367122
 40
0.0888226073
 40
0.1178980803
 40
0.1505994846
 40
0.1866230161
 40
0.2256312462
 40
0.3110985946
 40
0.4037616815
 40
0.5000928247
 40
0.5964199978
 40
0.6890714792
 40
0.7745201448
 40
0.8135165799
 40
0.8495268113
 40
0.8822135816
 40
0.9112733167
 40
0.9364425028
 40
0.957505906
 40
0.966446484
 40
0.9743080701
 40
0.9810836084
 40
0.9867786104
 40
0.99141513
 40
0.9950473458
 40
0.9978070553
 40
1.0
 40
1.0
 40
1.0
 40
1.0
 10
4.8346670344
 20
4.3023385486
 30
0.0
 10
4.8346654455
 20
4.3020030362
 30
0.0
 10
4.8344152969
 20
4.3012451396
 30
0.0
 10
4.833499885
 20
4.3002738708
 30
0.0
 10
4.8320924906
 20
4.299327972
 30
0.0
 10
4.8301648768
 20
4.2983929683
 30
0.0
 10
4.8277151553
 20
4.2974631436
 30
0.0
 10
4.8247419681
 20
4.2965421132
 30
0.0
 10
4.8212506437
 20
4.2956323187
 30
0.0
 10
4.8155977547
 20
4.294368119
 30
0.0
 10
4.8072895333
 20
4.2928774316
 30
0.0
 10
4.7958909423
 20
4.2912485674
 30
0.0
 10
4.7826892802
 20
4.2897185718
 30
0.0
 10
4.7678108216
 20
4.2883034217
 30
0.0
 10
4.7513977422
 20
4.2870185885
 30
0.0
 10
4.7269215732
 20
4.2854496521
 30
0.0
 10
4.6937719088
 20
4.2839445919
 30
0.0
 10
4.6518435218
 20
4.282858866
 30
0.0
 10
4.6082431421
 20
4.2824926449
 30
0.0
 10
4.5646445485
 20
4.2828603983
 30
0.0
 10
4.5227214358
 20
4.2839475888
 30
0.0
 10
4.4895782601
 20
4.285453827
 30
0.0
 10
4.4651088519
 20
4.2870236673
 30
0.0
 10
4.448701906
 20
4.2883090716
 30
0.0
 10
4.433830199
 20
4.2897247354
 30
0.0
 10
4.4206358283
 20
4.2912551711
 30
0.0
 10
4.4092449947
 20
4.2928844063
 30
0.0
 10
4.4009435143
 20
4.2943754037
 30
0.0
 10
4.3952962291
 20
4.2956398666
 30
0.0
 10
4.3918091954
 20
4.2965497687
 30
0.0
 10
4.388840353
 20
4.2974708904
 30
0.0
 10
4.3863950096
 20
4.2984007699
 30
0.0
 10
4.3844717431
 20
4.2993358432
 30
0.0
 10
4.3830686403
 20
4.3002818187
 30
0.0
 10
4.3821573156
 20
4.3012537005
 30
0.0
 10
4.3819111402
 20
4.3020115659
 30
0.0
 10
4.3819111402
 20
4.3023466683
 30
0.0
  0
SPLINE
  5
2CC
100
AcDbEntity
  8
0
100
AcDbSpline
 62
7
  6
CONTINUOUS
 70
0
 71
3
 72
41
 73
37
 74
0
 42
0.0000001
 43
0.0000001
 44
0.0000000001
 40
0.0
 40
0.0
 40
0.0
 40
0.0
 40
0.0021931094
 40
0.0049532904
 40
0.0085861455
 40
0.0132236744
 40
0.018920089
 40
0.0256969377
 40
0.0335602341
 40
0.0425031068
 40
0.0635709547
 40
0.08874582
 40
0.1178123387
 40
0.1505058636
 40
0.1865238945
 40
0.2255286284
 40
0.310993084
 40
0.4036595846
 40
0.4999995509
 40
0.5963395294
 40
0.6890061074
 40
0.7744706523
 40
0.8134753614
 40
0.8494933679
 40
0.8821868744
 40
0.9112534613
 40
0.9364284995
 40
0.957496505
 40
0.9664394823
 40
0.9743028475
 40
0.9810797557
 40
0.9867762368
 40
0.9914138096
 40
0.9950466894
 40
0.9978068867
 40
1.0
 40
1.0
 40
1.0
 40
1.0
 10
4.4311237327
 20
4.3023466755
 30
0.0
 10
4.4311237327
 20
4.3020843973
 30
0.0
 10
4.4313164947
 20
4.3014912112
 30
0.0
 10
4.4320298914
 20
4.3007305632
 30
0.0
 10
4.4331281969
 20
4.2999900759
 30
0.0
 10
4.4346337516
 20
4.2992581653
 30
0.0
 10
4.4365479909
 20
4.2985303767
 30
0.0
 10
4.4388719953
 20
4.2978093825
 30
0.0
 10
4.4416016698
 20
4.297097221
 30
0.0
 10
4.4460223888
 20
4.2961075956
 30
0.0
 10
4.4525207859
 20
4.2949405238
 30
0.0
 10
4.4614375406
 20
4.2936653837
 30
0.0
 10
4.4717660582
 20
4.292467612
 30
0.0
 10
4.4834075409
 20
4.2913595935
 30
0.0
 10
4.4962507239
 20
4.2903536242
 30
0.0
 10
4.5154048543
 20
4.2891251477
 30
0.0
 10
4.5413481262
 20
4.287946461
 30
0.0
 10
4.5741633117
 20
4.2870959829
 30
0.0
 10
4.6082889262
 20
4.2868087533
 30
0.0
 10
4.64241455
 20
4.2870959768
 30
0.0
 10
4.6752297569
 20
4.2879464519
 30
0.0
 10
4.7011730461
 20
4.2891251329
 30
0.0
 10
4.7203271814
 20
4.2903536067
 30
0.0
 10
4.7331703569
 20
4.291359569
 30
0.0
 10
4.7448118429
 20
4.2924675846
 30
0.0
 10
4.7551403875
 20
4.2936653547
 30
0.0
 10
4.7640571912
 20
4.2949404901
 30
0.0
 10
4.7705556393
 20
4.2961075714
 30
0.0
 10
4.7749763991
 20
4.2970971953
 30
0.0
 10
4.7777061016
 20
4.2978093604
 30
0.0
 10
4.7800301287
 20
4.2985303597
 30
0.0
 10
4.7819443889
 20
4.2992581505
 30
0.0
 10
4.7834499592
 20
4.2999900665
 30
0.0
 10
4.7845482727
 20
4.3007305599
 30
0.0
 10
4.7852616758
 20
4.3014912088
 30
0.0
 10
4.7854544414
 20
4.3020843968
 30
0.0
 10
4.7854544414
 20
4.3023466755
 30
0.0
  0
SPLINE
  5
2CD
100
AcDbEntity
  8
0
100
AcDbSpline
 62
7
  6
CONTINUOUS
 70
0
 71
3
 72
11
 73
7
 74
0
 42
0.0000001
 43
0.0000001
 44
0.0000000001
 40
0.0
 40
0.0
 40
0.0
 40
0.0
 40
0.1399398662
 40
0.477760829
 40
0.8283087645
 40
1.0
 40
1.0
 40
1.0
 40
1.0
 10
2.234273339
 20
1.4656715036
 30
0.0
 10
2.2357974707
 20
1.4728886987
 30
0.0
 10
2.2403275453
 20
1.4976879414
 30
0.0
 10
2.2440180038
 20
1.5413667467
 30
0.0
 10
2.2409792807
 20
1.5868034266
 30
0.0
 10
2.2362039658
 20
1.6139432254
 30
0.0
 10
2.2343463529
 20
1.6228042689
 30
0.0
  0
LINE
  5
2CE
100
AcDbEntity
  8
0
100
AcDbLine
 62
7
  6
CONTINUOUS
 10
2.2343466496
 20
1.6228042699
 11
2.2342557409
 21
1.6231518186
  0
SPLINE
  5
2CF
100
AcDbEntity
  8
0
100
AcDbSpline
 62
9
  6
CONTINUOUS
 70
0
 71
3
 72
19
 73
15
 74
0
 42
0.0000001
 43
0.0000001
 44
0.0000000001
 40
0.0
 40
0.0
 40
0.0
 40
0.0
 40
0.0022111533
 40
0.0087891966
 40
0.019653863
 40
0.0346422697
 40
0.0761674153
 40
0.131414891
 40
0.1982096826
 40
0.27430845
 40
0.4449717283
 40
0.6232622637
 40
0.7879662601
 40
1.0
 40
1.0
 40
1.0
 40
1.0
 10
2.234273339
 20
1.8587817398
 30
0.0
 10
2.2343288594
 20
1.8586172459
 30
0.0
 10
2.2345138249
 20
1.8579520025
 30
0.0
 10
2.2349647991
 20
1.8564764567
 30
0.0
 10
2.235673387
 20
1.854030462
 30
0.0
 10
2.2371294977
 20
1.8489446305
 30
0.0
 10
2.2394198089
 20
1.8404729302
 30
0.0
 10
2.2424684889
 20
1.8279957135
 30
0.0
 10
2.2456658594
 20
1.8127666629
 30
0.0
 10
2.249754913
 20
1.7884834584
 30
0.0
 10
2.252892058
 20
1.7551920343
 30
0.0
 10
2.2522459181
 20
1.7147794282
 30
0.0
 10
2.2469063397
 20
1.6714633558
 30
0.0
 10
2.2401102388
 20
1.642594755
 30
0.0
 10
2.2354672706
 20
1.6266072517
 30
0.0
  0
LINE
  5
2D0
100
AcDbEntity
  8
0
100
AcDbLine
 62
9
  6
CONTINUOUS
 10
2.2354672706
 20
1.6266072517
 11
2.2344203609
 21
1.6230516031
  0
LINE
  5
2D1
100
AcDbEntity
  8
0
100
AcDbLine
 62
9
  6
CONTINUOUS
 10
2.2344203609
 20
1.6230516031
 11
2.2343463529
 21
1.6228042689
  0
SPLINE
  5
2D2
100
AcDbEntity
  8
0
100
AcDbSpline
 62
9
  6
CONTINUOUS
 70
0
 71
3
 72
37
 73
33
 74
0
 42
0.0000001
 43
0.0000001
 44
0.0000000001
 40
0.0
 40
0.0
 40
0.0
 40
0.0
 40
0.0006420203
 40
0.0025530544
 40
0.0057228257
 40
0.0101410739
 40
0.0157945194
 40
0.0226577835
 40
0.0399005381
 40
0.0616254996
 40
0.0875174706
 40
0.1172480779
 40
0.1504956361
 40
0.2261900855
 40
0.311714657
 40
0.4041270682
 40
0.4999999299
 40
0.5958728654
 40
0.6882853953
 40
0.773810013
 40
0.8495044562
 40
0.882752007
 40
0.9124826056
 40
0.9383745655
 40
0.9600995122
 40
0.9773422487
 40
0.9842055048
 40
0.9898589447
 40
0.99427719
 40
0.9974469591
 40
0.9993579889
 40
1.0
 40
1.0
 40
1.0
 40
1.0
 10
2.2244309976
 20
1.8489389463
 30
0.0
 10
2.2244564946
 20
1.8488991963
 30
0.0
 10
2.2244917244
 20
1.8487092844
 30
0.0
 10
2.224649299
 20
1.8483216498
 30
0.0
 10
2.2248563827
 20
1.8476521515
 30
0.0
 10
2.2251678956
 20
1.8467302028
 30
0.0
 10
2.2255538354
 20
1.8455454715
 30
0.0
 10
2.2262300191
 20
1.8434637025
 30
0.0
 10
2.227248147
 20
1.8402498122
 30
0.0
 10
2.2286453997
 20
1.8356881221
 30
0.0
 10
2.2302353813
 20
1.8302251775
 30
0.0
 10
2.2319579977
 20
1.8239189192
 30
0.0
 10
2.2344588393
 20
1.8140294742
 30
0.0
 10
2.2375087699
 20
1.8000486278
 30
0.0
 10
2.2405381986
 20
1.781629292
 30
0.0
 10
2.2425514078
 20
1.7615761841
 30
0.0
 10
2.2433089684
 20
1.740671513
 30
0.0
 10
2.2425514063
 20
1.7197668332
 30
0.0
 10
2.2405381977
 20
1.6997137076
 30
0.0
 10
2.2375087672
 20
1.6812943602
 30
0.0
 10
2.2344588344
 20
1.6673135118
 30
0.0
 10
2.2319579922
 20
1.6574240686
 30
0.0
 10
2.230235376
 20
1.6511178124
 30
0.0
 10
2.2286453952
 20
1.6456548702
 30
0.0
 10
2.2272481433
 20
1.6410931834
 30
0.0
 10
2.2262300176
 20
1.6378792952
 30
0.0
 10
2.2255538334
 20
1.6357975292
 30
0.0
 10
2.2251678968
 20
1.6346127973
 30
0.0
 10
2.2248563763
 20
1.6336908542
 30
0.0
 10
2.2246493094
 20
1.6330213459
 30
0.0
 10
2.224491705
 20
1.6326337315
 30
0.0
 10
2.2244565063
 20
1.6324438008
 30
0.0
 10
2.2244309971
 20
1.6324040596
 30
0.0
  0
LINE
  5
2D3
100
AcDbEntity
  8
0
100
AcDbLine
 62
7
  6
CONTINUOUS
 10
6.9823210125
 20
1.6231475752
 11
6.9822315427
 21
1.622804377
  0
LINE
  5
2D4
100
AcDbEntity
  8
0
100
AcDbLine
 62
7
  6
CONTINUOUS
 10
6.9822318436
 20
1.6228043763
 11
6.982077648
 21
1.6220661619
  0
SPLINE
  5
2D5
100
AcDbEntity
  8
0
100
AcDbSpline
 62
7
  6
CONTINUOUS
 70
0
 71
3
 72
11
 73
7
 74
0
 42
0.0000001
 43
0.0000001
 44
0.0000000001
 40
0.0
 40
0.0
 40
0.0
 40
0.0
 40
0.1887085139
 40
0.5379553616
 40
0.8656029977
 40
1.0
 40
1.0
 40
1.0
 40
1.0
 10
6.982077648
 20
1.6220661619
 30
0.0
 10
6.9800622578
 20
1.6123695201
 30
0.0
 10
6.9753053629
 20
1.5845158098
 30
0.0
 10
6.9726473788
 20
1.5389819901
 30
0.0
 10
6.9764596189
 20
1.4964334613
 30
0.0
 10
6.9808486129
 20
1.4725703689
 30
0.0
 10
6.9823048351
 20
1.4656715036
 30
0.0
  0
LINE
  5
2D6
100
AcDbEntity
  8
0
100
AcDbLine
 62
9
  6
CONTINUOUS
 10
6.9822318436
 20
1.6228043763
 11
6.9816443063
 21
1.6247825542
  0
SPLINE
  5
2D7
100
AcDbEntity
  8
0
100
AcDbSpline
 62
9
  6
CONTINUOUS
 70
0
 71
3
 72
19
 73
15
 74
0
 42
0.0000001
 43
0.0000001
 44
0.0000000001
 40
0.0
 40
0.0
 40
0.0
 40
0.0
 40
0.2114316765
 40
0.3761088455
 40
0.5544868208
 40
0.7253007541
 40
0.8014861774
 40
0.868371257
 40
0.9237047716
 40
0.965300327
 40
0.9803137489
 40
0.9911963766
 40
0.9977850943
 40
1.0
 40
1.0
 40
1.0
 40
1.0
 10
6.9811356342
 20
1.6265219528
 30
0.0
 10
6.976501343
 20
1.6424692731
 30
0.0
 10
6.9697042724
 20
1.6712977433
 30
0.0
 10
6.9643453702
 20
1.7145851253
 30
0.0
 10
6.9636782825
 20
1.7550293614
 30
0.0
 10
6.9668062873
 20
1.7883602299
 30
0.0
 10
6.9708955945
 20
1.8126789319
 30
0.0
 10
6.9740955877
 20
1.8279345571
 30
0.0
 10
6.9771487511
 20
1.8404356226
 30
0.0
 10
6.9794428135
 20
1.8489245114
 30
0.0
 10
6.980901936
 20
1.8540208183
 30
0.0
 10
6.9816119565
 20
1.8564717905
 30
0.0
 10
6.982064008
 20
1.8579502693
 30
0.0
 10
6.9822491211
 20
1.8586169311
 30
0.0
 10
6.9823048351
 20
1.8587817398
 30
0.0
  0
SPLINE
  5
2D8
100
AcDbEntity
  8
0
100
AcDbSpline
 62
9
  6
CONTINUOUS
 70
0
 71
3
 72
37
 73
33
 74
0
 42
0.0000001
 43
0.0000001
 44
0.0000000001
 40
0.0
 40
0.0
 40
0.0
 40
0.0
 40
0.0006421006
 40
0.0025531396
 40
0.0057228775
 40
0.0101410909
 40
0.0157945292
 40
0.0226578101
 40
0.0399006241
 40
0.0616256198
 40
0.0875175928
 40
0.1172481803
 40
0.1504957066
 40
0.2261900892
 40
0.3117146255
 40
0.4041270589
 40
0.499999963
 40
0.5958729186
 40
0.6882854357
 40
0.7738100059
 40
0.8495043845
 40
0.8827519044
 40
0.9124824834
 40
0.938374445
 40
0.9600994253
 40
0.9773422205
 40
0.9842054934
 40
0.9898589261
 40
0.9942771371
 40
0.9974468733
 40
0.9993579084
 40
1.0
 40
1.0
 40
1.0
 40
1.0
 10
6.992147152
 20
1.6324040964
 30
0.0
 10
6.9921214943
 20
1.6324437498
 30
0.0
 10
6.9920866303
 20
1.632633909
 30
0.0
 10
6.9919287022
 20
1.6330213157
 30
0.0
 10
6.9917218243
 20
1.633690942
 30
0.0
 10
6.9914102296
 20
1.6346128288
 30
0.0
 10
6.9910243267
 20
1.6357975809
 30
0.0
 10
6.990348127
 20
1.6378793439
 30
0.0
 10
6.9893300067
 20
1.6410932473
 30
0.0
 10
6.9879327497
 20
1.64565494
 30
0.0
 10
6.9863427726
 20
1.6511178855
 30
0.0
 10
6.9846201609
 20
1.6574241386
 30
0.0
 10
6.9821193269
 20
1.6673135727
 30
0.0
 10
6.9790694019
 20
1.6812944047
 30
0.0
 10
6.976039976
 20
1.699713728
 30
0.0
 10
6.9740267658
 20
1.7197668304
 30
0.0
 10
6.9732692033
 20
1.7406715
 30
0.0
 10
6.9740267674
 20
1.7615761757
 30
0.0
 10
6.9760399776
 20
1.7816292906
 30
0.0
 10
6.979069405
 20
1.8000486221
 30
0.0
 10
6.9821193318
 20
1.8140294555
 30
0.0
 10
6.9846201662
 20
1.823918888
 30
0.0
 10
6.9863427779
 20
1.8302251391
 30
0.0
 10
6.9879327542
 20
1.8356880822
 30
0.0
 10
6.9893300103
 20
1.8402497716
 30
0.0
 10
6.9903481285
 20
1.8434636726
 30
0.0
 10
6.9910243284
 20
1.8455454327
 30
0.0
 10
6.9914102286
 20
1.8467301852
 30
0.0
 10
6.9917218298
 20
1.8476520671
 30
0.0
 10
6.9919286934
 20
1.8483217021
 30
0.0
 10
6.9920866472
 20
1.8487090911
 30
0.0
 10
6.9921214843
 20
1.8488992665
 30
0.0
 10
6.9921471526
 20
1.8489389123
 30
0.0
  0
SPLINE
  5
2D9
100
AcDbEntity
  8
0
100
AcDbSpline
 62
9
  6
CONTINUOUS
 70
0
 71
3
 72
19
 73
15
 74
0
 42
0.0000001
 43
0.0000001
 44
0.0000000001
 40
0.0
 40
0.0
 40
0.0
 40
0.0
 40
0.1927110799
 40
0.3781191962
 40
0.5490758568
 40
0.6991591854
 40
0.8227010272
 40
0.8730676267
 40
0.9152130263
 40
0.9488264989
 40
0.9737700656
 40
0.9830427427
 40
0.9903095714
 40
1.0
 40
1.0
 40
1.0
 40
1.0
 10
4.608289087
 20
4.9641859578
 30
0.0
 10
4.5929285179
 20
4.9641859578
 30
0.0
 10
4.5627887757
 20
4.9639320267
 30
0.0
 10
4.5190356624
 20
4.9627986031
 30
0.0
 10
4.4787059312
 20
4.9609653607
 30
0.0
 10
4.4433516267
 20
4.9585080352
 30
0.0
 10
4.4176491062
 20
4.9559082564
 30
0.0
 10
4.4005984487
 20
4.9534727481
 30
0.0
 10
4.3907004087
 20
4.9516967365
 30
0.0
 10
4.3828826562
 20
4.9498494017
 30
0.0
 10
4.377728209
 20
4.9481971932
 30
0.0
 10
4.3747366512
 20
4.9467282505
 30
0.0
 10
4.3730198321
 20
4.9456058784
 30
0.0
 10
4.3720686146
 20
4.9443703895
 30
0.0
 10
4.3720686146
 20
4.9435979871
 30
0.0
  0
SPLINE
  5
2DA
100
AcDbEntity
  8
0
100
AcDbSpline
 62
7
  6
CONTINUOUS
 70
0
 71
3
 72
9
 73
5
 74
0
 42
0.0000001
 43
0.0000001
 44
0.0000000001
 40
0.0
 40
0.0
 40
0.0
 40
0.0
 40
0.7225787054
 40
1.0
 40
1.0
 40
1.0
 40
1.0
 10
4.3720693763
 20
4.6651337634
 30
0.0
 10
4.3720693453
 20
4.6654848811
 30
0.0
 10
4.3722269198
 20
4.6659751025
 30
0.0
 10
4.3724980746
 20
4.6663771034
 30
0.0
 10
4.3725793167
 20
4.6664846777
 30
0.0
  0
SPLINE
  5
2DB
100
AcDbEntity
  8
0
100
AcDbSpline
 62
7
  6
CONTINUOUS
 70
0
 71
3
 72
17
 73
13
 74
0
 42
0.0000001
 43
0.0000001
 44
0.0000000001
 40
0.0
 40
0.0
 40
0.0
 40
0.0
 40
0.0132774527
 40
0.0340415536
 40
0.0627811971
 40
0.0994611545
 40
0.1957086892
 40
0.319854266
 40
0.4677510942
 40
0.6342981197
 40
0.813819562
 40
1.0
 40
1.0
 40
1.0
 40
1.0
 10
4.3725793167
 20
4.6664846777
 30
0.0
 10
4.3732089946
 20
4.6673184473
 30
0.0
 10
4.3755559404
 20
4.6688079412
 30
0.0
 10
4.3801392867
 20
4.6705765686
 30
0.0
 10
4.3867102002
 20
4.6723525174
 30
0.0
 10
4.399171417
 20
4.674893817
 30
0.0
 10
4.4192331973
 20
4.6776578264
 30
0.0
 10
4.4480822379
 20
4.6804227652
 30
0.0
 10
4.4825262934
 20
4.6826983145
 30
0.0
 10
4.5213618354
 20
4.6844041041
 30
0.0
 10
4.563234367
 20
4.6854638831
 30
0.0
 10
4.5920125326
 20
4.6857127376
 30
0.0
 10
4.606663426
 20
4.6857215941
 30
0.0
  0
LINE
  5
2DC
100
AcDbEntity
  8
0
100
AcDbLine
 62
7
  6
CONTINUOUS
 10
4.606663426
 20
4.6857215941
 11
4.608289087
 21
4.6857220855
  0
SPLINE
  5
2DD
100
AcDbEntity
  8
0
100
AcDbSpline
 62
9
  6
CONTINUOUS
 70
0
 71
3
 72
19
 73
15
 74
0
 42
0.0000001
 43
0.0000001
 44
0.0000000001
 40
0.0
 40
0.0
 40
0.0
 40
0.0
 40
0.0096904286
 40
0.0169572573
 40
0.0262299344
 40
0.0511735011
 40
0.0847869737
 40
0.1269323733
 40
0.1772989728
 40
0.3008408146
 40
0.4509241432
 40
0.6218808038
 40
0.8072889201
 40
1.0
 40
1.0
 40
1.0
 40
1.0
 10
4.8445095595
 20
4.9435979871
 30
0.0
 10
4.8445095595
 20
4.9443703895
 30
0.0
 10
4.8435583419
 20
4.9456058784
 30
0.0
 10
4.8418415229
 20
4.9467282505
 30
0.0
 10
4.8388499651
 20
4.9481971932
 30
0.0
 10
4.8336955178
 20
4.9498494017
 30
0.0
 10
4.8258777654
 20
4.9516967365
 30
0.0
 10
4.8159797254
 20
4.9534727481
 30
0.0
 10
4.7989290678
 20
4.9559082564
 30
0.0
 10
4.7732265473
 20
4.9585080352
 30
0.0
 10
4.7378722428
 20
4.9609653607
 30
0.0
 10
4.6975425116
 20
4.9627986031
 30
0.0
 10
4.6537893984
 20
4.9639320267
 30
0.0
 10
4.6236496562
 20
4.9641859578
 30
0.0
 10
4.608289087
 20
4.9641859578
 30
0.0
  0
LINE
  5
2DE
100
AcDbEntity
  8
0
100
AcDbLine
 62
7
  6
CONTINUOUS
 10
4.608289087
 20
4.6857220855
 11
4.6099024234
 21
4.6857216015
  0
SPLINE
  5
2DF
100
AcDbEntity
  8
0
100
AcDbSpline
 62
7
  6
CONTINUOUS
 70
0
 71
3
 72
17
 73
13
 74
0
 42
0.0000001
 43
0.0000001
 44
0.0000000001
 40
0.0
 40
0.0
 40
0.0
 40
0.0
 40
0.185641854
 40
0.3646883846
 40
0.5308866073
 40
0.6786116677
 40
0.8028038136
 40
0.8993404537
 40
0.9362564021
 40
0.9652888425
 40
0.9863896096
 40
1.0
 40
1.0
 40
1.0
 40
1.0
 10
4.6099024234
 20
4.6857216015
 30
0.0
 10
4.6245034315
 20
4.6857128424
 30
0.0
 10
4.6531871033
 20
4.6854657103
 30
0.0
 10
4.694931075
 20
4.6844130093
 30
0.0
 10
4.7336687654
 20
4.6827182305
 30
0.0
 10
4.7680583925
 20
4.6804564676
 30
0.0
 10
4.7969072347
 20
4.6777068799
 30
0.0
 10
4.8170047835
 20
4.6749575959
 30
0.0
 10
4.829528681
 20
4.6724303641
 30
0.0
 10
4.8361664227
 20
4.6706627904
 30
0.0
 10
4.8408328237
 20
4.6688962587
 30
0.0
 10
4.8432382856
 20
4.6674215347
 30
0.0
 10
4.8439147558
 20
4.6665918899
 30
0.0
  0
SPLINE
  5
2E0
100
AcDbEntity
  8
0
100
AcDbSpline
 62
7
  6
CONTINUOUS
 70
0
 71
3
 72
9
 73
5
 74
0
 42
0.0000001
 43
0.0000001
 44
0.0000000001
 40
0.0
 40
0.0
 40
0.0
 40
0.0
 40
0.2810877165
 40
1.0
 40
1.0
 40
1.0
 40
1.0
 10
4.8439147558
 20
4.6665918899
 30
0.0
 10
4.8440089307
 20
4.6664763908
 30
0.0
 10
4.8443206389
 20
4.6660494576
 30
0.0
 10
4.8445087641
 20
4.665515618
 30
0.0
 10
4.8445087978
 20
4.6651344662
 30
0.0
  0
SPLINE
  5
2E1
100
AcDbEntity
  8
0
100
AcDbSpline
 62
7
  6
CONTINUOUS
 70
0
 71
3
 72
10
 73
6
 74
0
 42
0.0000001
 43
0.0000001
 44
0.0000000001
 40
0.0
 40
0.0
 40
0.0
 40
0.0
 40
0.4479250916
 40
0.9576060062
 40
1.0
 40
1.0
 40
1.0
 40
1.0
 10
4.8445095595
 20
4.6651341148
 30
0.0
 10
4.8445095595
 20
4.6653728985
 30
0.0
 10
4.8444008138
 20
4.6658866462
 30
0.0
 10
4.844114253
 20
4.6663445632
 30
0.0
 10
4.8439299128
 20
4.6665750167
 30
0.0
 10
4.8439156088
 20
4.6665925844
 30
0.0
  0
ENDSEC
  0
SECTION
  2
OBJECTS
  0
DICTIONARY
  5
C
100
AcDbDictionary
280
0
281
1
  3
ACAD_GROUP
350
D
  3
ACAD_MLINESTYLE
350
17
  3
ACAD_LAYOUT
350
1A
  3
ACAD_PLOTSETTINGS
350
19
  3
ACAD_PLOTSTYLENAME
350
E
  0
DICTIONARY
  5
D
102
{ACAD_REACTORS
330
C
102
}
100
AcDbDictionary
280
0
281
1
  0
ACDBDICTIONARYWDFLT
  5
E
102
{ACAD_REACTORS
330
C
102
}
100
AcDbDictionary
281
1
  3
Normal
350
F
100
AcDbDictionaryWithDefault
340
F
  0
DICTIONARY
  5
17
102
{ACAD_REACTORS
330
C
102
}
100
AcDbDictionary
280
0
281
1
  3
Standard
350
18
  0
DICTIONARY
  5
19
102
{ACAD_REACTORS
330
C
102
}
100
AcDbDictionary
281
1
  0
DICTIONARY
  5
1A
102
{ACAD_REACTORS
330
C
102
}
100
AcDbDictionary
281
1
  3
Model
350
2E2
  3
Layout1
350
2E3
  0
ACDBPLACEHOLDER
  5
F
102
{ACAD_REACTORS
330
E
102
}
  0
MLINESTYLE
  5
18
102
{ACAD_REACTORS
330
17
102
}
100
AcDbMlineStyle
  2
STANDARD
 70
0
  3

 62
256
 51
90.0
 52
90.0
 71
2
 49
0.5
 62
256
  6
BYLAYER
 49
-0.5
 62
256
  6
BYLAYER
  0
LAYOUT
  5
2E2
102
{ACAD_REACTORS
330
1A
102
}
100
AcDbPlotSettings
  1

  2
none_device
  4
ANSI_A_(11.00_x_8.50_Inches)
  6

 40
0.0
 41
0.0
 42
0.0
 43
0.0
 44
279.4
 45
215.9
 46
0.0
 47
0.0
 48
0.0
 49
0.0
140
0.0
141
0.0
142
1.0
143
1.0
 70
1024
 72
0
 73
0
 74
0
  7

 75
0
147
1.0
148
0.0
149
0.0
100
AcDbLayout
  1
Model
 70
0
 71
0
 10
0.0
 20
0.0
 11
11.0
 21
8.5
 12
0.0
 22
0.0
 32
0.0
 14
0.0
 24
0.0
 34
0.0
 15
0.0
 25
0.0
 35
0.0
146
0.0
 13
0.0
 23
0.0
 33
0.0
 16
1.0
 26
0.0
 36
0.0
 17
0.0
 27
1.0
 37
0.0
 76
0
330
20C
345
0
346
0
  0
LAYOUT
  5
2E3
102
{ACAD_REACTORS
330
1A
102
}
100
AcDbPlotSettings
  1

  2
none_device
  4
ANSI_A_(11.00_x_8.50_Inches)
  6

 40
0.0
 41
0.0
 42
0.0
 43
0.0
 44
279.4
 45
215.9
 46
0.0
 47
0.0
 48
0.0
 49
0.0
140
0.0
141
0.0
142
1.0
143
1.0
 70
0
 72
0
 73
0
 74
0
  7

 75
0
147
1.0
148
0.0
149
0.0
100
AcDbLayout
  1
Layout1
 70
0
 71
1
 10
0.0
 20
0.0
 11
11.0
 21
8.5
 12
0.0
 22
0.0
 32
0.0
 14
0.0
 24
0.0
 34
0.0
 15
0.0
 25
0.0
 35
0.0
146
0.0
 13
0.0
 23
0.0
 33
0.0
 16
1.0
 26
0.0
 36
0.0
 17
0.0
 27
1.0
 37
0.0
 76
0
330
20D
345
0
346
0
  0
ENDSEC
  0
EOF
