999
DXF file: 3-8207_right.dxf
999
Pro/ENGINEER 2013150 by Parametric Technology Corporation
  0
SECTION
  2
HEADER
  9
$ACADVER
  1
AC1021
  9
$DWGCODEPAGE
  3
ANSI_1252
  9
$EXTMAX
 10
11.0
 20
8.5
 30
0.0
  9
$EXTMIN
 10
0.0
 20
0.0
 30
0.0
  9
$LIMMIN
 10
0.0
 20
0.0
  9
$LIMMAX
 10
11.0
 20
8.5
  9
$VIEWCTR
 10
5.5
 20
4.25
  9
$VIEWSIZE
 40
8.5
  9
$CLAYER
  8
0
  9
$LTSCALE
 40
0.605
  9
$CELTYPE
  6
BYLAYER
  9
$DIMSCALE
 40
1.0
  9
$DIMASZ
 40
0.1
  9
$DIMEXO
 40
0.0625
  9
$DIMDLI
 40
0.418
  9
$DIMEXE
 40
0.125
  9
$DIMCEN
 40
0.099
  9
$DIMLFAC
 40
1.0
  9
$DIMBLK
  1
_FILLED
  9
$DIMTXT
 40
0.08
  9
$DIMTOL
 70
1
  9
$DIMLIM
 70
0
  9
$DIMTFAC
 40
1.0
  9
$DIMTP
 40
0.001
  9
$DIMTM
 40
0.001
  9
$DIMGAP
 40
0.09
  9
$DIMDSEP
 70
46
  9
$PDMODE
 70
3
  9
$PDSIZE
 40
0.06
  9
$HANDSEED
  5
335
  9
$TILEMODE
 70
1
  9
$MEASUREMENT
 70
0
  9
$INSUNITS
 70
1
  0
ENDSEC
  0
SECTION
  2
CLASSES
  0
CLASS
  1
ACDBDICTIONARYWDFLT
  2
AcDbDictionaryWithDefault
  3
AutoCAD 2000
 90
0
 91
1
280
0
281
0
  0
CLASS
  1
ACDBPLACEHOLDER
  2
AcDbPlaceHolder
  3
AutoCAD 2000
 90
0
 91
1
280
0
281
0
  0
CLASS
  1
LAYOUT
  2
AcDbLayout
  3
AutoCAD 2000
 90
0
 91
0
280
0
281
0
  0
ENDSEC
  0
SECTION
  2
TABLES
  0
TABLE
  2
VPORT
  5
8
100
AcDbSymbolTable
 70
2
  0
VPORT
  5
1F4
100
AcDbSymbolTableRecord
100
AcDbViewportTableRecord
  2
*ACTIVE
 70
0
 10
0.0
 20
0.0
 11
1.0
 21
1.0
 12
5.5
 22
4.25
 13
0.0
 23
0.0
 14
1.0
 24
1.0
 15
0.0
 25
0.0
 16
0.0
 26
0.0
 36
1.0
 17
0.0
 27
0.0
 37
0.0
 40
8.5
 41
1.2941176471
 42
50.0
 43
0.0
 44
0.0
 50
0.0
 51
0.0
 71
0
 72
100
 73
1
 74
1
 75
0
 76
0
 77
0
 78
0
  0
ENDTAB
  0
TABLE
  2
LTYPE
  5
5
100
AcDbSymbolTable
 70
6
  0
LTYPE
  5
14
100
AcDbSymbolTableRecord
100
AcDbLinetypeTableRecord
  2
BYBLOCK
 70
0
  3

 72
65
 73
0
 40
0.0
  0
LTYPE
  5
15
100
AcDbSymbolTableRecord
100
AcDbLinetypeTableRecord
  2
BYLAYER
 70
0
  3

 72
65
 73
0
 40
0.0
  0
LTYPE
  5
16
100
AcDbSymbolTableRecord
100
AcDbLinetypeTableRecord
  2
CONTINUOUS
 70
64
  3
Solid line
 72
65
 73
0
 40
0.0
  0
LTYPE
  5
1F5
100
AcDbSymbolTableRecord
100
AcDbLinetypeTableRecord
  2
CENTER
 70
64
  3
____ _ ____ _ ____ _ ____ _ ____ _ ____ _ ____
 72
65
 73
4
 40
0.6
 49
0.375
 74
0
 49
-0.075
 74
0
 49
0.075
 74
0
 49
-0.075
 74
0
  0
LTYPE
  5
1F6
100
AcDbSymbolTableRecord
100
AcDbLinetypeTableRecord
  2
HIDDEN
 70
64
  3
- - - - - - - - - - - - - - - - - - - -
 72
65
 73
2
 40
0.2
 49
0.1
 74
0
 49
-0.1
 74
0
  0
LTYPE
  5
1F7
100
AcDbSymbolTableRecord
100
AcDbLinetypeTableRecord
  2
PHANTOM
 70
64
  3
_____ _ _ _____ _ _ _____ _ _ _____
 72
65
 73
6
 40
0.8
 49
0.45
 74
0
 49
-0.05
 74
0
 49
0.1
 74
0
 49
-0.05
 74
0
 49
0.1
 74
0
 49
-0.05
 74
0
  0
LTYPE
  5
1F8
100
AcDbSymbolTableRecord
100
AcDbLinetypeTableRecord
  2
DOT
 70
64
  3
. . . . . . . . . . . . . . . . . . . .
 72
65
 73
2
 40
0.2
 49
0.1
 74
0
 49
-0.1
 74
0
  0
LTYPE
  5
1F9
100
AcDbSymbolTableRecord
100
AcDbLinetypeTableRecord
  2
DASHED
 70
64
  3
- - - - - - - - - - - - - - - - - - - -
 72
65
 73
2
 40
0.2
 49
0.1
 74
0
 49
-0.1
 74
0
  0
ENDTAB
  0
TABLE
  2
LAYER
  5
2
100
AcDbSymbolTable
 70
36
  0
LAYER
  5
10
100
AcDbSymbolTableRecord
100
AcDbLayerTableRecord
  2
0
 70
0
 62
7
  6
CONTINUOUS
370
-3
390
F
  0
LAYER
  5
1FA
100
AcDbSymbolTableRecord
100
AcDbLayerTableRecord
  2
DEFAULT_1
 70
0
 62
7
  6
CENTER
370
-3
390
F
  0
LAYER
  5
1FB
100
AcDbSymbolTableRecord
100
AcDbLayerTableRecord
  2
DEFAULT_2
 70
0
 62
8
  6
HIDDEN
370
-3
390
F
  0
LAYER
  5
1FC
100
AcDbSymbolTableRecord
100
AcDbLayerTableRecord
  2
DEFAULT_3
 70
0
 62
7
  6
PHANTOM
370
-3
390
F
  0
LAYER
  5
1FD
100
AcDbSymbolTableRecord
100
AcDbLayerTableRecord
  2
ALL_FEATURES
 70
0
 62
7
  6
CONTINUOUS
370
-3
390
F
  0
LAYER
  5
1FE
100
AcDbSymbolTableRecord
100
AcDbLayerTableRecord
  2
AXES_FEATURES
 70
0
 62
7
  6
CONTINUOUS
370
-3
390
F
  0
LAYER
  5
1FF
100
AcDbSymbolTableRecord
100
AcDbLayerTableRecord
  2
CHAMFER_FEATURES
 70
0
 62
7
  6
CONTINUOUS
370
-3
390
F
  0
LAYER
  5
200
100
AcDbSymbolTableRecord
100
AcDbLayerTableRecord
  2
DEFAULT_COORDINATE_SYSTEM
 70
0
 62
7
  6
CONTINUOUS
370
-3
390
F
  0
LAYER
  5
201
100
AcDbSymbolTableRecord
100
AcDbLayerTableRecord
  2
DEFAULT_DATUM_AXES
 70
0
 62
7
  6
CONTINUOUS
370
-3
390
F
  0
LAYER
  5
202
100
AcDbSymbolTableRecord
100
AcDbLayerTableRecord
  2
DEFAULT_DATUM_PLANES
 70
0
 62
7
  6
CONTINUOUS
370
-3
390
F
  0
LAYER
  5
203
100
AcDbSymbolTableRecord
100
AcDbLayerTableRecord
  2
DEFAULT_SURFACES
 70
0
 62
7
  6
CONTINUOUS
370
-3
390
F
  0
LAYER
  5
204
100
AcDbSymbolTableRecord
100
AcDbLayerTableRecord
  2
DIMENSIONS
 70
0
 62
7
  6
CONTINUOUS
370
-3
390
F
  0
LAYER
  5
205
100
AcDbSymbolTableRecord
100
AcDbLayerTableRecord
  2
PROTRUSION_FEATURES
 70
0
 62
7
  6
CONTINUOUS
370
-3
390
F
  0
LAYER
  5
206
100
AcDbSymbolTableRecord
100
AcDbLayerTableRecord
  2
QUILTS
 70
0
 62
7
  6
CONTINUOUS
370
-3
390
F
  0
LAYER
  5
207
100
AcDbSymbolTableRecord
100
AcDbLayerTableRecord
  2
ROUND_FEATURES
 70
0
 62
7
  6
CONTINUOUS
370
-3
390
F
  0
LAYER
  5
208
100
AcDbSymbolTableRecord
100
AcDbLayerTableRecord
  2
WETTED_SURFACE_AREA
 70
0
 62
7
  6
CONTINUOUS
370
-3
390
F
  0
LAYER
  5
209
100
AcDbSymbolTableRecord
100
AcDbLayerTableRecord
  2
WHITE
 70
0
 62
7
  6
CONTINUOUS
370
-3
390
F
  0
ENDTAB
  0
TABLE
  2
STYLE
  5
3
100
AcDbSymbolTable
 70
1
  0
STYLE
  5
11
100
AcDbSymbolTableRecord
100
AcDbTextStyleTableRecord
  2
STANDARD
 70
0
 40
0.0
 41
0.8
 50
0.0
 71
0
 42
0.2
  3
txt
  4

  0
STYLE
  5
20A
100
AcDbSymbolTableRecord
100
AcDbTextStyleTableRecord
  2
TEXTSTYLE_1
 70
0
 40
0.0
 41
0.8
 50
0.0
 71
0
 42
0.2
  3
gdt
  4

  0
ENDTAB
  0
TABLE
  2
VIEW
  5
6
100
AcDbSymbolTable
 70
0
  0
ENDTAB
  0
TABLE
  2
UCS
  5
7
100
AcDbSymbolTable
 70
0
  0
ENDTAB
  0
TABLE
  2
APPID
  5
9
100
AcDbSymbolTable
 70
1
  0
APPID
  5
20B
100
AcDbSymbolTableRecord
100
AcDbRegAppTableRecord
  2
ACAD
 70
0
  0
ENDTAB
  0
TABLE
  2
BLOCK_RECORD
  5
1
100
AcDbSymbolTable
 70
0
  0
BLOCK_RECORD
  5
20C
100
AcDbSymbolTableRecord
100
AcDbBlockTableRecord
  2
*Model_Space
  0
BLOCK_RECORD
  5
20D
100
AcDbSymbolTableRecord
100
AcDbBlockTableRecord
  2
*Paper_Space
  0
ENDTAB
  0
TABLE
  2
DIMSTYLE
  5
A
100
AcDbSymbolTable
 70
1
100
AcDbDimStyleTable
 71
0
  0
DIMSTYLE
105
20E
100
AcDbSymbolTableRecord
100
AcDbDimStyleTableRecord
  2
STANDARD
 70
0
  3

  4

 40
1.0
 41
0.1
 42
0.0625
 43
0.38
 44
0.125
 45
0.0
 46
0.0
 47
0.001
 48
0.001
140
0.08
141
0.09
142
0.0
143
25.4
144
1.0
145
0.0
146
1.0
147
0.09
 71
1.0
 72
0.0
 73
1
 74
1
 75
0
 76
0
 77
0
 78
4
170
0
171
2
172
0
173
0
174
0
175
0
176
0
177
0
178
0
270
2
271
3
272
3
273
2
274
2
275
0
280
0
281
0
282
0
283
1
284
4
285
0
286
0
287
3
288
0
340
11
278
46
  0
ENDTAB
  0
ENDSEC
  0
SECTION
  2
BLOCKS
  0
BLOCK
  5
20
100
AcDbEntity
  8
0
100
AcDbBlockBegin
  2
*Model_Space
 70
0
 10
0.0
 20
0.0
 30
0.0
  3
*Model_Space
  1

  0
ENDBLK
  5
21
100
AcDbEntity
  8
0
100
AcDbBlockEnd
  0
BLOCK
  5
1C
100
AcDbEntity
  8
0
100
AcDbBlockBegin
  2
*Paper_Space
 70
0
 10
0.0
 20
0.0
 30
0.0
  3
*Paper_Space
  1

  0
ENDBLK
  5
1D
100
AcDbEntity
  8
0
100
AcDbBlockEnd
  0
ENDSEC
  0
SECTION
  2
ENTITIES
  0
LINE
  5
20F
100
AcDbEntity
  8
0
100
AcDbLine
 62
7
  6
CONTINUOUS
 10
0.0
 20
0.0
 11
0.0
 21
8.5
  0
LINE
  5
210
100
AcDbEntity
  8
0
100
AcDbLine
 62
7
  6
CONTINUOUS
 10
0.0
 20
0.0
 11
11.0
 21
0.0
  0
LINE
  5
211
100
AcDbEntity
  8
0
100
AcDbLine
 62
7
  6
CONTINUOUS
 10
0.0
 20
8.5
 11
11.0
 21
8.5
  0
LINE
  5
212
100
AcDbEntity
  8
0
100
AcDbLine
 62
7
  6
CONTINUOUS
 10
11.0
 20
0.0
 11
11.0
 21
8.5
  0
LINE
  5
213
100
AcDbEntity
  8
0
100
AcDbLine
 62
7
  6
CONTINUOUS
 10
7.5078973292
 20
0.8181707162
 11
6.4291571717
 21
0.8181707162
  0
LINE
  5
214
100
AcDbEntity
  8
0
100
AcDbLine
 62
7
  6
CONTINUOUS
 10
6.2884111732
 20
0.8182100863
 11
6.4291571717
 21
0.8182100863
  0
LINE
  5
215
100
AcDbEntity
  8
0
100
AcDbLine
 62
7
  6
CONTINUOUS
 10
7.5078973292
 20
0.8182100863
 11
7.6486453607
 21
0.8182100863
  0
LINE
  5
216
100
AcDbEntity
  8
0
100
AcDbLine
 62
9
  6
CONTINUOUS
 10
6.2844721323
 20
0.8221470942
 11
6.4185272504
 21
0.8221470942
  0
LINE
  5
217
100
AcDbEntity
  8
0
100
AcDbLine
 62
9
  6
CONTINUOUS
 10
7.5185272504
 20
0.8221470942
 11
7.6525823685
 21
0.8221470942
  0
LINE
  5
218
100
AcDbEntity
  8
0
100
AcDbLine
 62
9
  6
CONTINUOUS
 10
6.4291571717
 20
0.9583281965
 11
7.5078973292
 21
0.9583281965
  0
LINE
  5
219
100
AcDbEntity
  8
0
100
AcDbLine
 62
7
  6
CONTINUOUS
 10
6.4389996914
 20
0.9681707162
 11
7.4980548095
 21
0.9681707162
  0
LINE
  5
21A
100
AcDbEntity
  8
0
100
AcDbLine
 62
7
  6
CONTINUOUS
 10
6.6585275344
 20
0.9731707162
 11
7.2785269664
 21
0.9731707162
  0
LINE
  5
21B
100
AcDbEntity
  8
0
100
AcDbLine
 62
9
  6
CONTINUOUS
 10
6.6634091402
 20
0.9830132359
 11
7.2736453607
 21
0.9830132359
  0
LINE
  5
21C
100
AcDbEntity
  8
0
100
AcDbLine
 62
9
  6
CONTINUOUS
 10
7.6525823685
 20
1.0111234721
 11
7.5185272504
 21
1.0111234721
  0
LINE
  5
21D
100
AcDbEntity
  8
0
100
AcDbLine
 62
9
  6
CONTINUOUS
 10
6.4185272504
 20
1.0111234721
 11
6.2844721323
 21
1.0111234721
  0
LINE
  5
21E
100
AcDbEntity
  8
0
100
AcDbLine
 62
7
  6
CONTINUOUS
 10
7.6486453607
 20
1.01506048
 11
7.5185272504
 21
1.01506048
  0
LINE
  5
21F
100
AcDbEntity
  8
0
100
AcDbLine
 62
7
  6
CONTINUOUS
 10
6.4185272504
 20
1.01506048
 11
6.2884091402
 21
1.01506048
  0
LINE
  5
220
100
AcDbEntity
  8
0
100
AcDbLine
 62
7
  6
CONTINUOUS
 10
7.5185225668
 20
1.0182100863
 11
7.2736453607
 21
1.0182100863
  0
LINE
  5
221
100
AcDbEntity
  8
0
100
AcDbLine
 62
7
  6
CONTINUOUS
 10
6.6634091402
 20
1.0182100863
 11
6.418531934
 21
1.0182100863
  0
LINE
  5
222
100
AcDbEntity
  8
0
100
AcDbLine
 62
7
  6
CONTINUOUS
 10
6.6140902425
 20
1.0232100863
 11
6.6634091402
 21
1.0232100863
  0
LINE
  5
223
100
AcDbEntity
  8
0
100
AcDbLine
 62
7
  6
CONTINUOUS
 10
7.2736453607
 20
1.0232100863
 11
7.3229642583
 21
1.0232100863
  0
LINE
  5
224
100
AcDbEntity
  8
0
100
AcDbLine
 62
7
  6
CONTINUOUS
 10
6.5945119103
 20
1.0320100863
 11
6.6634091402
 21
1.0320100863
  0
LINE
  5
225
100
AcDbEntity
  8
0
100
AcDbLine
 62
7
  6
CONTINUOUS
 10
7.2736453607
 20
1.0320100863
 11
7.3425425906
 21
1.0320100863
  0
LINE
  5
226
100
AcDbEntity
  8
0
100
AcDbLine
 62
7
  6
CONTINUOUS
 10
3.2752306006
 20
4.9641859578
 11
3.2199862125
 21
4.3327397122
  0
LINE
  5
227
100
AcDbEntity
  8
0
100
AcDbLine
 62
7
  6
CONTINUOUS
 10
3.7458737651
 20
4.9230100164
 11
3.690629377
 21
4.2915637707
  0
LINE
  5
228
100
AcDbEntity
  8
0
100
AcDbLine
 62
7
  6
CONTINUOUS
 10
7.948842211
 20
1.8221470942
 11
7.4361364126
 21
1.8221470942
  0
LINE
  5
229
100
AcDbEntity
  8
0
100
AcDbLine
 62
9
  6
CONTINUOUS
 10
7.3425429984
 20
1.8886114405
 11
7.2736453607
 21
1.8886114405
  0
LINE
  5
22A
100
AcDbEntity
  8
0
100
AcDbLine
 62
9
  6
CONTINUOUS
 10
6.6634091402
 20
1.8886114405
 11
6.5945115024
 21
1.8886114405
  0
LINE
  5
22B
100
AcDbEntity
  8
0
100
AcDbLine
 62
9
  6
CONTINUOUS
 10
6.6040512089
 20
1.898449301
 11
6.6634091402
 21
1.898449301
  0
LINE
  5
22C
100
AcDbEntity
  8
0
100
AcDbLine
 62
9
  6
CONTINUOUS
 10
7.2736453607
 20
1.898449301
 11
7.3330032919
 21
1.898449301
  0
LINE
  5
22D
100
AcDbEntity
  8
0
100
AcDbLine
 62
7
  6
CONTINUOUS
 10
7.948842211
 20
1.9796274091
 11
7.4333235037
 21
1.9796274091
  0
LINE
  5
22E
100
AcDbEntity
  8
0
100
AcDbLine
 62
7
  6
CONTINUOUS
 10
6.6190902425
 20
1.0182100863
 11
6.6140902425
 21
1.0232100863
  0
LINE
  5
22F
100
AcDbEntity
  8
0
100
AcDbLine
 62
9
  6
CONTINUOUS
 10
6.6184274327
 20
1.0232100863
 11
6.6234261878
 21
1.0182100863
  0
LINE
  5
230
100
AcDbEntity
  8
0
100
AcDbLine
 62
7
  6
CONTINUOUS
 10
7.4409676838
 20
2.8556116611
 11
7.2736453607
 21
2.8556116611
  0
LINE
  5
231
100
AcDbEntity
  8
0
100
AcDbLine
 62
7
  6
CONTINUOUS
 10
6.6634091402
 20
2.8556116611
 11
6.496086817
 21
2.8556116611
  0
LINE
  5
232
100
AcDbEntity
  8
0
100
AcDbLine
 62
7
  6
CONTINUOUS
 10
7.6575036284
 20
0.9422258343
 11
7.652394757
 21
0.9473347057
  0
LINE
  5
233
100
AcDbEntity
  8
0
100
AcDbLine
 62
9
  6
CONTINUOUS
 10
6.6179292456
 20
1.0232100863
 11
6.6205846753
 21
1.0182100863
  0
LINE
  5
234
100
AcDbEntity
  8
0
100
AcDbLine
 62
7
  6
CONTINUOUS
 10
6.6634097093
 20
3.6109659918
 11
6.9695115024
 21
3.6109659918
  0
LINE
  5
235
100
AcDbEntity
  8
0
100
AcDbLine
 62
7
  6
CONTINUOUS
 10
6.6634094605
 20
3.6158872516
 11
6.9675429984
 21
3.6158872516
  0
LINE
  5
236
100
AcDbEntity
  8
0
100
AcDbLine
 62
7
  6
CONTINUOUS
 10
6.7015202868
 20
3.9210053619
 11
6.6903143794
 21
3.9210053619
  0
LINE
  5
237
100
AcDbEntity
  8
0
100
AcDbLine
 62
7
  6
CONTINUOUS
 10
6.667404255
 20
3.9210053619
 11
6.6574355286
 21
3.9210053619
  0
LINE
  5
238
100
AcDbEntity
  8
0
100
AcDbLine
 62
7
  6
CONTINUOUS
 10
6.7015080268
 20
3.9505329209
 11
6.6903255908
 21
3.9505329209
  0
LINE
  5
239
100
AcDbEntity
  8
0
100
AcDbLine
 62
7
  6
CONTINUOUS
 10
6.6674052637
 20
3.9505329209
 11
6.6574357231
 21
3.9505329209
  0
LINE
  5
23A
100
AcDbEntity
  8
0
100
AcDbLine
 62
7
  6
CONTINUOUS
 10
7.2756138646
 20
3.9652967005
 11
7.2736453607
 21
3.9652967005
  0
LINE
  5
23B
100
AcDbEntity
  8
0
100
AcDbLine
 62
7
  6
CONTINUOUS
 10
6.7015202868
 20
4.0194305587
 11
6.6903143794
 21
4.0194305587
  0
LINE
  5
23C
100
AcDbEntity
  8
0
100
AcDbLine
 62
7
  6
CONTINUOUS
 10
6.667404255
 20
4.0194305587
 11
6.6574355286
 21
4.0194305587
  0
LINE
  5
23D
100
AcDbEntity
  8
0
100
AcDbLine
 62
7
  6
CONTINUOUS
 10
6.7015080268
 20
4.0489581178
 11
6.6903255908
 21
4.0489581178
  0
LINE
  5
23E
100
AcDbEntity
  8
0
100
AcDbLine
 62
7
  6
CONTINUOUS
 10
6.6674052637
 20
4.0489581178
 11
6.6574357231
 21
4.0489581178
  0
LINE
  5
23F
100
AcDbEntity
  8
0
100
AcDbLine
 62
7
  6
CONTINUOUS
 10
7.2756138646
 20
4.1227770154
 11
7.2736453607
 21
4.1227770154
  0
LINE
  5
240
100
AcDbEntity
  8
0
100
AcDbLine
 62
7
  6
CONTINUOUS
 10
6.7015202868
 20
4.1375407949
 11
6.6903143794
 21
4.1375407949
  0
LINE
  5
241
100
AcDbEntity
  8
0
100
AcDbLine
 62
7
  6
CONTINUOUS
 10
6.667404255
 20
4.1375407949
 11
6.6574355286
 21
4.1375407949
  0
LINE
  5
242
100
AcDbEntity
  8
0
100
AcDbLine
 62
7
  6
CONTINUOUS
 10
6.7015080268
 20
4.167068354
 11
6.6903255908
 21
4.167068354
  0
LINE
  5
243
100
AcDbEntity
  8
0
100
AcDbLine
 62
7
  6
CONTINUOUS
 10
6.6674052637
 20
4.167068354
 11
6.6574357231
 21
4.167068354
  0
LINE
  5
244
100
AcDbEntity
  8
0
100
AcDbLine
 62
7
  6
CONTINUOUS
 10
6.7015202868
 20
4.2359659918
 11
6.6903143794
 21
4.2359659918
  0
LINE
  5
245
100
AcDbEntity
  8
0
100
AcDbLine
 62
7
  6
CONTINUOUS
 10
6.667404255
 20
4.2359659918
 11
6.6574355286
 21
4.2359659918
  0
LINE
  5
246
100
AcDbEntity
  8
0
100
AcDbLine
 62
7
  6
CONTINUOUS
 10
6.7015080268
 20
4.2654935509
 11
6.6903255908
 21
4.2654935509
  0
LINE
  5
247
100
AcDbEntity
  8
0
100
AcDbLine
 62
7
  6
CONTINUOUS
 10
6.6674052637
 20
4.2654935509
 11
6.6574357231
 21
4.2654935509
  0
LINE
  5
248
100
AcDbEntity
  8
0
100
AcDbLine
 62
7
  6
CONTINUOUS
 10
3.2289334463
 20
4.3220768142
 11
3.6799663524
 21
4.282616548
  0
LINE
  5
249
100
AcDbEntity
  8
0
100
AcDbLine
 62
9
  6
CONTINUOUS
 10
3.2199862125
 20
4.3327397122
 11
3.690629377
 21
4.2915637707
  0
LINE
  5
24A
100
AcDbEntity
  8
0
100
AcDbLine
 62
7
  6
CONTINUOUS
 10
6.2844721323
 20
0.8221470942
 11
6.2844721323
 21
1.0111234721
  0
LINE
  5
24B
100
AcDbEntity
  8
0
100
AcDbLine
 62
7
  6
CONTINUOUS
 10
6.7015202868
 20
4.3343911886
 11
6.6903143794
 21
4.3343911886
  0
LINE
  5
24C
100
AcDbEntity
  8
0
100
AcDbLine
 62
7
  6
CONTINUOUS
 10
6.667404255
 20
4.3343911886
 11
6.6574355286
 21
4.3343911886
  0
LINE
  5
24D
100
AcDbEntity
  8
0
100
AcDbLine
 62
7
  6
CONTINUOUS
 10
6.7015080268
 20
4.3639187477
 11
6.6903255908
 21
4.3639187477
  0
LINE
  5
24E
100
AcDbEntity
  8
0
100
AcDbLine
 62
7
  6
CONTINUOUS
 10
6.6674052637
 20
4.3639187477
 11
6.6574357231
 21
4.3639187477
  0
LINE
  5
24F
100
AcDbEntity
  8
0
100
AcDbLine
 62
7
  6
CONTINUOUS
 10
6.7015202868
 20
4.4328163855
 11
6.6903143794
 21
4.4328163855
  0
LINE
  5
250
100
AcDbEntity
  8
0
100
AcDbLine
 62
7
  6
CONTINUOUS
 10
6.667404255
 20
4.4328163855
 11
6.6574355286
 21
4.4328163855
  0
LINE
  5
251
100
AcDbEntity
  8
0
100
AcDbLine
 62
7
  6
CONTINUOUS
 10
6.7015080268
 20
4.4623439446
 11
6.6903255908
 21
4.4623439446
  0
LINE
  5
252
100
AcDbEntity
  8
0
100
AcDbLine
 62
7
  6
CONTINUOUS
 10
6.6674052637
 20
4.4623439446
 11
6.6574357231
 21
4.4623439446
  0
LINE
  5
253
100
AcDbEntity
  8
0
100
AcDbLine
 62
7
  6
CONTINUOUS
 10
6.7015202868
 20
4.5312415823
 11
6.6903143794
 21
4.5312415823
  0
LINE
  5
254
100
AcDbEntity
  8
0
100
AcDbLine
 62
7
  6
CONTINUOUS
 10
6.667404255
 20
4.5312415823
 11
6.6574355286
 21
4.5312415823
  0
LINE
  5
255
100
AcDbEntity
  8
0
100
AcDbLine
 62
7
  6
CONTINUOUS
 10
6.7015080268
 20
4.5607691414
 11
6.6903255908
 21
4.5607691414
  0
LINE
  5
256
100
AcDbEntity
  8
0
100
AcDbLine
 62
7
  6
CONTINUOUS
 10
6.6674052637
 20
4.5607691414
 11
6.6574357231
 21
4.5607691414
  0
LINE
  5
257
100
AcDbEntity
  8
0
100
AcDbLine
 62
7
  6
CONTINUOUS
 10
3.7215093144
 20
4.6445463207
 11
3.2508701872
 21
4.6857219089
  0
LINE
  5
258
100
AcDbEntity
  8
0
100
AcDbLine
 62
7
  6
CONTINUOUS
 10
6.4185272504
 20
0.8182100863
 11
6.4185272504
 21
1.0182100863
  0
LINE
  5
259
100
AcDbEntity
  8
0
100
AcDbLine
 62
7
  6
CONTINUOUS
 10
6.4291571717
 20
0.9583281965
 11
6.4291571717
 21
0.8181707162
  0
LINE
  5
25A
100
AcDbEntity
  8
0
100
AcDbLine
 62
7
  6
CONTINUOUS
 10
6.4960863055
 20
2.8556116611
 11
6.4960863055
 21
1.0182100863
  0
LINE
  5
25B
100
AcDbEntity
  8
0
100
AcDbLine
 62
7
  6
CONTINUOUS
 10
6.5945115024
 20
1.8886114405
 11
6.5945115024
 21
1.0320100863
  0
LINE
  5
25C
100
AcDbEntity
  8
0
100
AcDbLine
 62
7
  6
CONTINUOUS
 10
6.6140902425
 20
1.0232100863
 11
6.6140902425
 21
1.0320100863
  0
LINE
  5
25D
100
AcDbEntity
  8
0
100
AcDbLine
 62
9
  6
CONTINUOUS
 10
6.6179292455
 20
1.0232100863
 11
6.6179292455
 21
1.0320100863
  0
LINE
  5
25E
100
AcDbEntity
  8
0
100
AcDbLine
 62
9
  6
CONTINUOUS
 10
6.6184274327
 20
1.0232100863
 11
6.6184274327
 21
1.0320100863
  0
LINE
  5
25F
100
AcDbEntity
  8
0
100
AcDbLine
 62
7
  6
CONTINUOUS
 10
6.7015202868
 20
4.6493518186
 11
6.6903143794
 21
4.6493518186
  0
LINE
  5
260
100
AcDbEntity
  8
0
100
AcDbLine
 62
7
  6
CONTINUOUS
 10
6.667404255
 20
4.6493518186
 11
6.6574355286
 21
4.6493518186
  0
LINE
  5
261
100
AcDbEntity
  8
0
100
AcDbLine
 62
7
  6
CONTINUOUS
 10
7.2756138646
 20
4.6739581178
 11
7.2736453607
 21
4.6739581178
  0
LINE
  5
262
100
AcDbEntity
  8
0
100
AcDbLine
 62
7
  6
CONTINUOUS
 10
6.7015080268
 20
4.6788793776
 11
6.6903255908
 21
4.6788793776
  0
LINE
  5
263
100
AcDbEntity
  8
0
100
AcDbLine
 62
7
  6
CONTINUOUS
 10
6.6674052637
 20
4.6788793776
 11
6.6574357231
 21
4.6788793776
  0
LINE
  5
264
100
AcDbEntity
  8
0
100
AcDbLine
 62
7
  6
CONTINUOUS
 10
6.7015202868
 20
4.7477770154
 11
6.6903143794
 21
4.7477770154
  0
LINE
  5
265
100
AcDbEntity
  8
0
100
AcDbLine
 62
7
  6
CONTINUOUS
 10
6.667404255
 20
4.7477770154
 11
6.6574355286
 21
4.7477770154
  0
LINE
  5
266
100
AcDbEntity
  8
0
100
AcDbLine
 62
7
  6
CONTINUOUS
 10
6.7015080268
 20
4.7773045745
 11
6.6903255908
 21
4.7773045745
  0
LINE
  5
267
100
AcDbEntity
  8
0
100
AcDbLine
 62
7
  6
CONTINUOUS
 10
6.6674052637
 20
4.7773045745
 11
6.6574357231
 21
4.7773045745
  0
LINE
  5
268
100
AcDbEntity
  8
0
100
AcDbLine
 62
9
  6
CONTINUOUS
 10
6.9695115024
 20
4.7926195351
 11
6.9675429984
 21
4.7926195351
  0
LINE
  5
269
100
AcDbEntity
  8
0
100
AcDbLine
 62
7
  6
CONTINUOUS
 10
7.2756138646
 20
4.8314384327
 11
7.2736453607
 21
4.8314384327
  0
LINE
  5
26A
100
AcDbEntity
  8
0
100
AcDbLine
 62
9
  6
CONTINUOUS
 10
3.7458737651
 20
4.9230100164
 11
3.2752306006
 21
4.9641859578
  0
LINE
  5
26B
100
AcDbEntity
  8
ALL_FEATURES
100
AcDbLine
 62
7
  6
CONTINUOUS
 10
6.6585272504
 20
0.9731707162
 11
6.6585272504
 21
0.9681707162
  0
LINE
  5
26C
100
AcDbEntity
  8
0
100
AcDbLine
 62
7
  6
CONTINUOUS
 10
6.6634091402
 20
0.9830132359
 11
6.6634091402
 21
3.6109659918
  0
LINE
  5
26D
100
AcDbEntity
  8
0
100
AcDbLine
 62
7
  6
CONTINUOUS
 10
6.6634091402
 20
3.6158872516
 11
6.6634091402
 21
3.9210053619
  0
LINE
  5
26E
100
AcDbEntity
  8
0
100
AcDbLine
 62
7
  6
CONTINUOUS
 10
6.6634091402
 20
3.9505329209
 11
6.6634091402
 21
4.0194305587
  0
LINE
  5
26F
100
AcDbEntity
  8
0
100
AcDbLine
 62
7
  6
CONTINUOUS
 10
6.6634091402
 20
4.0489581178
 11
6.6634091402
 21
4.1375407949
  0
LINE
  5
270
100
AcDbEntity
  8
0
100
AcDbLine
 62
7
  6
CONTINUOUS
 10
6.6634091402
 20
4.167068354
 11
6.6634091402
 21
4.2359659918
  0
LINE
  5
271
100
AcDbEntity
  8
0
100
AcDbLine
 62
7
  6
CONTINUOUS
 10
6.6634091402
 20
4.2654935509
 11
6.6634091402
 21
4.3343911886
  0
LINE
  5
272
100
AcDbEntity
  8
0
100
AcDbLine
 62
7
  6
CONTINUOUS
 10
6.6634091402
 20
4.3639187477
 11
6.6634091402
 21
4.4328163855
  0
LINE
  5
273
100
AcDbEntity
  8
0
100
AcDbLine
 62
7
  6
CONTINUOUS
 10
6.6634091402
 20
4.4623439446
 11
6.6634091402
 21
4.5312415823
  0
LINE
  5
274
100
AcDbEntity
  8
0
100
AcDbLine
 62
7
  6
CONTINUOUS
 10
6.6634091402
 20
4.5607691414
 11
6.6634091402
 21
4.6493518186
  0
LINE
  5
275
100
AcDbEntity
  8
0
100
AcDbLine
 62
7
  6
CONTINUOUS
 10
6.6634091402
 20
4.6788793776
 11
6.6634091402
 21
4.7477770154
  0
LINE
  5
276
100
AcDbEntity
  8
0
100
AcDbLine
 62
7
  6
CONTINUOUS
 10
6.6634091402
 20
4.7773045745
 11
6.6634091402
 21
5.1070289839
  0
LINE
  5
277
100
AcDbEntity
  8
0
100
AcDbLine
 62
7
  6
CONTINUOUS
 10
6.732306778
 20
3.6158872516
 11
6.732306778
 21
3.6109659918
  0
LINE
  5
278
100
AcDbEntity
  8
0
100
AcDbLine
 62
7
  6
CONTINUOUS
 10
6.9610272504
 20
0.9731707162
 11
6.9610272504
 21
0.9681707162
  0
LINE
  5
279
100
AcDbEntity
  8
0
100
AcDbLine
 62
7
  6
CONTINUOUS
 10
6.9675429984
 20
5.1070289839
 11
6.9675429984
 21
3.6158872516
  0
LINE
  5
27A
100
AcDbEntity
  8
0
100
AcDbLine
 62
7
  6
CONTINUOUS
 10
6.9695115024
 20
3.6109659918
 11
6.9695115024
 21
5.1070289839
  0
LINE
  5
27B
100
AcDbEntity
  8
0
100
AcDbLine
 62
7
  6
CONTINUOUS
 10
6.9760272504
 20
0.9731707162
 11
6.9760272504
 21
0.9681707162
  0
LINE
  5
27C
100
AcDbEntity
  8
0
100
AcDbLine
 62
7
  6
CONTINUOUS
 10
7.2736447969
 20
5.1070289839
 11
6.9695115024
 21
5.1070289839
  0
LINE
  5
27D
100
AcDbEntity
  8
0
100
AcDbLine
 62
7
  6
CONTINUOUS
 10
6.9675429984
 20
5.1070289839
 11
6.6634094605
 21
5.1070289839
  0
LINE
  5
27E
100
AcDbEntity
  8
0
100
AcDbLine
 62
7
  6
CONTINUOUS
 10
7.2736453607
 20
0.9830132359
 11
7.2736453607
 21
3.9652967005
  0
LINE
  5
27F
100
AcDbEntity
  8
0
100
AcDbLine
 62
7
  6
CONTINUOUS
 10
7.2736453607
 20
4.1227770154
 11
7.2736453607
 21
4.6739581178
  0
LINE
  5
280
100
AcDbEntity
  8
0
100
AcDbLine
 62
7
  6
CONTINUOUS
 10
7.2736453607
 20
4.8314384327
 11
7.2736453607
 21
5.1070289839
  0
LINE
  5
281
100
AcDbEntity
  8
0
100
AcDbLine
 62
7
  6
CONTINUOUS
 10
7.2756138646
 20
3.9652967005
 11
7.2756138646
 21
4.1227770154
  0
LINE
  5
282
100
AcDbEntity
  8
0
100
AcDbLine
 62
7
  6
CONTINUOUS
 10
7.2756138646
 20
4.6739581181
 11
7.2756138646
 21
4.8314384327
  0
LINE
  5
283
100
AcDbEntity
  8
ALL_FEATURES
100
AcDbLine
 62
7
  6
CONTINUOUS
 10
7.2785272504
 20
0.9731707162
 11
7.2785272504
 21
0.9681707162
  0
LINE
  5
284
100
AcDbEntity
  8
0
100
AcDbLine
 62
9
  6
CONTINUOUS
 10
7.3186270681
 20
1.0232100863
 11
7.3186270681
 21
1.0320100863
  0
LINE
  5
285
100
AcDbEntity
  8
0
100
AcDbLine
 62
9
  6
CONTINUOUS
 10
7.3191252554
 20
1.0232100863
 11
7.3191252554
 21
1.0320100863
  0
LINE
  5
286
100
AcDbEntity
  8
0
100
AcDbLine
 62
7
  6
CONTINUOUS
 10
7.3229642583
 20
1.0232100863
 11
7.3229642583
 21
1.0320100863
  0
LINE
  5
287
100
AcDbEntity
  8
0
100
AcDbLine
 62
7
  6
CONTINUOUS
 10
7.3425429984
 20
1.8886114405
 11
7.3425429984
 21
1.0320100863
  0
LINE
  5
288
100
AcDbEntity
  8
0
100
AcDbLine
 62
7
  6
CONTINUOUS
 10
7.4333235037
 20
2.3812022123
 11
7.4333235037
 21
1.8733281965
  0
LINE
  5
289
100
AcDbEntity
  8
0
100
AcDbLine
 62
7
  6
CONTINUOUS
 10
7.4409681953
 20
2.8556116611
 11
7.4409681953
 21
2.4658421978
  0
LINE
  5
28A
100
AcDbEntity
  8
0
100
AcDbLine
 62
7
  6
CONTINUOUS
 10
7.4409681953
 20
1.1069687445
 11
7.4409681953
 21
1.0182100863
  0
LINE
  5
28B
100
AcDbEntity
  8
0
100
AcDbLine
 62
7
  6
CONTINUOUS
 10
7.4409681953
 20
1.1125113772
 11
7.4409681953
 21
1.7886883227
  0
LINE
  5
28C
100
AcDbEntity
  8
0
100
AcDbLine
 62
7
  6
CONTINUOUS
 10
7.5078973292
 20
0.9583281965
 11
7.5078973292
 21
0.8181707162
  0
LINE
  5
28D
100
AcDbEntity
  8
0
100
AcDbLine
 62
7
  6
CONTINUOUS
 10
7.5185272504
 20
0.8182100863
 11
7.5185272504
 21
1.0182100863
  0
LINE
  5
28E
100
AcDbEntity
  8
0
100
AcDbLine
 62
7
  6
CONTINUOUS
 10
7.6525823685
 20
0.8221470942
 11
7.6525823685
 21
0.855609917
  0
LINE
  5
28F
100
AcDbEntity
  8
0
100
AcDbLine
 62
7
  6
CONTINUOUS
 10
7.6525823685
 20
0.9501015918
 11
7.6525823685
 21
1.0111234721
  0
LINE
  5
290
100
AcDbEntity
  8
0
100
AcDbLine
 62
7
  6
CONTINUOUS
 10
7.6575036284
 20
0.8634857188
 11
7.6575036284
 21
0.9422257924
  0
LINE
  5
291
100
AcDbEntity
  8
0
100
AcDbLine
 62
9
  6
CONTINUOUS
 10
7.948842211
 20
1.8221470942
 11
7.948842211
 21
1.9796274091
  0
LINE
  5
292
100
AcDbEntity
  8
0
100
AcDbLine
 62
7
  6
CONTINUOUS
 10
7.9527792189
 20
1.8260841161
 11
7.9527792189
 21
1.9756904012
  0
LINE
  5
293
100
AcDbEntity
  8
0
100
AcDbLine
 62
9
  6
CONTINUOUS
 10
7.3191252554
 20
1.0232100863
 11
7.3164698257
 21
1.0182100863
  0
LINE
  5
294
100
AcDbEntity
  8
0
100
AcDbLine
 62
7
  6
CONTINUOUS
 10
7.4406322108
 20
1.111932507
 11
7.4409681953
 21
1.1125123516
  0
LINE
  5
295
100
AcDbEntity
  8
0
100
AcDbLine
 62
9
  6
CONTINUOUS
 10
7.3186270681
 20
1.0232100863
 11
7.313628313
 21
1.0182100863
  0
LINE
  5
296
100
AcDbEntity
  8
0
100
AcDbLine
 62
7
  6
CONTINUOUS
 10
7.3179642583
 20
1.0182100863
 11
7.3229642583
 21
1.0232100863
  0
LINE
  5
297
100
AcDbEntity
  8
0
100
AcDbLine
 62
7
  6
CONTINUOUS
 10
7.6575036284
 20
0.8634856768
 11
7.6523950054
 21
0.8583770539
  0
ARC
  5
298
100
AcDbEntity
  8
0
100
AcDbCircle
 62
7
  6
CONTINUOUS
 10
5.2362437858
 20
4.7926195351
 40
1.968503937
100
AcDbArc
 50
9.1927260612
 51
175.0
  0
ARC
  5
299
100
AcDbEntity
  8
0
100
AcDbCircle
 62
7
  6
CONTINUOUS
 10
5.5971907356
 20
1.1278413282
 40
1.8424843806
100
AcDbArc
 50
1.8727853754
 51
2.0793287983
  0
ARC
  5
29A
100
AcDbEntity
  8
0
100
AcDbCircle
 62
7
  6
CONTINUOUS
 10
5.2362437858
 20
4.7926195351
 40
1.4960629921
100
AcDbArc
 50
12.1350414576
 51
175.0
  0
ARC
  5
29B
100
AcDbEntity
  8
0
100
AcDbCircle
 62
7
  6
CONTINUOUS
 10
3.2297912784
 20
4.3318818801
 40
0.0098425197
100
AcDbArc
 50
175.0
 51
265.0
  0
ARC
  5
29C
100
AcDbEntity
  8
0
100
AcDbCircle
 62
7
  6
CONTINUOUS
 10
3.680824311
 20
4.2924216029
 40
0.0098425197
100
AcDbArc
 50
265.0
 51
355.0
  0
ARC
  5
29D
100
AcDbEntity
  8
0
100
AcDbCircle
 62
7
  6
CONTINUOUS
 10
6.9685272504
 20
-9.9427274465
 40
11.8467847769
100
AcDbArc
 50
88.2369701891
 51
88.5240941437
  0
ARC
  5
29E
100
AcDbEntity
  8
0
100
AcDbCircle
 62
7
  6
CONTINUOUS
 10
6.9685272504
 20
-9.9427274465
 40
11.8467847769
100
AcDbArc
 50
91.4759058563
 51
91.7630298109
  0
ARC
  5
29F
100
AcDbEntity
  8
0
100
AcDbCircle
 62
7
  6
CONTINUOUS
 10
8.3234534722
 20
0.9028554213
 40
0.6725319838
100
AcDbArc
 50
176.2055034427
 51
183.7938921838
  0
ARC
  5
2A0
100
AcDbEntity
  8
0
100
AcDbCircle
 62
7
  6
CONTINUOUS
 10
7.8111581799
 20
1.1416595272
 40
0.370746783
100
AcDbArc
 50
182.9100664861
 51
183.1405252777
  0
ARC
  5
2A1
100
AcDbEntity
  8
0
100
AcDbCircle
 62
7
  6
CONTINUOUS
 10
7.6175117295
 20
4.7627270858
 40
0.3551394223
100
AcDbArc
 50
193.0412140532
 51
194.4748649497
  0
ARC
  5
2A2
100
AcDbEntity
  8
0
100
AcDbCircle
 62
7
  6
CONTINUOUS
 10
7.6175117292
 20
4.0540656684
 40
0.355139422
100
AcDbArc
 50
193.0412140529
 51
194.4748649504
  0
ARC
  5
2A3
100
AcDbEntity
  8
0
100
AcDbCircle
 62
7
  6
CONTINUOUS
 10
7.5814567235
 20
4.0428458013
 40
0.3180201788
100
AcDbArc
 50
165.4431751749
 51
167.0174456
  0
ARC
  5
2A4
100
AcDbEntity
  8
0
100
AcDbCircle
 62
7
  6
CONTINUOUS
 10
7.5814567235
 20
4.7515072186
 40
0.3180201787
100
AcDbArc
 50
165.4431751747
 51
167.0174456001
  0
ARC
  5
2A5
100
AcDbEntity
  8
0
100
AcDbCircle
 62
7
  6
CONTINUOUS
 10
7.4980548095
 20
0.9583281965
 40
0.0098425197
100
AcDbArc
 50
0.0
 51
90.0
  0
ARC
  5
2A6
100
AcDbEntity
  8
0
100
AcDbCircle
 62
7
  6
CONTINUOUS
 10
6.4389996914
 20
0.9583281965
 40
0.0098425197
100
AcDbArc
 50
90.0
 51
180.0
  0
ARC
  5
2A7
100
AcDbEntity
  8
0
100
AcDbCircle
 62
7
  6
CONTINUOUS
 10
6.6043540221
 20
1.8886114405
 40
0.0098425197
100
AcDbArc
 50
91.7630298114
 51
180.0
  0
ARC
  5
2A8
100
AcDbEntity
  8
0
100
AcDbCircle
 62
7
  6
CONTINUOUS
 10
7.3327004788
 20
1.8886114405
 40
0.0098425197
100
AcDbArc
 50
0.0
 51
88.2369701886
  0
ARC
  5
2A9
100
AcDbEntity
  8
0
100
AcDbCircle
 62
7
  6
CONTINUOUS
 10
6.6732516599
 20
0.9830132359
 40
0.0098425197
100
AcDbArc
 50
180.0
 51
247.5
  0
ARC
  5
2AA
100
AcDbEntity
  8
0
100
AcDbCircle
 62
7
  6
CONTINUOUS
 10
7.263802841
 20
0.9830132359
 40
0.0098425197
100
AcDbArc
 50
285.0
 51
360.0
  0
ARC
  5
2AB
100
AcDbEntity
  8
0
100
AcDbCircle
 62
7
  6
CONTINUOUS
 10
7.948842211
 20
1.826084102
 40
0.0039370079
100
AcDbArc
 50
270.0
 51
359.9999999991
  0
ARC
  5
2AC
100
AcDbEntity
  8
0
100
AcDbCircle
 62
7
  6
CONTINUOUS
 10
7.948842211
 20
1.9756904012
 40
0.0039370079
100
AcDbArc
 50
0.0000000009
 51
90.0
  0
ARC
  5
2AD
100
AcDbEntity
  8
0
100
AcDbCircle
 62
7
  6
CONTINUOUS
 10
7.6486453607
 20
0.8221470942
 40
0.0039370079
100
AcDbArc
 50
270.0
 51
360.0
  0
ARC
  5
2AE
100
AcDbEntity
  8
0
100
AcDbCircle
 62
7
  6
CONTINUOUS
 10
6.2884091402
 20
1.0111234721
 40
0.0039370079
100
AcDbArc
 50
90.0
 51
180.0
  0
ARC
  5
2AF
100
AcDbEntity
  8
0
100
AcDbCircle
 62
7
  6
CONTINUOUS
 10
6.2884091402
 20
0.8221470942
 40
0.0039370079
100
AcDbArc
 50
180.0
 51
270.0
  0
ARC
  5
2B0
100
AcDbEntity
  8
0
100
AcDbCircle
 62
7
  6
CONTINUOUS
 10
7.6486453607
 20
1.0111234721
 40
0.0039370079
100
AcDbArc
 50
0.0
 51
90.0
  0
SPLINE
  5
2B1
100
AcDbEntity
  8
0
100
AcDbSpline
 62
7
  6
CONTINUOUS
 70
0
 71
3
 72
18
 73
14
 74
0
 42
0.0000001
 43
0.0000001
 44
0.0000000001
 40
0.0
 40
0.0
 40
0.0
 40
0.0
 40
0.1731884128
 40
0.3425716036
 40
0.50269521
 40
0.648248367
 40
0.7743233268
 40
0.8288739186
 40
0.8771700703
 40
0.9187190692
 40
0.953153669
 40
0.9802857231
 40
1.0
 40
1.0
 40
1.0
 40
1.0
 10
7.4373243724
 20
1.165699138
 30
0.0
 10
7.4374761065
 20
1.1627248807
 30
0.0
 10
7.437774671
 20
1.1568416349
 30
0.0
 10
7.4382223315
 20
1.1482089508
 30
0.0
 10
7.4386686157
 20
1.1400520555
 30
0.0
 10
7.439113453
 20
1.1326410128
 30
0.0
 10
7.4394984294
 20
1.1270451519
 30
0.0
 10
7.4398142392
 20
1.1231212933
 30
0.0
 10
7.4400386187
 20
1.1206483626
 30
0.0
 10
7.4402622893
 20
1.1185229608
 30
0.0
 10
7.440484514
 20
1.1167634189
 30
0.0
 10
7.4407043601
 20
1.1153831979
 30
0.0
 10
7.44087221
 20
1.1145939216
 30
0.0
 10
7.4409659203
 20
1.1142681269
 30
0.0
  0
LINE
  5
2B2
100
AcDbEntity
  8
0
100
AcDbLine
 62
7
  6
CONTINUOUS
 10
7.4386909557
 20
1.1880545487
 11
7.4388464045
 21
1.1832228373
  0
SPLINE
  5
2B3
100
AcDbEntity
  8
0
100
AcDbSpline
 62
7
  6
CONTINUOUS
 70
0
 71
3
 72
12
 73
8
 74
0
 42
0.0000001
 43
0.0000001
 44
0.0000000001
 40
0.0
 40
0.0
 40
0.0
 40
0.0
 40
0.2713857685
 40
0.546950377
 40
0.6774764484
 40
0.7986096933
 40
1.0
 40
1.0
 40
1.0
 40
1.0
 10
7.4388464045
 20
1.1832228373
 30
0.0
 10
7.4390191677
 20
1.1777597931
 30
0.0
 10
7.4393592331
 20
1.1667493265
 30
0.0
 10
7.439758456
 20
1.1531106164
 30
0.0
 10
7.4401080897
 20
1.1424979298
 30
0.0
 10
7.4404228199
 20
1.1333788811
 30
0.0
 10
7.4406833481
 20
1.1268881112
 30
0.0
 10
7.4408894923
 20
1.1228373034
 30
0.0
  0
LINE
  5
2B4
100
AcDbEntity
  8
0
100
AcDbLine
 62
7
  6
CONTINUOUS
 10
7.6525823685
 20
0.9501015918
 11
7.6523957932
 21
0.9473622819
  0
LINE
  5
2B5
100
AcDbEntity
  8
0
100
AcDbLine
 62
7
  6
CONTINUOUS
 10
7.6523953237
 20
0.8583556391
 11
7.6525823675
 21
0.8556099016
  0
SPLINE
  5
2B6
100
AcDbEntity
  8
0
100
AcDbSpline
 62
7
  6
CONTINUOUS
 70
0
 71
3
 72
13
 73
9
 74
0
 42
0.0000001
 43
0.0000001
 44
0.0000000001
 40
0.0
 40
0.0
 40
0.0
 40
0.0
 40
0.0806108725
 40
0.1673817816
 40
0.2666747767
 40
0.3826065483
 40
0.6662553637
 40
1.0
 40
1.0
 40
1.0
 40
1.0
 10
6.6903173974
 20
3.9505328456
 30
0.0
 10
6.6898366548
 20
3.9505331976
 30
0.0
 10
6.6888300223
 20
3.9503526003
 30
0.0
 10
6.6874310812
 20
3.9495445001
 30
0.0
 10
6.6861678419
 20
3.9482351181
 30
0.0
 10
6.6846036685
 20
3.9456844182
 30
0.0
 10
6.6833019579
 20
3.9414477622
 30
0.0
 10
6.6829669339
 20
3.9377595094
 30
0.0
 10
6.6829669339
 20
3.9357691414
 30
0.0
  0
SPLINE
  5
2B7
100
AcDbEntity
  8
0
100
AcDbSpline
 62
7
  6
CONTINUOUS
 70
0
 71
3
 72
14
 73
10
 74
0
 42
0.0000001
 43
0.0000001
 44
0.0000000001
 40
0.0
 40
0.0
 40
0.0
 40
0.0
 40
0.034305956
 40
0.0608923914
 40
0.0951855959
 40
0.1872844906
 40
0.3093163144
 40
0.6260819672
 40
1.0
 40
1.0
 40
1.0
 40
1.0
 10
6.6574352355
 20
3.9505329192
 30
0.0
 10
6.6572616494
 20
3.95053287
 30
0.0
 10
6.6569893621
 20
3.9502907016
 30
0.0
 10
6.6567678929
 20
3.94987618
 30
0.0
 10
6.6564843029
 20
3.9491482019
 30
0.0
 10
6.6562028404
 20
3.9479223727
 30
0.0
 10
6.6558073294
 20
3.9452629024
 30
0.0
 10
6.655529049
 20
3.9411558104
 30
0.0
 10
6.6554562085
 20
3.937661145
 30
0.0
 10
6.6554562085
 20
3.9357691414
 30
0.0
  0
SPLINE
  5
2B8
100
AcDbEntity
  8
0
100
AcDbSpline
 62
7
  6
CONTINUOUS
 70
0
 71
3
 72
13
 73
9
 74
0
 42
0.0000001
 43
0.0000001
 44
0.0000000001
 40
0.0
 40
0.0
 40
0.0
 40
0.0
 40
0.0806108725
 40
0.1673817816
 40
0.2666747767
 40
0.3826065483
 40
0.6662553637
 40
1.0
 40
1.0
 40
1.0
 40
1.0
 10
6.6903173974
 20
4.0489580424
 30
0.0
 10
6.6898366548
 20
4.0489583944
 30
0.0
 10
6.6888300223
 20
4.0487777972
 30
0.0
 10
6.6874310812
 20
4.0479696969
 30
0.0
 10
6.6861678419
 20
4.0466603149
 30
0.0
 10
6.6846036685
 20
4.044109615
 30
0.0
 10
6.6833019579
 20
4.039872959
 30
0.0
 10
6.6829669339
 20
4.0361847062
 30
0.0
 10
6.6829669339
 20
4.0341943383
 30
0.0
  0
SPLINE
  5
2B9
100
AcDbEntity
  8
0
100
AcDbSpline
 62
7
  6
CONTINUOUS
 70
0
 71
3
 72
14
 73
10
 74
0
 42
0.0000001
 43
0.0000001
 44
0.0000000001
 40
0.0
 40
0.0
 40
0.0
 40
0.0
 40
0.034305956
 40
0.0608923914
 40
0.0951855959
 40
0.1872844906
 40
0.3093163144
 40
0.6260819672
 40
1.0
 40
1.0
 40
1.0
 40
1.0
 10
6.6574352355
 20
4.048958116
 30
0.0
 10
6.6572616494
 20
4.0489580669
 30
0.0
 10
6.6569893621
 20
4.0487158985
 30
0.0
 10
6.6567678929
 20
4.0483013768
 30
0.0
 10
6.6564843029
 20
4.0475733987
 30
0.0
 10
6.6562028404
 20
4.0463475696
 30
0.0
 10
6.6558073294
 20
4.0436880993
 30
0.0
 10
6.655529049
 20
4.0395810073
 30
0.0
 10
6.6554562085
 20
4.0360863419
 30
0.0
 10
6.6554562085
 20
4.0341943383
 30
0.0
  0
SPLINE
  5
2BA
100
AcDbEntity
  8
0
100
AcDbSpline
 62
7
  6
CONTINUOUS
 70
0
 71
3
 72
13
 73
9
 74
0
 42
0.0000001
 43
0.0000001
 44
0.0000000001
 40
0.0
 40
0.0
 40
0.0
 40
0.0
 40
0.0806108725
 40
0.1673817816
 40
0.2666747767
 40
0.3826065483
 40
0.6662553637
 40
1.0
 40
1.0
 40
1.0
 40
1.0
 10
6.6903173974
 20
4.1670682786
 30
0.0
 10
6.6898366548
 20
4.1670686306
 30
0.0
 10
6.6888300223
 20
4.1668880334
 30
0.0
 10
6.6874310812
 20
4.1660799331
 30
0.0
 10
6.6861678419
 20
4.1647705512
 30
0.0
 10
6.6846036685
 20
4.1622198512
 30
0.0
 10
6.6833019579
 20
4.1579831953
 30
0.0
 10
6.6829669339
 20
4.1542949424
 30
0.0
 10
6.6829669339
 20
4.1523045745
 30
0.0
  0
SPLINE
  5
2BB
100
AcDbEntity
  8
0
100
AcDbSpline
 62
7
  6
CONTINUOUS
 70
0
 71
3
 72
14
 73
10
 74
0
 42
0.0000001
 43
0.0000001
 44
0.0000000001
 40
0.0
 40
0.0
 40
0.0
 40
0.0
 40
0.034305956
 40
0.0608923914
 40
0.0951855959
 40
0.1872844906
 40
0.3093163144
 40
0.6260819672
 40
1.0
 40
1.0
 40
1.0
 40
1.0
 10
6.6574352355
 20
4.1670683523
 30
0.0
 10
6.6572616494
 20
4.1670683031
 30
0.0
 10
6.6569893621
 20
4.1668261347
 30
0.0
 10
6.6567678929
 20
4.1664116131
 30
0.0
 10
6.6564843029
 20
4.165683635
 30
0.0
 10
6.6562028404
 20
4.1644578058
 30
0.0
 10
6.6558073294
 20
4.1617983355
 30
0.0
 10
6.655529049
 20
4.1576912435
 30
0.0
 10
6.6554562085
 20
4.1541965781
 30
0.0
 10
6.6554562085
 20
4.1523045745
 30
0.0
  0
SPLINE
  5
2BC
100
AcDbEntity
  8
0
100
AcDbSpline
 62
7
  6
CONTINUOUS
 70
0
 71
3
 72
13
 73
9
 74
0
 42
0.0000001
 43
0.0000001
 44
0.0000000001
 40
0.0
 40
0.0
 40
0.0
 40
0.0
 40
0.0806108725
 40
0.1673817816
 40
0.2666747767
 40
0.3826065483
 40
0.6662553637
 40
1.0
 40
1.0
 40
1.0
 40
1.0
 10
6.6903173974
 20
4.2654934755
 30
0.0
 10
6.6898366548
 20
4.2654938275
 30
0.0
 10
6.6888300223
 20
4.2653132302
 30
0.0
 10
6.6874310812
 20
4.26450513
 30
0.0
 10
6.6861678419
 20
4.263195748
 30
0.0
 10
6.6846036685
 20
4.2606450481
 30
0.0
 10
6.6833019579
 20
4.2564083921
 30
0.0
 10
6.6829669339
 20
4.2527201393
 30
0.0
 10
6.6829669339
 20
4.2507297713
 30
0.0
  0
SPLINE
  5
2BD
100
AcDbEntity
  8
0
100
AcDbSpline
 62
7
  6
CONTINUOUS
 70
0
 71
3
 72
14
 73
10
 74
0
 42
0.0000001
 43
0.0000001
 44
0.0000000001
 40
0.0
 40
0.0
 40
0.0
 40
0.0
 40
0.034305956
 40
0.0608923914
 40
0.0951855959
 40
0.1872844906
 40
0.3093163144
 40
0.6260819672
 40
1.0
 40
1.0
 40
1.0
 40
1.0
 10
6.6574352355
 20
4.2654935491
 30
0.0
 10
6.6572616494
 20
4.2654935
 30
0.0
 10
6.6569893621
 20
4.2652513315
 30
0.0
 10
6.6567678929
 20
4.2648368099
 30
0.0
 10
6.6564843029
 20
4.2641088318
 30
0.0
 10
6.6562028404
 20
4.2628830026
 30
0.0
 10
6.6558073294
 20
4.2602235323
 30
0.0
 10
6.655529049
 20
4.2561164404
 30
0.0
 10
6.6554562085
 20
4.2526217749
 30
0.0
 10
6.6554562085
 20
4.2507297713
 30
0.0
  0
SPLINE
  5
2BE
100
AcDbEntity
  8
0
100
AcDbSpline
 62
7
  6
CONTINUOUS
 70
0
 71
3
 72
14
 73
10
 74
0
 42
0.0000001
 43
0.0000001
 44
0.0000000001
 40
0.0
 40
0.0
 40
0.0
 40
0.0
 40
0.3739015725
 40
0.6906681855
 40
0.8127015438
 40
0.904807527
 40
0.9391002895
 40
0.965689629
 40
1.0
 40
1.0
 40
1.0
 40
1.0
 10
6.6554562085
 20
4.447580165
 30
0.0
 10
6.6554562085
 20
4.4456882532
 30
0.0
 10
6.6555290947
 20
4.4421936876
 30
0.0
 10
6.6558072137
 20
4.4380866671
 30
0.0
 10
6.6562028405
 20
4.4354271774
 30
0.0
 10
6.6564842041
 20
4.4342012969
 30
0.0
 10
6.6567678209
 20
4.4334732644
 30
0.0
 10
6.6569892616
 20
4.4330587331
 30
0.0
 10
6.6572615377
 20
4.4328163814
 30
0.0
 10
6.6574351454
 20
4.4328163857
 30
0.0
  0
SPLINE
  5
2BF
100
AcDbEntity
  8
0
100
AcDbSpline
 62
7
  6
CONTINUOUS
 70
0
 71
3
 72
13
 73
9
 74
0
 42
0.0000001
 43
0.0000001
 44
0.0000000001
 40
0.0
 40
0.0
 40
0.0
 40
0.0
 40
0.3337160782
 40
0.6173132136
 40
0.7332130176
 40
0.8325741525
 40
0.9193658328
 40
1.0
 40
1.0
 40
1.0
 40
1.0
 10
6.6829669339
 20
4.447580165
 30
0.0
 10
6.6829669339
 20
4.4455910084
 30
0.0
 10
6.6833022064
 20
4.4419054163
 30
0.0
 10
6.6846002657
 20
4.4376706875
 30
0.0
 10
6.6861628941
 20
4.4351211265
 30
0.0
 10
6.6874236414
 20
4.4338103299
 30
0.0
 10
6.6888209178
 20
4.4329998775
 30
0.0
 10
6.6898268646
 20
4.4328169337
 30
0.0
 10
6.6903074943
 20
4.4328163777
 30
0.0
  0
SPLINE
  5
2C0
100
AcDbEntity
  8
0
100
AcDbSpline
 62
7
  6
CONTINUOUS
 70
0
 71
3
 72
14
 73
10
 74
0
 42
0.0000001
 43
0.0000001
 44
0.0000000001
 40
0.0
 40
0.0
 40
0.0
 40
0.0
 40
0.3739015725
 40
0.6906681855
 40
0.8127015438
 40
0.904807527
 40
0.9391002895
 40
0.965689629
 40
1.0
 40
1.0
 40
1.0
 40
1.0
 10
6.6554562085
 20
4.5460053619
 30
0.0
 10
6.6554562085
 20
4.5441134501
 30
0.0
 10
6.6555290947
 20
4.5406188845
 30
0.0
 10
6.6558072137
 20
4.5365118639
 30
0.0
 10
6.6562028405
 20
4.5338523742
 30
0.0
 10
6.6564842041
 20
4.5326264938
 30
0.0
 10
6.6567678209
 20
4.5318984612
 30
0.0
 10
6.6569892616
 20
4.5314839299
 30
0.0
 10
6.6572615377
 20
4.5312415782
 30
0.0
 10
6.6574351454
 20
4.5312415826
 30
0.0
  0
SPLINE
  5
2C1
100
AcDbEntity
  8
0
100
AcDbSpline
 62
7
  6
CONTINUOUS
 70
0
 71
3
 72
13
 73
9
 74
0
 42
0.0000001
 43
0.0000001
 44
0.0000000001
 40
0.0
 40
0.0
 40
0.0
 40
0.0
 40
0.3337160782
 40
0.6173132136
 40
0.7332130176
 40
0.8325741525
 40
0.9193658328
 40
1.0
 40
1.0
 40
1.0
 40
1.0
 10
6.6829669339
 20
4.5460053619
 30
0.0
 10
6.6829669339
 20
4.5440162053
 30
0.0
 10
6.6833022064
 20
4.5403306132
 30
0.0
 10
6.6846002657
 20
4.5360958844
 30
0.0
 10
6.6861628941
 20
4.5335463233
 30
0.0
 10
6.6874236414
 20
4.5322355268
 30
0.0
 10
6.6888209178
 20
4.5314250744
 30
0.0
 10
6.6898268646
 20
4.5312421305
 30
0.0
 10
6.6903074943
 20
4.5312415746
 30
0.0
  0
SPLINE
  5
2C2
100
AcDbEntity
  8
0
100
AcDbSpline
 62
7
  6
CONTINUOUS
 70
0
 71
3
 72
14
 73
10
 74
0
 42
0.0000001
 43
0.0000001
 44
0.0000000001
 40
0.0
 40
0.0
 40
0.0
 40
0.0
 40
0.3739015725
 40
0.6906681855
 40
0.8127015438
 40
0.904807527
 40
0.9391002895
 40
0.965689629
 40
1.0
 40
1.0
 40
1.0
 40
1.0
 10
6.6554562085
 20
4.6641155981
 30
0.0
 10
6.6554562085
 20
4.6622236863
 30
0.0
 10
6.6555290947
 20
4.6587291207
 30
0.0
 10
6.6558072137
 20
4.6546221001
 30
0.0
 10
6.6562028405
 20
4.6519626105
 30
0.0
 10
6.6564842041
 20
4.65073673
 30
0.0
 10
6.6567678209
 20
4.6500086975
 30
0.0
 10
6.6569892616
 20
4.6495941662
 30
0.0
 10
6.6572615377
 20
4.6493518145
 30
0.0
 10
6.6574351454
 20
4.6493518188
 30
0.0
  0
SPLINE
  5
2C3
100
AcDbEntity
  8
0
100
AcDbSpline
 62
7
  6
CONTINUOUS
 70
0
 71
3
 72
13
 73
9
 74
0
 42
0.0000001
 43
0.0000001
 44
0.0000000001
 40
0.0
 40
0.0
 40
0.0
 40
0.0
 40
0.3337160782
 40
0.6173132136
 40
0.7332130176
 40
0.8325741525
 40
0.9193658328
 40
1.0
 40
1.0
 40
1.0
 40
1.0
 10
6.6829669339
 20
4.6641155981
 30
0.0
 10
6.6829669339
 20
4.6621264415
 30
0.0
 10
6.6833022064
 20
4.6584408494
 30
0.0
 10
6.6846002657
 20
4.6542061206
 30
0.0
 10
6.6861628941
 20
4.6516565595
 30
0.0
 10
6.6874236414
 20
4.650345763
 30
0.0
 10
6.6888209178
 20
4.6495353106
 30
0.0
 10
6.6898268646
 20
4.6493523667
 30
0.0
 10
6.6903074943
 20
4.6493518108
 30
0.0
  0
SPLINE
  5
2C4
100
AcDbEntity
  8
0
100
AcDbSpline
 62
7
  6
CONTINUOUS
 70
0
 71
3
 72
14
 73
10
 74
0
 42
0.0000001
 43
0.0000001
 44
0.0000000001
 40
0.0
 40
0.0
 40
0.0
 40
0.0
 40
0.3739015725
 40
0.6906681855
 40
0.8127015438
 40
0.904807527
 40
0.9391002895
 40
0.965689629
 40
1.0
 40
1.0
 40
1.0
 40
1.0
 10
6.6554562085
 20
4.7625407949
 30
0.0
 10
6.6554562085
 20
4.7606488832
 30
0.0
 10
6.6555290947
 20
4.7571543175
 30
0.0
 10
6.6558072137
 20
4.753047297
 30
0.0
 10
6.6562028405
 20
4.7503878073
 30
0.0
 10
6.6564842041
 20
4.7491619268
 30
0.0
 10
6.6567678209
 20
4.7484338943
 30
0.0
 10
6.6569892616
 20
4.748019363
 30
0.0
 10
6.6572615377
 20
4.7477770113
 30
0.0
 10
6.6574351454
 20
4.7477770156
 30
0.0
  0
SPLINE
  5
2C5
100
AcDbEntity
  8
0
100
AcDbSpline
 62
7
  6
CONTINUOUS
 70
0
 71
3
 72
13
 73
9
 74
0
 42
0.0000001
 43
0.0000001
 44
0.0000000001
 40
0.0
 40
0.0
 40
0.0
 40
0.0
 40
0.3337160782
 40
0.6173132136
 40
0.7332130176
 40
0.8325741525
 40
0.9193658328
 40
1.0
 40
1.0
 40
1.0
 40
1.0
 10
6.6829669339
 20
4.7625407949
 30
0.0
 10
6.6829669339
 20
4.7605516383
 30
0.0
 10
6.6833022064
 20
4.7568660462
 30
0.0
 10
6.6846002657
 20
4.7526313174
 30
0.0
 10
6.6861628941
 20
4.7500817564
 30
0.0
 10
6.6874236414
 20
4.7487709599
 30
0.0
 10
6.6888209178
 20
4.7479605074
 30
0.0
 10
6.6898268646
 20
4.7477775636
 30
0.0
 10
6.6903074943
 20
4.7477770077
 30
0.0
  0
SPLINE
  5
2C6
100
AcDbEntity
  8
0
100
AcDbSpline
 62
7
  6
CONTINUOUS
 70
0
 71
3
 72
14
 73
10
 74
0
 42
0.0000001
 43
0.0000001
 44
0.0000000001
 40
0.0
 40
0.0
 40
0.0
 40
0.0
 40
0.3739015725
 40
0.6906681855
 40
0.8127015438
 40
0.904807527
 40
0.9391002895
 40
0.965689629
 40
1.0
 40
1.0
 40
1.0
 40
1.0
 10
6.6554562085
 20
4.3491549682
 30
0.0
 10
6.6554562085
 20
4.3472630564
 30
0.0
 10
6.6555290947
 20
4.3437684908
 30
0.0
 10
6.6558072137
 20
4.3396614702
 30
0.0
 10
6.6562028405
 20
4.3370019805
 30
0.0
 10
6.6564842041
 20
4.3357761001
 30
0.0
 10
6.6567678209
 20
4.3350480675
 30
0.0
 10
6.6569892616
 20
4.3346335362
 30
0.0
 10
6.6572615377
 20
4.3343911845
 30
0.0
 10
6.6574351454
 20
4.3343911888
 30
0.0
  0
SPLINE
  5
2C7
100
AcDbEntity
  8
0
100
AcDbSpline
 62
7
  6
CONTINUOUS
 70
0
 71
3
 72
13
 73
9
 74
0
 42
0.0000001
 43
0.0000001
 44
0.0000000001
 40
0.0
 40
0.0
 40
0.0
 40
0.0
 40
0.3337160782
 40
0.6173132136
 40
0.7332130176
 40
0.8325741525
 40
0.9193658328
 40
1.0
 40
1.0
 40
1.0
 40
1.0
 10
6.6829669339
 20
4.3491549682
 30
0.0
 10
6.6829669339
 20
4.3471658116
 30
0.0
 10
6.6833022064
 20
4.3434802195
 30
0.0
 10
6.6846002657
 20
4.3392454907
 30
0.0
 10
6.6861628941
 20
4.3366959296
 30
0.0
 10
6.6874236414
 20
4.3353851331
 30
0.0
 10
6.6888209178
 20
4.3345746807
 30
0.0
 10
6.6898268646
 20
4.3343917368
 30
0.0
 10
6.6903074943
 20
4.3343911809
 30
0.0
  0
SPLINE
  5
2C8
100
AcDbEntity
  8
0
100
AcDbSpline
 62
7
  6
CONTINUOUS
 70
0
 71
3
 72
13
 73
9
 74
0
 42
0.0000001
 43
0.0000001
 44
0.0000000001
 40
0.0
 40
0.0
 40
0.0
 40
0.0
 40
0.0806108725
 40
0.1673817816
 40
0.2666747767
 40
0.3826065483
 40
0.6662553637
 40
1.0
 40
1.0
 40
1.0
 40
1.0
 10
6.6903173974
 20
4.3639186723
 30
0.0
 10
6.6898366548
 20
4.3639190243
 30
0.0
 10
6.6888300223
 20
4.3637384271
 30
0.0
 10
6.6874310812
 20
4.3629303269
 30
0.0
 10
6.6861678419
 20
4.3616209449
 30
0.0
 10
6.6846036685
 20
4.3590702449
 30
0.0
 10
6.6833019579
 20
4.354833589
 30
0.0
 10
6.6829669339
 20
4.3511453361
 30
0.0
 10
6.6829669339
 20
4.3491549682
 30
0.0
  0
SPLINE
  5
2C9
100
AcDbEntity
  8
0
100
AcDbSpline
 62
7
  6
CONTINUOUS
 70
0
 71
3
 72
14
 73
10
 74
0
 42
0.0000001
 43
0.0000001
 44
0.0000000001
 40
0.0
 40
0.0
 40
0.0
 40
0.0
 40
0.034305956
 40
0.0608923914
 40
0.0951855959
 40
0.1872844906
 40
0.3093163144
 40
0.6260819672
 40
1.0
 40
1.0
 40
1.0
 40
1.0
 10
6.6574352355
 20
4.363918746
 30
0.0
 10
6.6572616494
 20
4.3639186968
 30
0.0
 10
6.6569893621
 20
4.3636765284
 30
0.0
 10
6.6567678929
 20
4.3632620068
 30
0.0
 10
6.6564843029
 20
4.3625340287
 30
0.0
 10
6.6562028404
 20
4.3613081995
 30
0.0
 10
6.6558073294
 20
4.3586487292
 30
0.0
 10
6.655529049
 20
4.3545416372
 30
0.0
 10
6.6554562085
 20
4.3510469718
 30
0.0
 10
6.6554562085
 20
4.3491549682
 30
0.0
  0
SPLINE
  5
2CA
100
AcDbEntity
  8
0
100
AcDbSpline
 62
7
  6
CONTINUOUS
 70
0
 71
3
 72
14
 73
10
 74
0
 42
0.0000001
 43
0.0000001
 44
0.0000000001
 40
0.0
 40
0.0
 40
0.0
 40
0.0
 40
0.3739015725
 40
0.6906681855
 40
0.8127015438
 40
0.904807527
 40
0.9391002895
 40
0.965689629
 40
1.0
 40
1.0
 40
1.0
 40
1.0
 10
6.6554562085
 20
4.2507297713
 30
0.0
 10
6.6554562085
 20
4.2488378595
 30
0.0
 10
6.6555290947
 20
4.2453432939
 30
0.0
 10
6.6558072137
 20
4.2412362734
 30
0.0
 10
6.6562028405
 20
4.2385767837
 30
0.0
 10
6.6564842041
 20
4.2373509032
 30
0.0
 10
6.6567678209
 20
4.2366228707
 30
0.0
 10
6.6569892616
 20
4.2362083394
 30
0.0
 10
6.6572615377
 20
4.2359659877
 30
0.0
 10
6.6574351454
 20
4.235965992
 30
0.0
  0
SPLINE
  5
2CB
100
AcDbEntity
  8
0
100
AcDbSpline
 62
7
  6
CONTINUOUS
 70
0
 71
3
 72
13
 73
9
 74
0
 42
0.0000001
 43
0.0000001
 44
0.0000000001
 40
0.0
 40
0.0
 40
0.0
 40
0.0
 40
0.3337160782
 40
0.6173132136
 40
0.7332130176
 40
0.8325741525
 40
0.9193658328
 40
1.0
 40
1.0
 40
1.0
 40
1.0
 10
6.6829669339
 20
4.2507297713
 30
0.0
 10
6.6829669339
 20
4.2487406147
 30
0.0
 10
6.6833022064
 20
4.2450550226
 30
0.0
 10
6.6846002657
 20
4.2408202938
 30
0.0
 10
6.6861628941
 20
4.2382707328
 30
0.0
 10
6.6874236414
 20
4.2369599362
 30
0.0
 10
6.6888209178
 20
4.2361494838
 30
0.0
 10
6.6898268646
 20
4.23596654
 30
0.0
 10
6.6903074943
 20
4.235965984
 30
0.0
  0
SPLINE
  5
2CC
100
AcDbEntity
  8
0
100
AcDbSpline
 62
7
  6
CONTINUOUS
 70
0
 71
3
 72
14
 73
10
 74
0
 42
0.0000001
 43
0.0000001
 44
0.0000000001
 40
0.0
 40
0.0
 40
0.0
 40
0.0
 40
0.3739015725
 40
0.6906681855
 40
0.8127015438
 40
0.904807527
 40
0.9391002895
 40
0.965689629
 40
1.0
 40
1.0
 40
1.0
 40
1.0
 10
6.6554562085
 20
4.1523045745
 30
0.0
 10
6.6554562085
 20
4.1504126627
 30
0.0
 10
6.6555290947
 20
4.1469180971
 30
0.0
 10
6.6558072137
 20
4.1428110765
 30
0.0
 10
6.6562028405
 20
4.1401515868
 30
0.0
 10
6.6564842041
 20
4.1389257064
 30
0.0
 10
6.6567678209
 20
4.1381976738
 30
0.0
 10
6.6569892616
 20
4.1377831425
 30
0.0
 10
6.6572615377
 20
4.1375407908
 30
0.0
 10
6.6574351454
 20
4.1375407951
 30
0.0
  0
SPLINE
  5
2CD
100
AcDbEntity
  8
0
100
AcDbSpline
 62
7
  6
CONTINUOUS
 70
0
 71
3
 72
13
 73
9
 74
0
 42
0.0000001
 43
0.0000001
 44
0.0000000001
 40
0.0
 40
0.0
 40
0.0
 40
0.0
 40
0.3337160782
 40
0.6173132136
 40
0.7332130176
 40
0.8325741525
 40
0.9193658328
 40
1.0
 40
1.0
 40
1.0
 40
1.0
 10
6.6829669339
 20
4.1523045745
 30
0.0
 10
6.6829669339
 20
4.1503154179
 30
0.0
 10
6.6833022064
 20
4.1466298258
 30
0.0
 10
6.6846002657
 20
4.142395097
 30
0.0
 10
6.6861628941
 20
4.1398455359
 30
0.0
 10
6.6874236414
 20
4.1385347394
 30
0.0
 10
6.6888209178
 20
4.137724287
 30
0.0
 10
6.6898268646
 20
4.1375413431
 30
0.0
 10
6.6903074943
 20
4.1375407872
 30
0.0
  0
SPLINE
  5
2CE
100
AcDbEntity
  8
0
100
AcDbSpline
 62
7
  6
CONTINUOUS
 70
0
 71
3
 72
14
 73
10
 74
0
 42
0.0000001
 43
0.0000001
 44
0.0000000001
 40
0.0
 40
0.0
 40
0.0
 40
0.0
 40
0.3739015725
 40
0.6906681855
 40
0.8127015438
 40
0.904807527
 40
0.9391002895
 40
0.965689629
 40
1.0
 40
1.0
 40
1.0
 40
1.0
 10
6.6554562085
 20
4.0341943383
 30
0.0
 10
6.6554562085
 20
4.0323024265
 30
0.0
 10
6.6555290947
 20
4.0288078609
 30
0.0
 10
6.6558072137
 20
4.0247008403
 30
0.0
 10
6.6562028405
 20
4.0220413506
 30
0.0
 10
6.6564842041
 20
4.0208154701
 30
0.0
 10
6.6567678209
 20
4.0200874376
 30
0.0
 10
6.6569892616
 20
4.0196729063
 30
0.0
 10
6.6572615377
 20
4.0194305546
 30
0.0
 10
6.6574351454
 20
4.0194305589
 30
0.0
  0
SPLINE
  5
2CF
100
AcDbEntity
  8
0
100
AcDbSpline
 62
7
  6
CONTINUOUS
 70
0
 71
3
 72
13
 73
9
 74
0
 42
0.0000001
 43
0.0000001
 44
0.0000000001
 40
0.0
 40
0.0
 40
0.0
 40
0.0
 40
0.0806108725
 40
0.1673817816
 40
0.2666747767
 40
0.3826065483
 40
0.6662553637
 40
1.0
 40
1.0
 40
1.0
 40
1.0
 10
6.6903173974
 20
4.7773044991
 30
0.0
 10
6.6898366548
 20
4.7773048511
 30
0.0
 10
6.6888300223
 20
4.7771242538
 30
0.0
 10
6.6874310812
 20
4.7763161536
 30
0.0
 10
6.6861678419
 20
4.7750067716
 30
0.0
 10
6.6846036685
 20
4.7724560717
 30
0.0
 10
6.6833019579
 20
4.7682194157
 30
0.0
 10
6.6829669339
 20
4.7645311629
 30
0.0
 10
6.6829669339
 20
4.7625407949
 30
0.0
  0
SPLINE
  5
2D0
100
AcDbEntity
  8
0
100
AcDbSpline
 62
7
  6
CONTINUOUS
 70
0
 71
3
 72
13
 73
9
 74
0
 42
0.0000001
 43
0.0000001
 44
0.0000000001
 40
0.0
 40
0.0
 40
0.0
 40
0.0
 40
0.3337160782
 40
0.6173132136
 40
0.7332130176
 40
0.8325741525
 40
0.9193658328
 40
1.0
 40
1.0
 40
1.0
 40
1.0
 10
6.6829669339
 20
4.0341943383
 30
0.0
 10
6.6829669339
 20
4.0322051816
 30
0.0
 10
6.6833022064
 20
4.0285195896
 30
0.0
 10
6.6846002657
 20
4.0242848608
 30
0.0
 10
6.6861628941
 20
4.0217352997
 30
0.0
 10
6.6874236414
 20
4.0204245032
 30
0.0
 10
6.6888209178
 20
4.0196140508
 30
0.0
 10
6.6898268646
 20
4.0194311069
 30
0.0
 10
6.6903074943
 20
4.019430551
 30
0.0
  0
SPLINE
  5
2D1
100
AcDbEntity
  8
0
100
AcDbSpline
 62
7
  6
CONTINUOUS
 70
0
 71
3
 72
14
 73
10
 74
0
 42
0.0000001
 43
0.0000001
 44
0.0000000001
 40
0.0
 40
0.0
 40
0.0
 40
0.0
 40
0.3739015725
 40
0.6906681855
 40
0.8127015438
 40
0.904807527
 40
0.9391002895
 40
0.965689629
 40
1.0
 40
1.0
 40
1.0
 40
1.0
 10
6.6554562085
 20
3.9357691414
 30
0.0
 10
6.6554562085
 20
3.9338772296
 30
0.0
 10
6.6555290947
 20
3.930382664
 30
0.0
 10
6.6558072137
 20
3.9262756434
 30
0.0
 10
6.6562028405
 20
3.9236161538
 30
0.0
 10
6.6564842041
 20
3.9223902733
 30
0.0
 10
6.6567678209
 20
3.9216622408
 30
0.0
 10
6.6569892616
 20
3.9212477095
 30
0.0
 10
6.6572615377
 20
3.9210053578
 30
0.0
 10
6.6574351454
 20
3.9210053621
 30
0.0
  0
SPLINE
  5
2D2
100
AcDbEntity
  8
0
100
AcDbSpline
 62
7
  6
CONTINUOUS
 70
0
 71
3
 72
13
 73
9
 74
0
 42
0.0000001
 43
0.0000001
 44
0.0000000001
 40
0.0
 40
0.0
 40
0.0
 40
0.0
 40
0.3337160782
 40
0.6173132136
 40
0.7332130176
 40
0.8325741525
 40
0.9193658328
 40
1.0
 40
1.0
 40
1.0
 40
1.0
 10
6.6829669339
 20
3.9357691414
 30
0.0
 10
6.6829669339
 20
3.9337799848
 30
0.0
 10
6.6833022064
 20
3.9300943927
 30
0.0
 10
6.6846002657
 20
3.9258596639
 30
0.0
 10
6.6861628941
 20
3.9233101028
 30
0.0
 10
6.6874236414
 20
3.9219993063
 30
0.0
 10
6.6888209178
 20
3.9211888539
 30
0.0
 10
6.6898268646
 20
3.92100591
 30
0.0
 10
6.6903074943
 20
3.9210053541
 30
0.0
  0
SPLINE
  5
2D3
100
AcDbEntity
  8
0
100
AcDbSpline
 62
7
  6
CONTINUOUS
 70
0
 71
3
 72
14
 73
10
 74
0
 42
0.0000001
 43
0.0000001
 44
0.0000000001
 40
0.0
 40
0.0
 40
0.0
 40
0.0
 40
0.034305956
 40
0.0608923914
 40
0.0951855959
 40
0.1872844906
 40
0.3093163144
 40
0.6260819672
 40
1.0
 40
1.0
 40
1.0
 40
1.0
 10
6.6574352355
 20
4.7773045727
 30
0.0
 10
6.6572616494
 20
4.7773045236
 30
0.0
 10
6.6569893621
 20
4.7770623552
 30
0.0
 10
6.6567678929
 20
4.7766478335
 30
0.0
 10
6.6564843029
 20
4.7759198554
 30
0.0
 10
6.6562028404
 20
4.7746940263
 30
0.0
 10
6.6558073294
 20
4.7720345559
 30
0.0
 10
6.655529049
 20
4.767927464
 30
0.0
 10
6.6554562085
 20
4.7644327986
 30
0.0
 10
6.6554562085
 20
4.7625407949
 30
0.0
  0
SPLINE
  5
2D4
100
AcDbEntity
  8
0
100
AcDbSpline
 62
7
  6
CONTINUOUS
 70
0
 71
3
 72
13
 73
9
 74
0
 42
0.0000001
 43
0.0000001
 44
0.0000000001
 40
0.0
 40
0.0
 40
0.0
 40
0.0
 40
0.0806108725
 40
0.1673817816
 40
0.2666747767
 40
0.3826065483
 40
0.6662553637
 40
1.0
 40
1.0
 40
1.0
 40
1.0
 10
6.6903173974
 20
4.6788793023
 30
0.0
 10
6.6898366548
 20
4.6788796543
 30
0.0
 10
6.6888300223
 20
4.678699057
 30
0.0
 10
6.6874310812
 20
4.6778909568
 30
0.0
 10
6.6861678419
 20
4.6765815748
 30
0.0
 10
6.6846036685
 20
4.6740308748
 30
0.0
 10
6.6833019579
 20
4.6697942189
 30
0.0
 10
6.6829669339
 20
4.6661059661
 30
0.0
 10
6.6829669339
 20
4.6641155981
 30
0.0
  0
SPLINE
  5
2D5
100
AcDbEntity
  8
0
100
AcDbSpline
 62
7
  6
CONTINUOUS
 70
0
 71
3
 72
14
 73
10
 74
0
 42
0.0000001
 43
0.0000001
 44
0.0000000001
 40
0.0
 40
0.0
 40
0.0
 40
0.0
 40
0.034305956
 40
0.0608923914
 40
0.0951855959
 40
0.1872844906
 40
0.3093163144
 40
0.6260819672
 40
1.0
 40
1.0
 40
1.0
 40
1.0
 10
6.6574352355
 20
4.6788793759
 30
0.0
 10
6.6572616494
 20
4.6788793267
 30
0.0
 10
6.6569893621
 20
4.6786371583
 30
0.0
 10
6.6567678929
 20
4.6782226367
 30
0.0
 10
6.6564843029
 20
4.6774946586
 30
0.0
 10
6.6562028404
 20
4.6762688294
 30
0.0
 10
6.6558073294
 20
4.6736093591
 30
0.0
 10
6.655529049
 20
4.6695022671
 30
0.0
 10
6.6554562085
 20
4.6660076017
 30
0.0
 10
6.6554562085
 20
4.6641155981
 30
0.0
  0
SPLINE
  5
2D6
100
AcDbEntity
  8
0
100
AcDbSpline
 62
7
  6
CONTINUOUS
 70
0
 71
3
 72
13
 73
9
 74
0
 42
0.0000001
 43
0.0000001
 44
0.0000000001
 40
0.0
 40
0.0
 40
0.0
 40
0.0
 40
0.0806108725
 40
0.1673817816
 40
0.2666747767
 40
0.3826065483
 40
0.6662553637
 40
1.0
 40
1.0
 40
1.0
 40
1.0
 10
6.6903173974
 20
4.560769066
 30
0.0
 10
6.6898366548
 20
4.560769418
 30
0.0
 10
6.6888300223
 20
4.5605888208
 30
0.0
 10
6.6874310812
 20
4.5597807206
 30
0.0
 10
6.6861678419
 20
4.5584713386
 30
0.0
 10
6.6846036685
 20
4.5559206386
 30
0.0
 10
6.6833019579
 20
4.5516839827
 30
0.0
 10
6.6829669339
 20
4.5479957298
 30
0.0
 10
6.6829669339
 20
4.5460053619
 30
0.0
  0
SPLINE
  5
2D7
100
AcDbEntity
  8
0
100
AcDbSpline
 62
7
  6
CONTINUOUS
 70
0
 71
3
 72
14
 73
10
 74
0
 42
0.0000001
 43
0.0000001
 44
0.0000000001
 40
0.0
 40
0.0
 40
0.0
 40
0.0
 40
0.034305956
 40
0.0608923914
 40
0.0951855959
 40
0.1872844906
 40
0.3093163144
 40
0.6260819672
 40
1.0
 40
1.0
 40
1.0
 40
1.0
 10
6.6574352355
 20
4.5607691397
 30
0.0
 10
6.6572616494
 20
4.5607690905
 30
0.0
 10
6.6569893621
 20
4.5605269221
 30
0.0
 10
6.6567678929
 20
4.5601124005
 30
0.0
 10
6.6564843029
 20
4.5593844224
 30
0.0
 10
6.6562028404
 20
4.5581585932
 30
0.0
 10
6.6558073294
 20
4.5554991229
 30
0.0
 10
6.655529049
 20
4.5513920309
 30
0.0
 10
6.6554562085
 20
4.5478973655
 30
0.0
 10
6.6554562085
 20
4.5460053619
 30
0.0
  0
SPLINE
  5
2D8
100
AcDbEntity
  8
0
100
AcDbSpline
 62
7
  6
CONTINUOUS
 70
0
 71
3
 72
13
 73
9
 74
0
 42
0.0000001
 43
0.0000001
 44
0.0000000001
 40
0.0
 40
0.0
 40
0.0
 40
0.0
 40
0.0806108725
 40
0.1673817816
 40
0.2666747767
 40
0.3826065483
 40
0.6662553637
 40
1.0
 40
1.0
 40
1.0
 40
1.0
 10
6.6903173974
 20
4.4623438692
 30
0.0
 10
6.6898366548
 20
4.4623442212
 30
0.0
 10
6.6888300223
 20
4.4621636239
 30
0.0
 10
6.6874310812
 20
4.4613555237
 30
0.0
 10
6.6861678419
 20
4.4600461417
 30
0.0
 10
6.6846036685
 20
4.4574954418
 30
0.0
 10
6.6833019579
 20
4.4532587858
 30
0.0
 10
6.6829669339
 20
4.449570533
 30
0.0
 10
6.6829669339
 20
4.447580165
 30
0.0
  0
SPLINE
  5
2D9
100
AcDbEntity
  8
0
100
AcDbSpline
 62
7
  6
CONTINUOUS
 70
0
 71
3
 72
14
 73
10
 74
0
 42
0.0000001
 43
0.0000001
 44
0.0000000001
 40
0.0
 40
0.0
 40
0.0
 40
0.0
 40
0.034305956
 40
0.0608923914
 40
0.0951855959
 40
0.1872844906
 40
0.3093163144
 40
0.6260819672
 40
1.0
 40
1.0
 40
1.0
 40
1.0
 10
6.6574352355
 20
4.4623439428
 30
0.0
 10
6.6572616494
 20
4.4623438937
 30
0.0
 10
6.6569893621
 20
4.4621017252
 30
0.0
 10
6.6567678929
 20
4.4616872036
 30
0.0
 10
6.6564843029
 20
4.4609592255
 30
0.0
 10
6.6562028404
 20
4.4597333963
 30
0.0
 10
6.6558073294
 20
4.457073926
 30
0.0
 10
6.655529049
 20
4.4529668341
 30
0.0
 10
6.6554562085
 20
4.4494721686
 30
0.0
 10
6.6554562085
 20
4.447580165
 30
0.0
  0
SPLINE
  5
2DA
100
AcDbEntity
  8
0
100
AcDbSpline
 62
7
  6
CONTINUOUS
 70
0
 71
3
 72
11
 73
7
 74
0
 42
0.0000001
 43
0.0000001
 44
0.0000000001
 40
0.0
 40
0.0
 40
0.0
 40
0.0
 40
0.1721566728
 40
0.3916671383
 40
0.6724824499
 40
1.0
 40
1.0
 40
1.0
 40
1.0
 10
6.7015011723
 20
4.2654935554
 30
0.0
 10
6.7025659399
 20
4.2654946356
 30
0.0
 10
6.7049833278
 20
4.2645632382
 30
0.0
 10
6.7077391618
 20
4.2613224985
 30
0.0
 10
6.7097424944
 20
4.2565423179
 30
0.0
 10
6.7102197018
 20
4.2527554277
 30
0.0
 10
6.7102197018
 20
4.2507297713
 30
0.0
  0
SPLINE
  5
2DB
100
AcDbEntity
  8
0
100
AcDbSpline
 62
7
  6
CONTINUOUS
 70
0
 71
3
 72
12
 73
8
 74
0
 42
0.0000001
 43
0.0000001
 44
0.0000000001
 40
0.0
 40
0.0
 40
0.0
 40
0.0
 40
0.0355771158
 40
0.0980555386
 40
0.3132133665
 40
0.6284551907
 40
1.0
 40
1.0
 40
1.0
 40
1.0
 10
6.6574351454
 20
3.9210053621
 30
0.0
 10
6.6576168427
 20
3.9210053666
 30
0.0
 10
6.6580513312
 20
3.9213797648
 30
0.0
 10
6.6587109267
 20
3.9228060642
 30
0.0
 10
6.6594346305
 20
3.9257982903
 30
0.0
 10
6.6599935946
 20
3.9303566549
 30
0.0
 10
6.6601326631
 20
3.9338716092
 30
0.0
 10
6.6601326631
 20
3.9357691414
 30
0.0
  0
SPLINE
  5
2DC
100
AcDbEntity
  8
0
100
AcDbSpline
 62
7
  6
CONTINUOUS
 70
0
 71
3
 72
12
 73
8
 74
0
 42
0.0000001
 43
0.0000001
 44
0.0000000001
 40
0.0
 40
0.0
 40
0.0
 40
0.0
 40
0.0355771158
 40
0.0980555386
 40
0.3132133665
 40
0.6284551907
 40
1.0
 40
1.0
 40
1.0
 40
1.0
 10
6.6574351454
 20
4.235965992
 30
0.0
 10
6.6576168427
 20
4.2359659965
 30
0.0
 10
6.6580513312
 20
4.2363403947
 30
0.0
 10
6.6587109267
 20
4.2377666941
 30
0.0
 10
6.6594346305
 20
4.2407589202
 30
0.0
 10
6.6599935946
 20
4.2453172848
 30
0.0
 10
6.6601326631
 20
4.2488322392
 30
0.0
 10
6.6601326631
 20
4.2507297713
 30
0.0
  0
SPLINE
  5
2DD
100
AcDbEntity
  8
0
100
AcDbSpline
 62
7
  6
CONTINUOUS
 70
0
 71
3
 72
12
 73
8
 74
0
 42
0.0000001
 43
0.0000001
 44
0.0000000001
 40
0.0
 40
0.0
 40
0.0
 40
0.0
 40
0.3715602756
 40
0.6867986351
 40
0.9019479606
 40
0.9644233723
 40
1.0
 40
1.0
 40
1.0
 40
1.0
 10
6.6601326631
 20
4.447580165
 30
0.0
 10
6.6601326631
 20
4.4494777686
 30
0.0
 10
6.6599935626
 20
4.4529927819
 30
0.0
 10
6.6594346689
 20
4.4575511041
 30
0.0
 10
6.6587108942
 20
4.4605433298
 30
0.0
 10
6.6580513709
 20
4.4619694521
 30
0.0
 10
6.6576169297
 20
4.4623439943
 30
0.0
 10
6.6574352355
 20
4.4623439428
 30
0.0
  0
SPLINE
  5
2DE
100
AcDbEntity
  8
0
100
AcDbSpline
 62
7
  6
CONTINUOUS
 70
0
 71
3
 72
12
 73
8
 74
0
 42
0.0000001
 43
0.0000001
 44
0.0000000001
 40
0.0
 40
0.0
 40
0.0
 40
0.0
 40
0.1684584536
 40
0.2706019896
 40
0.3882030313
 40
0.6703773183
 40
1.0
 40
1.0
 40
1.0
 40
1.0
 10
6.6903074943
 20
4.3343911809
 30
0.0
 10
6.6913373394
 20
4.3343899897
 30
0.0
 10
6.6929935852
 20
4.3350593246
 30
0.0
 10
6.694732492
 20
4.3366769841
 30
0.0
 10
6.6965531134
 20
4.3391724471
 30
0.0
 10
6.6982080095
 20
4.3433846971
 30
0.0
 10
6.6986644577
 20
4.3471398688
 30
0.0
 10
6.6986644577
 20
4.3491549682
 30
0.0
  0
SPLINE
  5
2DF
100
AcDbEntity
  8
0
100
AcDbSpline
 62
7
  6
CONTINUOUS
 70
0
 71
3
 72
12
 73
8
 74
0
 42
0.0000001
 43
0.0000001
 44
0.0000000001
 40
0.0
 40
0.0
 40
0.0
 40
0.0
 40
0.0363492455
 40
0.0991851584
 40
0.3143103148
 40
0.6290737138
 40
1.0
 40
1.0
 40
1.0
 40
1.0
 10
6.6674042193
 20
4.0489581131
 30
0.0
 10
6.6675902523
 20
4.0489581841
 30
0.0
 10
6.6680362531
 20
4.0485896068
 30
0.0
 10
6.6687230288
 20
4.0471616301
 30
0.0
 10
6.6694669419
 20
4.0441702434
 30
0.0
 10
6.6700501432
 20
4.0396095273
 30
0.0
 10
6.6701917275
 20
4.0360927146
 30
0.0
 10
6.6701917275
 20
4.0341943383
 30
0.0
  0
SPLINE
  5
2E0
100
AcDbEntity
  8
0
100
AcDbSpline
 62
7
  6
CONTINUOUS
 70
0
 71
3
 72
12
 73
8
 74
0
 42
0.0000001
 43
0.0000001
 44
0.0000000001
 40
0.0
 40
0.0
 40
0.0
 40
0.0
 40
0.1684584536
 40
0.2706019896
 40
0.3882030313
 40
0.6703773183
 40
1.0
 40
1.0
 40
1.0
 40
1.0
 10
6.6903074943
 20
3.9210053541
 30
0.0
 10
6.6913373394
 20
3.9210041629
 30
0.0
 10
6.6929935852
 20
3.9216734979
 30
0.0
 10
6.694732492
 20
3.9232911573
 30
0.0
 10
6.6965531134
 20
3.9257866203
 30
0.0
 10
6.6982080095
 20
3.9299988703
 30
0.0
 10
6.6986644577
 20
3.9337540421
 30
0.0
 10
6.6986644577
 20
3.9357691414
 30
0.0
  0
SPLINE
  5
2E1
100
AcDbEntity
  8
0
100
AcDbSpline
 62
7
  6
CONTINUOUS
 70
0
 71
3
 72
11
 73
7
 74
0
 42
0.0000001
 43
0.0000001
 44
0.0000000001
 40
0.0
 40
0.0
 40
0.0
 40
0.0
 40
0.1721566728
 40
0.3916671383
 40
0.6724824499
 40
1.0
 40
1.0
 40
1.0
 40
1.0
 10
6.7015011723
 20
4.3639187522
 30
0.0
 10
6.7025659399
 20
4.3639198324
 30
0.0
 10
6.7049833278
 20
4.3629884351
 30
0.0
 10
6.7077391618
 20
4.3597476953
 30
0.0
 10
6.7097424944
 20
4.3549675148
 30
0.0
 10
6.7102197018
 20
4.3511806245
 30
0.0
 10
6.7102197018
 20
4.3491549682
 30
0.0
  0
SPLINE
  5
2E2
100
AcDbEntity
  8
0
100
AcDbSpline
 62
7
  6
CONTINUOUS
 70
0
 71
3
 72
12
 73
8
 74
0
 42
0.0000001
 43
0.0000001
 44
0.0000000001
 40
0.0
 40
0.0
 40
0.0
 40
0.0
 40
0.3709362594
 40
0.6857079838
 40
0.9008278175
 40
0.9636531206
 40
1.0
 40
1.0
 40
1.0
 40
1.0
 10
6.6701917275
 20
4.447580165
 30
0.0
 10
6.6701917275
 20
4.4456817275
 30
0.0
 10
6.6700500526
 20
4.4421648541
 30
0.0
 10
6.6694671374
 20
4.4376038652
 30
0.0
 10
6.6687227315
 20
4.4346128499
 30
0.0
 10
6.6680362312
 20
4.4331846398
 30
0.0
 10
6.6675901731
 20
4.4328163495
 30
0.0
 10
6.6674041511
 20
4.4328163858
 30
0.0
  0
SPLINE
  5
2E3
100
AcDbEntity
  8
0
100
AcDbSpline
 62
7
  6
CONTINUOUS
 70
0
 71
3
 72
12
 73
8
 74
0
 42
0.0000001
 43
0.0000001
 44
0.0000000001
 40
0.0
 40
0.0
 40
0.0
 40
0.0
 40
0.0355771158
 40
0.0980555386
 40
0.3132133665
 40
0.6284551907
 40
1.0
 40
1.0
 40
1.0
 40
1.0
 10
6.6574351454
 20
4.3343911888
 30
0.0
 10
6.6576168427
 20
4.3343911934
 30
0.0
 10
6.6580513312
 20
4.3347655916
 30
0.0
 10
6.6587109267
 20
4.336191891
 30
0.0
 10
6.6594346305
 20
4.3391841171
 30
0.0
 10
6.6599935946
 20
4.3437424817
 30
0.0
 10
6.6601326631
 20
4.347257436
 30
0.0
 10
6.6601326631
 20
4.3491549682
 30
0.0
  0
SPLINE
  5
2E4
100
AcDbEntity
  8
0
100
AcDbSpline
 62
7
  6
CONTINUOUS
 70
0
 71
3
 72
12
 73
8
 74
0
 42
0.0000001
 43
0.0000001
 44
0.0000000001
 40
0.0
 40
0.0
 40
0.0
 40
0.0
 40
0.3295730864
 40
0.6116787756
 40
0.7292477197
 40
0.8314605564
 40
1.0
 40
1.0
 40
1.0
 40
1.0
 10
6.6986644577
 20
4.447580165
 30
0.0
 10
6.6986644577
 20
4.4495939238
 30
0.0
 10
6.6982083011
 20
4.453346337
 30
0.0
 10
6.6965565562
 20
4.4575561159
 30
0.0
 10
6.6947386628
 20
4.4600513305
 30
0.0
 10
6.6930019402
 20
4.4616703941
 30
0.0
 10
6.6913472075
 20
4.4623431152
 30
0.0
 10
6.6903173974
 20
4.4623438692
 30
0.0
  0
SPLINE
  5
2E5
100
AcDbEntity
  8
0
100
AcDbSpline
 62
7
  6
CONTINUOUS
 70
0
 71
3
 72
12
 73
8
 74
0
 42
0.0000001
 43
0.0000001
 44
0.0000000001
 40
0.0
 40
0.0
 40
0.0
 40
0.0
 40
0.3715602756
 40
0.6867986351
 40
0.9019479606
 40
0.9644233723
 40
1.0
 40
1.0
 40
1.0
 40
1.0
 10
6.6601326631
 20
4.2507297713
 30
0.0
 10
6.6601326631
 20
4.2526273749
 30
0.0
 10
6.6599935626
 20
4.2561423882
 30
0.0
 10
6.6594346689
 20
4.2607007104
 30
0.0
 10
6.6587108942
 20
4.2636929361
 30
0.0
 10
6.6580513709
 20
4.2651190584
 30
0.0
 10
6.6576169297
 20
4.2654936006
 30
0.0
 10
6.6574352355
 20
4.2654935491
 30
0.0
  0
SPLINE
  5
2E6
100
AcDbEntity
  8
0
100
AcDbSpline
 62
7
  6
CONTINUOUS
 70
0
 71
3
 72
12
 73
8
 74
0
 42
0.0000001
 43
0.0000001
 44
0.0000000001
 40
0.0
 40
0.0
 40
0.0
 40
0.0
 40
0.0363492455
 40
0.0991851584
 40
0.3143103148
 40
0.6290737138
 40
1.0
 40
1.0
 40
1.0
 40
1.0
 10
6.6674042193
 20
4.2654935461
 30
0.0
 10
6.6675902523
 20
4.2654936172
 30
0.0
 10
6.6680362531
 20
4.2651250398
 30
0.0
 10
6.6687230288
 20
4.2636970631
 30
0.0
 10
6.6694669419
 20
4.2607056764
 30
0.0
 10
6.6700501432
 20
4.2561449604
 30
0.0
 10
6.6701917275
 20
4.2526281477
 30
0.0
 10
6.6701917275
 20
4.2507297713
 30
0.0
  0
SPLINE
  5
2E7
100
AcDbEntity
  8
0
100
AcDbSpline
 62
7
  6
CONTINUOUS
 70
0
 71
3
 72
12
 73
8
 74
0
 42
0.0000001
 43
0.0000001
 44
0.0000000001
 40
0.0
 40
0.0
 40
0.0
 40
0.0
 40
0.3709362594
 40
0.6857079838
 40
0.9008278175
 40
0.9636531206
 40
1.0
 40
1.0
 40
1.0
 40
1.0
 10
6.6701917275
 20
4.2507297713
 30
0.0
 10
6.6701917275
 20
4.2488313338
 30
0.0
 10
6.6700500526
 20
4.2453144604
 30
0.0
 10
6.6694671374
 20
4.2407534715
 30
0.0
 10
6.6687227315
 20
4.2377624562
 30
0.0
 10
6.6680362312
 20
4.2363342461
 30
0.0
 10
6.6675901731
 20
4.2359659558
 30
0.0
 10
6.6674041511
 20
4.2359659921
 30
0.0
  0
SPLINE
  5
2E8
100
AcDbEntity
  8
0
100
AcDbSpline
 62
7
  6
CONTINUOUS
 70
0
 71
3
 72
12
 73
8
 74
0
 42
0.0000001
 43
0.0000001
 44
0.0000000001
 40
0.0
 40
0.0
 40
0.0
 40
0.0
 40
0.3295730864
 40
0.6116787756
 40
0.7292477197
 40
0.8314605564
 40
1.0
 40
1.0
 40
1.0
 40
1.0
 10
6.6986644577
 20
4.2507297713
 30
0.0
 10
6.6986644577
 20
4.2527435301
 30
0.0
 10
6.6982083011
 20
4.2564959433
 30
0.0
 10
6.6965565562
 20
4.2607057222
 30
0.0
 10
6.6947386628
 20
4.2632009368
 30
0.0
 10
6.6930019402
 20
4.2648200004
 30
0.0
 10
6.6913472075
 20
4.2654927215
 30
0.0
 10
6.6903173974
 20
4.2654934755
 30
0.0
  0
SPLINE
  5
2E9
100
AcDbEntity
  8
0
100
AcDbSpline
 62
7
  6
CONTINUOUS
 70
0
 71
3
 72
12
 73
8
 74
0
 42
0.0000001
 43
0.0000001
 44
0.0000000001
 40
0.0
 40
0.0
 40
0.0
 40
0.0
 40
0.0363492455
 40
0.0991851584
 40
0.3143103148
 40
0.6290737138
 40
1.0
 40
1.0
 40
1.0
 40
1.0
 10
6.6674042193
 20
4.363918743
 30
0.0
 10
6.6675902523
 20
4.363918814
 30
0.0
 10
6.6680362531
 20
4.3635502367
 30
0.0
 10
6.6687230288
 20
4.36212226
 30
0.0
 10
6.6694669419
 20
4.3591308733
 30
0.0
 10
6.6700501432
 20
4.3545701572
 30
0.0
 10
6.6701917275
 20
4.3510533446
 30
0.0
 10
6.6701917275
 20
4.3491549682
 30
0.0
  0
SPLINE
  5
2EA
100
AcDbEntity
  8
0
100
AcDbSpline
 62
7
  6
CONTINUOUS
 70
0
 71
3
 72
12
 73
8
 74
0
 42
0.0000001
 43
0.0000001
 44
0.0000000001
 40
0.0
 40
0.0
 40
0.0
 40
0.0
 40
0.3271103068
 40
0.6075289794
 40
0.7250348911
 40
0.8279831705
 40
1.0
 40
1.0
 40
1.0
 40
1.0
 10
6.7102197018
 20
4.2507297713
 30
0.0
 10
6.7102197018
 20
4.2487055372
 30
0.0
 10
6.7097394698
 20
4.2449282405
 30
0.0
 10
6.707995058
 20
4.2407179018
 30
0.0
 10
6.7061028313
 20
4.2382368786
 30
0.0
 10
6.7042825181
 20
4.2366241084
 30
0.0
 10
6.7025768895
 20
4.235967086
 30
0.0
 10
6.7015124101
 20
4.2359660737
 30
0.0
  0
SPLINE
  5
2EB
100
AcDbEntity
  8
0
100
AcDbSpline
 62
7
  6
CONTINUOUS
 70
0
 71
3
 72
12
 73
8
 74
0
 42
0.0000001
 43
0.0000001
 44
0.0000000001
 40
0.0
 40
0.0
 40
0.0
 40
0.0
 40
0.3715602756
 40
0.6867986351
 40
0.9019479606
 40
0.9644233723
 40
1.0
 40
1.0
 40
1.0
 40
1.0
 10
6.6601326631
 20
4.1523045745
 30
0.0
 10
6.6601326631
 20
4.154202178
 30
0.0
 10
6.6599935626
 20
4.1577171914
 30
0.0
 10
6.6594346689
 20
4.1622755136
 30
0.0
 10
6.6587108942
 20
4.1652677392
 30
0.0
 10
6.6580513709
 20
4.1666938616
 30
0.0
 10
6.6576169297
 20
4.1670684037
 30
0.0
 10
6.6574352355
 20
4.1670683523
 30
0.0
  0
SPLINE
  5
2EC
100
AcDbEntity
  8
0
100
AcDbSpline
 62
7
  6
CONTINUOUS
 70
0
 71
3
 72
12
 73
8
 74
0
 42
0.0000001
 43
0.0000001
 44
0.0000000001
 40
0.0
 40
0.0
 40
0.0
 40
0.0
 40
0.3271103068
 40
0.6075289794
 40
0.7250348911
 40
0.8279831705
 40
1.0
 40
1.0
 40
1.0
 40
1.0
 10
6.7102197018
 20
4.447580165
 30
0.0
 10
6.7102197018
 20
4.4455559309
 30
0.0
 10
6.7097394698
 20
4.4417786342
 30
0.0
 10
6.707995058
 20
4.4375682955
 30
0.0
 10
6.7061028313
 20
4.4350872723
 30
0.0
 10
6.7042825181
 20
4.4334745021
 30
0.0
 10
6.7025768895
 20
4.4328174797
 30
0.0
 10
6.7015124101
 20
4.4328164674
 30
0.0
  0
SPLINE
  5
2ED
100
AcDbEntity
  8
0
100
AcDbSpline
 62
7
  6
CONTINUOUS
 70
0
 71
3
 72
12
 73
8
 74
0
 42
0.0000001
 43
0.0000001
 44
0.0000000001
 40
0.0
 40
0.0
 40
0.0
 40
0.0
 40
0.3709362594
 40
0.6857079838
 40
0.9008278175
 40
0.9636531206
 40
1.0
 40
1.0
 40
1.0
 40
1.0
 10
6.6701917275
 20
4.1523045745
 30
0.0
 10
6.6701917275
 20
4.150406137
 30
0.0
 10
6.6700500526
 20
4.1468892635
 30
0.0
 10
6.6694671374
 20
4.1423282747
 30
0.0
 10
6.6687227315
 20
4.1393372594
 30
0.0
 10
6.6680362312
 20
4.1379090493
 30
0.0
 10
6.6675901731
 20
4.1375407589
 30
0.0
 10
6.6674041511
 20
4.1375407953
 30
0.0
  0
SPLINE
  5
2EE
100
AcDbEntity
  8
0
100
AcDbSpline
 62
7
  6
CONTINUOUS
 70
0
 71
3
 72
12
 73
8
 74
0
 42
0.0000001
 43
0.0000001
 44
0.0000000001
 40
0.0
 40
0.0
 40
0.0
 40
0.0
 40
0.3295730864
 40
0.6116787756
 40
0.7292477197
 40
0.8314605564
 40
1.0
 40
1.0
 40
1.0
 40
1.0
 10
6.6986644577
 20
4.1523045745
 30
0.0
 10
6.6986644577
 20
4.1543183333
 30
0.0
 10
6.6982083011
 20
4.1580707465
 30
0.0
 10
6.6965565562
 20
4.1622805253
 30
0.0
 10
6.6947386628
 20
4.16477574
 30
0.0
 10
6.6930019402
 20
4.1663948035
 30
0.0
 10
6.6913472075
 20
4.1670675246
 30
0.0
 10
6.6903173974
 20
4.1670682786
 30
0.0
  0
SPLINE
  5
2EF
100
AcDbEntity
  8
0
100
AcDbSpline
 62
7
  6
CONTINUOUS
 70
0
 71
3
 72
12
 73
8
 74
0
 42
0.0000001
 43
0.0000001
 44
0.0000000001
 40
0.0
 40
0.0
 40
0.0
 40
0.0
 40
0.1684584536
 40
0.2706019896
 40
0.3882030313
 40
0.6703773183
 40
1.0
 40
1.0
 40
1.0
 40
1.0
 10
6.6903074943
 20
4.7477770077
 30
0.0
 10
6.6913373394
 20
4.7477758165
 30
0.0
 10
6.6929935852
 20
4.7484451514
 30
0.0
 10
6.694732492
 20
4.7500628109
 30
0.0
 10
6.6965531134
 20
4.7525582739
 30
0.0
 10
6.6982080095
 20
4.7567705238
 30
0.0
 10
6.6986644577
 20
4.7605256956
 30
0.0
 10
6.6986644577
 20
4.7625407949
 30
0.0
  0
SPLINE
  5
2F0
100
AcDbEntity
  8
0
100
AcDbSpline
 62
7
  6
CONTINUOUS
 70
0
 71
3
 72
12
 73
8
 74
0
 42
0.0000001
 43
0.0000001
 44
0.0000000001
 40
0.0
 40
0.0
 40
0.0
 40
0.0
 40
0.3715602756
 40
0.6867986351
 40
0.9019479606
 40
0.9644233723
 40
1.0
 40
1.0
 40
1.0
 40
1.0
 10
6.6601326631
 20
4.5460053619
 30
0.0
 10
6.6601326631
 20
4.5479029654
 30
0.0
 10
6.6599935626
 20
4.5514179788
 30
0.0
 10
6.6594346689
 20
4.555976301
 30
0.0
 10
6.6587108942
 20
4.5589685266
 30
0.0
 10
6.6580513709
 20
4.560394649
 30
0.0
 10
6.6576169297
 20
4.5607691911
 30
0.0
 10
6.6574352355
 20
4.5607691397
 30
0.0
  0
SPLINE
  5
2F1
100
AcDbEntity
  8
0
100
AcDbSpline
 62
7
  6
CONTINUOUS
 70
0
 71
3
 72
12
 73
8
 74
0
 42
0.0000001
 43
0.0000001
 44
0.0000000001
 40
0.0
 40
0.0
 40
0.0
 40
0.0
 40
0.3271103068
 40
0.6075289794
 40
0.7250348911
 40
0.8279831705
 40
1.0
 40
1.0
 40
1.0
 40
1.0
 10
6.7102197018
 20
4.1523045745
 30
0.0
 10
6.7102197018
 20
4.1502803404
 30
0.0
 10
6.7097394698
 20
4.1465030437
 30
0.0
 10
6.707995058
 20
4.142292705
 30
0.0
 10
6.7061028313
 20
4.1398116818
 30
0.0
 10
6.7042825181
 20
4.1381989115
 30
0.0
 10
6.7025768895
 20
4.1375418891
 30
0.0
 10
6.7015124101
 20
4.1375408769
 30
0.0
  0
SPLINE
  5
2F2
100
AcDbEntity
  8
0
100
AcDbSpline
 62
7
  6
CONTINUOUS
 70
0
 71
3
 72
12
 73
8
 74
0
 42
0.0000001
 43
0.0000001
 44
0.0000000001
 40
0.0
 40
0.0
 40
0.0
 40
0.0
 40
0.3715602756
 40
0.6867986351
 40
0.9019479606
 40
0.9644233723
 40
1.0
 40
1.0
 40
1.0
 40
1.0
 10
6.6601326631
 20
4.0341943383
 30
0.0
 10
6.6601326631
 20
4.0360919418
 30
0.0
 10
6.6599935626
 20
4.0396069551
 30
0.0
 10
6.6594346689
 20
4.0441652773
 30
0.0
 10
6.6587108942
 20
4.047157503
 30
0.0
 10
6.6580513709
 20
4.0485836254
 30
0.0
 10
6.6576169297
 20
4.0489581675
 30
0.0
 10
6.6574352355
 20
4.048958116
 30
0.0
  0
SPLINE
  5
2F3
100
AcDbEntity
  8
0
100
AcDbSpline
 62
7
  6
CONTINUOUS
 70
0
 71
3
 72
12
 73
8
 74
0
 42
0.0000001
 43
0.0000001
 44
0.0000000001
 40
0.0
 40
0.0
 40
0.0
 40
0.0
 40
0.3709362594
 40
0.6857079838
 40
0.9008278175
 40
0.9636531206
 40
1.0
 40
1.0
 40
1.0
 40
1.0
 10
6.6701917275
 20
4.0341943383
 30
0.0
 10
6.6701917275
 20
4.0322959008
 30
0.0
 10
6.6700500526
 20
4.0287790273
 30
0.0
 10
6.6694671374
 20
4.0242180385
 30
0.0
 10
6.6687227315
 20
4.0212270232
 30
0.0
 10
6.6680362312
 20
4.0197988131
 30
0.0
 10
6.6675901731
 20
4.0194305227
 30
0.0
 10
6.6674041511
 20
4.019430559
 30
0.0
  0
SPLINE
  5
2F4
100
AcDbEntity
  8
0
100
AcDbSpline
 62
7
  6
CONTINUOUS
 70
0
 71
3
 72
12
 73
8
 74
0
 42
0.0000001
 43
0.0000001
 44
0.0000000001
 40
0.0
 40
0.0
 40
0.0
 40
0.0
 40
0.3295730864
 40
0.6116787756
 40
0.7292477197
 40
0.8314605564
 40
1.0
 40
1.0
 40
1.0
 40
1.0
 10
6.6986644577
 20
4.0341943383
 30
0.0
 10
6.6986644577
 20
4.0362080971
 30
0.0
 10
6.6982083011
 20
4.0399605103
 30
0.0
 10
6.6965565562
 20
4.0441702891
 30
0.0
 10
6.6947386628
 20
4.0466655037
 30
0.0
 10
6.6930019402
 20
4.0482845673
 30
0.0
 10
6.6913472075
 20
4.0489572884
 30
0.0
 10
6.6903173974
 20
4.0489580424
 30
0.0
  0
SPLINE
  5
2F5
100
AcDbEntity
  8
0
100
AcDbSpline
 62
7
  6
CONTINUOUS
 70
0
 71
3
 72
12
 73
8
 74
0
 42
0.0000001
 43
0.0000001
 44
0.0000000001
 40
0.0
 40
0.0
 40
0.0
 40
0.0
 40
0.1684584536
 40
0.2706019896
 40
0.3882030313
 40
0.6703773183
 40
1.0
 40
1.0
 40
1.0
 40
1.0
 10
6.6903074943
 20
4.1375407872
 30
0.0
 10
6.6913373394
 20
4.137539596
 30
0.0
 10
6.6929935852
 20
4.1382089309
 30
0.0
 10
6.694732492
 20
4.1398265904
 30
0.0
 10
6.6965531134
 20
4.1423220534
 30
0.0
 10
6.6982080095
 20
4.1465343034
 30
0.0
 10
6.6986644577
 20
4.1502894751
 30
0.0
 10
6.6986644577
 20
4.1523045745
 30
0.0
  0
SPLINE
  5
2F6
100
AcDbEntity
  8
0
100
AcDbSpline
 62
7
  6
CONTINUOUS
 70
0
 71
3
 72
12
 73
8
 74
0
 42
0.0000001
 43
0.0000001
 44
0.0000000001
 40
0.0
 40
0.0
 40
0.0
 40
0.0
 40
0.3271103068
 40
0.6075289794
 40
0.7250348911
 40
0.8279831705
 40
1.0
 40
1.0
 40
1.0
 40
1.0
 10
6.7102197018
 20
4.0341943383
 30
0.0
 10
6.7102197018
 20
4.0321701041
 30
0.0
 10
6.7097394698
 20
4.0283928075
 30
0.0
 10
6.707995058
 20
4.0241824687
 30
0.0
 10
6.7061028313
 20
4.0217014456
 30
0.0
 10
6.7042825181
 20
4.0200886753
 30
0.0
 10
6.7025768895
 20
4.0194316529
 30
0.0
 10
6.7015124101
 20
4.0194306407
 30
0.0
  0
SPLINE
  5
2F7
100
AcDbEntity
  8
0
100
AcDbSpline
 62
7
  6
CONTINUOUS
 70
0
 71
3
 72
12
 73
8
 74
0
 42
0.0000001
 43
0.0000001
 44
0.0000000001
 40
0.0
 40
0.0
 40
0.0
 40
0.0
 40
0.3715602756
 40
0.6867986351
 40
0.9019479606
 40
0.9644233723
 40
1.0
 40
1.0
 40
1.0
 40
1.0
 10
6.6601326631
 20
3.9357691414
 30
0.0
 10
6.6601326631
 20
3.9376667449
 30
0.0
 10
6.6599935626
 20
3.9411817583
 30
0.0
 10
6.6594346689
 20
3.9457400805
 30
0.0
 10
6.6587108942
 20
3.9487323062
 30
0.0
 10
6.6580513709
 20
3.9501584285
 30
0.0
 10
6.6576169297
 20
3.9505329707
 30
0.0
 10
6.6574352355
 20
3.9505329192
 30
0.0
  0
SPLINE
  5
2F8
100
AcDbEntity
  8
0
100
AcDbSpline
 62
7
  6
CONTINUOUS
 70
0
 71
3
 72
11
 73
7
 74
0
 42
0.0000001
 43
0.0000001
 44
0.0000000001
 40
0.0
 40
0.0
 40
0.0
 40
0.0
 40
0.1721566728
 40
0.3916671383
 40
0.6724824499
 40
1.0
 40
1.0
 40
1.0
 40
1.0
 10
6.7015011723
 20
4.777304579
 30
0.0
 10
6.7025659399
 20
4.7773056592
 30
0.0
 10
6.7049833278
 20
4.7763742618
 30
0.0
 10
6.7077391618
 20
4.7731335221
 30
0.0
 10
6.7097424944
 20
4.7683533416
 30
0.0
 10
6.7102197018
 20
4.7645664513
 30
0.0
 10
6.7102197018
 20
4.7625407949
 30
0.0
  0
SPLINE
  5
2F9
100
AcDbEntity
  8
0
100
AcDbSpline
 62
7
  6
CONTINUOUS
 70
0
 71
3
 72
12
 73
8
 74
0
 42
0.0000001
 43
0.0000001
 44
0.0000000001
 40
0.0
 40
0.0
 40
0.0
 40
0.0
 40
0.3709362594
 40
0.6857079838
 40
0.9008278175
 40
0.9636531206
 40
1.0
 40
1.0
 40
1.0
 40
1.0
 10
6.6701917275
 20
4.5460053619
 30
0.0
 10
6.6701917275
 20
4.5441069244
 30
0.0
 10
6.6700500526
 20
4.5405900509
 30
0.0
 10
6.6694671374
 20
4.5360290621
 30
0.0
 10
6.6687227315
 20
4.5330380468
 30
0.0
 10
6.6680362312
 20
4.5316098367
 30
0.0
 10
6.6675901731
 20
4.5312415463
 30
0.0
 10
6.6674041511
 20
4.5312415827
 30
0.0
  0
SPLINE
  5
2FA
100
AcDbEntity
  8
0
100
AcDbSpline
 62
7
  6
CONTINUOUS
 70
0
 71
3
 72
12
 73
8
 74
0
 42
0.0000001
 43
0.0000001
 44
0.0000000001
 40
0.0
 40
0.0
 40
0.0
 40
0.0
 40
0.3709362594
 40
0.6857079838
 40
0.9008278175
 40
0.9636531206
 40
1.0
 40
1.0
 40
1.0
 40
1.0
 10
6.6701917275
 20
3.9357691414
 30
0.0
 10
6.6701917275
 20
3.9338707039
 30
0.0
 10
6.6700500526
 20
3.9303538304
 30
0.0
 10
6.6694671374
 20
3.9257928416
 30
0.0
 10
6.6687227315
 20
3.9228018263
 30
0.0
 10
6.6680362312
 20
3.9213736162
 30
0.0
 10
6.6675901731
 20
3.9210053259
 30
0.0
 10
6.6674041511
 20
3.9210053622
 30
0.0
  0
SPLINE
  5
2FB
100
AcDbEntity
  8
0
100
AcDbSpline
 62
7
  6
CONTINUOUS
 70
0
 71
3
 72
12
 73
8
 74
0
 42
0.0000001
 43
0.0000001
 44
0.0000000001
 40
0.0
 40
0.0
 40
0.0
 40
0.0
 40
0.3295730864
 40
0.6116787756
 40
0.7292477197
 40
0.8314605564
 40
1.0
 40
1.0
 40
1.0
 40
1.0
 10
6.6986644577
 20
3.9357691414
 30
0.0
 10
6.6986644577
 20
3.9377829002
 30
0.0
 10
6.6982083011
 20
3.9415353134
 30
0.0
 10
6.6965565562
 20
3.9457450922
 30
0.0
 10
6.6947386628
 20
3.9482403069
 30
0.0
 10
6.6930019402
 20
3.9498593705
 30
0.0
 10
6.6913472075
 20
3.9505320915
 30
0.0
 10
6.6903173974
 20
3.9505328456
 30
0.0
  0
SPLINE
  5
2FC
100
AcDbEntity
  8
0
100
AcDbSpline
 62
7
  6
CONTINUOUS
 70
0
 71
3
 72
12
 73
8
 74
0
 42
0.0000001
 43
0.0000001
 44
0.0000000001
 40
0.0
 40
0.0
 40
0.0
 40
0.0
 40
0.3295730864
 40
0.6116787756
 40
0.7292477197
 40
0.8314605564
 40
1.0
 40
1.0
 40
1.0
 40
1.0
 10
6.6986644577
 20
4.5460053619
 30
0.0
 10
6.6986644577
 20
4.5480191207
 30
0.0
 10
6.6982083011
 20
4.5517715339
 30
0.0
 10
6.6965565562
 20
4.5559813127
 30
0.0
 10
6.6947386628
 20
4.5584765274
 30
0.0
 10
6.6930019402
 20
4.5600955909
 30
0.0
 10
6.6913472075
 20
4.560768312
 30
0.0
 10
6.6903173974
 20
4.560769066
 30
0.0
  0
SPLINE
  5
2FD
100
AcDbEntity
  8
0
100
AcDbSpline
 62
7
  6
CONTINUOUS
 70
0
 71
3
 72
12
 73
8
 74
0
 42
0.0000001
 43
0.0000001
 44
0.0000000001
 40
0.0
 40
0.0
 40
0.0
 40
0.0
 40
0.3271103068
 40
0.6075289794
 40
0.7250348911
 40
0.8279831705
 40
1.0
 40
1.0
 40
1.0
 40
1.0
 10
6.7102197018
 20
3.9357691414
 30
0.0
 10
6.7102197018
 20
3.9337449073
 30
0.0
 10
6.7097394698
 20
3.9299676106
 30
0.0
 10
6.707995058
 20
3.9257572719
 30
0.0
 10
6.7061028313
 20
3.9232762487
 30
0.0
 10
6.7042825181
 20
3.9216634785
 30
0.0
 10
6.7025768895
 20
3.9210064561
 30
0.0
 10
6.7015124101
 20
3.9210054438
 30
0.0
  0
SPLINE
  5
2FE
100
AcDbEntity
  8
0
100
AcDbSpline
 62
7
  6
CONTINUOUS
 70
0
 71
3
 72
12
 73
8
 74
0
 42
0.0000001
 43
0.0000001
 44
0.0000000001
 40
0.0
 40
0.0
 40
0.0
 40
0.0
 40
0.0355771158
 40
0.0980555386
 40
0.3132133665
 40
0.6284551907
 40
1.0
 40
1.0
 40
1.0
 40
1.0
 10
6.6574351454
 20
4.7477770156
 30
0.0
 10
6.6576168427
 20
4.7477770201
 30
0.0
 10
6.6580513312
 20
4.7481514183
 30
0.0
 10
6.6587109267
 20
4.7495777177
 30
0.0
 10
6.6594346305
 20
4.7525699438
 30
0.0
 10
6.6599935946
 20
4.7571283085
 30
0.0
 10
6.6601326631
 20
4.7606432628
 30
0.0
 10
6.6601326631
 20
4.7625407949
 30
0.0
  0
SPLINE
  5
2FF
100
AcDbEntity
  8
0
100
AcDbSpline
 62
7
  6
CONTINUOUS
 70
0
 71
3
 72
12
 73
8
 74
0
 42
0.0000001
 43
0.0000001
 44
0.0000000001
 40
0.0
 40
0.0
 40
0.0
 40
0.0
 40
0.1684584536
 40
0.2706019896
 40
0.3882030313
 40
0.6703773183
 40
1.0
 40
1.0
 40
1.0
 40
1.0
 10
6.6903074943
 20
4.019430551
 30
0.0
 10
6.6913373394
 20
4.0194293598
 30
0.0
 10
6.6929935852
 20
4.0200986947
 30
0.0
 10
6.694732492
 20
4.0217163542
 30
0.0
 10
6.6965531134
 20
4.0242118172
 30
0.0
 10
6.6982080095
 20
4.0284240671
 30
0.0
 10
6.6986644577
 20
4.0321792389
 30
0.0
 10
6.6986644577
 20
4.0341943383
 30
0.0
  0
SPLINE
  5
300
100
AcDbEntity
  8
0
100
AcDbSpline
 62
7
  6
CONTINUOUS
 70
0
 71
3
 72
12
 73
8
 74
0
 42
0.0000001
 43
0.0000001
 44
0.0000000001
 40
0.0
 40
0.0
 40
0.0
 40
0.0
 40
0.3271103068
 40
0.6075289794
 40
0.7250348911
 40
0.8279831705
 40
1.0
 40
1.0
 40
1.0
 40
1.0
 10
6.7102197018
 20
4.5460053619
 30
0.0
 10
6.7102197018
 20
4.5439811278
 30
0.0
 10
6.7097394698
 20
4.5402038311
 30
0.0
 10
6.707995058
 20
4.5359934924
 30
0.0
 10
6.7061028313
 20
4.5335124692
 30
0.0
 10
6.7042825181
 20
4.5318996989
 30
0.0
 10
6.7025768895
 20
4.5312426765
 30
0.0
 10
6.7015124101
 20
4.5312416643
 30
0.0
  0
SPLINE
  5
301
100
AcDbEntity
  8
0
100
AcDbSpline
 62
7
  6
CONTINUOUS
 70
0
 71
3
 72
12
 73
8
 74
0
 42
0.0000001
 43
0.0000001
 44
0.0000000001
 40
0.0
 40
0.0
 40
0.0
 40
0.0
 40
0.3715602756
 40
0.6867986351
 40
0.9019479606
 40
0.9644233723
 40
1.0
 40
1.0
 40
1.0
 40
1.0
 10
6.6601326631
 20
4.6641155981
 30
0.0
 10
6.6601326631
 20
4.6660132016
 30
0.0
 10
6.6599935626
 20
4.669528215
 30
0.0
 10
6.6594346689
 20
4.6740865372
 30
0.0
 10
6.6587108942
 20
4.6770787629
 30
0.0
 10
6.6580513709
 20
4.6785048852
 30
0.0
 10
6.6576169297
 20
4.6788794273
 30
0.0
 10
6.6574352355
 20
4.6788793759
 30
0.0
  0
SPLINE
  5
302
100
AcDbEntity
  8
0
100
AcDbSpline
 62
7
  6
CONTINUOUS
 70
0
 71
3
 72
11
 73
7
 74
0
 42
0.0000001
 43
0.0000001
 44
0.0000000001
 40
0.0
 40
0.0
 40
0.0
 40
0.0
 40
0.1721566728
 40
0.3916671383
 40
0.6724824499
 40
1.0
 40
1.0
 40
1.0
 40
1.0
 10
6.7015011723
 20
3.9505329255
 30
0.0
 10
6.7025659399
 20
3.9505340057
 30
0.0
 10
6.7049833278
 20
3.9496026083
 30
0.0
 10
6.7077391618
 20
3.9463618685
 30
0.0
 10
6.7097424944
 20
3.941581688
 30
0.0
 10
6.7102197018
 20
3.9377947977
 30
0.0
 10
6.7102197018
 20
3.9357691414
 30
0.0
  0
SPLINE
  5
303
100
AcDbEntity
  8
0
100
AcDbSpline
 62
7
  6
CONTINUOUS
 70
0
 71
3
 72
12
 73
8
 74
0
 42
0.0000001
 43
0.0000001
 44
0.0000000001
 40
0.0
 40
0.0
 40
0.0
 40
0.0
 40
0.0363492455
 40
0.0991851584
 40
0.3143103148
 40
0.6290737138
 40
1.0
 40
1.0
 40
1.0
 40
1.0
 10
6.6674042193
 20
4.7773045697
 30
0.0
 10
6.6675902523
 20
4.7773046408
 30
0.0
 10
6.6680362531
 20
4.7769360634
 30
0.0
 10
6.6687230288
 20
4.7755080868
 30
0.0
 10
6.6694669419
 20
4.7725167001
 30
0.0
 10
6.6700501432
 20
4.767955984
 30
0.0
 10
6.6701917275
 20
4.7644391713
 30
0.0
 10
6.6701917275
 20
4.7625407949
 30
0.0
  0
SPLINE
  5
304
100
AcDbEntity
  8
0
100
AcDbSpline
 62
7
  6
CONTINUOUS
 70
0
 71
3
 72
12
 73
8
 74
0
 42
0.0000001
 43
0.0000001
 44
0.0000000001
 40
0.0
 40
0.0
 40
0.0
 40
0.0
 40
0.1684584536
 40
0.2706019896
 40
0.3882030313
 40
0.6703773183
 40
1.0
 40
1.0
 40
1.0
 40
1.0
 10
6.6903074943
 20
4.6493518108
 30
0.0
 10
6.6913373394
 20
4.6493506196
 30
0.0
 10
6.6929935852
 20
4.6500199546
 30
0.0
 10
6.694732492
 20
4.651637614
 30
0.0
 10
6.6965531134
 20
4.654133077
 30
0.0
 10
6.6982080095
 20
4.658345327
 30
0.0
 10
6.6986644577
 20
4.6621004988
 30
0.0
 10
6.6986644577
 20
4.6641155981
 30
0.0
  0
SPLINE
  5
305
100
AcDbEntity
  8
0
100
AcDbSpline
 62
7
  6
CONTINUOUS
 70
0
 71
3
 72
12
 73
8
 74
0
 42
0.0000001
 43
0.0000001
 44
0.0000000001
 40
0.0
 40
0.0
 40
0.0
 40
0.0
 40
0.3709362594
 40
0.6857079838
 40
0.9008278175
 40
0.9636531206
 40
1.0
 40
1.0
 40
1.0
 40
1.0
 10
6.6701917275
 20
4.6641155981
 30
0.0
 10
6.6701917275
 20
4.6622171606
 30
0.0
 10
6.6700500526
 20
4.6587002871
 30
0.0
 10
6.6694671374
 20
4.6541392983
 30
0.0
 10
6.6687227315
 20
4.651148283
 30
0.0
 10
6.6680362312
 20
4.6497200729
 30
0.0
 10
6.6675901731
 20
4.6493517826
 30
0.0
 10
6.6674041511
 20
4.6493518189
 30
0.0
  0
SPLINE
  5
306
100
AcDbEntity
  8
0
100
AcDbSpline
 62
7
  6
CONTINUOUS
 70
0
 71
3
 72
12
 73
8
 74
0
 42
0.0000001
 43
0.0000001
 44
0.0000000001
 40
0.0
 40
0.0
 40
0.0
 40
0.0
 40
0.3295730864
 40
0.6116787756
 40
0.7292477197
 40
0.8314605564
 40
1.0
 40
1.0
 40
1.0
 40
1.0
 10
6.6986644577
 20
4.6641155981
 30
0.0
 10
6.6986644577
 20
4.6661293569
 30
0.0
 10
6.6982083011
 20
4.6698817701
 30
0.0
 10
6.6965565562
 20
4.6740915489
 30
0.0
 10
6.6947386628
 20
4.6765867636
 30
0.0
 10
6.6930019402
 20
4.6782058272
 30
0.0
 10
6.6913472075
 20
4.6788785482
 30
0.0
 10
6.6903173974
 20
4.6788793023
 30
0.0
  0
SPLINE
  5
307
100
AcDbEntity
  8
0
100
AcDbSpline
 62
7
  6
CONTINUOUS
 70
0
 71
3
 72
11
 73
7
 74
0
 42
0.0000001
 43
0.0000001
 44
0.0000000001
 40
0.0
 40
0.0
 40
0.0
 40
0.0
 40
0.1721566728
 40
0.3916671383
 40
0.6724824499
 40
1.0
 40
1.0
 40
1.0
 40
1.0
 10
6.7015011723
 20
4.1670683585
 30
0.0
 10
6.7025659399
 20
4.1670694387
 30
0.0
 10
6.7049833278
 20
4.1661380414
 30
0.0
 10
6.7077391618
 20
4.1628973016
 30
0.0
 10
6.7097424944
 20
4.1581171211
 30
0.0
 10
6.7102197018
 20
4.1543302308
 30
0.0
 10
6.7102197018
 20
4.1523045745
 30
0.0
  0
SPLINE
  5
308
100
AcDbEntity
  8
0
100
AcDbSpline
 62
7
  6
CONTINUOUS
 70
0
 71
3
 72
11
 73
7
 74
0
 42
0.0000001
 43
0.0000001
 44
0.0000000001
 40
0.0
 40
0.0
 40
0.0
 40
0.0
 40
0.1721566728
 40
0.3916671383
 40
0.6724824499
 40
1.0
 40
1.0
 40
1.0
 40
1.0
 10
6.7015011723
 20
4.6788793822
 30
0.0
 10
6.7025659399
 20
4.6788804624
 30
0.0
 10
6.7049833278
 20
4.677949065
 30
0.0
 10
6.7077391618
 20
4.6747083252
 30
0.0
 10
6.7097424944
 20
4.6699281447
 30
0.0
 10
6.7102197018
 20
4.6661412544
 30
0.0
 10
6.7102197018
 20
4.6641155981
 30
0.0
  0
SPLINE
  5
309
100
AcDbEntity
  8
0
100
AcDbSpline
 62
7
  6
CONTINUOUS
 70
0
 71
3
 72
12
 73
8
 74
0
 42
0.0000001
 43
0.0000001
 44
0.0000000001
 40
0.0
 40
0.0
 40
0.0
 40
0.0
 40
0.3271103068
 40
0.6075289794
 40
0.7250348911
 40
0.8279831705
 40
1.0
 40
1.0
 40
1.0
 40
1.0
 10
6.7102197018
 20
4.6641155981
 30
0.0
 10
6.7102197018
 20
4.662091364
 30
0.0
 10
6.7097394698
 20
4.6583140673
 30
0.0
 10
6.707995058
 20
4.6541037286
 30
0.0
 10
6.7061028313
 20
4.6516227054
 30
0.0
 10
6.7042825181
 20
4.6500099352
 30
0.0
 10
6.7025768895
 20
4.6493529127
 30
0.0
 10
6.7015124101
 20
4.6493519005
 30
0.0
  0
SPLINE
  5
30A
100
AcDbEntity
  8
0
100
AcDbSpline
 62
7
  6
CONTINUOUS
 70
0
 71
3
 72
12
 73
8
 74
0
 42
0.0000001
 43
0.0000001
 44
0.0000000001
 40
0.0
 40
0.0
 40
0.0
 40
0.0
 40
0.3715602756
 40
0.6867986351
 40
0.9019479606
 40
0.9644233723
 40
1.0
 40
1.0
 40
1.0
 40
1.0
 10
6.6601326631
 20
4.7625407949
 30
0.0
 10
6.6601326631
 20
4.7644383985
 30
0.0
 10
6.6599935626
 20
4.7679534118
 30
0.0
 10
6.6594346689
 20
4.772511734
 30
0.0
 10
6.6587108942
 20
4.7755039597
 30
0.0
 10
6.6580513709
 20
4.776930082
 30
0.0
 10
6.6576169297
 20
4.7773046242
 30
0.0
 10
6.6574352355
 20
4.7773045727
 30
0.0
  0
SPLINE
  5
30B
100
AcDbEntity
  8
0
100
AcDbSpline
 62
7
  6
CONTINUOUS
 70
0
 71
3
 72
12
 73
8
 74
0
 42
0.0000001
 43
0.0000001
 44
0.0000000001
 40
0.0
 40
0.0
 40
0.0
 40
0.0
 40
0.0355771158
 40
0.0980555386
 40
0.3132133665
 40
0.6284551907
 40
1.0
 40
1.0
 40
1.0
 40
1.0
 10
6.6574351454
 20
4.6493518188
 30
0.0
 10
6.6576168427
 20
4.6493518233
 30
0.0
 10
6.6580513312
 20
4.6497262215
 30
0.0
 10
6.6587109267
 20
4.6511525209
 30
0.0
 10
6.6594346305
 20
4.654144747
 30
0.0
 10
6.6599935946
 20
4.6587031116
 30
0.0
 10
6.6601326631
 20
4.6622180659
 30
0.0
 10
6.6601326631
 20
4.6641155981
 30
0.0
  0
SPLINE
  5
30C
100
AcDbEntity
  8
0
100
AcDbSpline
 62
7
  6
CONTINUOUS
 70
0
 71
3
 72
12
 73
8
 74
0
 42
0.0000001
 43
0.0000001
 44
0.0000000001
 40
0.0
 40
0.0
 40
0.0
 40
0.0
 40
0.3709362594
 40
0.6857079838
 40
0.9008278175
 40
0.9636531206
 40
1.0
 40
1.0
 40
1.0
 40
1.0
 10
6.6701917275
 20
4.7625407949
 30
0.0
 10
6.6701917275
 20
4.7606423575
 30
0.0
 10
6.6700500526
 20
4.757125484
 30
0.0
 10
6.6694671374
 20
4.7525644952
 30
0.0
 10
6.6687227315
 20
4.7495734799
 30
0.0
 10
6.6680362312
 20
4.7481452698
 30
0.0
 10
6.6675901731
 20
4.7477769794
 30
0.0
 10
6.6674041511
 20
4.7477770157
 30
0.0
  0
SPLINE
  5
30D
100
AcDbEntity
  8
0
100
AcDbSpline
 62
7
  6
CONTINUOUS
 70
0
 71
3
 72
12
 73
8
 74
0
 42
0.0000001
 43
0.0000001
 44
0.0000000001
 40
0.0
 40
0.0
 40
0.0
 40
0.0
 40
0.3295730864
 40
0.6116787756
 40
0.7292477197
 40
0.8314605564
 40
1.0
 40
1.0
 40
1.0
 40
1.0
 10
6.6986644577
 20
4.7625407949
 30
0.0
 10
6.6986644577
 20
4.7645545538
 30
0.0
 10
6.6982083011
 20
4.768306967
 30
0.0
 10
6.6965565562
 20
4.7725167458
 30
0.0
 10
6.6947386628
 20
4.7750119604
 30
0.0
 10
6.6930019402
 20
4.776631024
 30
0.0
 10
6.6913472075
 20
4.7773037451
 30
0.0
 10
6.6903173974
 20
4.7773044991
 30
0.0
  0
SPLINE
  5
30E
100
AcDbEntity
  8
0
100
AcDbSpline
 62
7
  6
CONTINUOUS
 70
0
 71
3
 72
12
 73
8
 74
0
 42
0.0000001
 43
0.0000001
 44
0.0000000001
 40
0.0
 40
0.0
 40
0.0
 40
0.0
 40
0.0363492455
 40
0.0991851584
 40
0.3143103148
 40
0.6290737138
 40
1.0
 40
1.0
 40
1.0
 40
1.0
 10
6.6674042193
 20
4.6788793729
 30
0.0
 10
6.6675902523
 20
4.6788794439
 30
0.0
 10
6.6680362531
 20
4.6785108666
 30
0.0
 10
6.6687230288
 20
4.6770828899
 30
0.0
 10
6.6694669419
 20
4.6740915032
 30
0.0
 10
6.6700501432
 20
4.6695307872
 30
0.0
 10
6.6701917275
 20
4.6660139745
 30
0.0
 10
6.6701917275
 20
4.6641155981
 30
0.0
  0
SPLINE
  5
30F
100
AcDbEntity
  8
0
100
AcDbSpline
 62
7
  6
CONTINUOUS
 70
0
 71
3
 72
12
 73
8
 74
0
 42
0.0000001
 43
0.0000001
 44
0.0000000001
 40
0.0
 40
0.0
 40
0.0
 40
0.0
 40
0.1684584536
 40
0.2706019896
 40
0.3882030313
 40
0.6703773183
 40
1.0
 40
1.0
 40
1.0
 40
1.0
 10
6.6903074943
 20
4.5312415746
 30
0.0
 10
6.6913373394
 20
4.5312403834
 30
0.0
 10
6.6929935852
 20
4.5319097183
 30
0.0
 10
6.694732492
 20
4.5335273778
 30
0.0
 10
6.6965531134
 20
4.5360228408
 30
0.0
 10
6.6982080095
 20
4.5402350908
 30
0.0
 10
6.6986644577
 20
4.5439902625
 30
0.0
 10
6.6986644577
 20
4.5460053619
 30
0.0
  0
SPLINE
  5
310
100
AcDbEntity
  8
0
100
AcDbSpline
 62
7
  6
CONTINUOUS
 70
0
 71
3
 72
12
 73
8
 74
0
 42
0.0000001
 43
0.0000001
 44
0.0000000001
 40
0.0
 40
0.0
 40
0.0
 40
0.0
 40
0.3271103068
 40
0.6075289794
 40
0.7250348911
 40
0.8279831705
 40
1.0
 40
1.0
 40
1.0
 40
1.0
 10
6.7102197018
 20
4.7625407949
 30
0.0
 10
6.7102197018
 20
4.7605165608
 30
0.0
 10
6.7097394698
 20
4.7567392642
 30
0.0
 10
6.707995058
 20
4.7525289254
 30
0.0
 10
6.7061028313
 20
4.7500479023
 30
0.0
 10
6.7042825181
 20
4.748435132
 30
0.0
 10
6.7025768895
 20
4.7477781096
 30
0.0
 10
6.7015124101
 20
4.7477770973
 30
0.0
  0
SPLINE
  5
311
100
AcDbEntity
  8
0
100
AcDbSpline
 62
7
  6
CONTINUOUS
 70
0
 71
3
 72
12
 73
8
 74
0
 42
0.0000001
 43
0.0000001
 44
0.0000000001
 40
0.0
 40
0.0
 40
0.0
 40
0.0
 40
0.3715602756
 40
0.6867986351
 40
0.9019479606
 40
0.9644233723
 40
1.0
 40
1.0
 40
1.0
 40
1.0
 10
6.6601326631
 20
4.3491549682
 30
0.0
 10
6.6601326631
 20
4.3510525717
 30
0.0
 10
6.6599935626
 20
4.3545675851
 30
0.0
 10
6.6594346689
 20
4.3591259073
 30
0.0
 10
6.6587108942
 20
4.3621181329
 30
0.0
 10
6.6580513709
 20
4.3635442553
 30
0.0
 10
6.6576169297
 20
4.3639187974
 30
0.0
 10
6.6574352355
 20
4.363918746
 30
0.0
  0
SPLINE
  5
312
100
AcDbEntity
  8
0
100
AcDbSpline
 62
7
  6
CONTINUOUS
 70
0
 71
3
 72
11
 73
7
 74
0
 42
0.0000001
 43
0.0000001
 44
0.0000000001
 40
0.0
 40
0.0
 40
0.0
 40
0.0
 40
0.1721566728
 40
0.3916671383
 40
0.6724824499
 40
1.0
 40
1.0
 40
1.0
 40
1.0
 10
6.7015011723
 20
4.5607691459
 30
0.0
 10
6.7025659399
 20
4.5607702261
 30
0.0
 10
6.7049833278
 20
4.5598388288
 30
0.0
 10
6.7077391618
 20
4.556598089
 30
0.0
 10
6.7097424944
 20
4.5518179085
 30
0.0
 10
6.7102197018
 20
4.5480310182
 30
0.0
 10
6.7102197018
 20
4.5460053619
 30
0.0
  0
SPLINE
  5
313
100
AcDbEntity
  8
0
100
AcDbSpline
 62
7
  6
CONTINUOUS
 70
0
 71
3
 72
12
 73
8
 74
0
 42
0.0000001
 43
0.0000001
 44
0.0000000001
 40
0.0
 40
0.0
 40
0.0
 40
0.0
 40
0.0355771158
 40
0.0980555386
 40
0.3132133665
 40
0.6284551907
 40
1.0
 40
1.0
 40
1.0
 40
1.0
 10
6.6574351454
 20
4.1375407951
 30
0.0
 10
6.6576168427
 20
4.1375407997
 30
0.0
 10
6.6580513312
 20
4.1379151979
 30
0.0
 10
6.6587109267
 20
4.1393414973
 30
0.0
 10
6.6594346305
 20
4.1423337234
 30
0.0
 10
6.6599935946
 20
4.146892088
 30
0.0
 10
6.6601326631
 20
4.1504070423
 30
0.0
 10
6.6601326631
 20
4.1523045745
 30
0.0
  0
SPLINE
  5
314
100
AcDbEntity
  8
0
100
AcDbSpline
 62
7
  6
CONTINUOUS
 70
0
 71
3
 72
12
 73
8
 74
0
 42
0.0000001
 43
0.0000001
 44
0.0000000001
 40
0.0
 40
0.0
 40
0.0
 40
0.0
 40
0.0355771158
 40
0.0980555386
 40
0.3132133665
 40
0.6284551907
 40
1.0
 40
1.0
 40
1.0
 40
1.0
 10
6.6574351454
 20
4.5312415826
 30
0.0
 10
6.6576168427
 20
4.5312415871
 30
0.0
 10
6.6580513312
 20
4.5316159853
 30
0.0
 10
6.6587109267
 20
4.5330422847
 30
0.0
 10
6.6594346305
 20
4.5360345108
 30
0.0
 10
6.6599935946
 20
4.5405928754
 30
0.0
 10
6.6601326631
 20
4.5441078297
 30
0.0
 10
6.6601326631
 20
4.5460053619
 30
0.0
  0
SPLINE
  5
315
100
AcDbEntity
  8
0
100
AcDbSpline
 62
7
  6
CONTINUOUS
 70
0
 71
3
 72
12
 73
8
 74
0
 42
0.0000001
 43
0.0000001
 44
0.0000000001
 40
0.0
 40
0.0
 40
0.0
 40
0.0
 40
0.3709362594
 40
0.6857079838
 40
0.9008278175
 40
0.9636531206
 40
1.0
 40
1.0
 40
1.0
 40
1.0
 10
6.6701917275
 20
4.3491549682
 30
0.0
 10
6.6701917275
 20
4.3472565307
 30
0.0
 10
6.6700500526
 20
4.3437396572
 30
0.0
 10
6.6694671374
 20
4.3391786684
 30
0.0
 10
6.6687227315
 20
4.3361876531
 30
0.0
 10
6.6680362312
 20
4.334759443
 30
0.0
 10
6.6675901731
 20
4.3343911526
 30
0.0
 10
6.6674041511
 20
4.334391189
 30
0.0
  0
SPLINE
  5
316
100
AcDbEntity
  8
0
100
AcDbSpline
 62
7
  6
CONTINUOUS
 70
0
 71
3
 72
12
 73
8
 74
0
 42
0.0000001
 43
0.0000001
 44
0.0000000001
 40
0.0
 40
0.0
 40
0.0
 40
0.0
 40
0.3295730864
 40
0.6116787756
 40
0.7292477197
 40
0.8314605564
 40
1.0
 40
1.0
 40
1.0
 40
1.0
 10
6.6986644577
 20
4.3491549682
 30
0.0
 10
6.6986644577
 20
4.351168727
 30
0.0
 10
6.6982083011
 20
4.3549211402
 30
0.0
 10
6.6965565562
 20
4.359130919
 30
0.0
 10
6.6947386628
 20
4.3616261337
 30
0.0
 10
6.6930019402
 20
4.3632451972
 30
0.0
 10
6.6913472075
 20
4.3639179183
 30
0.0
 10
6.6903173974
 20
4.3639186723
 30
0.0
  0
SPLINE
  5
317
100
AcDbEntity
  8
0
100
AcDbSpline
 62
7
  6
CONTINUOUS
 70
0
 71
3
 72
11
 73
7
 74
0
 42
0.0000001
 43
0.0000001
 44
0.0000000001
 40
0.0
 40
0.0
 40
0.0
 40
0.0
 40
0.1721566728
 40
0.3916671383
 40
0.6724824499
 40
1.0
 40
1.0
 40
1.0
 40
1.0
 10
6.7015011723
 20
4.0489581223
 30
0.0
 10
6.7025659399
 20
4.0489592025
 30
0.0
 10
6.7049833278
 20
4.0480278052
 30
0.0
 10
6.7077391618
 20
4.0447870654
 30
0.0
 10
6.7097424944
 20
4.0400068849
 30
0.0
 10
6.7102197018
 20
4.0362199946
 30
0.0
 10
6.7102197018
 20
4.0341943383
 30
0.0
  0
SPLINE
  5
318
100
AcDbEntity
  8
0
100
AcDbSpline
 62
7
  6
CONTINUOUS
 70
0
 71
3
 72
12
 73
8
 74
0
 42
0.0000001
 43
0.0000001
 44
0.0000000001
 40
0.0
 40
0.0
 40
0.0
 40
0.0
 40
0.0363492455
 40
0.0991851584
 40
0.3143103148
 40
0.6290737138
 40
1.0
 40
1.0
 40
1.0
 40
1.0
 10
6.6674042193
 20
4.5607691367
 30
0.0
 10
6.6675902523
 20
4.5607692077
 30
0.0
 10
6.6680362531
 20
4.5604006304
 30
0.0
 10
6.6687230288
 20
4.5589726537
 30
0.0
 10
6.6694669419
 20
4.555981267
 30
0.0
 10
6.6700501432
 20
4.5514205509
 30
0.0
 10
6.6701917275
 20
4.5479037383
 30
0.0
 10
6.6701917275
 20
4.5460053619
 30
0.0
  0
SPLINE
  5
319
100
AcDbEntity
  8
0
100
AcDbSpline
 62
7
  6
CONTINUOUS
 70
0
 71
3
 72
12
 73
8
 74
0
 42
0.0000001
 43
0.0000001
 44
0.0000000001
 40
0.0
 40
0.0
 40
0.0
 40
0.0
 40
0.3271103068
 40
0.6075289794
 40
0.7250348911
 40
0.8279831705
 40
1.0
 40
1.0
 40
1.0
 40
1.0
 10
6.7102197018
 20
4.3491549682
 30
0.0
 10
6.7102197018
 20
4.3471307341
 30
0.0
 10
6.7097394698
 20
4.3433534374
 30
0.0
 10
6.707995058
 20
4.3391430987
 30
0.0
 10
6.7061028313
 20
4.3366620755
 30
0.0
 10
6.7042825181
 20
4.3350493052
 30
0.0
 10
6.7025768895
 20
4.3343922828
 30
0.0
 10
6.7015124101
 20
4.3343912706
 30
0.0
  0
SPLINE
  5
31A
100
AcDbEntity
  8
0
100
AcDbSpline
 62
7
  6
CONTINUOUS
 70
0
 71
3
 72
12
 73
8
 74
0
 42
0.0000001
 43
0.0000001
 44
0.0000000001
 40
0.0
 40
0.0
 40
0.0
 40
0.0
 40
0.1684584536
 40
0.2706019896
 40
0.3882030313
 40
0.6703773183
 40
1.0
 40
1.0
 40
1.0
 40
1.0
 10
6.6903074943
 20
4.4328163777
 30
0.0
 10
6.6913373394
 20
4.4328151865
 30
0.0
 10
6.6929935852
 20
4.4334845215
 30
0.0
 10
6.694732492
 20
4.435102181
 30
0.0
 10
6.6965531134
 20
4.437597644
 30
0.0
 10
6.6982080095
 20
4.4418098939
 30
0.0
 10
6.6986644577
 20
4.4455650657
 30
0.0
 10
6.6986644577
 20
4.447580165
 30
0.0
  0
SPLINE
  5
31B
100
AcDbEntity
  8
0
100
AcDbSpline
 62
7
  6
CONTINUOUS
 70
0
 71
3
 72
12
 73
8
 74
0
 42
0.0000001
 43
0.0000001
 44
0.0000000001
 40
0.0
 40
0.0
 40
0.0
 40
0.0
 40
0.0363492455
 40
0.0991851584
 40
0.3143103148
 40
0.6290737138
 40
1.0
 40
1.0
 40
1.0
 40
1.0
 10
6.6674042193
 20
4.1670683493
 30
0.0
 10
6.6675902523
 20
4.1670684203
 30
0.0
 10
6.6680362531
 20
4.166699843
 30
0.0
 10
6.6687230288
 20
4.1652718663
 30
0.0
 10
6.6694669419
 20
4.1622804796
 30
0.0
 10
6.6700501432
 20
4.1577197635
 30
0.0
 10
6.6701917275
 20
4.1542029509
 30
0.0
 10
6.6701917275
 20
4.1523045745
 30
0.0
  0
SPLINE
  5
31C
100
AcDbEntity
  8
0
100
AcDbSpline
 62
7
  6
CONTINUOUS
 70
0
 71
3
 72
11
 73
7
 74
0
 42
0.0000001
 43
0.0000001
 44
0.0000000001
 40
0.0
 40
0.0
 40
0.0
 40
0.0
 40
0.1721566728
 40
0.3916671383
 40
0.6724824499
 40
1.0
 40
1.0
 40
1.0
 40
1.0
 10
6.7015011723
 20
4.4623439491
 30
0.0
 10
6.7025659399
 20
4.4623450293
 30
0.0
 10
6.7049833278
 20
4.4614136319
 30
0.0
 10
6.7077391618
 20
4.4581728922
 30
0.0
 10
6.7097424944
 20
4.4533927116
 30
0.0
 10
6.7102197018
 20
4.4496058214
 30
0.0
 10
6.7102197018
 20
4.447580165
 30
0.0
  0
SPLINE
  5
31D
100
AcDbEntity
  8
0
100
AcDbSpline
 62
7
  6
CONTINUOUS
 70
0
 71
3
 72
12
 73
8
 74
0
 42
0.0000001
 43
0.0000001
 44
0.0000000001
 40
0.0
 40
0.0
 40
0.0
 40
0.0
 40
0.1684584536
 40
0.2706019896
 40
0.3882030313
 40
0.6703773183
 40
1.0
 40
1.0
 40
1.0
 40
1.0
 10
6.6903074943
 20
4.235965984
 30
0.0
 10
6.6913373394
 20
4.2359647928
 30
0.0
 10
6.6929935852
 20
4.2366341278
 30
0.0
 10
6.694732492
 20
4.2382517873
 30
0.0
 10
6.6965531134
 20
4.2407472503
 30
0.0
 10
6.6982080095
 20
4.2449595002
 30
0.0
 10
6.6986644577
 20
4.248714672
 30
0.0
 10
6.6986644577
 20
4.2507297713
 30
0.0
  0
SPLINE
  5
31E
100
AcDbEntity
  8
0
100
AcDbSpline
 62
7
  6
CONTINUOUS
 70
0
 71
3
 72
12
 73
8
 74
0
 42
0.0000001
 43
0.0000001
 44
0.0000000001
 40
0.0
 40
0.0
 40
0.0
 40
0.0
 40
0.0355771158
 40
0.0980555386
 40
0.3132133665
 40
0.6284551907
 40
1.0
 40
1.0
 40
1.0
 40
1.0
 10
6.6574351454
 20
4.4328163857
 30
0.0
 10
6.6576168427
 20
4.4328163902
 30
0.0
 10
6.6580513312
 20
4.4331907884
 30
0.0
 10
6.6587109267
 20
4.4346170878
 30
0.0
 10
6.6594346305
 20
4.4376093139
 30
0.0
 10
6.6599935946
 20
4.4421676785
 30
0.0
 10
6.6601326631
 20
4.4456826329
 30
0.0
 10
6.6601326631
 20
4.447580165
 30
0.0
  0
SPLINE
  5
31F
100
AcDbEntity
  8
0
100
AcDbSpline
 62
7
  6
CONTINUOUS
 70
0
 71
3
 72
12
 73
8
 74
0
 42
0.0000001
 43
0.0000001
 44
0.0000000001
 40
0.0
 40
0.0
 40
0.0
 40
0.0
 40
0.0355771158
 40
0.0980555386
 40
0.3132133665
 40
0.6284551907
 40
1.0
 40
1.0
 40
1.0
 40
1.0
 10
6.6574351454
 20
4.0194305589
 30
0.0
 10
6.6576168427
 20
4.0194305634
 30
0.0
 10
6.6580513312
 20
4.0198049617
 30
0.0
 10
6.6587109267
 20
4.021231261
 30
0.0
 10
6.6594346305
 20
4.0242234871
 30
0.0
 10
6.6599935946
 20
4.0287818518
 30
0.0
 10
6.6601326631
 20
4.0322968061
 30
0.0
 10
6.6601326631
 20
4.0341943383
 30
0.0
  0
SPLINE
  5
320
100
AcDbEntity
  8
0
100
AcDbSpline
 62
7
  6
CONTINUOUS
 70
0
 71
3
 72
12
 73
8
 74
0
 42
0.0000001
 43
0.0000001
 44
0.0000000001
 40
0.0
 40
0.0
 40
0.0
 40
0.0
 40
0.0363492455
 40
0.0991851584
 40
0.3143103148
 40
0.6290737138
 40
1.0
 40
1.0
 40
1.0
 40
1.0
 10
6.6674042193
 20
3.9505329162
 30
0.0
 10
6.6675902523
 20
3.9505329872
 30
0.0
 10
6.6680362531
 20
3.9501644099
 30
0.0
 10
6.6687230288
 20
3.9487364332
 30
0.0
 10
6.6694669419
 20
3.9457450465
 30
0.0
 10
6.6700501432
 20
3.9411843305
 30
0.0
 10
6.6701917275
 20
3.9376675178
 30
0.0
 10
6.6701917275
 20
3.9357691414
 30
0.0
  0
SPLINE
  5
321
100
AcDbEntity
  8
0
100
AcDbSpline
 62
7
  6
CONTINUOUS
 70
0
 71
3
 72
12
 73
8
 74
0
 42
0.0000001
 43
0.0000001
 44
0.0000000001
 40
0.0
 40
0.0
 40
0.0
 40
0.0
 40
0.0363492455
 40
0.0991851584
 40
0.3143103148
 40
0.6290737138
 40
1.0
 40
1.0
 40
1.0
 40
1.0
 10
6.6674042193
 20
4.4623439398
 30
0.0
 10
6.6675902523
 20
4.4623440109
 30
0.0
 10
6.6680362531
 20
4.4619754335
 30
0.0
 10
6.6687230288
 20
4.4605474568
 30
0.0
 10
6.6694669419
 20
4.4575560701
 30
0.0
 10
6.6700501432
 20
4.4529953541
 30
0.0
 10
6.6701917275
 20
4.4494785414
 30
0.0
 10
6.6701917275
 20
4.447580165
 30
0.0
  0
SPLINE
  5
322
100
AcDbEntity
  8
0
100
AcDbSpline
 62
7
  6
CONTINUOUS
 70
0
 71
3
 72
21
 73
17
 74
0
 42
0.0000001
 43
0.0000001
 44
0.0000000001
 40
0.0
 40
0.0
 40
0.0
 40
0.0
 40
0.1944272291
 40
0.3814310686
 40
0.5538500458
 40
0.7052937747
 40
0.771276168
 40
0.829939951
 40
0.8807045249
 40
0.9230357069
 40
0.9564211509
 40
0.9805233416
 40
0.9890197065
 40
0.9951076531
 40
0.9987697035
 40
1.0
 40
1.0
 40
1.0
 40
1.0
 10
7.4333235037
 20
1.8733281965
 30
0.0
 10
7.4333235037
 20
1.8678131234
 30
0.0
 10
7.4335154546
 20
1.8569925255
 30
0.0
 10
7.4343436749
 20
1.8413010939
 30
0.0
 10
7.4355754849
 20
1.8268601582
 30
0.0
 10
7.4368293472
 20
1.8158718048
 30
0.0
 10
7.4378673565
 20
1.8081092646
 30
0.0
 10
7.4385799037
 20
1.8031847962
 30
0.0
 10
7.4392345831
 20
1.7989300804
 30
0.0
 10
7.4398099953
 20
1.7953886506
 30
0.0
 10
7.4402784955
 20
1.7925965273
 30
0.0
 10
7.4406043084
 20
1.7907527493
 30
0.0
 10
7.4407889032
 20
1.7896719019
 30
0.0
 10
7.4408910478
 20
1.7891628622
 30
0.0
 10
7.4409251853
 20
1.7888552631
 30
0.0
 10
7.4409704239
 20
1.7887195657
 30
0.0
 10
7.4409676487
 20
1.7886847779
 30
0.0
  0
SPLINE
  5
323
100
AcDbEntity
  8
0
100
AcDbSpline
 62
7
  6
CONTINUOUS
 70
0
 71
3
 72
10
 73
6
 74
0
 42
0.0000001
 43
0.0000001
 44
0.0000000001
 40
0.0
 40
0.0
 40
0.0
 40
0.0
 40
0.5785160779
 40
0.826584916
 40
1.0
 40
1.0
 40
1.0
 40
1.0
 10
7.4375640924
 20
1.1850984088
 30
0.0
 10
7.4371438367
 20
1.1707150634
 30
0.0
 10
7.4372853086
 20
1.1501283383
 30
0.0
 10
7.4388855431
 20
1.1253044029
 30
0.0
 10
7.4398530286
 20
1.1148632882
 30
0.0
 10
7.440343644
 20
1.1105779117
 30
0.0
  0
LINE
  5
324
100
AcDbEntity
  8
0
100
AcDbLine
 62
7
  6
CONTINUOUS
 10
7.440343644
 20
1.1105779117
 11
7.44093902
 21
1.1062795064
  0
SPLINE
  5
325
100
AcDbEntity
  8
0
100
AcDbSpline
 62
7
  6
CONTINUOUS
 70
0
 71
3
 72
10
 73
6
 74
0
 42
0.0000001
 43
0.0000001
 44
0.0000000001
 40
0.0
 40
0.0
 40
0.0
 40
0.0
 40
0.1361243093
 40
0.3529757492
 40
1.0
 40
1.0
 40
1.0
 40
1.0
 10
7.4405972504
 20
1.2103338053
 30
0.0
 10
7.4403746879
 20
1.2092018591
 30
0.0
 10
7.4399082313
 20
1.2062458944
 30
0.0
 10
7.4387322719
 20
1.1978536119
 30
0.0
 10
7.437999486
 20
1.1905644614
 30
0.0
 10
7.4375640924
 20
1.1850984088
 30
0.0
  0
LINE
  5
326
100
AcDbEntity
  8
0
100
AcDbLine
 62
7
  6
CONTINUOUS
 10
7.4409681953
 20
1.2138789947
 11
7.4407399654
 21
1.2117270805
  0
LINE
  5
327
100
AcDbEntity
  8
0
100
AcDbLine
 62
7
  6
CONTINUOUS
 10
7.4409676495
 20
2.4658456055
 11
7.4406783612
 21
2.4642174675
  0
SPLINE
  5
328
100
AcDbEntity
  8
0
100
AcDbSpline
 62
7
  6
CONTINUOUS
 70
0
 71
3
 72
9
 73
5
 74
0
 42
0.0000001
 43
0.0000001
 44
0.0000000001
 40
0.0
 40
0.0
 40
0.0
 40
0.0
 40
0.1267890765
 40
1.0
 40
1.0
 40
1.0
 40
1.0
 10
7.4406783612
 20
2.4642174675
 30
0.0
 10
7.4400676876
 20
2.460747125
 30
0.0
 10
7.4355431128
 20
2.4333294682
 30
0.0
 10
7.4333235037
 20
2.4054700823
 30
0.0
 10
7.4333235037
 20
2.3812022123
 30
0.0
  0
LINE
  5
329
100
AcDbEntity
  8
0
100
AcDbLine
 62
7
  6
CONTINUOUS
 10
7.4409677909
 20
1.1064935976
 11
7.4406345961
 21
1.1118998727
  0
LINE
  5
32A
100
AcDbEntity
  8
0
100
AcDbLine
 62
7
  6
CONTINUOUS
 10
7.44093902
 20
1.1062795064
 11
7.4409677909
 21
1.1064935976
  0
SPLINE
  5
32B
100
AcDbEntity
  8
0
100
AcDbSpline
 62
7
  6
CONTINUOUS
 70
0
 71
3
 72
9
 73
5
 74
0
 42
0.0000001
 43
0.0000001
 44
0.0000000001
 40
0.0
 40
0.0
 40
0.0
 40
0.0
 40
0.4994065424
 40
1.0
 40
1.0
 40
1.0
 40
1.0
 10
7.2715656133
 20
4.1142904225
 30
0.0
 10
7.2662542609
 20
4.0913714372
 30
0.0
 10
7.2603884875
 20
4.0441414688
 30
0.0
 10
7.2662176542
 20
3.9969034606
 30
0.0
 10
7.2715320629
 20
3.9739277899
 30
0.0
  0
LINE
  5
32C
100
AcDbEntity
  8
0
100
AcDbLine
 62
7
  6
CONTINUOUS
 10
7.2756138646
 20
4.6739581178
 11
7.274838538
 21
4.6769989656
  0
SPLINE
  5
32D
100
AcDbEntity
  8
0
100
AcDbSpline
 62
7
  6
CONTINUOUS
 70
0
 71
3
 72
10
 73
6
 74
0
 42
0.0000001
 43
0.0000001
 44
0.0000000001
 40
0.0
 40
0.0
 40
0.0
 40
0.0
 40
0.2037876938
 40
0.537986905
 40
1.0
 40
1.0
 40
1.0
 40
1.0
 10
7.274838538
 20
4.6769989656
 30
0.0
 10
7.2722736915
 20
4.6872481451
 30
0.0
 10
7.2667093833
 20
4.7146242094
 30
0.0
 10
7.2632929521
 20
4.7666132549
 30
0.0
 10
7.2695008555
 20
4.8078918584
 30
0.0
 10
7.2755192455
 20
4.8310761878
 30
0.0
  0
LINE
  5
32E
100
AcDbEntity
  8
0
100
AcDbLine
 62
7
  6
CONTINUOUS
 10
7.2755192455
 20
4.8310761878
 11
7.2756138646
 21
4.8314384327
  0
SPLINE
  5
32F
100
AcDbEntity
  8
0
100
AcDbSpline
 62
7
  6
CONTINUOUS
 70
0
 71
3
 72
9
 73
5
 74
0
 42
0.0000001
 43
0.0000001
 44
0.0000000001
 40
0.0
 40
0.0
 40
0.0
 40
0.0
 40
0.4994065424
 40
1.0
 40
1.0
 40
1.0
 40
1.0
 10
7.2715656133
 20
4.8229518398
 30
0.0
 10
7.2662542609
 20
4.8000328545
 30
0.0
 10
7.2603884875
 20
4.7528028861
 30
0.0
 10
7.2662176542
 20
4.7055648779
 30
0.0
 10
7.2715320629
 20
4.6825892072
 30
0.0
  0
LINE
  5
330
100
AcDbEntity
  8
0
100
AcDbLine
 62
7
  6
CONTINUOUS
 10
7.2756138646
 20
3.9652967005
 11
7.2748385379
 21
3.9683375489
  0
SPLINE
  5
331
100
AcDbEntity
  8
0
100
AcDbSpline
 62
7
  6
CONTINUOUS
 70
0
 71
3
 72
10
 73
6
 74
0
 42
0.0000001
 43
0.0000001
 44
0.0000000001
 40
0.0
 40
0.0
 40
0.0
 40
0.0
 40
0.2037876995
 40
0.5379869104
 40
1.0
 40
1.0
 40
1.0
 40
1.0
 10
7.2748385379
 20
3.9683375489
 30
0.0
 10
7.2722736914
 20
3.9785867286
 30
0.0
 10
7.2667093831
 20
4.0059627931
 30
0.0
 10
7.2632929522
 20
4.0579518385
 30
0.0
 10
7.2695008556
 20
4.0992304414
 30
0.0
 10
7.2755192455
 20
4.1224147704
 30
0.0
  0
LINE
  5
332
100
AcDbEntity
  8
0
100
AcDbLine
 62
7
  6
CONTINUOUS
 10
7.2755192455
 20
4.1224147704
 11
7.2756138646
 21
4.1227770154
  0
ENDSEC
  0
SECTION
  2
OBJECTS
  0
DICTIONARY
  5
C
100
AcDbDictionary
280
0
281
1
  3
ACAD_GROUP
350
D
  3
ACAD_MLINESTYLE
350
17
  3
ACAD_LAYOUT
350
1A
  3
ACAD_PLOTSETTINGS
350
19
  3
ACAD_PLOTSTYLENAME
350
E
  0
DICTIONARY
  5
D
102
{ACAD_REACTORS
330
C
102
}
100
AcDbDictionary
280
0
281
1
  0
ACDBDICTIONARYWDFLT
  5
E
102
{ACAD_REACTORS
330
C
102
}
100
AcDbDictionary
281
1
  3
Normal
350
F
100
AcDbDictionaryWithDefault
340
F
  0
DICTIONARY
  5
17
102
{ACAD_REACTORS
330
C
102
}
100
AcDbDictionary
280
0
281
1
  3
Standard
350
18
  0
DICTIONARY
  5
19
102
{ACAD_REACTORS
330
C
102
}
100
AcDbDictionary
281
1
  0
DICTIONARY
  5
1A
102
{ACAD_REACTORS
330
C
102
}
100
AcDbDictionary
281
1
  3
Model
350
333
  3
Layout1
350
334
  0
ACDBPLACEHOLDER
  5
F
102
{ACAD_REACTORS
330
E
102
}
  0
MLINESTYLE
  5
18
102
{ACAD_REACTORS
330
17
102
}
100
AcDbMlineStyle
  2
STANDARD
 70
0
  3

 62
256
 51
90.0
 52
90.0
 71
2
 49
0.5
 62
256
  6
BYLAYER
 49
-0.5
 62
256
  6
BYLAYER
  0
LAYOUT
  5
333
102
{ACAD_REACTORS
330
1A
102
}
100
AcDbPlotSettings
  1

  2
none_device
  4
ANSI_A_(11.00_x_8.50_Inches)
  6

 40
0.0
 41
0.0
 42
0.0
 43
0.0
 44
279.4
 45
215.9
 46
0.0
 47
0.0
 48
0.0
 49
0.0
140
0.0
141
0.0
142
1.0
143
1.0
 70
1024
 72
0
 73
0
 74
0
  7

 75
0
147
1.0
148
0.0
149
0.0
100
AcDbLayout
  1
Model
 70
0
 71
0
 10
0.0
 20
0.0
 11
11.0
 21
8.5
 12
0.0
 22
0.0
 32
0.0
 14
0.0
 24
0.0
 34
0.0
 15
0.0
 25
0.0
 35
0.0
146
0.0
 13
0.0
 23
0.0
 33
0.0
 16
1.0
 26
0.0
 36
0.0
 17
0.0
 27
1.0
 37
0.0
 76
0
330
20C
345
0
346
0
  0
LAYOUT
  5
334
102
{ACAD_REACTORS
330
1A
102
}
100
AcDbPlotSettings
  1

  2
none_device
  4
ANSI_A_(11.00_x_8.50_Inches)
  6

 40
0.0
 41
0.0
 42
0.0
 43
0.0
 44
279.4
 45
215.9
 46
0.0
 47
0.0
 48
0.0
 49
0.0
140
0.0
141
0.0
142
1.0
143
1.0
 70
0
 72
0
 73
0
 74
0
  7

 75
0
147
1.0
148
0.0
149
0.0
100
AcDbLayout
  1
Layout1
 70
0
 71
1
 10
0.0
 20
0.0
 11
11.0
 21
8.5
 12
0.0
 22
0.0
 32
0.0
 14
0.0
 24
0.0
 34
0.0
 15
0.0
 25
0.0
 35
0.0
146
0.0
 13
0.0
 23
0.0
 33
0.0
 16
1.0
 26
0.0
 36
0.0
 17
0.0
 27
1.0
 37
0.0
 76
0
330
20D
345
0
346
0
  0
ENDSEC
  0
EOF
