999
DXF file: 3-8207_top.dxf
999
Pro/ENGINEER 2013150 by Parametric Technology Corporation
  0
SECTION
  2
HEADER
  9
$ACADVER
  1
AC1021
  9
$DWGCODEPAGE
  3
ANSI_1252
  9
$EXTMAX
 10
11.0
 20
8.5
 30
0.0
  9
$EXTMIN
 10
0.0
 20
0.0
 30
0.0
  9
$LIMMIN
 10
0.0
 20
0.0
  9
$LIMMAX
 10
11.0
 20
8.5
  9
$VIEWCTR
 10
5.5
 20
4.25
  9
$VIEWSIZE
 40
8.5
  9
$CLAYER
  8
0
  9
$LTSCALE
 40
0.605
  9
$CELTYPE
  6
BYLAYER
  9
$DIMSCALE
 40
1.0
  9
$DIMASZ
 40
0.1
  9
$DIMEXO
 40
0.0625
  9
$DIMDLI
 40
0.418
  9
$DIMEXE
 40
0.125
  9
$DIMCEN
 40
0.099
  9
$DIMLFAC
 40
1.0
  9
$DIMBLK
  1
_FILLED
  9
$DIMTXT
 40
0.08
  9
$DIMTOL
 70
1
  9
$DIMLIM
 70
0
  9
$DIMTFAC
 40
1.0
  9
$DIMTP
 40
0.001
  9
$DIMTM
 40
0.001
  9
$DIMGAP
 40
0.09
  9
$DIMDSEP
 70
46
  9
$PDMODE
 70
3
  9
$PDSIZE
 40
0.06
  9
$HANDSEED
  5
270
  9
$TILEMODE
 70
1
  9
$MEASUREMENT
 70
0
  9
$INSUNITS
 70
1
  0
ENDSEC
  0
SECTION
  2
CLASSES
  0
CLASS
  1
ACDBDICTIONARYWDFLT
  2
AcDbDictionaryWithDefault
  3
AutoCAD 2000
 90
0
 91
1
280
0
281
0
  0
CLASS
  1
ACDBPLACEHOLDER
  2
AcDbPlaceHolder
  3
AutoCAD 2000
 90
0
 91
1
280
0
281
0
  0
CLASS
  1
LAYOUT
  2
AcDbLayout
  3
AutoCAD 2000
 90
0
 91
0
280
0
281
0
  0
ENDSEC
  0
SECTION
  2
TABLES
  0
TABLE
  2
VPORT
  5
8
100
AcDbSymbolTable
 70
2
  0
VPORT
  5
1F4
100
AcDbSymbolTableRecord
100
AcDbViewportTableRecord
  2
*ACTIVE
 70
0
 10
0.0
 20
0.0
 11
1.0
 21
1.0
 12
5.5
 22
4.25
 13
0.0
 23
0.0
 14
1.0
 24
1.0
 15
0.0
 25
0.0
 16
0.0
 26
0.0
 36
1.0
 17
0.0
 27
0.0
 37
0.0
 40
8.5
 41
1.2941176471
 42
50.0
 43
0.0
 44
0.0
 50
0.0
 51
0.0
 71
0
 72
100
 73
1
 74
1
 75
0
 76
0
 77
0
 78
0
  0
ENDTAB
  0
TABLE
  2
LTYPE
  5
5
100
AcDbSymbolTable
 70
6
  0
LTYPE
  5
14
100
AcDbSymbolTableRecord
100
AcDbLinetypeTableRecord
  2
BYBLOCK
 70
0
  3

 72
65
 73
0
 40
0.0
  0
LTYPE
  5
15
100
AcDbSymbolTableRecord
100
AcDbLinetypeTableRecord
  2
BYLAYER
 70
0
  3

 72
65
 73
0
 40
0.0
  0
LTYPE
  5
16
100
AcDbSymbolTableRecord
100
AcDbLinetypeTableRecord
  2
CONTINUOUS
 70
64
  3
Solid line
 72
65
 73
0
 40
0.0
  0
LTYPE
  5
1F5
100
AcDbSymbolTableRecord
100
AcDbLinetypeTableRecord
  2
CENTER
 70
64
  3
____ _ ____ _ ____ _ ____ _ ____ _ ____ _ ____
 72
65
 73
4
 40
0.6
 49
0.375
 74
0
 49
-0.075
 74
0
 49
0.075
 74
0
 49
-0.075
 74
0
  0
LTYPE
  5
1F6
100
AcDbSymbolTableRecord
100
AcDbLinetypeTableRecord
  2
HIDDEN
 70
64
  3
- - - - - - - - - - - - - - - - - - - -
 72
65
 73
2
 40
0.2
 49
0.1
 74
0
 49
-0.1
 74
0
  0
LTYPE
  5
1F7
100
AcDbSymbolTableRecord
100
AcDbLinetypeTableRecord
  2
PHANTOM
 70
64
  3
_____ _ _ _____ _ _ _____ _ _ _____
 72
65
 73
6
 40
0.8
 49
0.45
 74
0
 49
-0.05
 74
0
 49
0.1
 74
0
 49
-0.05
 74
0
 49
0.1
 74
0
 49
-0.05
 74
0
  0
LTYPE
  5
1F8
100
AcDbSymbolTableRecord
100
AcDbLinetypeTableRecord
  2
DOT
 70
64
  3
. . . . . . . . . . . . . . . . . . . .
 72
65
 73
2
 40
0.2
 49
0.1
 74
0
 49
-0.1
 74
0
  0
LTYPE
  5
1F9
100
AcDbSymbolTableRecord
100
AcDbLinetypeTableRecord
  2
DASHED
 70
64
  3
- - - - - - - - - - - - - - - - - - - -
 72
65
 73
2
 40
0.2
 49
0.1
 74
0
 49
-0.1
 74
0
  0
ENDTAB
  0
TABLE
  2
LAYER
  5
2
100
AcDbSymbolTable
 70
36
  0
LAYER
  5
10
100
AcDbSymbolTableRecord
100
AcDbLayerTableRecord
  2
0
 70
0
 62
7
  6
CONTINUOUS
370
-3
390
F
  0
LAYER
  5
1FA
100
AcDbSymbolTableRecord
100
AcDbLayerTableRecord
  2
DEFAULT_1
 70
0
 62
7
  6
CENTER
370
-3
390
F
  0
LAYER
  5
1FB
100
AcDbSymbolTableRecord
100
AcDbLayerTableRecord
  2
DEFAULT_2
 70
0
 62
8
  6
HIDDEN
370
-3
390
F
  0
LAYER
  5
1FC
100
AcDbSymbolTableRecord
100
AcDbLayerTableRecord
  2
DEFAULT_3
 70
0
 62
7
  6
PHANTOM
370
-3
390
F
  0
LAYER
  5
1FD
100
AcDbSymbolTableRecord
100
AcDbLayerTableRecord
  2
ALL_FEATURES
 70
0
 62
7
  6
CONTINUOUS
370
-3
390
F
  0
LAYER
  5
1FE
100
AcDbSymbolTableRecord
100
AcDbLayerTableRecord
  2
AXES_FEATURES
 70
0
 62
7
  6
CONTINUOUS
370
-3
390
F
  0
LAYER
  5
1FF
100
AcDbSymbolTableRecord
100
AcDbLayerTableRecord
  2
CHAMFER_FEATURES
 70
0
 62
7
  6
CONTINUOUS
370
-3
390
F
  0
LAYER
  5
200
100
AcDbSymbolTableRecord
100
AcDbLayerTableRecord
  2
DEFAULT_COORDINATE_SYSTEM
 70
0
 62
7
  6
CONTINUOUS
370
-3
390
F
  0
LAYER
  5
201
100
AcDbSymbolTableRecord
100
AcDbLayerTableRecord
  2
DEFAULT_DATUM_AXES
 70
0
 62
7
  6
CONTINUOUS
370
-3
390
F
  0
LAYER
  5
202
100
AcDbSymbolTableRecord
100
AcDbLayerTableRecord
  2
DEFAULT_DATUM_PLANES
 70
0
 62
7
  6
CONTINUOUS
370
-3
390
F
  0
LAYER
  5
203
100
AcDbSymbolTableRecord
100
AcDbLayerTableRecord
  2
DEFAULT_SURFACES
 70
0
 62
7
  6
CONTINUOUS
370
-3
390
F
  0
LAYER
  5
204
100
AcDbSymbolTableRecord
100
AcDbLayerTableRecord
  2
DIMENSIONS
 70
0
 62
7
  6
CONTINUOUS
370
-3
390
F
  0
LAYER
  5
205
100
AcDbSymbolTableRecord
100
AcDbLayerTableRecord
  2
PROTRUSION_FEATURES
 70
0
 62
7
  6
CONTINUOUS
370
-3
390
F
  0
LAYER
  5
206
100
AcDbSymbolTableRecord
100
AcDbLayerTableRecord
  2
QUILTS
 70
0
 62
7
  6
CONTINUOUS
370
-3
390
F
  0
LAYER
  5
207
100
AcDbSymbolTableRecord
100
AcDbLayerTableRecord
  2
ROUND_FEATURES
 70
0
 62
7
  6
CONTINUOUS
370
-3
390
F
  0
LAYER
  5
208
100
AcDbSymbolTableRecord
100
AcDbLayerTableRecord
  2
WETTED_SURFACE_AREA
 70
0
 62
7
  6
CONTINUOUS
370
-3
390
F
  0
LAYER
  5
209
100
AcDbSymbolTableRecord
100
AcDbLayerTableRecord
  2
WHITE
 70
0
 62
7
  6
CONTINUOUS
370
-3
390
F
  0
ENDTAB
  0
TABLE
  2
STYLE
  5
3
100
AcDbSymbolTable
 70
1
  0
STYLE
  5
11
100
AcDbSymbolTableRecord
100
AcDbTextStyleTableRecord
  2
STANDARD
 70
0
 40
0.0
 41
0.8
 50
0.0
 71
0
 42
0.2
  3
txt
  4

  0
STYLE
  5
20A
100
AcDbSymbolTableRecord
100
AcDbTextStyleTableRecord
  2
TEXTSTYLE_1
 70
0
 40
0.0
 41
0.8
 50
0.0
 71
0
 42
0.2
  3
gdt
  4

  0
ENDTAB
  0
TABLE
  2
VIEW
  5
6
100
AcDbSymbolTable
 70
0
  0
ENDTAB
  0
TABLE
  2
UCS
  5
7
100
AcDbSymbolTable
 70
0
  0
ENDTAB
  0
TABLE
  2
APPID
  5
9
100
AcDbSymbolTable
 70
1
  0
APPID
  5
20B
100
AcDbSymbolTableRecord
100
AcDbRegAppTableRecord
  2
ACAD
 70
0
  0
ENDTAB
  0
TABLE
  2
BLOCK_RECORD
  5
1
100
AcDbSymbolTable
 70
0
  0
BLOCK_RECORD
  5
20C
100
AcDbSymbolTableRecord
100
AcDbBlockTableRecord
  2
*Model_Space
  0
BLOCK_RECORD
  5
20D
100
AcDbSymbolTableRecord
100
AcDbBlockTableRecord
  2
*Paper_Space
  0
ENDTAB
  0
TABLE
  2
DIMSTYLE
  5
A
100
AcDbSymbolTable
 70
1
100
AcDbDimStyleTable
 71
0
  0
DIMSTYLE
105
20E
100
AcDbSymbolTableRecord
100
AcDbDimStyleTableRecord
  2
STANDARD
 70
0
  3

  4

 40
1.0
 41
0.1
 42
0.0625
 43
0.38
 44
0.125
 45
0.0
 46
0.0
 47
0.001
 48
0.001
140
0.08
141
0.09
142
0.0
143
25.4
144
1.0
145
0.0
146
1.0
147
0.09
 71
1.0
 72
0.0
 73
1
 74
1
 75
0
 76
0
 77
0
 78
4
170
0
171
2
172
0
173
0
174
0
175
0
176
0
177
0
178
0
270
2
271
3
272
3
273
2
274
2
275
0
280
0
281
0
282
0
283
1
284
4
285
0
286
0
287
3
288
0
340
11
278
46
  0
ENDTAB
  0
ENDSEC
  0
SECTION
  2
BLOCKS
  0
BLOCK
  5
20
100
AcDbEntity
  8
0
100
AcDbBlockBegin
  2
*Model_Space
 70
0
 10
0.0
 20
0.0
 30
0.0
  3
*Model_Space
  1

  0
ENDBLK
  5
21
100
AcDbEntity
  8
0
100
AcDbBlockEnd
  0
BLOCK
  5
1C
100
AcDbEntity
  8
0
100
AcDbBlockBegin
  2
*Paper_Space
 70
0
 10
0.0
 20
0.0
 30
0.0
  3
*Paper_Space
  1

  0
ENDBLK
  5
1D
100
AcDbEntity
  8
0
100
AcDbBlockEnd
  0
ENDSEC
  0
SECTION
  2
ENTITIES
  0
LINE
  5
20F
100
AcDbEntity
  8
0
100
AcDbLine
 62
7
  6
CONTINUOUS
 10
0.0
 20
0.0
 11
0.0
 21
8.5
  0
LINE
  5
210
100
AcDbEntity
  8
0
100
AcDbLine
 62
7
  6
CONTINUOUS
 10
0.0
 20
0.0
 11
11.0
 21
0.0
  0
LINE
  5
211
100
AcDbEntity
  8
0
100
AcDbLine
 62
7
  6
CONTINUOUS
 10
0.0
 20
8.5
 11
11.0
 21
8.5
  0
LINE
  5
212
100
AcDbEntity
  8
0
100
AcDbLine
 62
7
  6
CONTINUOUS
 10
11.0
 20
0.0
 11
11.0
 21
8.5
  0
LINE
  5
213
100
AcDbEntity
  8
0
100
AcDbLine
 62
7
  6
CONTINUOUS
 10
1.5256119217
 20
5.2699764026
 11
1.5256119217
 21
5.0731342397
  0
LINE
  5
214
100
AcDbEntity
  8
0
100
AcDbLine
 62
9
  6
CONTINUOUS
 10
1.5354544414
 20
5.2798230377
 11
1.5354544414
 21
5.0632876046
  0
LWPOLYLINE
  5
215
100
AcDbEntity
  8
0
100
AcDbPolyline
 62
7
  6
CONTINUOUS
 90
12
 70
0
 10
2.2524088256
 20
5.2866077285
 10
2.2519674914
 20
5.2854926301
 10
2.2513845079
 20
5.2844246563
 10
2.2506689204
 20
5.2834303092
 10
2.2498435885
 20
5.2825403985
 10
2.2489234866
 20
5.2817651321
 10
2.2479063943
 20
5.2811026619
 10
2.2468167104
 20
5.2805709254
 10
2.2456782961
 20
5.2801795221
 10
2.244484888
 20
5.2799276983
 10
2.243255667
 20
5.2798251172
 10
2.2430533525
 20
5.2798230377
  0
LINE
  5
216
100
AcDbEntity
  8
0
100
AcDbLine
 62
7
  6
CONTINUOUS
 10
4.3720686146
 20
1.6583358655
 11
4.3720686146
 21
5.1715553211
  0
LINE
  5
217
100
AcDbEntity
  8
0
100
AcDbLine
 62
7
  6
CONTINUOUS
 10
4.5295489295
 20
6.1518702818
 11
4.5295489295
 21
5.6372641879
  0
LINE
  5
218
100
AcDbEntity
  8
0
100
AcDbLine
 62
7
  6
CONTINUOUS
 10
4.6870292445
 20
6.1518702818
 11
4.6870292445
 21
5.6372998645
  0
LINE
  5
219
100
AcDbEntity
  8
0
100
AcDbLine
 62
7
  6
CONTINUOUS
 10
4.8445095595
 20
1.6583358655
 11
4.8445095595
 21
5.1715553211
  0
LWPOLYLINE
  5
21A
100
AcDbEntity
  8
0
100
AcDbPolyline
 62
7
  6
CONTINUOUS
 90
12
 70
0
 10
6.9641693485
 20
5.0565029137
 10
6.9646106827
 20
5.0576180121
 10
6.9651936662
 20
5.0586859859
 10
6.9659092537
 20
5.059680333
 10
6.9667345856
 20
5.0605702438
 10
6.9676546875
 20
5.0613455102
 10
6.9686717797
 20
5.0620079804
 10
6.9697614637
 20
5.0625397169
 10
6.970899878
 20
5.0629311202
 10
6.972093286
 20
5.063182944
 10
6.9733225071
 20
5.0632855251
 10
6.9735248216
 20
5.0632876046
  0
LINE
  5
21B
100
AcDbEntity
  8
0
100
AcDbLine
 62
7
  6
CONTINUOUS
 10
2.2428488504
 20
5.0632876046
 11
1.5354544414
 21
5.0632876046
  0
LINE
  5
21C
100
AcDbEntity
  8
0
100
AcDbLine
 62
7
  6
CONTINUOUS
 10
6.9737292536
 20
5.0632876046
 11
7.6811237327
 21
5.0632876046
  0
LWPOLYLINE
  5
21D
100
AcDbEntity
  8
0
100
AcDbPolyline
 62
7
  6
CONTINUOUS
 90
12
 70
0
 10
2.2430533525
 20
5.0632876046
 10
2.2432556821
 20
5.0632855248
 10
2.244484912
 20
5.0631829405
 10
2.2456783279
 20
5.0629311114
 10
2.2468167487
 20
5.062539701
 10
2.247906438
 20
5.0620079556
 10
2.2489235341
 20
5.0613454749
 10
2.2498436377
 20
5.0605701969
 10
2.2506689691
 20
5.0596802735
 10
2.2513845537
 20
5.058685913
 10
2.2519675316
 20
5.0576179261
 10
2.2524088577
 20
5.0565028155
  0
LINE
  5
21E
100
AcDbEntity
  8
0
100
AcDbLine
 62
7
  6
CONTINUOUS
 10
9.4181983479
 20
5.1640553211
 11
9.4131616727
 21
5.1640553211
  0
LINE
  5
21F
100
AcDbEntity
  8
0
100
AcDbLine
 62
7
  6
CONTINUOUS
 10
9.4134056098
 20
5.1705710692
 11
8.8031725643
 21
5.1705710692
  0
LINE
  5
220
100
AcDbEntity
  8
0
100
AcDbLine
 62
9
  6
CONTINUOUS
 10
2.2244309976
 20
5.1715553288
 11
2.2342734883
 21
5.1715553229
  0
LINE
  5
221
100
AcDbEntity
  8
0
100
AcDbLine
 62
9
  6
CONTINUOUS
 10
6.9921471764
 20
5.1715553135
 11
6.9823046857
 21
5.1715553194
  0
LINE
  5
222
100
AcDbEntity
  8
0
100
AcDbLine
 62
7
  6
CONTINUOUS
 10
9.4134056098
 20
5.1725395731
 11
8.8031725643
 21
5.1725395731
  0
LINE
  5
223
100
AcDbEntity
  8
0
100
AcDbLine
 62
7
  6
CONTINUOUS
 10
9.4181983479
 20
5.1790553211
 11
9.4131616727
 21
5.1790553211
  0
LINE
  5
224
100
AcDbEntity
  8
0
100
AcDbLine
 62
7
  6
CONTINUOUS
 10
2.2428489205
 20
5.2798230377
 11
1.5354544414
 21
5.2798230377
  0
LINE
  5
225
100
AcDbEntity
  8
0
100
AcDbLine
 62
7
  6
CONTINUOUS
 10
6.9737293236
 20
5.2798230377
 11
7.6811237327
 21
5.2798230377
  0
LWPOLYLINE
  5
226
100
AcDbEntity
  8
0
100
AcDbPolyline
 62
7
  6
CONTINUOUS
 90
12
 70
0
 10
6.9735248216
 20
5.2798230377
 10
6.9733224919
 20
5.2798251175
 10
6.9720932621
 20
5.2799277018
 10
6.9708998462
 20
5.2801795309
 10
6.9697614254
 20
5.2805709412
 10
6.968671736
 20
5.2811026867
 10
6.96765464
 20
5.2817651674
 10
6.9667345364
 20
5.2825404454
 10
6.9659092049
 20
5.2834303688
 10
6.9651936203
 20
5.2844247292
 10
6.9646106424
 20
5.2854927161
 10
6.9641693164
 20
5.2866078268
  0
LINE
  5
227
100
AcDbEntity
  8
0
100
AcDbLine
 62
9
  6
CONTINUOUS
 10
7.6811237327
 20
5.0632876046
 11
7.6811237327
 21
5.2798230377
  0
LINE
  5
228
100
AcDbEntity
  8
0
100
AcDbLine
 62
7
  6
CONTINUOUS
 10
7.6909662524
 20
5.269980518
 11
7.6909662524
 21
5.0731301243
  0
LINE
  5
229
100
AcDbEntity
  8
0
100
AcDbLine
 62
9
  6
CONTINUOUS
 10
4.6870292445
 20
6.1518702818
 11
4.5295489295
 21
6.1518702818
  0
LINE
  5
22A
100
AcDbEntity
  8
0
100
AcDbLine
 62
7
  6
CONTINUOUS
 10
4.6830896675
 20
6.1558072896
 11
4.5334859374
 21
6.1558072896
  0
LINE
  5
22B
100
AcDbEntity
  8
0
100
AcDbLine
 62
7
  6
CONTINUOUS
 10
9.1870294284
 20
5.4663383258
 11
9.1875374306
 21
5.4682401516
  0
LINE
  5
22C
100
AcDbEntity
  8
0
100
AcDbLine
 62
7
  6
CONTINUOUS
 10
8.9458875122
 20
4.9132477725
 11
8.9458875122
 21
4.9016925284
  0
LINE
  5
22D
100
AcDbEntity
  8
0
100
AcDbLine
 62
7
  6
CONTINUOUS
 10
8.9754150713
 20
4.8968890561
 11
8.9754150713
 21
4.8859950047
  0
LINE
  5
22E
100
AcDbEntity
  8
0
100
AcDbLine
 62
7
  6
CONTINUOUS
 10
9.0443127091
 20
4.8732197982
 11
9.0443127091
 21
4.8631607339
  0
LINE
  5
22F
100
AcDbEntity
  8
0
100
AcDbLine
 62
7
  6
CONTINUOUS
 10
9.0738402681
 20
4.8683881394
 11
9.0738402681
 21
4.8584842792
  0
LINE
  5
230
100
AcDbEntity
  8
0
100
AcDbLine
 62
9
  6
CONTINUOUS
 10
9.108289087
 20
5.4786419353
 11
9.108289087
 21
5.4766734314
  0
LINE
  5
231
100
AcDbEntity
  8
0
100
AcDbLine
 62
7
  6
CONTINUOUS
 10
9.1427379059
 20
4.8683881394
 11
9.1427379059
 21
4.8584842792
  0
LINE
  5
232
100
AcDbEntity
  8
0
100
AcDbLine
 62
7
  6
CONTINUOUS
 10
9.172265465
 20
4.8732197982
 11
9.172265465
 21
4.8631607339
  0
LINE
  5
233
100
AcDbEntity
  8
0
100
AcDbLine
 62
7
  6
CONTINUOUS
 10
9.2411631028
 20
4.8968890561
 11
9.2411631028
 21
4.8859950047
  0
LINE
  5
234
100
AcDbEntity
  8
0
100
AcDbLine
 62
7
  6
CONTINUOUS
 10
9.2706906618
 20
4.9132477725
 11
9.2706906618
 21
4.9016925284
  0
LINE
  5
235
100
AcDbEntity
  8
0
100
AcDbLine
 62
7
  6
CONTINUOUS
 10
9.0290393449
 20
5.468239778
 11
9.029547356
 21
5.4663379546
  0
ARC
  5
236
100
AcDbEntity
  8
0
100
AcDbCircle
 62
7
  6
CONTINUOUS
 10
4.6082893011
 20
1.6911791673
 40
0.2372826023
100
AcDbArc
 50
268.6982963476
 51
271.2991836743
  0
ARC
  5
237
100
AcDbEntity
  8
0
100
AcDbCircle
 62
7
  6
CONTINUOUS
 10
4.606854556
 20
1.6892522027
 40
0.2347851817
100
AcDbArc
 50
180.0074099908
 51
187.512292241
  0
ARC
  5
238
100
AcDbEntity
  8
0
100
AcDbCircle
 62
7
  6
CONTINUOUS
 10
4.6097721528
 20
1.6892492178
 40
0.2347366476
100
AcDbArc
 50
352.489176719
 51
359.9913562122
  0
ARC
  5
239
100
AcDbEntity
  8
0
100
AcDbCircle
 62
9
  6
CONTINUOUS
 10
4.6063596712
 20
1.7135917433
 40
0.2342910569
100
AcDbArc
 50
180.002809818
 51
184.3073953219
  0
ARC
  5
23A
100
AcDbEntity
  8
0
100
AcDbCircle
 62
7
  6
CONTINUOUS
 10
1.5354544414
 20
5.0731301243
 40
0.0098425197
100
AcDbArc
 50
180.0
 51
270.0
  0
ARC
  5
23B
100
AcDbEntity
  8
0
100
AcDbCircle
 62
7
  6
CONTINUOUS
 10
1.5354544414
 20
5.269980518
 40
0.0098425197
100
AcDbArc
 50
90.0
 51
180.0
  0
ARC
  5
23C
100
AcDbEntity
  8
0
100
AcDbCircle
 62
7
  6
CONTINUOUS
 10
2.608289087
 20
5.1715553211
 40
0.55
100
AcDbArc
 50
191.3556437658
 51
168.6443505237
  0
CIRCLE
  5
23D
100
AcDbEntity
  8
0
100
AcDbCircle
 62
7
  6
CONTINUOUS
 10
2.608289087
 20
5.1715553211
 40
0.374015748
  0
CIRCLE
  5
23E
100
AcDbEntity
  8
0
100
AcDbCircle
 62
9
  6
CONTINUOUS
 10
2.608289087
 20
5.1715553211
 40
0.3644760415
  0
ARC
  5
23F
100
AcDbEntity
  8
0
100
AcDbCircle
 62
7
  6
CONTINUOUS
 10
4.608289087
 20
5.1715553211
 40
0.6840551181
100
AcDbArc
 50
96.6115465757
 51
249.794377918
  0
ARC
  5
240
100
AcDbEntity
  8
0
100
AcDbCircle
 62
7
  6
CONTINUOUS
 10
4.608289087
 20
5.1715553211
 40
0.6840551181
100
AcDbArc
 50
290.205622082
 51
83.3884534243
  0
ARC
  5
241
100
AcDbEntity
  8
0
100
AcDbCircle
 62
9
  6
CONTINUOUS
 10
4.608289087
 20
5.1715553211
 40
0.6801181102
100
AcDbArc
 50
96.6502491111
 51
249.6723246286
  0
ARC
  5
242
100
AcDbEntity
  8
0
100
AcDbCircle
 62
9
  6
CONTINUOUS
 10
4.608289087
 20
5.1715553211
 40
0.6801181102
100
AcDbArc
 50
290.3279832346
 51
83.3497394963
  0
ARC
  5
243
100
AcDbEntity
  8
0
100
AcDbCircle
 62
9
  6
CONTINUOUS
 10
4.608289087
 20
5.1715553211
 40
0.4773622047
100
AcDbArc
 50
99.4952533003
 51
240.3309958185
  0
ARC
  5
244
100
AcDbEntity
  8
0
100
AcDbCircle
 62
9
  6
CONTINUOUS
 10
4.608289087
 20
5.1715553211
 40
0.4773622047
100
AcDbArc
 50
299.6690355455
 51
80.5048809713
  0
ARC
  5
245
100
AcDbEntity
  8
0
100
AcDbCircle
 62
7
  6
CONTINUOUS
 10
4.608289087
 20
5.1715553211
 40
0.4734251969
100
AcDbArc
 50
299.9415028807
 51
80.4232449253
  0
ARC
  5
246
100
AcDbEntity
  8
0
100
AcDbCircle
 62
7
  6
CONTINUOUS
 10
4.608289087
 20
5.1715553211
 40
0.4734251969
100
AcDbArc
 50
99.5758127941
 51
240.0585599143
  0
ARC
  5
247
100
AcDbEntity
  8
0
100
AcDbCircle
 62
7
  6
CONTINUOUS
 10
4.608289087
 20
5.1715553211
 40
0.4724409449
100
AcDbArc
 50
300.0020021071
 51
239.9990669973
  0
ARC
  5
248
100
AcDbEntity
  8
0
100
AcDbCircle
 62
9
  6
CONTINUOUS
 10
4.608289087
 20
5.1715553211
 40
0.2440944882
100
AcDbArc
 50
345.4201109642
 51
194.5032883706
  0
ARC
  5
249
100
AcDbEntity
  8
0
100
AcDbCircle
 62
7
  6
CONTINUOUS
 10
4.608289087
 20
5.1715553211
 40
0.2401574803
100
AcDbArc
 50
349.7075317955
 51
190.3243493878
  0
ARC
  5
24A
100
AcDbEntity
  8
0
100
AcDbCircle
 62
7
  6
CONTINUOUS
 10
4.608289087
 20
5.1715553211
 40
0.2362204724
100
AcDbArc
 50
0.0
 51
180.0
  0
ARC
  5
24B
100
AcDbEntity
  8
0
100
AcDbCircle
 62
7
  6
CONTINUOUS
 10
4.6830922366
 20
6.1518702818
 40
0.0039370079
100
AcDbArc
 50
0.0
 51
90.0002051538
  0
ARC
  5
24C
100
AcDbEntity
  8
0
100
AcDbCircle
 62
7
  6
CONTINUOUS
 10
4.5334859374
 20
6.1518702818
 40
0.0039370079
100
AcDbArc
 50
89.9997948462
 51
180.0
  0
ARC
  5
24D
100
AcDbEntity
  8
0
100
AcDbCircle
 62
7
  6
CONTINUOUS
 10
7.6811237327
 20
5.0731301243
 40
0.0098425197
100
AcDbArc
 50
270.0
 51
360.0
  0
ARC
  5
24E
100
AcDbEntity
  8
0
100
AcDbCircle
 62
7
  6
CONTINUOUS
 10
6.608289087
 20
5.1715553211
 40
0.55
100
AcDbArc
 50
11.3556437658
 51
348.6443505237
  0
CIRCLE
  5
24F
100
AcDbEntity
  8
0
100
AcDbCircle
 62
7
  6
CONTINUOUS
 10
6.608289087
 20
5.1715553211
 40
0.374015748
  0
CIRCLE
  5
250
100
AcDbEntity
  8
0
100
AcDbCircle
 62
9
  6
CONTINUOUS
 10
6.608289087
 20
5.1715553211
 40
0.3644760415
  0
ARC
  5
251
100
AcDbEntity
  8
0
100
AcDbCircle
 62
7
  6
CONTINUOUS
 10
7.6811237327
 20
5.269980518
 40
0.0098425197
100
AcDbArc
 50
0.0
 51
90.0
  0
CIRCLE
  5
252
100
AcDbEntity
  8
0
100
AcDbCircle
 62
7
  6
CONTINUOUS
 10
9.108289087
 20
5.1715553211
 40
0.5393700787
  0
CIRCLE
  5
253
100
AcDbEntity
  8
0
100
AcDbCircle
 62
9
  6
CONTINUOUS
 10
9.108289087
 20
5.1715553211
 40
0.5295275591
  0
ARC
  5
254
100
AcDbEntity
  8
0
100
AcDbCircle
 62
7
  6
CONTINUOUS
 10
9.108289087
 20
5.1715553211
 40
0.3149606299
100
AcDbArc
 50
294.9530207877
 51
301.0392400104
  0
ARC
  5
255
100
AcDbEntity
  8
0
100
AcDbCircle
 62
7
  6
CONTINUOUS
 10
9.108289087
 20
5.1715553211
 40
0.3149606299
100
AcDbArc
 50
276.2792883226
 51
281.7197603058
  0
ARC
  5
256
100
AcDbEntity
  8
0
100
AcDbCircle
 62
7
  6
CONTINUOUS
 10
9.108289087
 20
5.1715553211
 40
0.3149606299
100
AcDbArc
 50
238.9607599896
 51
245.0469792123
  0
ARC
  5
257
100
AcDbEntity
  8
0
100
AcDbCircle
 62
7
  6
CONTINUOUS
 10
9.108289087
 20
5.1715553211
 40
0.3149606299
100
AcDbArc
 50
258.2802396942
 51
263.7207116775
  0
ARC
  5
258
100
AcDbEntity
  8
0
100
AcDbCircle
 62
7
  6
CONTINUOUS
 10
9.108289087
 20
5.1715553211
 40
0.31125
100
AcDbArc
 50
281.864296191
 51
295.2768668324
  0
ARC
  5
259
100
AcDbEntity
  8
0
100
AcDbCircle
 62
7
  6
CONTINUOUS
 10
9.108289087
 20
5.1715553211
 40
0.31125
100
AcDbArc
 50
301.4551681309
 51
238.5448318691
  0
ARC
  5
25A
100
AcDbEntity
  8
0
100
AcDbCircle
 62
7
  6
CONTINUOUS
 10
9.108289087
 20
5.1715553211
 40
0.31125
100
AcDbArc
 50
244.7231331676
 51
258.135703809
  0
ARC
  5
25B
100
AcDbEntity
  8
0
100
AcDbCircle
 62
7
  6
CONTINUOUS
 10
9.108289087
 20
5.1715553211
 40
0.31125
100
AcDbArc
 50
263.6449376002
 51
276.3550623998
  0
ARC
  5
25C
100
AcDbEntity
  8
0
100
AcDbCircle
 62
7
  6
CONTINUOUS
 10
9.108289087
 20
5.1715553211
 40
0.31
100
AcDbArc
 50
1.3863234787
 51
238.396200509
  0
ARC
  5
25D
100
AcDbEntity
  8
0
100
AcDbCircle
 62
7
  6
CONTINUOUS
 10
9.108289087
 20
5.1715553211
 40
0.31
100
AcDbArc
 50
244.616959081
 51
258.0881975188
  0
ARC
  5
25E
100
AcDbEntity
  8
0
100
AcDbCircle
 62
7
  6
CONTINUOUS
 10
9.108289087
 20
5.1715553211
 40
0.31
100
AcDbArc
 50
263.6185791321
 51
276.3833144633
  0
ARC
  5
25F
100
AcDbEntity
  8
0
100
AcDbCircle
 62
7
  6
CONTINUOUS
 10
9.108289087
 20
5.1715553211
 40
0.31
100
AcDbArc
 50
281.9131567782
 51
295.3861186274
  0
ARC
  5
260
100
AcDbEntity
  8
0
100
AcDbCircle
 62
7
  6
CONTINUOUS
 10
9.108289087
 20
5.1715553211
 40
0.31
100
AcDbArc
 50
301.5955359589
 51
358.6136765213
  0
ARC
  5
261
100
AcDbEntity
  8
0
100
AcDbCircle
 62
7
  6
CONTINUOUS
 10
9.108289087
 20
5.1715553211
 40
0.3070866142
100
AcDbArc
 50
75.045338912
 51
104.9477369045
  0
ARC
  5
262
100
AcDbEntity
  8
0
100
AcDbCircle
 62
7
  6
CONTINUOUS
 10
9.108289087
 20
5.1715553211
 40
0.3051181102
100
AcDbArc
 50
180.0008359099
 51
179.8151745843
  0
SPLINE
  5
263
100
AcDbEntity
  8
0
100
AcDbSpline
 62
7
  6
CONTINUOUS
 70
0
 71
3
 72
29
 73
25
 74
0
 42
0.0000001
 43
0.0000001
 44
0.0000000001
 40
0.0
 40
0.0
 40
0.0
 40
0.0
 40
0.0623659306
 40
0.0935894452
 40
0.1248208755
 40
0.1872319076
 40
0.2496823841
 40
0.2809612826
 40
0.3122507154
 40
0.3435500953
 40
0.3748583662
 40
0.4374210267
 40
0.5000000137
 40
0.5625789997
 40
0.6251416572
 40
0.6564499261
 40
0.6877493036
 40
0.7190387338
 40
0.7503176296
 40
0.8127681009
 40
0.8751791285
 40
0.9064105571
 40
0.9376340704
 40
1.0
 40
1.0
 40
1.0
 40
1.0
 10
4.8445095595
 20
1.6583358655
 30
0.0
 10
4.8445095595
 20
1.6429543306
 30
0.0
 10
4.8422187091
 20
1.6197882316
 30
0.0
 10
4.8346983263
 20
1.5898992204
 30
0.0
 10
4.824276827
 20
1.5608716471
 30
0.0
 10
4.8059551538
 20
1.5267135279
 30
0.0
 10
4.7812947011
 20
1.496791393
 30
0.0
 10
4.7583772166
 20
1.4761015822
 30
0.0
 10
4.7397272181
 20
1.4623204966
 30
0.0
 10
4.7198106941
 20
1.4504287297
 30
0.0
 10
4.6918483765
 20
1.4372509307
 30
0.0
 10
4.6546562648
 20
1.4260065873
 30
0.0
 10
4.608289077
 20
1.4214620731
 30
0.0
 10
4.5619218904
 20
1.4260065914
 30
0.0
 10
4.5247297809
 20
1.4372509369
 30
0.0
 10
4.4967674659
 20
1.4504287369
 30
0.0
 10
4.4768509445
 20
1.4623205048
 30
0.0
 10
4.458200948
 20
1.4761015899
 30
0.0
 10
4.4352834663
 20
1.4967913999
 30
0.0
 10
4.410623017
 20
1.5267135336
 30
0.0
 10
4.3923013455
 20
1.5608716504
 30
0.0
 10
4.3818798473
 20
1.5898992221
 30
0.0
 10
4.3743594648
 20
1.6197882324
 30
0.0
 10
4.3720686146
 20
1.6429543308
 30
0.0
 10
4.3720686146
 20
1.6583358655
 30
0.0
  0
SPLINE
  5
264
100
AcDbEntity
  8
0
100
AcDbSpline
 62
7
  6
CONTINUOUS
 70
0
 71
3
 72
15
 73
11
 74
0
 42
0.0000001
 43
0.0000001
 44
0.0000000001
 40
0.0
 40
0.0
 40
0.0
 40
0.0
 40
0.124776934
 40
0.2495843116
 40
0.3744592809
 40
0.4994180259
 40
0.6244638792
 40
0.7495895222
 40
0.8747771612
 40
1.0
 40
1.0
 40
1.0
 40
1.0
 10
4.843916154
 20
1.6725552818
 30
0.0
 10
4.8428879353
 20
1.6581262041
 30
0.0
 10
4.8381402784
 20
1.6293846161
 30
0.0
 10
4.8232059124
 20
1.5883698044
 30
0.0
 10
4.8009644867
 20
1.5507715295
 30
0.0
 10
4.7721739907
 20
1.5178854128
 30
0.0
 10
4.737814146
 20
1.4908246247
 30
0.0
 10
4.6990492006
 20
1.4705087959
 30
0.0
 10
4.657215902
 20
1.4576272703
 30
0.0
 10
4.6281828603
 20
1.4542867226
 30
0.0
 10
4.6136692308
 20
1.4539575627
 30
0.0
  0
SPLINE
  5
265
100
AcDbEntity
  8
0
100
AcDbSpline
 62
7
  6
CONTINUOUS
 70
0
 71
3
 72
15
 73
11
 74
0
 42
0.0000001
 43
0.0000001
 44
0.0000000001
 40
0.0
 40
0.0
 40
0.0
 40
0.0
 40
0.1252234499
 40
0.2504113767
 40
0.3755370021
 40
0.5005823587
 40
0.6255402884
 40
0.7504146681
 40
0.8752217215
 40
1.0
 40
1.0
 40
1.0
 40
1.0
 10
4.6028985186
 20
1.4539577995
 30
0.0
 10
4.5883342272
 20
1.4542887493
 30
0.0
 10
4.5591997158
 20
1.4576517447
 30
0.0
 10
4.5172319665
 20
1.4706211639
 30
0.0
 10
4.4783641143
 20
1.4910730002
 30
0.0
 10
4.4439459175
 20
1.5183085642
 30
0.0
 10
4.4151516514
 20
1.5513957124
 30
0.0
 10
4.3929680891
 20
1.5892066909
 30
0.0
 10
4.3781564726
 20
1.6304296188
 30
0.0
 10
4.3735339772
 20
1.6592959857
 30
0.0
 10
4.3725779191
 20
1.6737807293
 30
0.0
  0
SPLINE
  5
266
100
AcDbEntity
  8
0
100
AcDbSpline
 62
9
  6
CONTINUOUS
 70
0
 71
3
 72
13
 73
9
 74
0
 42
0.0000001
 43
0.0000001
 44
0.0000000001
 40
0.0
 40
0.0
 40
0.0
 40
0.0
 40
0.0789063311
 40
0.1731547796
 40
0.2983345891
 40
0.4494483274
 40
0.6208540399
 40
1.0
 40
1.0
 40
1.0
 40
1.0
 10
2.2430533734
 20
5.2798230347
 30
0.0
 10
2.2420524308
 20
5.2770986263
 30
0.0
 10
2.240067685
 20
5.2710441285
 30
0.0
 10
2.2368249405
 20
5.260559963
 30
0.0
 10
2.2333286323
 20
5.2473808919
 30
0.0
 10
2.2298464448
 20
5.231277726
 30
0.0
 10
2.225742557
 20
5.2057870988
 30
0.0
 10
2.2244323715
 20
5.1855016901
 30
0.0
 10
2.2244310215
 20
5.171555321
 30
0.0
  0
SPLINE
  5
267
100
AcDbEntity
  8
0
100
AcDbSpline
 62
9
  6
CONTINUOUS
 70
0
 71
3
 72
17
 73
13
 74
0
 42
0.0000001
 43
0.0000001
 44
0.0000000001
 40
0.0
 40
0.0
 40
0.0
 40
0.0
 40
0.37919627
 40
0.5506200645
 40
0.7017432889
 40
0.8269219538
 40
0.8782182631
 40
0.9211593792
 40
0.9551627105
 40
0.9798537653
 40
0.9949085526
 40
1.0
 40
1.0
 40
1.0
 40
1.0
 10
2.2244309976
 20
5.1715553212
 30
0.0
 10
2.2244323001
 20
5.1576070178
 30
0.0
 10
2.2257422934
 20
5.1373187455
 30
0.0
 10
2.229848692
 20
5.1118257386
 30
0.0
 10
2.233327929
 20
5.0957203769
 30
0.0
 10
2.2364283462
 20
5.0840717884
 30
0.0
 10
2.2387375157
 20
5.0763378199
 30
0.0
 10
2.2401607057
 20
5.0718403261
 30
0.0
 10
2.2413195262
 20
5.0682858159
 30
0.0
 10
2.2422037361
 20
5.0657210112
 30
0.0
 10
2.2427241333
 20
5.0641561488
 30
0.0
 10
2.2429994634
 20
5.063466961
 30
0.0
 10
2.2430533728
 20
5.0632876046
 30
0.0
  0
SPLINE
  5
268
100
AcDbEntity
  8
0
100
AcDbSpline
 62
9
  6
CONTINUOUS
 70
0
 71
3
 72
13
 73
9
 74
0
 42
0.0000001
 43
0.0000001
 44
0.0000000001
 40
0.0
 40
0.0
 40
0.0
 40
0.0
 40
0.0789063311
 40
0.1731547796
 40
0.2983345891
 40
0.4494483274
 40
0.6208540399
 40
1.0
 40
1.0
 40
1.0
 40
1.0
 10
6.9735248007
 20
5.0632876076
 30
0.0
 10
6.9745257432
 20
5.0660120159
 30
0.0
 10
6.976510489
 20
5.0720665138
 30
0.0
 10
6.9797532336
 20
5.0825506793
 30
0.0
 10
6.9832495418
 20
5.0957297503
 30
0.0
 10
6.9867317293
 20
5.1118329163
 30
0.0
 10
6.990835617
 20
5.1373235434
 30
0.0
 10
6.9921458025
 20
5.1576089522
 30
0.0
 10
6.9921471526
 20
5.1715553212
 30
0.0
  0
SPLINE
  5
269
100
AcDbEntity
  8
0
100
AcDbSpline
 62
9
  6
CONTINUOUS
 70
0
 71
3
 72
17
 73
13
 74
0
 42
0.0000001
 43
0.0000001
 44
0.0000000001
 40
0.0
 40
0.0
 40
0.0
 40
0.0
 40
0.37919627
 40
0.5506200645
 40
0.7017432889
 40
0.8269219538
 40
0.8782182631
 40
0.9211593792
 40
0.9551627105
 40
0.9798537653
 40
0.9949085526
 40
1.0
 40
1.0
 40
1.0
 40
1.0
 10
6.9921471764
 20
5.1715553211
 30
0.0
 10
6.992145874
 20
5.1855036245
 30
0.0
 10
6.9908358807
 20
5.2057918967
 30
0.0
 10
6.986729482
 20
5.2312849037
 30
0.0
 10
6.983250245
 20
5.2473902654
 30
0.0
 10
6.9801498279
 20
5.2590388539
 30
0.0
 10
6.9778406583
 20
5.2667728223
 30
0.0
 10
6.9764174684
 20
5.2712703161
 30
0.0
 10
6.9752586479
 20
5.2748248264
 30
0.0
 10
6.974374438
 20
5.2773896311
 30
0.0
 10
6.9738540408
 20
5.2789544935
 30
0.0
 10
6.9735787107
 20
5.2796436812
 30
0.0
 10
6.9735248012
 20
5.2798230377
 30
0.0
  0
LINE
  5
26A
100
AcDbEntity
  8
0
100
AcDbLine
 62
7
  6
CONTINUOUS
 10
4.608289087
 20
1.4538962393
 11
4.6136692113
 21
1.453958409
  0
LINE
  5
26B
100
AcDbEntity
  8
0
100
AcDbLine
 62
7
  6
CONTINUOUS
 10
4.6028985383
 20
1.4539586506
 11
4.608289087
 21
1.4538962393
  0
SPLINE
  5
26C
100
AcDbEntity
  8
0
100
AcDbSpline
 62
9
  6
CONTINUOUS
 70
0
 71
3
 72
15
 73
11
 74
0
 42
0.0000001
 43
0.0000001
 44
0.0000000001
 40
0.0
 40
0.0
 40
0.0
 40
0.0
 40
0.1247667931
 40
0.24956883
 40
0.3744364148
 40
0.4993887667
 40
0.6244376478
 40
0.7495614611
 40
0.8747774772
 40
1.0
 40
1.0
 40
1.0
 40
1.0
 10
4.8445095595
 20
1.7135802536
 30
0.0
 10
4.8445095595
 20
1.6982026384
 30
0.0
 10
4.8414627796
 20
1.6673572394
 30
0.0
 10
4.8279298176
 20
1.6229378411
 30
0.0
 10
4.8059550016
 20
1.5819865734
 30
0.0
 10
4.7763855483
 20
1.546098383
 30
0.0
 10
4.7403582537
 20
1.5166503075
 30
0.0
 10
4.6992547674
 20
1.4947637534
 30
0.0
 10
4.6546741264
 20
1.4812936001
 30
0.0
 10
4.6237228713
 20
1.4782586713
 30
0.0
 10
4.608289087
 20
1.4782586713
 30
0.0
  0
SPLINE
  5
26D
100
AcDbEntity
  8
0
100
AcDbSpline
 62
9
  6
CONTINUOUS
 70
0
 71
3
 72
11
 73
7
 74
0
 42
0.0000001
 43
0.0000001
 44
0.0000000001
 40
0.0
 40
0.0
 40
0.0
 40
0.0
 40
0.2504285008
 40
0.5006023457
 40
0.7504371432
 40
1.0
 40
1.0
 40
1.0
 40
1.0
 10
4.608289087
 20
1.4782586713
 30
0.0
 10
4.5790144648
 20
1.4782586713
 30
0.0
 10
4.5199162178
 20
1.4893397686
 30
0.0
 10
4.4438968596
 20
1.5369882783
 30
0.0
 10
4.3904600546
 20
1.6089444344
 30
0.0
 10
4.3749208681
 20
1.6669036654
 30
0.0
 10
4.3727303817
 20
1.6959947429
 30
0.0
  0
ENDSEC
  0
SECTION
  2
OBJECTS
  0
DICTIONARY
  5
C
100
AcDbDictionary
280
0
281
1
  3
ACAD_GROUP
350
D
  3
ACAD_MLINESTYLE
350
17
  3
ACAD_LAYOUT
350
1A
  3
ACAD_PLOTSETTINGS
350
19
  3
ACAD_PLOTSTYLENAME
350
E
  0
DICTIONARY
  5
D
102
{ACAD_REACTORS
330
C
102
}
100
AcDbDictionary
280
0
281
1
  0
ACDBDICTIONARYWDFLT
  5
E
102
{ACAD_REACTORS
330
C
102
}
100
AcDbDictionary
281
1
  3
Normal
350
F
100
AcDbDictionaryWithDefault
340
F
  0
DICTIONARY
  5
17
102
{ACAD_REACTORS
330
C
102
}
100
AcDbDictionary
280
0
281
1
  3
Standard
350
18
  0
DICTIONARY
  5
19
102
{ACAD_REACTORS
330
C
102
}
100
AcDbDictionary
281
1
  0
DICTIONARY
  5
1A
102
{ACAD_REACTORS
330
C
102
}
100
AcDbDictionary
281
1
  3
Model
350
26E
  3
Layout1
350
26F
  0
ACDBPLACEHOLDER
  5
F
102
{ACAD_REACTORS
330
E
102
}
  0
MLINESTYLE
  5
18
102
{ACAD_REACTORS
330
17
102
}
100
AcDbMlineStyle
  2
STANDARD
 70
0
  3

 62
256
 51
90.0
 52
90.0
 71
2
 49
0.5
 62
256
  6
BYLAYER
 49
-0.5
 62
256
  6
BYLAYER
  0
LAYOUT
  5
26E
102
{ACAD_REACTORS
330
1A
102
}
100
AcDbPlotSettings
  1

  2
none_device
  4
ANSI_A_(11.00_x_8.50_Inches)
  6

 40
0.0
 41
0.0
 42
0.0
 43
0.0
 44
279.4
 45
215.9
 46
0.0
 47
0.0
 48
0.0
 49
0.0
140
0.0
141
0.0
142
1.0
143
1.0
 70
1024
 72
0
 73
0
 74
0
  7

 75
0
147
1.0
148
0.0
149
0.0
100
AcDbLayout
  1
Model
 70
0
 71
0
 10
0.0
 20
0.0
 11
11.0
 21
8.5
 12
0.0
 22
0.0
 32
0.0
 14
0.0
 24
0.0
 34
0.0
 15
0.0
 25
0.0
 35
0.0
146
0.0
 13
0.0
 23
0.0
 33
0.0
 16
1.0
 26
0.0
 36
0.0
 17
0.0
 27
1.0
 37
0.0
 76
0
330
20C
345
0
346
0
  0
LAYOUT
  5
26F
102
{ACAD_REACTORS
330
1A
102
}
100
AcDbPlotSettings
  1

  2
none_device
  4
ANSI_A_(11.00_x_8.50_Inches)
  6

 40
0.0
 41
0.0
 42
0.0
 43
0.0
 44
279.4
 45
215.9
 46
0.0
 47
0.0
 48
0.0
 49
0.0
140
0.0
141
0.0
142
1.0
143
1.0
 70
0
 72
0
 73
0
 74
0
  7

 75
0
147
1.0
148
0.0
149
0.0
100
AcDbLayout
  1
Layout1
 70
0
 71
1
 10
0.0
 20
0.0
 11
11.0
 21
8.5
 12
0.0
 22
0.0
 32
0.0
 14
0.0
 24
0.0
 34
0.0
 15
0.0
 25
0.0
 35
0.0
146
0.0
 13
0.0
 23
0.0
 33
0.0
 16
1.0
 26
0.0
 36
0.0
 17
0.0
 27
1.0
 37
0.0
 76
0
330
20D
345
0
346
0
  0
ENDSEC
  0
EOF
