999
DXF file: E:\BT Custom\CADOUTPUT\_FRONT.dxf
999
Pro/ENGINEER 2018400 by Parametric Technology Corporation
  0
SECTION
  2
HEADER
  9
$ACADVER
  1
AC1018
  9
$DWGCODEPAGE
  3
ANSI_1252
  9
$EXTMAX
 10
22.0
 20
17.0
 30
0.0
  9
$EXTMIN
 10
0.0
 20
0.0
 30
0.0
  9
$LIMMIN
 10
0.0
 20
0.0
  9
$LIMMAX
 10
22.0
 20
17.0
  9
$VIEWCTR
 10
11.0
 20
8.5
  9
$VIEWSIZE
 40
17.0
  9
$CLAYER
  8
0
  9
$LTSCALE
 40
1.21
  9
$CELTYPE
  6
BYLAYER
  9
$DIMSCALE
 40
1.0
  9
$DIMASZ
 40
0.1
  9
$DIMEXO
 40
0.0625
  9
$DIMDLI
 40
0.836
  9
$DIMEXE
 40
0.125
  9
$DIMCEN
 40
0.198
  9
$DIMLFAC
 40
1.0
  9
$DIMBLK
  1
_FILLED
  9
$DIMALT
 70
1
  9
$DIMALTD
 70
2
  9
$DIMALTTD
 70
2
  9
$DIMALTF
 40
25.4
  9
$DIMTXT
 40
0.08
  9
$DIMTOL
 70
1
  9
$DIMLIM
 70
0
  9
$DIMTFAC
 40
1.0
  9
$DIMTP
 40
0.001
  9
$DIMTM
 40
0.001
  9
$DIMGAP
 40
0.09
  9
$DIMDSEP
 70
46
  9
$AUNITS
 70
0
  9
$PDMODE
 70
3
  9
$PDSIZE
 40
0.06
  9
$HANDSEED
  5
301
  9
$TILEMODE
 70
1
  9
$MEASUREMENT
 70
0
  9
$INSUNITS
 70
1
  0
ENDSEC
  0
SECTION
  2
CLASSES
  0
CLASS
  1
ACDBDICTIONARYWDFLT
  2
AcDbDictionaryWithDefault
  3
AutoCAD 2000
 90
0
 91
1
280
0
281
0
  0
CLASS
  1
ACDBPLACEHOLDER
  2
AcDbPlaceHolder
  3
AutoCAD 2000
 90
0
 91
1
280
0
281
0
  0
CLASS
  1
LAYOUT
  2
AcDbLayout
  3
AutoCAD 2000
 90
0
 91
0
280
0
281
0
  0
ENDSEC
  0
SECTION
  2
TABLES
  0
TABLE
  2
VPORT
  5
8
100
AcDbSymbolTable
 70
2
  0
VPORT
  5
1F4
100
AcDbSymbolTableRecord
100
AcDbViewportTableRecord
  2
*ACTIVE
 70
0
 10
0.0
 20
0.0
 11
1.0
 21
1.0
 12
11.0
 22
8.5
 13
0.0
 23
0.0
 14
1.0
 24
1.0
 15
0.0
 25
0.0
 16
0.0
 26
0.0
 36
1.0
 17
0.0
 27
0.0
 37
0.0
 40
17.0
 41
1.2941176471
 42
50.0
 43
0.0
 44
0.0
 50
0.0
 51
0.0
 71
0
 72
100
 73
1
 74
1
 75
0
 76
0
 77
0
 78
0
  0
ENDTAB
  0
TABLE
  2
LTYPE
  5
5
100
AcDbSymbolTable
 70
6
  0
LTYPE
  5
14
100
AcDbSymbolTableRecord
100
AcDbLinetypeTableRecord
  2
BYBLOCK
 70
0
  3

 72
65
 73
0
 40
0.0
  0
LTYPE
  5
15
100
AcDbSymbolTableRecord
100
AcDbLinetypeTableRecord
  2
BYLAYER
 70
0
  3

 72
65
 73
0
 40
0.0
  0
LTYPE
  5
16
100
AcDbSymbolTableRecord
100
AcDbLinetypeTableRecord
  2
CONTINUOUS
 70
64
  3
Solid line
 72
65
 73
0
 40
0.0
  0
LTYPE
  5
1F5
100
AcDbSymbolTableRecord
100
AcDbLinetypeTableRecord
  2
CENTER
 70
64
  3
____ _ ____ _ ____ _ ____ _ ____ _ ____ _ ____
 72
65
 73
4
 40
0.6
 49
0.375
 74
0
 49
-0.075
 74
0
 49
0.075
 74
0
 49
-0.075
 74
0
  0
LTYPE
  5
1F6
100
AcDbSymbolTableRecord
100
AcDbLinetypeTableRecord
  2
HIDDEN
 70
64
  3
- - - - - - - - - - - - - - - - - - - -
 72
65
 73
2
 40
0.2
 49
0.1
 74
0
 49
-0.1
 74
0
  0
LTYPE
  5
1F7
100
AcDbSymbolTableRecord
100
AcDbLinetypeTableRecord
  2
PHANTOM
 70
64
  3
_____ _ _ _____ _ _ _____ _ _ _____
 72
65
 73
6
 40
0.8
 49
0.45
 74
0
 49
-0.05
 74
0
 49
0.1
 74
0
 49
-0.05
 74
0
 49
0.1
 74
0
 49
-0.05
 74
0
  0
LTYPE
  5
1F8
100
AcDbSymbolTableRecord
100
AcDbLinetypeTableRecord
  2
DOT
 70
64
  3
. . . . . . . . . . . . . . . . . . . .
 72
65
 73
2
 40
0.2
 49
0.1
 74
0
 49
-0.1
 74
0
  0
LTYPE
  5
1F9
100
AcDbSymbolTableRecord
100
AcDbLinetypeTableRecord
  2
DASHED
 70
64
  3
- - - - - - - - - - - - - - - - - - - -
 72
65
 73
2
 40
0.2
 49
0.1
 74
0
 49
-0.1
 74
0
  0
ENDTAB
  0
TABLE
  2
LAYER
  5
2
100
AcDbSymbolTable
 70
36
  0
LAYER
  5
10
100
AcDbSymbolTableRecord
100
AcDbLayerTableRecord
  2
0
 70
0
 62
7
  6
CONTINUOUS
370
-3
390
F
  0
LAYER
  5
1FA
100
AcDbSymbolTableRecord
100
AcDbLayerTableRecord
  2
DEFAULT_1
 70
0
 62
7
  6
CENTER
370
-3
390
F
  0
LAYER
  5
1FB
100
AcDbSymbolTableRecord
100
AcDbLayerTableRecord
  2
DEFAULT_2
 70
0
 62
8
  6
HIDDEN
370
-3
390
F
  0
LAYER
  5
1FC
100
AcDbSymbolTableRecord
100
AcDbLayerTableRecord
  2
DEFAULT_3
 70
0
 62
7
  6
PHANTOM
370
-3
390
F
  0
LAYER
  5
1FD
100
AcDbSymbolTableRecord
100
AcDbLayerTableRecord
  2
ALL_FEATURES
 70
0
 62
7
  6
CONTINUOUS
370
-3
390
F
  0
LAYER
  5
1FE
100
AcDbSymbolTableRecord
100
AcDbLayerTableRecord
  2
AXES_FEATURES
 70
0
 62
7
  6
CONTINUOUS
370
-3
390
F
  0
LAYER
  5
1FF
100
AcDbSymbolTableRecord
100
AcDbLayerTableRecord
  2
DIMENSIONS
 70
0
 62
7
  6
CONTINUOUS
370
-3
390
F
  0
ENDTAB
  0
TABLE
  2
STYLE
  5
3
100
AcDbSymbolTable
 70
1
  0
STYLE
  5
11
100
AcDbSymbolTableRecord
100
AcDbTextStyleTableRecord
  2
STANDARD
 70
0
 40
0.0
 41
0.8
 50
0.0
 71
0
 42
0.2
  3
txt
  4

  0
STYLE
  5
200
100
AcDbSymbolTableRecord
100
AcDbTextStyleTableRecord
  2
TEXTSTYLE_1
 70
0
 40
0.0
 41
0.8
 50
0.0
 71
0
 42
0.2
  3
gdt
  4

  0
ENDTAB
  0
TABLE
  2
VIEW
  5
6
100
AcDbSymbolTable
 70
0
  0
ENDTAB
  0
TABLE
  2
UCS
  5
7
100
AcDbSymbolTable
 70
0
  0
ENDTAB
  0
TABLE
  2
APPID
  5
9
100
AcDbSymbolTable
 70
1
  0
APPID
  5
201
100
AcDbSymbolTableRecord
100
AcDbRegAppTableRecord
  2
ACAD
 70
0
  0
ENDTAB
  0
TABLE
  2
BLOCK_RECORD
  5
1
100
AcDbSymbolTable
 70
0
  0
BLOCK_RECORD
  5
202
100
AcDbSymbolTableRecord
100
AcDbBlockTableRecord
  2
*Model_Space
  0
BLOCK_RECORD
  5
203
100
AcDbSymbolTableRecord
100
AcDbBlockTableRecord
  2
*Paper_Space
  0
BLOCK_RECORD
  5
204
100
AcDbSymbolTableRecord
100
AcDbBlockTableRecord
  2
_FILLED
  0
ENDTAB
  0
TABLE
  2
DIMSTYLE
  5
A
100
AcDbSymbolTable
 70
1
100
AcDbDimStyleTable
 71
0
  0
DIMSTYLE
105
205
100
AcDbSymbolTableRecord
100
AcDbDimStyleTableRecord
  2
STANDARD
 70
0
  3

  4

 40
1.0
 41
0.1
 42
0.0625
 43
0.38
 44
0.125
 45
0.0
 46
0.0
 47
0.001
 48
0.001
140
0.08
141
0.09
142
0.0
143
25.4
144
1.0
145
0.0
146
1.0
147
0.09
 71
1.0
 72
0.0
 73
1
 74
1
 75
0
 76
0
 77
0
 78
4
 79
1
170
1
171
2
172
0
173
0
174
0
175
0
176
0
177
0
178
0
270
2
179
3
271
3
272
3
273
2
274
2
275
0
280
0
281
0
282
0
283
1
284
4
285
0
286
0
287
3
288
0
340
11
278
46
341
204
342
204
343
204
344
204
  0
ENDTAB
  0
ENDSEC
  0
SECTION
  2
BLOCKS
  0
BLOCK
  5
20
100
AcDbEntity
  8
0
100
AcDbBlockBegin
  2
*Model_Space
 70
0
 10
0.0
 20
0.0
 30
0.0
  3
*Model_Space
  1

  0
ENDBLK
  5
21
100
AcDbEntity
  8
0
100
AcDbBlockEnd
  0
BLOCK
  5
1C
100
AcDbEntity
  8
0
100
AcDbBlockBegin
  2
*Paper_Space
 70
0
 10
0.0
 20
0.0
 30
0.0
  3
*Paper_Space
  1

  0
ENDBLK
  5
1D
100
AcDbEntity
  8
0
100
AcDbBlockEnd
  0
BLOCK
  5
206
100
AcDbEntity
  8
0
100
AcDbBlockBegin
  2
_FILLED
 70
64
 10
0.0
 20
0.0
  3
_FILLED
  1

  0
SOLID
  5
207
100
AcDbEntity
  8
0
  6
BYBLOCK
 62
0
100
AcDbTrace
 10
0.0
 20
0.0
 11
-1.0
 21
0.2
 12
-1.0
 22
-0.2
 13
-1.0
 23
-0.2
  0
ENDBLK
  5
208
100
AcDbEntity
  8
0
  6
BYBLOCK
 62
0
100
AcDbBlockEnd
  0
ENDSEC
  0
SECTION
  2
ENTITIES
  0
LINE
  5
209
100
AcDbEntity
  8
0
100
AcDbLine
 62
7
  6
CONTINUOUS
 10
3.9726923427
 20
8.3284194759
 11
3.9726923427
 21
7.8534194759
  0
LINE
  5
20A
100
AcDbEntity
  8
0
100
AcDbLine
 62
9
  6
CONTINUOUS
 10
4.1027501782
 20
7.8747229475
 11
4.1027501782
 21
8.3071160042
  0
LINE
  5
20B
100
AcDbEntity
  8
0
100
AcDbLine
 62
7
  6
CONTINUOUS
 10
4.2956923427
 20
8.3094194759
 11
4.2956923427
 21
7.8724194759
  0
LINE
  5
20C
100
AcDbEntity
  8
0
100
AcDbLine
 62
9
  6
CONTINUOUS
 10
4.6394520876
 20
8.4851687843
 11
4.6394520876
 21
7.6966701675
  0
LINE
  5
20D
100
AcDbEntity
  8
0
100
AcDbLine
 62
9
  6
CONTINUOUS
 10
5.6942882597
 20
7.9017095487
 11
5.6942882597
 21
8.2801294031
  0
LINE
  5
20E
100
AcDbEntity
  8
0
100
AcDbLine
 62
7
  6
CONTINUOUS
 10
5.7676923427
 20
5.3826694759
 11
5.7676923427
 21
5.3686694759
  0
LINE
  5
20F
100
AcDbEntity
  8
0
100
AcDbLine
 62
7
  6
CONTINUOUS
 10
6.4876923427
 20
8.3409194759
 11
6.4876923427
 21
7.8409194759
  0
LINE
  5
210
100
AcDbEntity
  8
0
100
AcDbLine
 62
7
  6
CONTINUOUS
 10
6.5326923427
 20
7.8409194759
 11
6.5326923427
 21
8.3409194759
  0
LINE
  5
211
100
AcDbEntity
  8
0
100
AcDbLine
 62
7
  6
CONTINUOUS
 10
6.5576923427
 20
8.3156322892
 11
6.5576923427
 21
7.8659105312
  0
LINE
  5
212
100
AcDbEntity
  8
0
100
AcDbLine
 62
7
  6
CONTINUOUS
 10
6.5851923427
 20
7.4579194759
 11
6.5851923427
 21
7.4079194759
  0
LINE
  5
213
100
AcDbEntity
  8
0
100
AcDbLine
 62
7
  6
CONTINUOUS
 10
6.6071923427
 20
8.4409194759
 11
6.6071923427
 21
8.3699194759
  0
LINE
  5
214
100
AcDbEntity
  8
0
100
AcDbLine
 62
7
  6
CONTINUOUS
 10
6.6656923427
 20
8.5119194759
 11
6.6656923427
 21
8.4879194759
  0
LINE
  5
215
100
AcDbEntity
  8
0
100
AcDbLine
 62
7
  6
CONTINUOUS
 10
6.5576923427
 20
7.8658589986
 11
6.5612350698
 21
7.8612112568
  0
LINE
  5
216
100
AcDbEntity
  8
0
100
AcDbLine
 62
7
  6
CONTINUOUS
 10
6.7376923427
 20
7.3766694759
 11
6.7376923427
 21
7.4079194759
  0
LINE
  5
217
100
AcDbEntity
  8
0
100
AcDbLine
 62
7
  6
CONTINUOUS
 10
7.1376923427
 20
7.3766694759
 11
7.1376923427
 21
7.4079194759
  0
LINE
  5
218
100
AcDbEntity
  8
0
100
AcDbLine
 62
7
  6
CONTINUOUS
 10
7.2096923427
 20
8.5119194759
 11
7.2096923427
 21
8.4879194759
  0
LINE
  5
219
100
AcDbEntity
  8
0
100
AcDbLine
 62
7
  6
CONTINUOUS
 10
6.527535693
 20
7.3105613301
 11
6.5030267991
 21
7.171564486
  0
LINE
  5
21A
100
AcDbEntity
  8
0
100
AcDbLine
 62
7
  6
CONTINUOUS
 10
5.7676923427
 20
5.3686694759
 11
8.1076923427
 21
5.3686694759
  0
LINE
  5
21B
100
AcDbEntity
  8
0
100
AcDbLine
 62
7
  6
CONTINUOUS
 10
9.5126923427
 20
5.3686694759
 11
12.3626923427
 21
5.3686694759
  0
LINE
  5
21C
100
AcDbEntity
  8
0
100
AcDbLine
 62
7
  6
CONTINUOUS
 10
13.7676923427
 20
5.3686694759
 11
16.1076923427
 21
5.3686694759
  0
LINE
  5
21D
100
AcDbEntity
  8
0
100
AcDbLine
 62
9
  6
CONTINUOUS
 10
16.1076923427
 20
5.3826694759
 11
13.7676923427
 21
5.3826694759
  0
LINE
  5
21E
100
AcDbEntity
  8
0
100
AcDbLine
 62
9
  6
CONTINUOUS
 10
8.1076923427
 20
5.3826694759
 11
5.7676923427
 21
5.3826694759
  0
LINE
  5
21F
100
AcDbEntity
  8
0
100
AcDbLine
 62
9
  6
CONTINUOUS
 10
16.0420640532
 20
5.4926694759
 11
13.8333206323
 21
5.4926694759
  0
LINE
  5
220
100
AcDbEntity
  8
0
100
AcDbLine
 62
9
  6
CONTINUOUS
 10
5.8333206323
 20
5.4926694759
 11
8.0420640532
 21
5.4926694759
  0
LINE
  5
221
100
AcDbEntity
  8
0
100
AcDbLine
 62
9
  6
CONTINUOUS
 10
12.3626923427
 20
5.5016694759
 11
9.5126923427
 21
5.5016694759
  0
LINE
  5
222
100
AcDbEntity
  8
0
100
AcDbLine
 62
9
  6
CONTINUOUS
 10
16.0096147124
 20
5.5436694759
 11
13.8657699731
 21
5.5436694759
  0
LINE
  5
223
100
AcDbEntity
  8
0
100
AcDbLine
 62
9
  6
CONTINUOUS
 10
5.8657699731
 20
5.5436694759
 11
8.0096147124
 21
5.5436694759
  0
LINE
  5
224
100
AcDbEntity
  8
0
100
AcDbLine
 62
7
  6
CONTINUOUS
 10
6.5577182634
 20
8.3158935552
 11
6.5326923427
 21
8.3409194759
  0
LINE
  5
225
100
AcDbEntity
  8
0
100
AcDbLine
 62
7
  6
CONTINUOUS
 10
7.3478489925
 20
7.3105613301
 11
7.3723578863
 21
7.171564486
  0
LINE
  5
226
100
AcDbEntity
  8
0
100
AcDbLine
 62
7
  6
CONTINUOUS
 10
7.2681923427
 20
8.4409194759
 11
7.2681923427
 21
8.3699194759
  0
LINE
  5
227
100
AcDbEntity
  8
0
100
AcDbLine
 62
7
  6
CONTINUOUS
 10
7.2901923427
 20
7.4579194759
 11
7.2901923427
 21
7.4079194759
  0
LINE
  5
228
100
AcDbEntity
  8
0
100
AcDbLine
 62
9
  6
CONTINUOUS
 10
15.9784382703
 20
5.6016694759
 11
13.8969464151
 21
5.6016694759
  0
LINE
  5
229
100
AcDbEntity
  8
0
100
AcDbLine
 62
9
  6
CONTINUOUS
 10
5.8969464151
 20
5.6016694759
 11
7.9784382703
 21
5.6016694759
  0
LINE
  5
22A
100
AcDbEntity
  8
0
100
AcDbLine
 62
9
  6
CONTINUOUS
 10
15.9541628491
 20
5.6426694759
 11
13.9212218364
 21
5.6426694759
  0
LINE
  5
22B
100
AcDbEntity
  8
0
100
AcDbLine
 62
9
  6
CONTINUOUS
 10
5.9212218364
 20
5.6426694759
 11
7.9541628491
 21
5.6426694759
  0
LINE
  5
22C
100
AcDbEntity
  8
0
100
AcDbLine
 62
9
  6
CONTINUOUS
 10
15.9170358998
 20
5.6986694759
 11
13.9583487857
 21
5.6986694759
  0
LINE
  5
22D
100
AcDbEntity
  8
0
100
AcDbLine
 62
9
  6
CONTINUOUS
 10
5.9583487857
 20
5.6986694759
 11
7.9170358998
 21
5.6986694759
  0
LINE
  5
22E
100
AcDbEntity
  8
0
100
AcDbLine
 62
9
  6
CONTINUOUS
 10
9.6445246781
 20
5.7255408475
 11
12.2308600074
 21
5.7255408475
  0
LINE
  5
22F
100
AcDbEntity
  8
0
100
AcDbLine
 62
9
  6
CONTINUOUS
 10
15.8896404964
 20
5.7336694759
 11
13.9857441891
 21
5.7336694759
  0
LINE
  5
230
100
AcDbEntity
  8
0
100
AcDbLine
 62
9
  6
CONTINUOUS
 10
5.9857441891
 20
5.7336694759
 11
7.8896404964
 21
5.7336694759
  0
LINE
  5
231
100
AcDbEntity
  8
0
100
AcDbLine
 62
9
  6
CONTINUOUS
 10
15.879516113
 20
5.7486694759
 11
13.9958685725
 21
5.7486694759
  0
LINE
  5
232
100
AcDbEntity
  8
0
100
AcDbLine
 62
9
  6
CONTINUOUS
 10
5.9958685725
 20
5.7486694759
 11
7.879516113
 21
5.7486694759
  0
LINE
  5
233
100
AcDbEntity
  8
0
100
AcDbLine
 62
9
  6
CONTINUOUS
 10
9.6846923427
 20
5.7937516561
 11
12.1906923427
 21
5.7937516561
  0
LINE
  5
234
100
AcDbEntity
  8
0
100
AcDbLine
 62
9
  6
CONTINUOUS
 10
12.1906923427
 20
5.7956694759
 11
9.6846923427
 21
5.7956694759
  0
LINE
  5
235
100
AcDbEntity
  8
0
100
AcDbLine
 62
7
  6
CONTINUOUS
 10
9.8126944931
 20
5.9436694759
 11
12.0626901922
 21
5.9436694759
  0
LINE
  5
236
100
AcDbEntity
  8
0
100
AcDbLine
 62
9
  6
CONTINUOUS
 10
15.7531629052
 20
6.0376694759
 11
14.1222217802
 21
6.0376694759
  0
LINE
  5
237
100
AcDbEntity
  8
0
100
AcDbLine
 62
9
  6
CONTINUOUS
 10
7.7531629052
 20
6.0376694759
 11
6.1222217802
 21
6.0376694759
  0
LINE
  5
238
100
AcDbEntity
  8
0
100
AcDbLine
 62
7
  6
CONTINUOUS
 10
7.1076923427
 20
8.5779194759
 11
7.1176923427
 21
8.5679194759
  0
LINE
  5
239
100
AcDbEntity
  8
0
100
AcDbLine
 62
7
  6
CONTINUOUS
 10
8.1076923427
 20
5.3826694759
 11
8.1076923427
 21
5.3686694759
  0
LINE
  5
23A
100
AcDbEntity
  8
0
100
AcDbLine
 62
9
  6
CONTINUOUS
 10
15.7254399062
 20
6.4426694759
 11
14.1499447793
 21
6.4426694759
  0
LINE
  5
23B
100
AcDbEntity
  8
0
100
AcDbLine
 62
9
  6
CONTINUOUS
 10
6.1499447793
 20
6.4426694759
 11
7.7254399062
 21
6.4426694759
  0
LINE
  5
23C
100
AcDbEntity
  8
0
100
AcDbLine
 62
7
  6
CONTINUOUS
 10
6.6071923427
 20
8.3699194759
 11
6.5577182634
 21
8.3158935552
  0
LINE
  5
23D
100
AcDbEntity
  8
0
100
AcDbLine
 62
7
  6
CONTINUOUS
 10
6.7676923427
 20
8.5779194759
 11
6.7576923427
 21
8.5679194759
  0
LINE
  5
23E
100
AcDbEntity
  8
0
100
AcDbLine
 62
7
  6
CONTINUOUS
 10
6.5576923427
 20
7.8659194759
 11
6.5326923427
 21
7.8409194759
  0
LINE
  5
23F
100
AcDbEntity
  8
0
100
AcDbLine
 62
9
  6
CONTINUOUS
 10
6.4131972422
 20
6.9811639558
 11
7.4621874432
 21
6.9811639558
  0
LINE
  5
240
100
AcDbEntity
  8
0
100
AcDbLine
 62
9
  6
CONTINUOUS
 10
14.4131972422
 20
6.9811639558
 11
15.4621874432
 21
6.9811639558
  0
LINE
  5
241
100
AcDbEntity
  8
0
100
AcDbLine
 62
9
  6
CONTINUOUS
 10
6.5030267991
 20
7.171564486
 11
7.3723578863
 21
7.171564486
  0
LINE
  5
242
100
AcDbEntity
  8
0
100
AcDbLine
 62
9
  6
CONTINUOUS
 10
14.5030267991
 20
7.171564486
 11
15.3723578863
 21
7.171564486
  0
LINE
  5
243
100
AcDbEntity
  8
0
100
AcDbLine
 62
7
  6
CONTINUOUS
 10
17.2359325978
 20
8.4851687843
 11
16.1810964257
 21
8.2801294031
  0
LINE
  5
244
100
AcDbEntity
  8
0
100
AcDbLine
 62
9
  6
CONTINUOUS
 10
15.3478489925
 20
7.3105613301
 11
14.527535693
 21
7.3105613301
  0
LINE
  5
245
100
AcDbEntity
  8
0
100
AcDbLine
 62
9
  6
CONTINUOUS
 10
7.3478489925
 20
7.3105613301
 11
6.527535693
 21
7.3105613301
  0
LINE
  5
246
100
AcDbEntity
  8
0
100
AcDbLine
 62
7
  6
CONTINUOUS
 10
15.2690643722
 20
7.3766694759
 11
14.6063203132
 21
7.3766694759
  0
LINE
  5
247
100
AcDbEntity
  8
0
100
AcDbLine
 62
7
  6
CONTINUOUS
 10
7.2690643722
 20
7.3766694759
 11
6.6063203132
 21
7.3766694759
  0
LINE
  5
248
100
AcDbEntity
  8
0
100
AcDbLine
 62
7
  6
CONTINUOUS
 10
6.5852059584
 20
7.4079194759
 11
7.2901787271
 21
7.4079194759
  0
LINE
  5
249
100
AcDbEntity
  8
0
100
AcDbLine
 62
7
  6
CONTINUOUS
 10
14.5852059584
 20
7.4079194759
 11
15.2901787271
 21
7.4079194759
  0
LINE
  5
24A
100
AcDbEntity
  8
0
100
AcDbLine
 62
7
  6
CONTINUOUS
 10
15.2901923427
 20
7.4579194759
 11
14.5851923427
 21
7.4579194759
  0
LINE
  5
24B
100
AcDbEntity
  8
0
100
AcDbLine
 62
7
  6
CONTINUOUS
 10
7.2901923427
 20
7.4579194759
 11
6.5851923427
 21
7.4579194759
  0
LINE
  5
24C
100
AcDbEntity
  8
0
100
AcDbLine
 62
7
  6
CONTINUOUS
 10
4.6394520876
 20
8.4851687843
 11
5.6942882597
 21
8.2801294031
  0
LINE
  5
24D
100
AcDbEntity
  8
0
100
AcDbLine
 62
7
  6
CONTINUOUS
 10
9.5126923427
 20
5.5016694759
 11
9.5126923427
 21
5.3686694759
  0
LINE
  5
24E
100
AcDbEntity
  8
0
100
AcDbLine
 62
7
  6
CONTINUOUS
 10
9.6846923427
 20
5.7956694759
 11
9.6846923427
 21
5.7937516561
  0
LWPOLYLINE
  5
24F
100
AcDbEntity
  8
0
100
AcDbPolyline
 62
7
  6
CONTINUOUS
 90
4
 70
0
 10
9.8141503845
 20
6.8756694633
 10
9.810778052
 20
6.5610434927
 10
9.810319409
 20
6.2351676
 10
9.8126923427
 20
5.9436694759
  0
LWPOLYLINE
  5
250
100
AcDbEntity
  8
0
100
AcDbPolyline
 62
7
  6
CONTINUOUS
 90
11
 70
0
 10
10.2445462292
 20
12.3648382307
 10
10.1976344449
 20
12.0720430121
 10
10.1463077985
 20
11.6988143886
 10
10.0932243491
 20
11.2575392434
 10
10.0399002982
 20
10.753966402
 10
9.9879101856
 20
10.1940615737
 10
9.9389489023
 20
9.5844173102
 10
9.89497775
 20
8.9343918301
 10
9.8580625762
 20
8.2548011221
 10
9.830302043
 20
7.5570471413
 10
9.8141503843
 20
6.875669463
  0
LINE
  5
251
100
AcDbEntity
  8
0
100
AcDbLine
 62
7
  6
CONTINUOUS
 10
15.3876923427
 20
7.8409194759
 11
15.3426923427
 21
7.8409194759
  0
LINE
  5
252
100
AcDbEntity
  8
0
100
AcDbLine
 62
7
  6
CONTINUOUS
 10
6.4876923427
 20
7.8409194759
 11
6.5326923427
 21
7.8409194759
  0
LINE
  5
253
100
AcDbEntity
  8
0
100
AcDbLine
 62
9
  6
CONTINUOUS
 10
15.3141496157
 20
7.8612112568
 11
14.5612350698
 21
7.8612112568
  0
LINE
  5
254
100
AcDbEntity
  8
0
100
AcDbLine
 62
9
  6
CONTINUOUS
 10
7.3141496157
 20
7.8612112568
 11
6.5612350698
 21
7.8612112568
  0
LINE
  5
255
100
AcDbEntity
  8
0
100
AcDbLine
 62
7
  6
CONTINUOUS
 10
15.3876923427
 20
8.3409194759
 11
15.3426923427
 21
8.3409194759
  0
LINE
  5
256
100
AcDbEntity
  8
0
100
AcDbLine
 62
7
  6
CONTINUOUS
 10
6.4876923427
 20
8.3409194759
 11
6.5326923427
 21
8.3409194759
  0
LINE
  5
257
100
AcDbEntity
  8
0
100
AcDbLine
 62
7
  6
CONTINUOUS
 10
6.6071923427
 20
8.3699194759
 11
7.2681923427
 21
8.3699194759
  0
LINE
  5
258
100
AcDbEntity
  8
0
100
AcDbLine
 62
7
  6
CONTINUOUS
 10
14.6071923427
 20
8.3699194759
 11
15.2681923427
 21
8.3699194759
  0
LINE
  5
259
100
AcDbEntity
  8
0
100
AcDbLine
 62
9
  6
CONTINUOUS
 10
15.2681923427
 20
8.4409194759
 11
14.6071923427
 21
8.4409194759
  0
LINE
  5
25A
100
AcDbEntity
  8
0
100
AcDbLine
 62
9
  6
CONTINUOUS
 10
7.2681923427
 20
8.4409194759
 11
6.6071923427
 21
8.4409194759
  0
LINE
  5
25B
100
AcDbEntity
  8
0
100
AcDbLine
 62
7
  6
CONTINUOUS
 10
15.2211914797
 20
8.4879194759
 11
14.6541932058
 21
8.4879194759
  0
LINE
  5
25C
100
AcDbEntity
  8
0
100
AcDbLine
 62
7
  6
CONTINUOUS
 10
7.2211914797
 20
8.4879194759
 11
6.6541932058
 21
8.4879194759
  0
LINE
  5
25D
100
AcDbEntity
  8
0
100
AcDbLine
 62
7
  6
CONTINUOUS
 10
15.2096915165
 20
8.5119194759
 11
14.665693169
 21
8.5119194759
  0
LINE
  5
25E
100
AcDbEntity
  8
0
100
AcDbLine
 62
7
  6
CONTINUOUS
 10
7.2096915165
 20
8.5119194759
 11
6.665693169
 21
8.5119194759
  0
LINE
  5
25F
100
AcDbEntity
  8
0
100
AcDbLine
 62
7
  6
CONTINUOUS
 10
6.7576923427
 20
8.5679194759
 11
7.1176923427
 21
8.5679194759
  0
LINE
  5
260
100
AcDbEntity
  8
0
100
AcDbLine
 62
7
  6
CONTINUOUS
 10
14.7576923427
 20
8.5679194759
 11
15.1176923427
 21
8.5679194759
  0
LINE
  5
261
100
AcDbEntity
  8
0
100
AcDbLine
 62
7
  6
CONTINUOUS
 10
15.1076800399
 20
8.5779194759
 11
14.7677046456
 21
8.5779194759
  0
LINE
  5
262
100
AcDbEntity
  8
0
100
AcDbLine
 62
7
  6
CONTINUOUS
 10
7.1076800399
 20
8.5779194759
 11
6.7677046456
 21
8.5779194759
  0
LWPOLYLINE
  5
263
100
AcDbEntity
  8
0
100
AcDbPolyline
 62
7
  6
CONTINUOUS
 90
25
 70
0
 10
10.3293203031
 20
12.437736887
 10
10.3293654391
 20
12.4370336559
 10
10.3297164093
 20
12.429160839
 10
10.3300754457
 20
12.4133774066
 10
10.3301736995
 20
12.3902401117
 10
10.3298348229
 20
12.3601841788
 10
10.3289376283
 20
12.3235385849
 10
10.3273920778
 20
12.2805019921
 10
10.3251210128
 20
12.2311111138
 10
10.3220530905
 20
12.1753373051
 10
10.3181192427
 20
12.1131142058
 10
10.313250625
 20
12.0443515791
 10
10.3073779804
 20
11.9689583264
 10
10.3004303792
 20
11.8868614217
 10
10.2923340135
 20
11.797985975
 10
10.2830123406
 20
11.7022599257
 10
10.2723861229
 20
11.599619462
 10
10.260375421
 20
11.4900298121
 10
10.246897667
 20
11.3734666524
 10
10.2318681249
 20
11.249936296
 10
10.2151990345
 20
11.1194857033
 10
10.1967997809
 20
10.9821821379
 10
10.1765771424
 20
10.8381126292
 10
10.1544352832
 20
10.6873841893
 10
10.1329857742
 20
10.5474219216
  0
LINE
  5
264
100
AcDbEntity
  8
0
100
AcDbLine
 62
9
  6
CONTINUOUS
 10
10.9376923442
 20
6.8756694759
 11
10.9376923442
 21
5.9436697912
  0
LINE
  5
265
100
AcDbEntity
  8
0
100
AcDbLine
 62
7
  6
CONTINUOUS
 10
10.93769258
 20
13.1666695284
 11
10.9376921979
 21
13.1696621068
  0
LINE
  5
266
100
AcDbEntity
  8
0
100
AcDbLine
 62
7
  6
CONTINUOUS
 10
4.6394520876
 20
7.6966701675
 11
5.6942882597
 21
7.9017095487
  0
LINE
  5
267
100
AcDbEntity
  8
0
100
AcDbLine
 62
7
  6
CONTINUOUS
 10
17.2359325978
 20
7.6966701675
 11
16.1810964257
 21
7.9017095487
  0
LWPOLYLINE
  5
268
100
AcDbEntity
  8
0
100
AcDbPolyline
 62
7
  6
CONTINUOUS
 90
11
 70
0
 10
12.0612343012
 20
6.875669463
 10
12.0450826425
 20
7.5570471424
 10
12.0173221093
 20
8.2548011231
 10
11.9804069354
 20
8.9343918309
 10
11.9364357832
 20
9.5844173108
 10
11.8874744998
 20
10.1940615742
 10
11.8354843872
 20
10.7539664023
 10
11.7821603364
 20
11.2575392436
 10
11.729076887
 20
11.6988143887
 10
11.6777502406
 20
12.0720430122
 10
11.6308384563
 20
12.3648382307
  0
LWPOLYLINE
  5
269
100
AcDbEntity
  8
0
100
AcDbPolyline
 62
7
  6
CONTINUOUS
 90
4
 70
0
 10
12.0626923427
 20
5.9436694759
 10
12.0650652765
 20
6.235167601
 10
12.0646066335
 20
6.5610434943
 10
12.0612343009
 20
6.8756694634
  0
LWPOLYLINE
  5
26A
100
AcDbEntity
  8
0
100
AcDbPolyline
 62
7
  6
CONTINUOUS
 90
29
 70
0
 10
11.7423989175
 20
10.5474218821
 10
11.7247023875
 20
10.6624884039
 10
11.7057594022
 20
10.7900496662
 10
11.6882119022
 20
10.9127722146
 10
11.6719943963
 20
11.0306288716
 10
11.6570438886
 20
11.1436004594
 10
11.6432997922
 20
11.2516754708
 10
11.6307038459
 20
11.3548497113
 10
11.6192001161
 20
11.4531257864
 10
11.6087352496
 20
11.5465212777
 10
11.5992576312
 20
11.6350727295
 10
11.5907178514
 20
11.7188181965
 10
11.5830681334
 20
11.7978006727
 10
11.5762616359
 20
11.8720747749
 10
11.5702535366
 20
11.9416947367
 10
11.5650009095
 20
12.0067130189
 10
11.5604626028
 20
12.0671783562
 10
11.5565994004
 20
12.1231363197
 10
11.5533727835
 20
12.1746416282
 10
11.550744856
 20
12.2217402841
 10
11.5486779324
 20
12.2644626265
 10
11.5471336804
 20
12.3028174006
 10
11.5460717451
 20
12.3367831013
 10
11.5454474162
 20
12.3662965703
 10
11.5452077379
 20
12.3912154523
 10
11.5452831718
 20
12.4112982653
 10
11.5455733863
 20
12.4261627829
 10
11.5459211517
 20
12.4352496738
 10
11.5460044128
 20
12.4367841498
  0
LINE
  5
26B
100
AcDbEntity
  8
0
100
AcDbLine
 62
7
  6
CONTINUOUS
 10
12.1906923427
 20
5.7956694759
 11
12.1906923427
 21
5.7937516561
  0
LINE
  5
26C
100
AcDbEntity
  8
0
100
AcDbLine
 62
7
  6
CONTINUOUS
 10
12.3626923427
 20
5.5016694759
 11
12.3626923427
 21
5.3686694759
  0
LWPOLYLINE
  5
26D
100
AcDbEntity
  8
0
100
AcDbPolyline
 62
7
  6
CONTINUOUS
 90
20
 70
0
 10
11.6308482377
 20
12.3647825026
 10
11.6242537722
 20
12.4016983389
 10
11.616054963
 20
12.4456916288
 10
11.6077846339
 20
12.4878286541
 10
11.5994294114
 20
12.5279966849
 10
11.590926762
 20
12.5662789502
 10
11.5821371592
 20
12.6030035538
 10
11.5727961221
 20
12.638811563
 10
11.5624536004
 20
12.6746745563
 10
11.5503020856
 20
12.7121142539
 10
11.5349216599
 20
12.7532610527
 10
11.5140184719
 20
12.8004556913
 10
11.4840803543
 20
12.8557938062
 10
11.4418282507
 20
12.9179530431
 10
11.3857602466
 20
12.982019793
 10
11.3165945481
 20
13.0419480175
 10
11.2353953145
 20
13.0937134668
 10
11.1415977755
 20
13.1346908237
 10
11.0346106577
 20
13.1614693385
 10
10.9376923427
 20
13.1696621055
  0
LINE
  5
26E
100
AcDbEntity
  8
0
100
AcDbLine
 62
7
  6
CONTINUOUS
 10
15.3176923427
 20
7.8659194759
 11
15.3426923427
 21
7.8409194759
  0
LINE
  5
26F
100
AcDbEntity
  8
0
100
AcDbLine
 62
7
  6
CONTINUOUS
 10
15.1076923427
 20
8.5779194759
 11
15.1176923427
 21
8.5679194759
  0
LINE
  5
270
100
AcDbEntity
  8
0
100
AcDbLine
 62
7
  6
CONTINUOUS
 10
15.2681923427
 20
8.3699194759
 11
15.3176664221
 21
8.3158935552
  0
LINE
  5
271
100
AcDbEntity
  8
0
100
AcDbLine
 62
7
  6
CONTINUOUS
 10
13.7676923427
 20
5.3826694759
 11
13.7676923427
 21
5.3686694759
  0
LINE
  5
272
100
AcDbEntity
  8
0
100
AcDbLine
 62
7
  6
CONTINUOUS
 10
14.7676923427
 20
8.5779194759
 11
14.7576923427
 21
8.5679194759
  0
LINE
  5
273
100
AcDbEntity
  8
0
100
AcDbLine
 62
7
  6
CONTINUOUS
 10
14.5851923427
 20
7.4579194759
 11
14.5851923427
 21
7.4079194759
  0
LINE
  5
274
100
AcDbEntity
  8
0
100
AcDbLine
 62
7
  6
CONTINUOUS
 10
14.6071923427
 20
8.4409194759
 11
14.6071923427
 21
8.3699194759
  0
LINE
  5
275
100
AcDbEntity
  8
0
100
AcDbLine
 62
7
  6
CONTINUOUS
 10
14.6656923427
 20
8.5119194759
 11
14.6656923427
 21
8.4879194759
  0
LINE
  5
276
100
AcDbEntity
  8
0
100
AcDbLine
 62
7
  6
CONTINUOUS
 10
14.7376923427
 20
7.3766694759
 11
14.7376923427
 21
7.4079194759
  0
LINE
  5
277
100
AcDbEntity
  8
0
100
AcDbLine
 62
7
  6
CONTINUOUS
 10
15.3176664221
 20
8.3158935552
 11
15.3426923427
 21
8.3409194759
  0
LINE
  5
278
100
AcDbEntity
  8
0
100
AcDbLine
 62
7
  6
CONTINUOUS
 10
15.1376923427
 20
7.3766694759
 11
15.1376923427
 21
7.4079194759
  0
LINE
  5
279
100
AcDbEntity
  8
0
100
AcDbLine
 62
7
  6
CONTINUOUS
 10
15.2096923427
 20
8.5119194759
 11
15.2096923427
 21
8.4879194759
  0
LINE
  5
27A
100
AcDbEntity
  8
0
100
AcDbLine
 62
7
  6
CONTINUOUS
 10
15.2681923427
 20
8.4409194759
 11
15.2681923427
 21
8.3699194759
  0
LINE
  5
27B
100
AcDbEntity
  8
0
100
AcDbLine
 62
7
  6
CONTINUOUS
 10
15.2901923427
 20
7.4579194759
 11
15.2901923427
 21
7.4079194759
  0
LINE
  5
27C
100
AcDbEntity
  8
0
100
AcDbLine
 62
7
  6
CONTINUOUS
 10
15.3176923427
 20
8.3156322892
 11
15.3176923427
 21
7.8659105312
  0
LINE
  5
27D
100
AcDbEntity
  8
0
100
AcDbLine
 62
7
  6
CONTINUOUS
 10
15.3426923427
 20
8.3409194759
 11
15.3426923427
 21
7.8409194759
  0
LINE
  5
27E
100
AcDbEntity
  8
0
100
AcDbLine
 62
7
  6
CONTINUOUS
 10
14.527535693
 20
7.3105613301
 11
14.5030267991
 21
7.171564486
  0
LINE
  5
27F
100
AcDbEntity
  8
0
100
AcDbLine
 62
7
  6
CONTINUOUS
 10
15.3176923427
 20
7.8658589986
 11
15.3141496157
 21
7.8612112568
  0
LWPOLYLINE
  5
280
100
AcDbEntity
  8
0
100
AcDbPolyline
 62
7
  6
CONTINUOUS
 90
19
 70
0
 10
10.9376923427
 20
13.1696621054
 10
10.8347203419
 20
13.1604645245
 10
10.7224715542
 20
13.1306808166
 10
10.6243965933
 20
13.0850654847
 10
10.5400070421
 20
13.0273391495
 10
10.4698342807
 20
12.9613093917
 10
10.4150867268
 20
12.892608797
 10
10.3763752816
 20
12.829680722
 10
10.3502015373
 20
12.7763308701
 10
10.3320600438
 20
12.7315668353
 10
10.3185763304
 20
12.6926645777
 10
10.3075754465
 20
12.6565874609
 10
10.2978386336
 20
12.6210169271
 10
10.2887368216
 20
12.5845232225
 10
10.2798873253
 20
12.5460321119
 10
10.2710426121
 20
12.5046779655
 10
10.2620256222
 20
12.4596798132
 10
10.2527153108
 20
12.4103670973
 10
10.2445368282
 20
12.3647846708
  0
LINE
  5
281
100
AcDbEntity
  8
0
100
AcDbLine
 62
7
  6
CONTINUOUS
 10
15.3478489925
 20
7.3105613301
 11
15.3723578863
 21
7.171564486
  0
LINE
  5
282
100
AcDbEntity
  8
0
100
AcDbLine
 62
7
  6
CONTINUOUS
 10
15.3876923427
 20
7.8409194759
 11
15.3876923427
 21
8.3409194759
  0
LINE
  5
283
100
AcDbEntity
  8
0
100
AcDbLine
 62
7
  6
CONTINUOUS
 10
16.1076923427
 20
5.3826694759
 11
16.1076923427
 21
5.3686694759
  0
LINE
  5
284
100
AcDbEntity
  8
0
100
AcDbLine
 62
9
  6
CONTINUOUS
 10
16.1810964257
 20
8.2801294031
 11
16.1810964257
 21
7.9017095487
  0
LINE
  5
285
100
AcDbEntity
  8
0
100
AcDbLine
 62
9
  6
CONTINUOUS
 10
17.2359325978
 20
7.6966701675
 11
17.2359325978
 21
8.4851687843
  0
LINE
  5
286
100
AcDbEntity
  8
0
100
AcDbLine
 62
7
  6
CONTINUOUS
 10
17.5796923427
 20
8.3094194759
 11
17.5796923427
 21
7.8724194759
  0
LINE
  5
287
100
AcDbEntity
  8
0
100
AcDbLine
 62
9
  6
CONTINUOUS
 10
17.7726345072
 20
8.3071160042
 11
17.7726345072
 21
7.8747229475
  0
LINE
  5
288
100
AcDbEntity
  8
0
100
AcDbLine
 62
7
  6
CONTINUOUS
 10
17.9026923427
 20
8.3284194759
 11
17.9026923427
 21
7.8534194759
  0
ARC
  5
289
100
AcDbEntity
  8
0
100
AcDbCircle
 62
7
  6
CONTINUOUS
 10
7.6389533674
 20
6.1372952389
 40
1.52
100
AcDbArc
 50
168.4101664983
 51
183.7580464625
  0
ARC
  5
28A
100
AcDbEntity
  8
0
100
AcDbCircle
 62
7
  6
CONTINUOUS
 10
6.2364313181
 20
6.1372952389
 40
1.52
100
AcDbArc
 50
356.2419535375
 51
11.5898335017
  0
ARC
  5
28B
100
AcDbEntity
  8
0
100
AcDbCircle
 62
7
  6
CONTINUOUS
 10
5.9805017528
 20
6.4292687735
 40
1.5
100
AcDbArc
 50
70.2371945424
 51
101.0
  0
ARC
  5
28C
100
AcDbEntity
  8
0
100
AcDbCircle
 62
7
  6
CONTINUOUS
 10
6.5499068104
 20
6.201584552
 40
1.2
100
AcDbArc
 50
11.5898335019
 51
40.5151811264
  0
ARC
  5
28D
100
AcDbEntity
  8
0
100
AcDbCircle
 62
7
  6
CONTINUOUS
 10
7.3254778751
 20
6.201584552
 40
1.2
100
AcDbArc
 50
139.4848188736
 51
168.4101664981
  0
ARC
  5
28E
100
AcDbEntity
  8
0
100
AcDbCircle
 62
7
  6
CONTINUOUS
 10
6.1091036979
 20
7.2410237571
 40
0.4
100
AcDbArc
 50
319.4848188736
 51
350.0
  0
ARC
  5
28F
100
AcDbEntity
  8
0
100
AcDbCircle
 62
7
  6
CONTINUOUS
 10
7.7662809875
 20
7.2410237571
 40
0.4
100
AcDbArc
 50
190.0
 51
220.5151811264
  0
ARC
  5
290
100
AcDbEntity
  8
0
100
AcDbCircle
 62
7
  6
CONTINUOUS
 10
6.2783109905
 20
7.6420468718
 40
0.3578813522
100
AcDbArc
 50
329.0364377797
 51
37.7628051893
  0
ARC
  5
291
100
AcDbEntity
  8
0
100
AcDbCircle
 62
7
  6
CONTINUOUS
 10
7.597073695
 20
7.6420468718
 40
0.3578813522
100
AcDbArc
 50
142.2371948107
 51
210.9635622203
  0
ARC
  5
292
100
AcDbEntity
  8
0
100
AcDbCircle
 62
7
  6
CONTINUOUS
 10
8.0954253621
 20
6.0151881359
 40
0.343
100
AcDbArc
 50
176.2419535375
 51
230.9887457036
  0
ARC
  5
293
100
AcDbEntity
  8
0
100
AcDbCircle
 62
7
  6
CONTINUOUS
 10
5.7799593234
 20
6.0151881359
 40
0.343
100
AcDbArc
 50
309.0112542964
 51
3.7580464625
  0
ARC
  5
294
100
AcDbEntity
  8
0
100
AcDbCircle
 62
7
  6
CONTINUOUS
 10
9.7686923427
 20
5.5016694759
 40
0.256
100
AcDbArc
 50
119.0144340225
 51
180.0
  0
ARC
  5
295
100
AcDbEntity
  8
0
100
AcDbCircle
 62
7
  6
CONTINUOUS
 10
9.8326923427
 20
5.7956694759
 40
0.148
100
AcDbArc
 50
97.6788869771
 51
180.0
  0
ARC
  5
296
100
AcDbEntity
  8
0
100
AcDbCircle
 62
7
  6
CONTINUOUS
 10
5.8926923427
 20
5.3826694759
 40
0.125
100
AcDbArc
 50
118.3576365763
 51
180.0
  0
ARC
  5
297
100
AcDbEntity
  8
0
100
AcDbCircle
 62
7
  6
CONTINUOUS
 10
7.9826923427
 20
5.3826694759
 40
0.125
100
AcDbArc
 50
0.0
 51
61.6423634237
  0
ARC
  5
298
100
AcDbEntity
  8
0
100
AcDbCircle
 62
7
  6
CONTINUOUS
 10
4.0466539738
 20
7.809536938
 40
0.086
100
AcDbArc
 50
49.2861651143
 51
149.3187124065
  0
ARC
  5
299
100
AcDbEntity
  8
0
100
AcDbCircle
 62
7
  6
CONTINUOUS
 10
7.2690643722
 20
7.2966694759
 40
0.08
100
AcDbArc
 50
9.9999999997
 51
90.0
  0
ARC
  5
29A
100
AcDbEntity
  8
0
100
AcDbCircle
 62
7
  6
CONTINUOUS
 10
6.6063203132
 20
7.2966694759
 40
0.08
100
AcDbArc
 50
90.0
 51
170.0000000003
  0
ARC
  5
29B
100
AcDbEntity
  8
0
100
AcDbCircle
 62
7
  6
CONTINUOUS
 10
5.998456752
 20
5.6317714114
 40
0.078
100
AcDbArc
 50
120.9443106101
 51
171.96842665
  0
ARC
  5
29C
100
AcDbEntity
  8
0
100
AcDbCircle
 62
7
  6
CONTINUOUS
 10
7.8769279335
 20
5.6317714114
 40
0.078
100
AcDbArc
 50
8.03157335
 51
59.0556893899
  0
ARC
  5
29D
100
AcDbEntity
  8
0
100
AcDbCircle
 62
7
  6
CONTINUOUS
 10
5.9436412846
 20
5.5391907662
 40
0.078
100
AcDbArc
 50
126.7734275124
 51
176.708302835
  0
ARC
  5
29E
100
AcDbEntity
  8
0
100
AcDbCircle
 62
7
  6
CONTINUOUS
 10
7.9317434009
 20
5.5391907662
 40
0.078
100
AcDbArc
 50
3.291697165
 51
53.2265724876
  0
ARC
  5
29F
100
AcDbEntity
  8
0
100
AcDbCircle
 62
7
  6
CONTINUOUS
 10
9.6066923427
 20
5.7937516561
 40
0.078
100
AcDbArc
 50
299.0144340222
 51
360.0
  0
ARC
  5
2A0
100
AcDbEntity
  8
0
100
AcDbCircle
 62
7
  6
CONTINUOUS
 10
7.948916591
 20
5.7518448605
 40
0.062
100
AcDbArc
 50
197.0467181652
 51
239.0556893902
  0
ARC
  5
2A1
100
AcDbEntity
  8
0
100
AcDbCircle
 62
7
  6
CONTINUOUS
 10
5.9264680945
 20
5.7518448605
 40
0.062
100
AcDbArc
 50
300.9443106098
 51
342.9532818348
  0
ARC
  5
2A2
100
AcDbEntity
  8
0
100
AcDbCircle
 62
7
  6
CONTINUOUS
 10
8.0155547051
 20
5.65133204
 40
0.062
100
AcDbArc
 50
188.0315733501
 51
233.2265724873
  0
ARC
  5
2A3
100
AcDbEntity
  8
0
100
AcDbCircle
 62
7
  6
CONTINUOUS
 10
5.8598299804
 20
5.65133204
 40
0.062
100
AcDbArc
 50
306.7734275127
 51
351.9684266499
  0
ARC
  5
2A4
100
AcDbEntity
  8
0
100
AcDbCircle
 62
7
  6
CONTINUOUS
 10
8.0715124215
 20
5.5472294759
 40
0.062
100
AcDbArc
 50
183.291697165
 51
241.6423634236
  0
ARC
  5
2A5
100
AcDbEntity
  8
0
100
AcDbCircle
 62
7
  6
CONTINUOUS
 10
5.8038722639
 20
5.5472294759
 40
0.062
100
AcDbArc
 50
298.3576365764
 51
356.708302835
  0
ARC
  5
2A6
100
AcDbEntity
  8
0
100
AcDbCircle
 62
7
  6
CONTINUOUS
 10
6.0153822364
 20
5.7245817836
 40
0.031
100
AcDbArc
 50
129.0112542963
 51
162.9532818349
  0
ARC
  5
2A7
100
AcDbEntity
  8
0
100
AcDbCircle
 62
7
  6
CONTINUOUS
 10
7.8600024491
 20
5.7245817836
 40
0.031
100
AcDbArc
 50
17.0467181651
 51
50.9887457037
  0
ARC
  5
2A8
100
AcDbEntity
  8
0
100
AcDbCircle
 62
7
  6
CONTINUOUS
 10
5.9805017528
 20
9.7525701782
 40
1.5
100
AcDbArc
 50
259.0
 51
289.7628054576
  0
ARC
  5
2A9
100
AcDbEntity
  8
0
100
AcDbCircle
 62
7
  6
CONTINUOUS
 10
7.0176923427
 20
8.0908589986
 40
0.375
100
AcDbArc
 50
322.2371948107
 51
48.0871091166
  0
ARC
  5
2AA
100
AcDbEntity
  8
0
100
AcDbCircle
 62
7
  6
CONTINUOUS
 10
4.5797288721
 20
8.0039194759
 40
0.313
100
AcDbArc
 50
204.8426560169
 51
281.0000000001
  0
ARC
  5
2AB
100
AcDbEntity
  8
0
100
AcDbCircle
 62
7
  6
CONTINUOUS
 10
4.5797288721
 20
8.1779194759
 40
0.313
100
AcDbArc
 50
78.9999999999
 51
155.1573439831
  0
ARC
  5
2AC
100
AcDbEntity
  8
0
100
AcDbCircle
 62
7
  6
CONTINUOUS
 10
10.3323054295
 20
10.3614536294
 40
0.2624107458
100
AcDbArc
 50
125.0216669149
 51
130.1655458548
  0
ARC
  5
2AD
100
AcDbEntity
  8
0
100
AcDbCircle
 62
7
  6
CONTINUOUS
 10
4.0506639997
 20
8.0909194759
 40
0.249971657
100
AcDbArc
 50
108.1750968409
 51
251.8249031591
  0
ARC
  5
2AE
100
AcDbEntity
  8
0
100
AcDbCircle
 62
7
  6
CONTINUOUS
 10
10.2687995002
 20
10.4062622253
 40
0.2048550211
100
AcDbArc
 50
117.0584836226
 51
118.3226317248
  0
ARC
  5
2AF
100
AcDbEntity
  8
0
100
AcDbCircle
 62
7
  6
CONTINUOUS
 10
4.2005923953
 20
8.1934194759
 40
0.15
100
AcDbArc
 50
50.6541702341
 51
130.7138348858
  0
ARC
  5
2B0
100
AcDbEntity
  8
0
100
AcDbCircle
 62
7
  6
CONTINUOUS
 10
4.2005923953
 20
7.9884194759
 40
0.15
100
AcDbArc
 50
229.2861651142
 51
309.3458297659
  0
ARC
  5
2B1
100
AcDbEntity
  8
0
100
AcDbCircle
 62
7
  6
CONTINUOUS
 10
4.0466539738
 20
8.3723020138
 40
0.086
100
AcDbArc
 50
210.6812875935
 51
310.7138348857
  0
ARC
  5
2B2
100
AcDbEntity
  8
0
100
AcDbCircle
 62
7
  6
CONTINUOUS
 10
7.1736923427
 20
8.5679194759
 40
0.056
100
AcDbArc
 50
180.0
 51
270.0
  0
ARC
  5
2B3
100
AcDbEntity
  8
0
100
AcDbCircle
 62
7
  6
CONTINUOUS
 10
6.7016923427
 20
8.5679194759
 40
0.056
100
AcDbArc
 50
270.0
 51
360.0
  0
ARC
  5
2B4
100
AcDbEntity
  8
0
100
AcDbCircle
 62
7
  6
CONTINUOUS
 10
7.2211923427
 20
8.4409194759
 40
0.047
100
AcDbArc
 50
0.0
 51
90.0
  0
ARC
  5
2B5
100
AcDbEntity
  8
0
100
AcDbCircle
 62
7
  6
CONTINUOUS
 10
6.6541923427
 20
8.4409194759
 40
0.047
100
AcDbArc
 50
90.0
 51
180.0
  0
ARC
  5
2B6
100
AcDbEntity
  8
0
100
AcDbCircle
 62
7
  6
CONTINUOUS
 10
14.2364313181
 20
6.1372952389
 40
1.52
100
AcDbArc
 50
356.2419535375
 51
11.5898335017
  0
ARC
  5
2B7
100
AcDbEntity
  8
0
100
AcDbCircle
 62
7
  6
CONTINUOUS
 10
15.6389533674
 20
6.1372952389
 40
1.52
100
AcDbArc
 50
168.4101664983
 51
183.7580464625
  0
ARC
  5
2B8
100
AcDbEntity
  8
0
100
AcDbCircle
 62
7
  6
CONTINUOUS
 10
15.8948829327
 20
6.4292687735
 40
1.5
100
AcDbArc
 50
79.0
 51
109.7628054576
  0
ARC
  5
2B9
100
AcDbEntity
  8
0
100
AcDbCircle
 62
7
  6
CONTINUOUS
 10
15.3254778751
 20
6.201584552
 40
1.2
100
AcDbArc
 50
139.4848188736
 51
168.4101664981
  0
ARC
  5
2BA
100
AcDbEntity
  8
0
100
AcDbCircle
 62
7
  6
CONTINUOUS
 10
14.5499068104
 20
6.201584552
 40
1.2
100
AcDbArc
 50
11.5898335019
 51
40.5151811264
  0
ARC
  5
2BB
100
AcDbEntity
  8
0
100
AcDbCircle
 62
7
  6
CONTINUOUS
 10
15.7662809875
 20
7.2410237571
 40
0.4
100
AcDbArc
 50
190.0
 51
220.5151811264
  0
ARC
  5
2BC
100
AcDbEntity
  8
0
100
AcDbCircle
 62
7
  6
CONTINUOUS
 10
14.1091036979
 20
7.2410237571
 40
0.4
100
AcDbArc
 50
319.4848188736
 51
350.0
  0
ARC
  5
2BD
100
AcDbEntity
  8
0
100
AcDbCircle
 62
7
  6
CONTINUOUS
 10
15.597073695
 20
7.6420468718
 40
0.3578813522
100
AcDbArc
 50
142.2371948107
 51
210.9635622203
  0
ARC
  5
2BE
100
AcDbEntity
  8
0
100
AcDbCircle
 62
7
  6
CONTINUOUS
 10
14.2783109905
 20
7.6420468718
 40
0.3578813522
100
AcDbArc
 50
329.0364377797
 51
37.7628051893
  0
ARC
  5
2BF
100
AcDbEntity
  8
0
100
AcDbCircle
 62
7
  6
CONTINUOUS
 10
13.7799593234
 20
6.0151881359
 40
0.343
100
AcDbArc
 50
309.0112542964
 51
3.7580464625
  0
ARC
  5
2C0
100
AcDbEntity
  8
0
100
AcDbCircle
 62
7
  6
CONTINUOUS
 10
16.0954253621
 20
6.0151881359
 40
0.343
100
AcDbArc
 50
176.2419535375
 51
230.9887457036
  0
ARC
  5
2C1
100
AcDbEntity
  8
0
100
AcDbCircle
 62
7
  6
CONTINUOUS
 10
12.1066923427
 20
5.5016694759
 40
0.256
100
AcDbArc
 50
0.0
 51
60.9855659775
  0
ARC
  5
2C2
100
AcDbEntity
  8
0
100
AcDbCircle
 62
7
  6
CONTINUOUS
 10
12.0426923427
 20
5.7956694759
 40
0.148
100
AcDbArc
 50
0.0
 51
82.3219387281
  0
ARC
  5
2C3
100
AcDbEntity
  8
0
100
AcDbCircle
 62
7
  6
CONTINUOUS
 10
15.9826923427
 20
5.3826694759
 40
0.125
100
AcDbArc
 50
0.0
 51
61.6423634237
  0
ARC
  5
2C4
100
AcDbEntity
  8
0
100
AcDbCircle
 62
7
  6
CONTINUOUS
 10
13.8926923427
 20
5.3826694759
 40
0.125
100
AcDbArc
 50
118.3576365763
 51
180.0
  0
ARC
  5
2C5
100
AcDbEntity
  8
0
100
AcDbCircle
 62
7
  6
CONTINUOUS
 10
17.8287307117
 20
7.809536938
 40
0.086
100
AcDbArc
 50
30.6812875935
 51
130.7138348857
  0
ARC
  5
2C6
100
AcDbEntity
  8
0
100
AcDbCircle
 62
7
  6
CONTINUOUS
 10
14.6063203132
 20
7.2966694759
 40
0.08
100
AcDbArc
 50
90.0
 51
170.0000000003
  0
ARC
  5
2C7
100
AcDbEntity
  8
0
100
AcDbCircle
 62
7
  6
CONTINUOUS
 10
15.2690643722
 20
7.2966694759
 40
0.08
100
AcDbArc
 50
9.9999999997
 51
90.0
  0
ARC
  5
2C8
100
AcDbEntity
  8
0
100
AcDbCircle
 62
7
  6
CONTINUOUS
 10
15.8769279335
 20
5.6317714114
 40
0.078
100
AcDbArc
 50
8.03157335
 51
59.0556893899
  0
ARC
  5
2C9
100
AcDbEntity
  8
0
100
AcDbCircle
 62
7
  6
CONTINUOUS
 10
13.998456752
 20
5.6317714114
 40
0.078
100
AcDbArc
 50
120.9443106101
 51
171.96842665
  0
ARC
  5
2CA
100
AcDbEntity
  8
0
100
AcDbCircle
 62
7
  6
CONTINUOUS
 10
15.9317434009
 20
5.5391907662
 40
0.078
100
AcDbArc
 50
3.291697165
 51
53.2265724876
  0
ARC
  5
2CB
100
AcDbEntity
  8
0
100
AcDbCircle
 62
7
  6
CONTINUOUS
 10
13.9436412846
 20
5.5391907662
 40
0.078
100
AcDbArc
 50
126.7734275124
 51
176.708302835
  0
ARC
  5
2CC
100
AcDbEntity
  8
0
100
AcDbCircle
 62
7
  6
CONTINUOUS
 10
12.2686923427
 20
5.7937516561
 40
0.078
100
AcDbArc
 50
180.0
 51
240.9855659778
  0
ARC
  5
2CD
100
AcDbEntity
  8
0
100
AcDbCircle
 62
7
  6
CONTINUOUS
 10
13.9264680945
 20
5.7518448605
 40
0.062
100
AcDbArc
 50
300.9443106098
 51
342.9532818348
  0
ARC
  5
2CE
100
AcDbEntity
  8
0
100
AcDbCircle
 62
7
  6
CONTINUOUS
 10
15.948916591
 20
5.7518448605
 40
0.062
100
AcDbArc
 50
197.0467181652
 51
239.0556893902
  0
ARC
  5
2CF
100
AcDbEntity
  8
0
100
AcDbCircle
 62
7
  6
CONTINUOUS
 10
13.8598299804
 20
5.65133204
 40
0.062
100
AcDbArc
 50
306.7734275127
 51
351.9684266499
  0
ARC
  5
2D0
100
AcDbEntity
  8
0
100
AcDbCircle
 62
7
  6
CONTINUOUS
 10
16.0155547051
 20
5.65133204
 40
0.062
100
AcDbArc
 50
188.0315733501
 51
233.2265724873
  0
ARC
  5
2D1
100
AcDbEntity
  8
0
100
AcDbCircle
 62
7
  6
CONTINUOUS
 10
13.8038722639
 20
5.5472294759
 40
0.062
100
AcDbArc
 50
298.3576365764
 51
356.708302835
  0
ARC
  5
2D2
100
AcDbEntity
  8
0
100
AcDbCircle
 62
7
  6
CONTINUOUS
 10
16.0715124215
 20
5.5472294759
 40
0.062
100
AcDbArc
 50
183.291697165
 51
241.6423634236
  0
ARC
  5
2D3
100
AcDbEntity
  8
0
100
AcDbCircle
 62
7
  6
CONTINUOUS
 10
15.8600024491
 20
5.7245817836
 40
0.031
100
AcDbArc
 50
17.0467181651
 51
50.9887457037
  0
ARC
  5
2D4
100
AcDbEntity
  8
0
100
AcDbCircle
 62
7
  6
CONTINUOUS
 10
14.0153822364
 20
5.7245817836
 40
0.031
100
AcDbArc
 50
129.0112542963
 51
162.9532818349
  0
ARC
  5
2D5
100
AcDbEntity
  8
0
100
AcDbCircle
 62
7
  6
CONTINUOUS
 10
15.8948829327
 20
9.7525701782
 40
1.5
100
AcDbArc
 50
250.2371945424
 51
281.0
  0
ARC
  5
2D6
100
AcDbEntity
  8
0
100
AcDbCircle
 62
7
  6
CONTINUOUS
 10
14.8576923427
 20
8.0908589986
 40
0.375
100
AcDbArc
 50
131.9128908834
 51
217.7628051893
  0
ARC
  5
2D7
100
AcDbEntity
  8
0
100
AcDbCircle
 62
7
  6
CONTINUOUS
 10
17.2956558134
 20
8.0039194759
 40
0.313
100
AcDbArc
 50
258.9999999999
 51
335.1573439831
  0
ARC
  5
2D8
100
AcDbEntity
  8
0
100
AcDbCircle
 62
7
  6
CONTINUOUS
 10
17.2956558134
 20
8.1779194759
 40
0.313
100
AcDbArc
 50
24.8426560169
 51
101.0000000001
  0
ARC
  5
2D9
100
AcDbEntity
  8
0
100
AcDbCircle
 62
7
  6
CONTINUOUS
 10
17.8247206858
 20
8.0909194759
 40
0.249971657
100
AcDbArc
 50
288.1750968409
 51
71.8249031591
  0
ARC
  5
2DA
100
AcDbEntity
  8
0
100
AcDbCircle
 62
7
  6
CONTINUOUS
 10
11.5748784011
 20
10.3945673288
 40
0.2164965898
100
AcDbArc
 50
37.8464562183
 51
42.414200669
  0
ARC
  5
2DB
100
AcDbEntity
  8
0
100
AcDbCircle
 62
7
  6
CONTINUOUS
 10
11.6039626788
 20
10.4012387144
 40
0.2105216683
100
AcDbArc
 50
61.9251615882
 51
62.9487282573
  0
ARC
  5
2DC
100
AcDbEntity
  8
0
100
AcDbCircle
 62
7
  6
CONTINUOUS
 10
17.6747922902
 20
8.1934194759
 40
0.15
100
AcDbArc
 50
49.2861651142
 51
129.3458297659
  0
ARC
  5
2DD
100
AcDbEntity
  8
0
100
AcDbCircle
 62
7
  6
CONTINUOUS
 10
17.6747922902
 20
7.9884194759
 40
0.15
100
AcDbArc
 50
230.6541702341
 51
310.7138348858
  0
ARC
  5
2DE
100
AcDbEntity
  8
0
100
AcDbCircle
 62
7
  6
CONTINUOUS
 10
17.8287307117
 20
8.3723020138
 40
0.086
100
AcDbArc
 50
229.2861651143
 51
329.3187124065
  0
ARC
  5
2DF
100
AcDbEntity
  8
0
100
AcDbCircle
 62
7
  6
CONTINUOUS
 10
14.7016923427
 20
8.5679194759
 40
0.056
100
AcDbArc
 50
270.0
 51
360.0
  0
ARC
  5
2E0
100
AcDbEntity
  8
0
100
AcDbCircle
 62
7
  6
CONTINUOUS
 10
15.1736923427
 20
8.5679194759
 40
0.056
100
AcDbArc
 50
180.0
 51
270.0
  0
ARC
  5
2E1
100
AcDbEntity
  8
0
100
AcDbCircle
 62
7
  6
CONTINUOUS
 10
14.6541923427
 20
8.4409194759
 40
0.047
100
AcDbArc
 50
90.0
 51
180.0
  0
ARC
  5
2E2
100
AcDbEntity
  8
0
100
AcDbCircle
 62
7
  6
CONTINUOUS
 10
15.2211923427
 20
8.4409194759
 40
0.047
100
AcDbArc
 50
0.0
 51
90.0
  0
LINE
  5
2E3
100
AcDbEntity
  8
0
100
AcDbLine
 62
7
  6
CONTINUOUS
 10
15.3176664221
 20
8.3158935552
 11
15.3176923427
 21
8.3156322893
  0
LINE
  5
2E4
100
AcDbEntity
  8
0
100
AcDbLine
 62
7
  6
CONTINUOUS
 10
6.5576923427
 20
8.3156322892
 11
6.5577182634
 21
8.3158935552
  0
SPLINE
  5
2E5
100
AcDbEntity
  8
0
100
AcDbSpline
 62
7
  6
CONTINUOUS
 70
0
 71
3
 72
39
 73
35
 74
0
 42
0.0000001
 43
0.0000001
 44
0.0000000001
 40
0.0
 40
0.0
 40
0.0
 40
0.0
 40
0.0065052218
 40
0.0137074757
 40
0.0216216289
 40
0.0302557464
 40
0.0496855324
 40
0.0719523167
 40
0.0969632124
 40
0.1245907095
 40
0.1546705832
 40
0.1870254804
 40
0.2214479106
 40
0.2577167976
 40
0.2955980622
 40
0.3348389083
 40
0.4163564197
 40
0.5001036373
 40
0.5838466067
 40
0.6653516493
 40
0.7045834872
 40
0.7424539835
 40
0.7787104155
 40
0.8131192807
 40
0.8454589638
 40
0.8755226998
 40
0.9031330418
 40
0.9281254686
 40
0.9503733361
 40
0.9697833277
 40
0.9784074455
 40
0.986311729
 40
0.9935042692
 40
1.0
 40
1.0
 40
1.0
 40
1.0
 10
11.6942668345
 20
10.2256276845
 30
0.0
 10
11.6915370302
 20
10.2237083826
 30
0.0
 10
11.6856065275
 20
10.2199155952
 30
0.0
 10
11.6758776254
 20
10.214577174
 30
0.0
 10
11.6648848619
 20
10.2093117787
 30
0.0
 10
11.6478842147
 20
10.2021155887
 30
0.0
 10
11.6235237948
 20
10.1934949381
 30
0.0
 10
11.5906567622
 20
10.1839266711
 30
0.0
 10
11.5533093915
 20
10.1748475484
 30
0.0
 10
11.5117342348
 20
10.1663254768
 30
0.0
 10
11.4662107744
 20
10.158416157
 30
0.0
 10
11.4170499743
 20
10.1511844311
 30
0.0
 10
11.3645883327
 20
10.1446758623
 30
0.0
 10
11.3091863889
 20
10.1389393357
 30
0.0
 10
11.2512254514
 20
10.1340174733
 30
0.0
 10
11.1700309142
 20
10.1285127534
 30
0.0
 10
11.0652062184
 20
10.1239547197
 30
0.0
 10
10.9374680824
 20
10.1221377945
 30
0.0
 10
10.8097365241
 20
10.1239674586
 30
0.0
 10
10.7049254846
 20
10.1285359689
 30
0.0
 10
10.6237480798
 20
10.134048863
 30
0.0
 10
10.5658042095
 20
10.1389763483
 30
0.0
 10
10.5104218273
 20
10.1447185797
 30
0.0
 10
10.4579821054
 20
10.1512320613
 30
0.0
 10
10.4088453293
 20
10.1584688407
 30
0.0
 10
10.3633479075
 20
10.166382693
 30
0.0
 10
10.321800655
 20
10.1749087567
 30
0.0
 10
10.2844830575
 20
10.1839920013
 30
0.0
 10
10.2516474389
 20
10.1935633188
 30
0.0
 10
10.2273144401
 20
10.2021867898
 30
0.0
 10
10.21033682
 20
10.2093852221
 30
0.0
 10
10.1993614402
 20
10.2146518199
 30
0.0
 10
10.1896501351
 20
10.2199913496
 30
0.0
 10
10.1837318727
 20
10.2237850566
 30
0.0
 10
10.1810083392
 20
10.2257048087
 30
0.0
  0
SPLINE
  5
2E6
100
AcDbEntity
  8
0
100
AcDbSpline
 62
7
  6
CONTINUOUS
 70
0
 71
3
 72
9
 73
5
 74
0
 42
0.0000001
 43
0.0000001
 44
0.0000000001
 40
0.0
 40
0.0
 40
0.0
 40
0.0
 40
0.2410097542
 40
1.0
 40
1.0
 40
1.0
 40
1.0
 10
11.6941778082
 20
10.2255260392
 30
0.0
 10
11.69673509
 20
10.2273276935
 30
0.0
 10
11.7072135415
 20
10.2349881907
 30
0.0
 10
11.7171284929
 20
10.243426977
 30
0.0
 10
11.7242314912
 20
10.2502531616
 30
0.0
  0
SPLINE
  5
2E7
100
AcDbEntity
  8
0
100
AcDbSpline
 62
7
  6
CONTINUOUS
 70
0
 71
3
 72
14
 73
10
 74
0
 42
0.0000001
 43
0.0000001
 44
0.0000000001
 40
0.0
 40
0.0
 40
0.0
 40
0.0
 40
0.2298913969
 40
0.3517384962
 40
0.4773193915
 40
0.605405749
 40
0.7351405562
 40
0.8665431663
 40
1.0
 40
1.0
 40
1.0
 40
1.0
 10
11.7242314912
 20
10.2502531616
 30
0.0
 10
11.7335583358
 20
10.2592165261
 30
0.0
 10
11.7467659241
 20
10.2741318268
 30
0.0
 10
11.7615920779
 20
10.2965666269
 30
0.0
 10
11.7714917893
 20
10.3152742433
 30
0.0
 10
11.7796339906
 20
10.3352941488
 30
0.0
 10
11.7856525196
 20
10.3563990589
 30
0.0
 10
11.7893576913
 20
10.3783347887
 30
0.0
 10
11.7901923427
 20
10.3932517403
 30
0.0
 10
11.7901923427
 20
10.4007611796
 30
0.0
  0
SPLINE
  5
2E8
100
AcDbEntity
  8
0
100
AcDbSpline
 62
7
  6
CONTINUOUS
 70
0
 71
3
 72
15
 73
11
 74
0
 42
0.0000001
 43
0.0000001
 44
0.0000000001
 40
0.0
 40
0.0
 40
0.0
 40
0.0
 40
0.1342118796
 40
0.2656021118
 40
0.3950030766
 40
0.5228696391
 40
0.6484787855
 40
0.7705527801
 40
0.8877408973
 40
1.0
 40
1.0
 40
1.0
 40
1.0
 10
10.0851923427
 20
10.4007611796
 30
0.0
 10
10.0851923427
 20
10.3931488833
 30
0.0
 10
10.0860338212
 20
10.3780697806
 30
0.0
 10
10.089806634
 20
10.3559399852
 30
0.0
 10
10.0959361091
 20
10.3347164468
 30
0.0
 10
10.1042373879
 20
10.3146054354
 30
0.0
 10
10.1143210268
 20
10.2958051324
 30
0.0
 10
10.1258033496
 20
10.2785503597
 30
0.0
 10
10.1383770912
 20
10.2630417609
 30
0.0
 10
10.1474570977
 20
10.2536935061
 30
0.0
 10
10.1520757952
 20
10.2493107604
 30
0.0
  0
SPLINE
  5
2E9
100
AcDbEntity
  8
0
100
AcDbSpline
 62
7
  6
CONTINUOUS
 70
0
 71
3
 72
9
 73
5
 74
0
 42
0.0000001
 43
0.0000001
 44
0.0000000001
 40
0.0
 40
0.0
 40
0.0
 40
0.0
 40
0.2581523041
 40
1.0
 40
1.0
 40
1.0
 40
1.0
 10
10.1520757952
 20
10.2493107604
 30
0.0
 10
10.1544081843
 20
10.2470975242
 30
0.0
 10
10.1636191541
 20
10.2387100729
 30
0.0
 10
10.1734666571
 20
10.2310335544
 30
0.0
 10
10.1810125754
 20
10.2257011458
 30
0.0
  0
SPLINE
  5
2EA
100
AcDbEntity
  8
0
100
AcDbSpline
 62
7
  6
CONTINUOUS
 70
0
 71
3
 72
9
 73
5
 74
0
 42
0.0000001
 43
0.0000001
 44
0.0000000001
 40
0.0
 40
0.0
 40
0.0
 40
0.0
 40
0.4840663318
 40
1.0
 40
1.0
 40
1.0
 40
1.0
 10
10.163050952
 20
10.5619837304
 30
0.0
 10
10.1555905775
 20
10.5556817435
 30
0.0
 10
10.1409025915
 20
10.5417760877
 30
0.0
 10
10.128155965
 20
10.5260337931
 30
0.0
 10
10.1222277432
 20
10.5174781547
 30
0.0
  0
SPLINE
  5
2EB
100
AcDbEntity
  8
0
100
AcDbSpline
 62
7
  6
CONTINUOUS
 70
0
 71
3
 72
11
 73
7
 74
0
 42
0.0000001
 43
0.0000001
 44
0.0000000001
 40
0.0
 40
0.0
 40
0.0
 40
0.0
 40
0.240413447
 40
0.4887564704
 40
0.7417654375
 40
1.0
 40
1.0
 40
1.0
 40
1.0
 10
10.1222277432
 20
10.5174781547
 30
0.0
 10
10.1165571664
 20
10.5092943509
 30
0.0
 10
10.1061913355
 20
10.4918211181
 30
0.0
 10
10.0943457527
 20
10.4633577478
 30
0.0
 10
10.0868836474
 20
10.4326671561
 30
0.0
 10
10.0851923427
 20
10.4114556272
 30
0.0
 10
10.0851923427
 20
10.4007611796
 30
0.0
  0
SPLINE
  5
2EC
100
AcDbEntity
  8
0
100
AcDbSpline
 62
7
  6
CONTINUOUS
 70
0
 71
3
 72
10
 73
6
 74
0
 42
0.0000001
 43
0.0000001
 44
0.0000000001
 40
0.0
 40
0.0
 40
0.0
 40
0.0
 40
0.5097103681
 40
0.7547821871
 40
1.0
 40
1.0
 40
1.0
 40
1.0
 10
10.1351456146
 20
10.5328103059
 30
0.0
 10
10.1340998838
 20
10.5351257784
 30
0.0
 10
10.1329606604
 20
10.5387798881
 30
0.0
 10
10.1325984417
 20
10.543766304
 30
0.0
 10
10.132796943
 20
10.5462137437
 30
0.0
 10
10.132985689
 20
10.5474213764
 30
0.0
  0
SPLINE
  5
2ED
100
AcDbEntity
  8
0
100
AcDbSpline
 62
7
  6
CONTINUOUS
 70
0
 71
3
 72
13
 73
9
 74
0
 42
0.0000001
 43
0.0000001
 44
0.0000000001
 40
0.0
 40
0.0
 40
0.0
 40
0.0
 40
0.2603130536
 40
0.3876590211
 40
0.5136842569
 40
0.6385520213
 40
0.7617656397
 40
1.0
 40
1.0
 40
1.0
 40
1.0
 10
11.7901923427
 20
10.4007611796
 30
0.0
 10
11.7901923427
 20
10.4126130108
 30
0.0
 10
11.7886461264
 20
10.4303175334
 30
0.0
 10
11.7835189875
 20
10.4531575316
 30
0.0
 10
11.7782846026
 20
10.4695881149
 30
0.0
 10
11.7717358283
 20
10.4853338423
 30
0.0
 10
11.7616279246
 20
10.5050503842
 30
0.0
 10
11.7524907047
 20
10.5188325251
 30
0.0
 10
11.7458366218
 20
10.5273982748
 30
0.0
  0
SPLINE
  5
2EE
100
AcDbEntity
  8
0
100
AcDbSpline
 62
7
  6
CONTINUOUS
 70
0
 71
3
 72
9
 73
5
 74
0
 42
0.0000001
 43
0.0000001
 44
0.0000000001
 40
0.0
 40
0.0
 40
0.0
 40
0.0
 40
0.5152002489
 40
1.0
 40
1.0
 40
1.0
 40
1.0
 10
11.7347152773
 20
10.5405911161
 30
0.0
 10
11.7284329477
 20
10.5474725107
 30
0.0
 10
11.7153784532
 20
10.5600646836
 30
0.0
 10
11.7010372113
 20
10.5711330159
 30
0.0
 10
11.6938660646
 20
10.5761780194
 30
0.0
  0
SPLINE
  5
2EF
100
AcDbEntity
  8
0
100
AcDbSpline
 62
7
  6
CONTINUOUS
 70
0
 71
3
 72
9
 73
5
 74
0
 42
0.0000001
 43
0.0000001
 44
0.0000000001
 40
0.0
 40
0.0
 40
0.0
 40
0.0
 40
0.4909452521
 40
1.0
 40
1.0
 40
1.0
 40
1.0
 10
11.742399001
 20
10.5474213473
 30
0.0
 10
11.7427578204
 20
10.5451255289
 30
0.0
 10
11.7428136487
 20
10.5403147157
 30
0.0
 10
11.7414750493
 20
10.5357066702
 30
0.0
 10
11.740535568
 20
10.5334879768
 30
0.0
  0
SPLINE
  5
2F0
100
AcDbEntity
  8
0
100
AcDbSpline
 62
7
  6
CONTINUOUS
 70
0
 71
3
 72
20
 73
16
 74
0
 42
0.0000001
 43
0.0000001
 44
0.0000000001
 40
0.0
 40
0.0
 40
0.0
 40
0.0
 40
0.1613075448
 40
0.3188621343
 40
0.4689574973
 40
0.5401216463
 40
0.6081698452
 40
0.6727147816
 40
0.7333736308
 40
0.7897855439
 40
0.8416837518
 40
0.8888426346
 40
0.9310547227
 40
0.968143075
 40
1.0
 40
1.0
 40
1.0
 40
1.0
 10
10.9376923442
 20
10.6834556724
 30
0.0
 10
10.9792059315
 20
10.6834556706
 30
0.0
 10
11.0612717254
 20
10.6823467906
 30
0.0
 10
11.1818757373
 20
10.6774465411
 30
0.0
 10
11.2791460549
 20
10.6706351374
 30
0.0
 10
11.3532659642
 20
10.6635411594
 30
0.0
 10
11.405370403
 20
10.6576050372
 30
0.0
 10
11.4546676483
 20
10.6509959181
 30
0.0
 10
11.5008475645
 20
10.6437526811
 30
0.0
 10
11.5436246478
 20
10.6359057705
 30
0.0
 10
11.5827527595
 20
10.627513351
 30
0.0
 10
11.6180179788
 20
10.6186362941
 30
0.0
 10
11.6492190282
 20
10.6093324957
 30
0.0
 10
11.6761591469
 20
10.599664337
 30
0.0
 10
11.6924039084
 20
10.5924583904
 30
0.0
 10
11.6997053325
 20
10.588729293
 30
0.0
  0
SPLINE
  5
2F1
100
AcDbEntity
  8
0
100
AcDbSpline
 62
7
  6
CONTINUOUS
 70
0
 71
3
 72
14
 73
10
 74
0
 42
0.0000001
 43
0.0000001
 44
0.0000000001
 40
0.0
 40
0.0
 40
0.0
 40
0.0
 40
0.3240085829
 40
0.4649871613
 40
0.592793934
 40
0.7084589387
 40
0.8134339947
 40
0.9097262019
 40
1.0
 40
1.0
 40
1.0
 40
1.0
 10
11.7030393226
 20
10.5869890615
 30
0.0
 10
11.7085267311
 20
10.5840607415
 30
0.0
 10
11.716233308
 20
10.579496683
 30
0.0
 10
11.7253320124
 20
10.5726450497
 30
0.0
 10
11.7308287494
 20
10.5677032966
 30
0.0
 10
11.7353135453
 20
10.5627204119
 30
0.0
 10
11.7387771058
 20
10.5576929216
 30
0.0
 10
11.7412031547
 20
10.5526210458
 30
0.0
 10
11.7421314024
 20
10.5491335119
 30
0.0
 10
11.742399001
 20
10.5474213473
 30
0.0
  0
LINE
  5
2F2
100
AcDbEntity
  8
0
100
AcDbLine
 62
7
  6
CONTINUOUS
 10
10.9376925271
 20
6.8756694758
 11
10.9376924922
 21
10.1289491451
  0
SPLINE
  5
2F3
100
AcDbEntity
  8
0
100
AcDbSpline
 62
7
  6
CONTINUOUS
 70
0
 71
3
 72
13
 73
9
 74
0
 42
0.0000001
 43
0.0000001
 44
0.0000000001
 40
0.0
 40
0.0
 40
0.0
 40
0.0
 40
0.310147812
 40
0.4469249555
 40
0.5727653133
 40
0.7970455057
 40
0.9000008047
 40
1.0
 40
1.0
 40
1.0
 40
1.0
 10
10.1810083392
 20
10.2257048087
 30
0.0
 10
10.1775481692
 20
10.2281437979
 30
0.0
 10
10.1727383045
 20
10.2319425142
 30
0.0
 10
10.1672816533
 20
10.2375584862
 30
0.0
 10
10.1631457517
 20
10.2427662576
 30
0.0
 10
10.1601332707
 20
10.2482749325
 30
0.0
 10
10.1586317571
 20
10.2539341874
 30
0.0
 10
10.158385393
 20
10.2567102852
 30
0.0
 10
10.158385393
 20
10.2580752275
 30
0.0
  0
SPLINE
  5
2F4
100
AcDbEntity
  8
0
100
AcDbSpline
 62
9
  6
CONTINUOUS
 70
0
 71
3
 72
12
 73
8
 74
0
 42
0.0000001
 43
0.0000001
 44
0.0000000001
 40
0.0
 40
0.0
 40
0.0
 40
0.0
 40
0.2479502092
 40
0.4958785393
 40
0.7459005036
 40
0.8723650858
 40
1.0
 40
1.0
 40
1.0
 40
1.0
 10
10.2445368282
 20
12.3647846708
 30
0.0
 10
10.2390532828
 20
12.333534765
 30
0.0
 10
10.2333681799
 20
12.2699599717
 30
0.0
 10
10.2415844925
 20
12.1744220535
 30
0.0
 10
10.2619043037
 20
12.0967240029
 30
0.0
 10
10.285837726
 20
12.0367618174
 30
0.0
 10
10.3003528937
 20
12.0076174678
 30
0.0
 10
10.3082087619
 20
11.9932989772
 30
0.0
  0
SPLINE
  5
2F5
100
AcDbEntity
  8
0
100
AcDbSpline
 62
7
  6
CONTINUOUS
 70
0
 71
3
 72
39
 73
35
 74
0
 42
0.0000001
 43
0.0000001
 44
0.0000000001
 40
0.0
 40
0.0
 40
0.0
 40
0.0
 40
0.0065101944
 40
0.0137167158
 40
0.0216343075
 40
0.0302709593
 40
0.0497028779
 40
0.0719677248
 40
0.0969727285
 40
0.1245905427
 40
0.1546572599
 40
0.186995901
 40
0.2213994167
 40
0.2576472137
 40
0.2955057592
 40
0.3347228189
 40
0.4161919335
 40
0.4998937583
 40
0.5835992648
 40
0.6650794453
 40
0.7043048891
 40
0.7421736596
 40
0.7784334694
 40
0.8128510477
 40
0.8452051961
 40
0.8752891671
 40
0.9029256351
 40
0.9279501154
 40
0.950235483
 40
0.969688179
 40
0.978335217
 40
0.9862631743
 40
0.9934799087
 40
1.0
 40
1.0
 40
1.0
 40
1.0
 10
11.6938723909
 20
10.5761719748
 30
0.0
 10
11.6911404689
 20
10.5780885106
 30
0.0
 10
11.6852069418
 20
10.5818758441
 30
0.0
 10
11.6754758014
 20
10.5872069953
 30
0.0
 10
11.6644835385
 20
10.5924651808
 30
0.0
 10
11.6474884706
 20
10.5996510028
 30
0.0
 10
11.62314213
 20
10.6082595091
 30
0.0
 10
11.5903000987
 20
10.6178147883
 30
0.0
 10
11.5529875371
 20
10.6268816588
 30
0.0
 10
11.5114563601
 20
10.6353924839
 30
0.0
 10
11.4659853109
 20
10.6432917125
 30
0.0
 10
11.4168844825
 20
10.6505146966
 30
0.0
 10
11.3644894122
 20
10.6570160094
 30
0.0
 10
11.3091595862
 20
10.6627469159
 30
0.0
 10
11.2512751848
 20
10.6676648808
 30
0.0
 10
11.1701880286
 20
10.6731668257
 30
0.0
 10
11.0654994682
 20
10.6777262784
 30
0.0
 10
10.9379208932
 20
10.679552364
 30
0.0
 10
10.8103364622
 20
10.677739201
 30
0.0
 10
10.705635576
 20
10.6731904843
 30
0.0
 10
10.624532597
 20
10.6676970936
 30
0.0
 10
10.5666319281
 20
10.6627851997
 30
0.0
 10
10.5112828251
 20
10.6570598438
 30
0.0
 10
10.458865587
 20
10.6505641295
 30
0.0
 10
10.4097397862
 20
10.6433460242
 30
0.0
 10
10.3642412066
 20
10.6354513716
 30
0.0
 10
10.3226801924
 20
10.6269447823
 30
0.0
 10
10.2853359086
 20
10.6178812498
 30
0.0
 10
10.2524605264
 20
10.6083292048
 30
0.0
 10
10.2280852747
 20
10.5997231982
 30
0.0
 10
10.2110663317
 20
10.5925392367
 30
0.0
 10
10.2000560226
 20
10.5872820492
 30
0.0
 10
10.1903066276
 20
10.5819517631
 30
0.0
 10
10.1843604722
 20
10.5781651272
 30
0.0
 10
10.1816221352
 20
10.5762489061
 30
0.0
  0
SPLINE
  5
2F6
100
AcDbEntity
  8
0
100
AcDbSpline
 62
7
  6
CONTINUOUS
 70
0
 71
3
 72
47
 73
43
 74
0
 42
0.0000001
 43
0.0000001
 44
0.0000000001
 40
0.0
 40
0.0
 40
0.0
 40
0.0
 40
0.0041327031
 40
0.0085727964
 40
0.0135624507
 40
0.0192708576
 40
0.0258081994
 40
0.0332399369
 40
0.0416022405
 40
0.0509143271
 40
0.0611844985
 40
0.0724093506
 40
0.0845753434
 40
0.0976651587
 40
0.1265310041
 40
0.158791464
 40
0.1941799712
 40
0.2323898332
 40
0.273076713
 40
0.3158728993
 40
0.4061890211
 40
0.4999976413
 40
0.5938059588
 40
0.6841213973
 40
0.7269173886
 40
0.7676041594
 40
0.8058144528
 40
0.8412033504
 40
0.8734648266
 40
0.9023314375
 40
0.9154217707
 40
0.9275883128
 40
0.9388136051
 40
0.9490840492
 40
0.9583964818
 40
0.9667591612
 40
0.9741912235
 40
0.9807287768
 40
0.9864373434
 40
0.9914271191
 40
0.9958672803
 40
1.0
 40
1.0
 40
1.0
 40
1.0
 10
10.158385393
 20
10.2580752275
 30
0.0
 10
10.158385393
 20
10.2603081483
 30
0.0
 10
10.1590727286
 20
10.2649616484
 30
0.0
 10
10.162052997
 20
10.2717301134
 30
0.0
 10
10.1668978706
 20
10.2783803808
 30
0.0
 10
10.173563752
 20
10.2849277205
 30
0.0
 10
10.1820378143
 20
10.2913832357
 30
0.0
 10
10.1923042926
 20
10.2977489642
 30
0.0
 10
10.2043443082
 20
10.3040192753
 30
0.0
 10
10.2181358201
 20
10.310182168
 30
0.0
 10
10.233652279
 20
10.3162225213
 30
0.0
 10
10.2508590279
 20
10.3221263026
 30
0.0
 10
10.2697143907
 20
10.3278810991
 30
0.0
 10
10.2979261594
 20
10.3355886415
 30
0.0
 10
10.3370105608
 20
10.3446237844
 30
0.0
 10
10.3882537664
 20
10.3543467693
 30
0.0
 10
10.4447743008
 20
10.3631689521
 30
0.0
 10
10.5060310601
 20
10.3710020695
 30
0.0
 10
10.5714391143
 20
10.3777688175
 30
0.0
 10
10.6650383187
 20
10.3854090884
 30
0.0
 10
10.7875130642
 20
10.3917277782
 30
0.0
 10
10.9376883016
 20
10.3942510651
 30
0.0
 10
11.0878631783
 20
10.3917280687
 30
0.0
 10
11.2103372879
 20
10.3854095575
 30
0.0
 10
11.3039359993
 20
10.3777697745
 30
0.0
 10
11.3693441166
 20
10.3710029942
 30
0.0
 10
11.4306013267
 20
10.3631703481
 30
0.0
 10
11.4871228308
 20
10.3543479542
 30
0.0
 10
11.5383672968
 20
10.3446253084
 30
0.0
 10
11.5774529055
 20
10.3355898655
 30
0.0
 10
11.605665691
 20
10.3278822949
 30
0.0
 10
11.6245219003
 20
10.322127484
 30
0.0
 10
11.6417293657
 20
10.3162236827
 30
0.0
 10
11.6572463678
 20
10.3101831464
 30
0.0
 10
11.6710384205
 20
10.3040201495
 30
0.0
 10
11.6830790072
 20
10.2977497136
 30
0.0
 10
11.693345991
 20
10.2913838578
 30
0.0
 10
11.7018203444
 20
10.2849280976
 30
0.0
 10
11.708486424
 20
10.2783805847
 30
0.0
 10
11.7133314833
 20
10.271730223
 30
0.0
 10
11.7163119041
 20
10.2649617028
 30
0.0
 10
11.7169992925
 20
10.2603081573
 30
0.0
 10
11.7169992925
 20
10.2580752275
 30
0.0
  0
SPLINE
  5
2F7
100
AcDbEntity
  8
0
100
AcDbSpline
 62
7
  6
CONTINUOUS
 70
0
 71
3
 72
13
 73
9
 74
0
 42
0.0000001
 43
0.0000001
 44
0.0000000001
 40
0.0
 40
0.0
 40
0.0
 40
0.0
 40
0.0999192213
 40
0.2028054234
 40
0.4270124817
 40
0.5528602787
 40
0.6896768907
 40
1.0
 40
1.0
 40
1.0
 40
1.0
 10
11.7169992925
 20
10.2580752275
 30
0.0
 10
11.7169992925
 20
10.2567069227
 30
0.0
 10
11.716751699
 20
10.2539237794
 30
0.0
 10
11.7152425659
 20
10.2482498101
 30
0.0
 10
11.7122150129
 20
10.242727825
 30
0.0
 10
11.7080595389
 20
10.2375083604
 30
0.0
 10
11.7025758786
 20
10.2318787052
 30
0.0
 10
11.6977431851
 20
10.2280718768
 30
0.0
 10
11.6942668345
 20
10.2256276845
 30
0.0
  0
LINE
  5
2F8
100
AcDbEntity
  8
0
100
AcDbLine
 62
9
  6
CONTINUOUS
 10
9.8141503905
 20
6.8756694616
 11
10.9376923442
 21
6.8756694759
  0
LINE
  5
2F9
100
AcDbEntity
  8
0
100
AcDbLine
 62
7
  6
CONTINUOUS
 10
10.9376911667
 20
13.1666695284
 11
10.9376910915
 21
11.9300321081
  0
LINE
  5
2FA
100
AcDbEntity
  8
0
100
AcDbLine
 62
7
  6
CONTINUOUS
 10
10.9376910915
 20
11.9300321081
 11
10.9376908321
 21
10.683456259
  0
SPLINE
  5
2FB
100
AcDbEntity
  8
0
100
AcDbSpline
 62
9
  6
CONTINUOUS
 70
0
 71
3
 72
12
 73
8
 74
0
 42
0.0000001
 43
0.0000001
 44
0.0000000001
 40
0.0
 40
0.0
 40
0.0
 40
0.0
 40
0.2479494314
 40
0.4958772655
 40
0.7458993788
 40
0.8723643918
 40
1.0
 40
1.0
 40
1.0
 40
1.0
 10
11.6308482377
 20
12.3647825026
 30
0.0
 10
11.6363322234
 20
12.333529371
 30
0.0
 10
11.6420171035
 20
12.2699478704
 30
0.0
 10
11.6337969718
 20
12.1744001656
 30
0.0
 10
11.6134713198
 20
12.0966947771
 30
0.0
 10
11.5895317486
 20
12.0367275118
 30
0.0
 10
11.57501303
 20
12.0075809179
 30
0.0
 10
11.567155295
 20
11.9932613816
 30
0.0
  0
LINE
  5
2FC
100
AcDbEntity
  8
0
100
AcDbLine
 62
9
  6
CONTINUOUS
 10
12.0612342949
 20
6.8756694617
 11
10.9376925271
 21
6.8756694758
  0
SPLINE
  5
2FD
100
AcDbEntity
  8
0
100
AcDbSpline
 62
7
  6
CONTINUOUS
 70
0
 71
3
 72
14
 73
10
 74
0
 42
0.0000001
 43
0.0000001
 44
0.0000000001
 40
0.0
 40
0.0
 40
0.0
 40
0.0
 40
0.0906348233
 40
0.1872211819
 40
0.2923902654
 40
0.408131886
 40
0.5358913095
 40
0.6766980323
 40
1.0
 40
1.0
 40
1.0
 40
1.0
 10
10.132985689
 20
10.5474213764
 30
0.0
 10
10.1332504655
 20
10.5491154673
 30
0.0
 10
10.1341644563
 20
10.5525650257
 30
0.0
 10
10.1365480549
 20
10.5575842935
 30
0.0
 10
10.1399483334
 20
10.5625606089
 30
0.0
 10
10.1443494639
 20
10.567493545
 30
0.0
 10
10.1497423159
 20
10.5723863949
 30
0.0
 10
10.1586643459
 20
10.5791688312
 30
0.0
 10
10.1662250598
 20
10.5836917147
 30
0.0
 10
10.1716089119
 20
10.5865940561
 30
0.0
  0
SPLINE
  5
2FE
100
AcDbEntity
  8
0
100
AcDbSpline
 62
7
  6
CONTINUOUS
 70
0
 71
3
 72
20
 73
16
 74
0
 42
0.0000001
 43
0.0000001
 44
0.0000000001
 40
0.0
 40
0.0
 40
0.0
 40
0.0
 40
0.0318433185
 40
0.0689198516
 40
0.1111222483
 40
0.1582735869
 40
0.2101663484
 40
0.2665748275
 40
0.3272323008
 40
0.3917778519
 40
0.4598284603
 40
0.5309966111
 40
0.6811039564
 40
0.8386744947
 40
1.0
 40
1.0
 40
1.0
 40
1.0
 10
10.175611004
 20
10.5886943602
 30
0.0
 10
10.182908723
 20
10.5924248024
 30
0.0
 10
10.1991471786
 20
10.5996333277
 30
0.0
 10
10.2260796481
 20
10.6093045362
 30
0.0
 10
10.2572753769
 20
10.618611402
 30
0.0
 10
10.2925375425
 20
10.6274915192
 30
0.0
 10
10.3316647597
 20
10.6358869465
 30
0.0
 10
10.3744430192
 20
10.6437367914
 30
0.0
 10
10.4206261141
 20
10.6509827929
 30
0.0
 10
10.4699284324
 20
10.6575944754
 30
0.0
 10
10.5220396699
 20
10.6635329455
 30
0.0
 10
10.5961714897
 20
10.6706298378
 30
0.0
 10
10.6934595713
 20
10.6774440655
 30
0.0
 10
10.8140873328
 20
10.68234632
 30
0.0
 10
10.8961700098
 20
10.6834556593
 30
0.0
 10
10.9376923442
 20
10.6834556611
 30
0.0
  0
ENDSEC
  0
SECTION
  2
OBJECTS
  0
DICTIONARY
  5
C
100
AcDbDictionary
280
0
281
1
  3
ACAD_GROUP
350
D
  3
ACAD_MLINESTYLE
350
17
  3
ACAD_LAYOUT
350
1A
  3
ACAD_PLOTSETTINGS
350
19
  3
ACAD_PLOTSTYLENAME
350
E
  0
DICTIONARY
  5
D
102
{ACAD_REACTORS
330
C
102
}
100
AcDbDictionary
280
0
281
1
  0
ACDBDICTIONARYWDFLT
  5
E
102
{ACAD_REACTORS
330
C
102
}
100
AcDbDictionary
281
1
  3
Normal
350
F
100
AcDbDictionaryWithDefault
340
F
  0
DICTIONARY
  5
17
102
{ACAD_REACTORS
330
C
102
}
100
AcDbDictionary
280
0
281
1
  3
Standard
350
18
  0
DICTIONARY
  5
19
102
{ACAD_REACTORS
330
C
102
}
100
AcDbDictionary
281
1
  0
DICTIONARY
  5
1A
102
{ACAD_REACTORS
330
C
102
}
100
AcDbDictionary
281
1
  3
Model
350
2FF
  3
Layout1
350
300
  0
ACDBPLACEHOLDER
  5
F
102
{ACAD_REACTORS
330
E
102
}
  0
MLINESTYLE
  5
18
102
{ACAD_REACTORS
330
17
102
}
100
AcDbMlineStyle
  2
STANDARD
 70
0
  3

 62
256
 51
90.0
 52
90.0
 71
2
 49
0.5
 62
256
  6
BYLAYER
 49
-0.5
 62
256
  6
BYLAYER
  0
LAYOUT
  5
2FF
102
{ACAD_REACTORS
330
1A
102
}
100
AcDbPlotSettings
  1

  2
none_device
  4
ANSI_C_(22.00_x_17.00_Inches)
  6

 40
0.0
 41
0.0
 42
0.0
 43
0.0
 44
558.8
 45
431.8
 46
0.0
 47
0.0
 48
0.0
 49
0.0
140
0.0
141
0.0
142
1.0
143
1.0
 70
1024
 72
0
 73
0
 74
0
  7

 75
0
147
1.0
148
0.0
149
0.0
100
AcDbLayout
  1
Model
 70
0
 71
0
 10
0.0
 20
0.0
 11
22.0
 21
17.0
 12
0.0
 22
0.0
 32
0.0
 14
0.0
 24
0.0
 34
0.0
 15
0.0
 25
0.0
 35
0.0
146
0.0
 13
0.0
 23
0.0
 33
0.0
 16
1.0
 26
0.0
 36
0.0
 17
0.0
 27
1.0
 37
0.0
 76
0
330
202
345
0
346
0
  0
LAYOUT
  5
300
102
{ACAD_REACTORS
330
1A
102
}
100
AcDbPlotSettings
  1

  2
none_device
  4
ANSI_C_(22.00_x_17.00_Inches)
  6

 40
0.0
 41
0.0
 42
0.0
 43
0.0
 44
558.8
 45
431.8
 46
0.0
 47
0.0
 48
0.0
 49
0.0
140
0.0
141
0.0
142
1.0
143
1.0
 70
0
 72
0
 73
0
 74
0
  7

 75
0
147
1.0
148
0.0
149
0.0
100
AcDbLayout
  1
Layout1
 70
0
 71
1
 10
0.0
 20
0.0
 11
22.0
 21
17.0
 12
0.0
 22
0.0
 32
0.0
 14
0.0
 24
0.0
 34
0.0
 15
0.0
 25
0.0
 35
0.0
146
0.0
 13
0.0
 23
0.0
 33
0.0
 16
1.0
 26
0.0
 36
0.0
 17
0.0
 27
1.0
 37
0.0
 76
0
330
203
345
0
346
0
  0
ENDSEC
  0
EOF
