999
DXF file: 3-874ts_RIGHT.dxf
999
Pro/ENGINEER 2018400 by Parametric Technology Corporation
  0
SECTION
  2
HEADER
  9
$ACADVER
  1
AC1027
  9
$DWGCODEPAGE
  3
ANSI_1252
  9
$EXTMAX
 10
11.0
 20
8.5
 30
0.0
  9
$EXTMIN
 10
0.0
 20
0.0
 30
0.0
  9
$LIMMIN
 10
0.0
 20
0.0
  9
$LIMMAX
 10
11.0
 20
8.5
  9
$VIEWCTR
 10
5.5
 20
4.25
  9
$VIEWSIZE
 40
8.5
  9
$CLAYER
  8
0
  9
$LTSCALE
 40
0.605
  9
$CELTYPE
  6
BYLAYER
  9
$DIMSCALE
 40
1.0
  9
$DIMASZ
 40
0.1
  9
$DIMEXO
 40
0.0625
  9
$DIMDLI
 40
0.418
  9
$DIMEXE
 40
0.125
  9
$DIMCEN
 40
0.099
  9
$DIMLFAC
 40
1.0
  9
$DIMBLK
  1
_FILLED
  9
$DIMALT
 70
1
  9
$DIMALTD
 70
2
  9
$DIMALTTD
 70
2
  9
$DIMALTF
 40
25.4
  9
$DIMTXT
 40
0.08
  9
$DIMTOL
 70
1
  9
$DIMLIM
 70
0
  9
$DIMTFAC
 40
1.0
  9
$DIMTP
 40
0.001
  9
$DIMTM
 40
0.001
  9
$DIMGAP
 40
0.09
  9
$DIMDSEP
 70
46
  9
$AUNITS
 70
0
  9
$PDMODE
 70
3
  9
$PDSIZE
 40
0.3125
  9
$HANDSEED
  5
629
  9
$TILEMODE
 70
1
  9
$MEASUREMENT
 70
0
  9
$INSUNITS
 70
1
  0
ENDSEC
  0
SECTION
  2
CLASSES
  0
CLASS
  1
ACDBDICTIONARYWDFLT
  2
AcDbDictionaryWithDefault
  3
AutoCAD 2000
 90
0
 91
1
280
0
281
0
  0
CLASS
  1
ACDBPLACEHOLDER
  2
AcDbPlaceHolder
  3
AutoCAD 2000
 90
0
 91
1
280
0
281
0
  0
CLASS
  1
LAYOUT
  2
AcDbLayout
  3
AutoCAD 2000
 90
0
 91
0
280
0
281
0
  0
ENDSEC
  0
SECTION
  2
TABLES
  0
TABLE
  2
VPORT
  5
8
100
AcDbSymbolTable
 70
2
  0
VPORT
  5
1F4
100
AcDbSymbolTableRecord
100
AcDbViewportTableRecord
  2
*ACTIVE
 70
0
 10
0.0
 20
0.0
 11
1.0
 21
1.0
 12
5.5
 22
4.25
 13
0.0
 23
0.0
 14
1.0
 24
1.0
 15
0.0
 25
0.0
 16
0.0
 26
0.0
 36
1.0
 17
0.0
 27
0.0
 37
0.0
 40
8.5
 41
1.2941176471
 42
50.0
 43
0.0
 44
0.0
 50
0.0
 51
0.0
 71
0
 72
100
 73
1
 74
1
 75
0
 76
0
 77
0
 78
0
  0
ENDTAB
  0
TABLE
  2
LTYPE
  5
5
100
AcDbSymbolTable
 70
6
  0
LTYPE
  5
14
100
AcDbSymbolTableRecord
100
AcDbLinetypeTableRecord
  2
BYBLOCK
 70
0
  3

 72
65
 73
0
 40
0.0
  0
LTYPE
  5
15
100
AcDbSymbolTableRecord
100
AcDbLinetypeTableRecord
  2
BYLAYER
 70
0
  3

 72
65
 73
0
 40
0.0
  0
LTYPE
  5
16
100
AcDbSymbolTableRecord
100
AcDbLinetypeTableRecord
  2
CONTINUOUS
 70
64
  3
Solid line
 72
65
 73
0
 40
0.0
  0
LTYPE
  5
1F5
100
AcDbSymbolTableRecord
100
AcDbLinetypeTableRecord
  2
CENTER
 70
64
  3
____ _ ____ _ ____ _ ____ _ ____ _ ____ _ ____
 72
65
 73
4
 40
0.6
 49
0.375
 74
0
 49
-0.075
 74
0
 49
0.075
 74
0
 49
-0.075
 74
0
  0
LTYPE
  5
1F6
100
AcDbSymbolTableRecord
100
AcDbLinetypeTableRecord
  2
HIDDEN
 70
64
  3
- - - - - - - - - - - - - - - - - - - -
 72
65
 73
2
 40
0.2
 49
0.1
 74
0
 49
-0.1
 74
0
  0
LTYPE
  5
1F7
100
AcDbSymbolTableRecord
100
AcDbLinetypeTableRecord
  2
PHANTOM
 70
64
  3
_____ _ _ _____ _ _ _____ _ _ _____
 72
65
 73
6
 40
0.8
 49
0.45
 74
0
 49
-0.05
 74
0
 49
0.1
 74
0
 49
-0.05
 74
0
 49
0.1
 74
0
 49
-0.05
 74
0
  0
LTYPE
  5
1F8
100
AcDbSymbolTableRecord
100
AcDbLinetypeTableRecord
  2
DOT
 70
64
  3
. . . . . . . . . . . . . . . . . . . .
 72
65
 73
2
 40
0.2
 49
0.1
 74
0
 49
-0.1
 74
0
  0
LTYPE
  5
1F9
100
AcDbSymbolTableRecord
100
AcDbLinetypeTableRecord
  2
DASHED
 70
64
  3
- - - - - - - - - - - - - - - - - - - -
 72
65
 73
2
 40
0.2
 49
0.1
 74
0
 49
-0.1
 74
0
  0
ENDTAB
  0
TABLE
  2
LAYER
  5
2
100
AcDbSymbolTable
 70
36
  0
LAYER
  5
10
100
AcDbSymbolTableRecord
100
AcDbLayerTableRecord
  2
0
 70
0
 62
7
  6
CONTINUOUS
370
-3
390
F
  0
LAYER
  5
1FA
100
AcDbSymbolTableRecord
100
AcDbLayerTableRecord
  2
DEFAULT_1
 70
0
 62
7
  6
CENTER
370
-3
390
F
  0
LAYER
  5
1FB
100
AcDbSymbolTableRecord
100
AcDbLayerTableRecord
  2
DEFAULT_2
 70
0
 62
8
  6
HIDDEN
370
-3
390
F
  0
LAYER
  5
1FC
100
AcDbSymbolTableRecord
100
AcDbLayerTableRecord
  2
DEFAULT_3
 70
0
 62
7
  6
PHANTOM
370
-3
390
F
  0
LAYER
  5
1FD
100
AcDbSymbolTableRecord
100
AcDbLayerTableRecord
  2
01___PRT_ALL_DTM_PLN
 70
0
 62
7
  6
CONTINUOUS
370
-3
390
F
  0
LAYER
  5
1FE
100
AcDbSymbolTableRecord
100
AcDbLayerTableRecord
  2
01___PRT_DEF_DTM_PLN
 70
0
 62
7
  6
CONTINUOUS
370
-3
390
F
  0
LAYER
  5
1FF
100
AcDbSymbolTableRecord
100
AcDbLayerTableRecord
  2
02___PRT_ALL_AXES
 70
0
 62
7
  6
CONTINUOUS
370
-3
390
F
  0
LAYER
  5
200
100
AcDbSymbolTableRecord
100
AcDbLayerTableRecord
  2
03___PRT_ALL_CURVES
 70
0
 62
7
  6
CONTINUOUS
370
-3
390
F
  0
LAYER
  5
201
100
AcDbSymbolTableRecord
100
AcDbLayerTableRecord
  2
04___PRT_ALL_DTM_PNT
 70
0
 62
7
  6
CONTINUOUS
370
-3
390
F
  0
LAYER
  5
202
100
AcDbSymbolTableRecord
100
AcDbLayerTableRecord
  2
05___PRT_ALL_DTM_CSYS
 70
0
 62
7
  6
CONTINUOUS
370
-3
390
F
  0
LAYER
  5
203
100
AcDbSymbolTableRecord
100
AcDbLayerTableRecord
  2
05___PRT_DEF_DTM_CSYS
 70
0
 62
7
  6
CONTINUOUS
370
-3
390
F
  0
LAYER
  5
204
100
AcDbSymbolTableRecord
100
AcDbLayerTableRecord
  2
06___PRT_ALL_SURFS
 70
0
 62
7
  6
CONTINUOUS
370
-3
390
F
  0
LAYER
  5
205
100
AcDbSymbolTableRecord
100
AcDbLayerTableRecord
  2
2-147_ASSY_DATUMS
 70
0
 62
7
  6
CONTINUOUS
370
-3
390
F
  0
LAYER
  5
206
100
AcDbSymbolTableRecord
100
AcDbLayerTableRecord
  2
2-265_ASSY_PLANES
 70
0
 62
7
  6
CONTINUOUS
370
-3
390
F
  0
LAYER
  5
207
100
AcDbSymbolTableRecord
100
AcDbLayerTableRecord
  2
AA
 70
0
 62
7
  6
CONTINUOUS
370
-3
390
F
  0
LAYER
  5
208
100
AcDbSymbolTableRecord
100
AcDbLayerTableRecord
  2
ALL_ASSEMBLY_MEMBERS
 70
0
 62
7
  6
CONTINUOUS
370
-3
390
F
  0
LAYER
  5
209
100
AcDbSymbolTableRecord
100
AcDbLayerTableRecord
  2
ALL_FEATURES
 70
0
 62
7
  6
CONTINUOUS
370
-3
390
F
  0
LAYER
  5
20A
100
AcDbSymbolTableRecord
100
AcDbLayerTableRecord
  2
AXES_FEATURES
 70
0
 62
7
  6
CONTINUOUS
370
-3
390
F
  0
LAYER
  5
20B
100
AcDbSymbolTableRecord
100
AcDbLayerTableRecord
  2
CHAMFER_FEATURES
 70
0
 62
7
  6
CONTINUOUS
370
-3
390
F
  0
LAYER
  5
20C
100
AcDbSymbolTableRecord
100
AcDbLayerTableRecord
  2
CURVE
 70
0
 62
7
  6
CONTINUOUS
370
-3
390
F
  0
LAYER
  5
20D
100
AcDbSymbolTableRecord
100
AcDbLayerTableRecord
  2
CUT_FEATURES
 70
0
 62
7
  6
CONTINUOUS
370
-3
390
F
  0
LAYER
  5
20E
100
AcDbSymbolTableRecord
100
AcDbLayerTableRecord
  2
DATUM_CURVES
 70
0
 62
7
  6
CONTINUOUS
370
-3
390
F
  0
LAYER
  5
20F
100
AcDbSymbolTableRecord
100
AcDbLayerTableRecord
  2
DATUM_PLANES
 70
0
 62
7
  6
CONTINUOUS
370
-3
390
F
  0
LAYER
  5
210
100
AcDbSymbolTableRecord
100
AcDbLayerTableRecord
  2
DATUM_POINTS
 70
0
 62
7
  6
CONTINUOUS
370
-3
390
F
  0
LAYER
  5
211
100
AcDbSymbolTableRecord
100
AcDbLayerTableRecord
  2
DEFAULT_COORDINATE_SYSTEM
 70
0
 62
7
  6
CONTINUOUS
370
-3
390
F
  0
LAYER
  5
212
100
AcDbSymbolTableRecord
100
AcDbLayerTableRecord
  2
DEFAULT_DATUM_AXES
 70
0
 62
7
  6
CONTINUOUS
370
-3
390
F
  0
LAYER
  5
213
100
AcDbSymbolTableRecord
100
AcDbLayerTableRecord
  2
DEFAULT_DATUM_CURVES
 70
0
 62
7
  6
CONTINUOUS
370
-3
390
F
  0
LAYER
  5
214
100
AcDbSymbolTableRecord
100
AcDbLayerTableRecord
  2
DEFAULT_DATUM_PLANES
 70
0
 62
7
  6
CONTINUOUS
370
-3
390
F
  0
LAYER
  5
215
100
AcDbSymbolTableRecord
100
AcDbLayerTableRecord
  2
DEFAULT_SURFACES
 70
0
 62
7
  6
CONTINUOUS
370
-3
390
F
  0
LAYER
  5
216
100
AcDbSymbolTableRecord
100
AcDbLayerTableRecord
  2
DIMENSIONS
 70
0
 62
7
  6
CONTINUOUS
370
-3
390
F
  0
LAYER
  5
217
100
AcDbSymbolTableRecord
100
AcDbLayerTableRecord
  2
HOLE_FEATURES
 70
0
 62
7
  6
CONTINUOUS
370
-3
390
F
  0
LAYER
  5
218
100
AcDbSymbolTableRecord
100
AcDbLayerTableRecord
  2
LAY0001
 70
0
 62
7
  6
CONTINUOUS
370
-3
390
F
  0
LAYER
  5
219
100
AcDbSymbolTableRecord
100
AcDbLayerTableRecord
  2
NOTES
 70
0
 62
7
  6
CONTINUOUS
370
-3
390
F
  0
LAYER
  5
21A
100
AcDbSymbolTableRecord
100
AcDbLayerTableRecord
  2
PART_REFERENCE_DIMENSIONS
 70
0
 62
7
  6
CONTINUOUS
370
-3
390
F
  0
LAYER
  5
21B
100
AcDbSymbolTableRecord
100
AcDbLayerTableRecord
  2
PLATED_SURFACE_AREA
 70
0
 62
7
  6
CONTINUOUS
370
-3
390
F
  0
LAYER
  5
21C
100
AcDbSymbolTableRecord
100
AcDbLayerTableRecord
  2
POINTS
 70
0
 62
7
  6
CONTINUOUS
370
-3
390
F
  0
LAYER
  5
21D
100
AcDbSymbolTableRecord
100
AcDbLayerTableRecord
  2
PROTRUSION
 70
0
 62
7
  6
CONTINUOUS
370
-3
390
F
  0
LAYER
  5
21E
100
AcDbSymbolTableRecord
100
AcDbLayerTableRecord
  2
PROTRUSION_FEATURES
 70
0
 62
7
  6
CONTINUOUS
370
-3
390
F
  0
LAYER
  5
21F
100
AcDbSymbolTableRecord
100
AcDbLayerTableRecord
  2
QUILT
 70
0
 62
7
  6
CONTINUOUS
370
-3
390
F
  0
LAYER
  5
220
100
AcDbSymbolTableRecord
100
AcDbLayerTableRecord
  2
QUILTS
 70
0
 62
7
  6
CONTINUOUS
370
-3
390
F
  0
LAYER
  5
221
100
AcDbSymbolTableRecord
100
AcDbLayerTableRecord
  2
REFERENCE_DIMENSIONS
 70
0
 62
7
  6
CONTINUOUS
370
-3
390
F
  0
LAYER
  5
222
100
AcDbSymbolTableRecord
100
AcDbLayerTableRecord
  2
ROUND_FEATURES
 70
0
 62
7
  6
CONTINUOUS
370
-3
390
F
  0
LAYER
  5
223
100
AcDbSymbolTableRecord
100
AcDbLayerTableRecord
  2
SHELL_FEATURES
 70
0
 62
7
  6
CONTINUOUS
370
-3
390
F
  0
LAYER
  5
224
100
AcDbSymbolTableRecord
100
AcDbLayerTableRecord
  2
XSEC_DATUMS
 70
0
 62
7
  6
CONTINUOUS
370
-3
390
F
  0
ENDTAB
  0
TABLE
  2
STYLE
  5
3
100
AcDbSymbolTable
 70
1
  0
STYLE
  5
11
100
AcDbSymbolTableRecord
100
AcDbTextStyleTableRecord
  2
STANDARD
 70
0
 40
0.0
 41
0.8
 50
0.0
 71
0
 42
0.2
  3
txt
  4

  0
STYLE
  5
225
100
AcDbSymbolTableRecord
100
AcDbTextStyleTableRecord
  2
TEXTSTYLE_1
 70
0
 40
0.0
 41
0.8
 50
0.0
 71
0
 42
0.2
  3
gdt
  4

  0
ENDTAB
  0
TABLE
  2
VIEW
  5
6
100
AcDbSymbolTable
 70
0
  0
ENDTAB
  0
TABLE
  2
UCS
  5
7
100
AcDbSymbolTable
 70
0
  0
ENDTAB
  0
TABLE
  2
APPID
  5
9
100
AcDbSymbolTable
 70
1
  0
APPID
  5
226
100
AcDbSymbolTableRecord
100
AcDbRegAppTableRecord
  2
ACAD
 70
0
  0
ENDTAB
  0
TABLE
  2
BLOCK_RECORD
  5
1
100
AcDbSymbolTable
 70
0
  0
BLOCK_RECORD
  5
227
100
AcDbSymbolTableRecord
100
AcDbBlockTableRecord
  2
*Model_Space
  0
BLOCK_RECORD
  5
228
100
AcDbSymbolTableRecord
100
AcDbBlockTableRecord
  2
*Paper_Space
  0
BLOCK_RECORD
  5
229
100
AcDbSymbolTableRecord
100
AcDbBlockTableRecord
  2
_FILLED
  0
ENDTAB
  0
TABLE
  2
DIMSTYLE
  5
A
100
AcDbSymbolTable
 70
1
100
AcDbDimStyleTable
 71
0
  0
DIMSTYLE
105
22A
100
AcDbSymbolTableRecord
100
AcDbDimStyleTableRecord
  2
STANDARD
 70
0
  3

  4

 40
1.0
 41
0.1
 42
0.0625
 43
0.38
 44
0.125
 45
0.0
 46
0.0
 47
0.001
 48
0.001
140
0.08
141
0.09
142
0.0
143
25.4
144
1.0
145
0.0
146
1.0
147
0.09
 71
1.0
 72
0.0
 73
1
 74
1
 75
0
 76
0
 77
0
 78
4
 79
1
170
1
171
2
172
0
173
0
174
0
175
0
176
0
177
0
178
0
270
2
179
3
271
3
272
3
273
2
274
2
275
0
280
0
281
0
282
0
283
1
284
4
285
0
286
0
287
3
288
0
340
11
278
46
341
229
342
229
343
229
344
229
  0
ENDTAB
  0
ENDSEC
  0
SECTION
  2
BLOCKS
  0
BLOCK
  5
20
100
AcDbEntity
  8
0
100
AcDbBlockBegin
  2
*Model_Space
 70
0
 10
0.0
 20
0.0
 30
0.0
  3
*Model_Space
  1

  0
ENDBLK
  5
21
100
AcDbEntity
  8
0
100
AcDbBlockEnd
  0
BLOCK
  5
1C
100
AcDbEntity
  8
0
100
AcDbBlockBegin
  2
*Paper_Space
 70
0
 10
0.0
 20
0.0
 30
0.0
  3
*Paper_Space
  1

  0
ENDBLK
  5
1D
100
AcDbEntity
  8
0
100
AcDbBlockEnd
  0
BLOCK
  5
22B
100
AcDbEntity
  8
0
100
AcDbBlockBegin
  2
_FILLED
 70
64
 10
0.0
 20
0.0
  3
_FILLED
  1

  0
SOLID
  5
22C
100
AcDbEntity
  8
0
  6
BYBLOCK
 62
0
100
AcDbTrace
 10
0.0
 20
0.0
 11
-1.0
 21
0.2
 12
-1.0
 22
-0.2
 13
-1.0
 23
-0.2
  0
ENDBLK
  5
22D
100
AcDbEntity
  8
0
  6
BYBLOCK
 62
0
100
AcDbBlockEnd
  0
ENDSEC
  0
SECTION
  2
ENTITIES
  0
MTEXT
  5
22E
100
AcDbEntity
  8
0
100
AcDbMText
 62
2
  6
CONTINUOUS
  7
STANDARD
 71
3
 72
1
 10
2.6794708972
 20
2.1783501553
 30
0.0
 11
1.0
 21
0.0
 31
0.0
 73
2
 44
0.9
  1
SCALE  .500
 40
0.08
 41
0.704
  0
LINE
  5
22F
100
AcDbEntity
  8
0
100
AcDbLine
 62
7
  6
CONTINUOUS
 10
0.0
 20
0.0
 11
0.0
 21
8.5
  0
LINE
  5
230
100
AcDbEntity
  8
0
100
AcDbLine
 62
7
  6
CONTINUOUS
 10
0.0
 20
0.0
 11
11.0
 21
0.0
  0
LINE
  5
231
100
AcDbEntity
  8
0
100
AcDbLine
 62
7
  6
CONTINUOUS
 10
0.0
 20
8.5
 11
11.0
 21
8.5
  0
LINE
  5
232
100
AcDbEntity
  8
0
100
AcDbLine
 62
7
  6
CONTINUOUS
 10
11.0
 20
0.0
 11
11.0
 21
8.5
  0
LINE
  5
233
100
AcDbEntity
  8
ALL_ASSEMBLY_MEMBERS
100
AcDbLine
 62
7
  6
CONTINUOUS
 10
6.2376551898
 20
2.9651203416
 11
6.3316551898
 21
2.9651203416
  0
LWPOLYLINE
  5
234
100
AcDbEntity
  8
ALL_ASSEMBLY_MEMBERS
100
AcDbPolyline
 62
7
  6
CONTINUOUS
 90
9
 70
0
 10
4.1756455284
 20
4.9264578163
 10
4.1736688641
 20
4.9109711339
 10
4.1717645598
 20
4.895325903
 10
4.1699357639
 20
4.8795232743
 10
4.1681855928
 20
4.8635639318
 10
4.1665171448
 20
4.8474481301
 10
4.1649335838
 20
4.8311762556
 10
4.1634380957
 20
4.8147486524
 10
4.1622572528
 20
4.8008894378
  0
LINE
  5
235
100
AcDbEntity
  8
ALL_ASSEMBLY_MEMBERS
100
AcDbLine
 62
7
  6
CONTINUOUS
 10
4.1773147653
 20
4.9390123444
 11
4.1756455284
 21
4.9264578163
  0
LWPOLYLINE
  5
236
100
AcDbEntity
  8
ALL_ASSEMBLY_MEMBERS
100
AcDbPolyline
 62
7
  6
CONTINUOUS
 90
3
 70
0
 10
4.1817564695
 20
4.9631129113
 10
4.178974262
 20
4.9495997986
 10
4.1773148058
 20
4.9390122506
  0
LINE
  5
237
100
AcDbEntity
  8
ALL_ASSEMBLY_MEMBERS
100
AcDbLine
 62
7
  6
CONTINUOUS
 10
4.1823197624
 20
4.2149779185
 11
4.1824015493
 21
4.2146444377
  0
LWPOLYLINE
  5
238
100
AcDbEntity
  8
ALL_ASSEMBLY_MEMBERS
100
AcDbPolyline
 62
7
  6
CONTINUOUS
 90
3
 70
0
 10
4.1823204357
 20
4.2149772449
 10
4.1823342653
 20
4.2149135639
 10
4.1824075735
 20
4.2146449695
  0
LWPOLYLINE
  5
239
100
AcDbEntity
  8
ALL_ASSEMBLY_MEMBERS
100
AcDbPolyline
 62
7
  6
CONTINUOUS
 90
22
 70
0
 10
4.1773148058
 20
4.2412284327
 10
4.178974262
 20
4.2306408846
 10
4.1817564695
 20
4.217127772
 10
4.1852638459
 20
4.2037533759
 10
4.1894885721
 20
4.1905615636
 10
4.1944193066
 20
4.1775909695
 10
4.2000431291
 20
4.1648792624
 10
4.2063472911
 20
4.1524618099
 10
4.2133139662
 20
4.140376198
 10
4.2209211849
 20
4.1286636001
 10
4.2291487197
 20
4.1173593674
 10
4.2379734164
 20
4.1064957576
 10
4.2473669751
 20
4.0961087305
 10
4.2573036738
 20
4.0862288339
 10
4.2677544037
 20
4.0768840638
 10
4.2786841351
 20
4.0681054669
 10
4.2900607209
 20
4.0599193672
 10
4.3018529541
 20
4.0523466366
 10
4.3140262514
 20
4.0454091374
 10
4.3265455192
 20
4.0391270597
 10
4.3393708326
 20
4.0335175105
 10
4.3498075991
 20
4.0295310112
  0
LINE
  5
23A
100
AcDbEntity
  8
ALL_ASSEMBLY_MEMBERS
100
AcDbLine
 62
7
  6
CONTINUOUS
 10
4.162251898
 20
4.4331255121
 11
4.1624640214
 21
4.431175417
  0
LINE
  5
23B
100
AcDbEntity
  8
ALL_ASSEMBLY_MEMBERS
100
AcDbLine
 62
7
  6
CONTINUOUS
 10
4.1618520698
 20
4.4358496668
 11
4.1623536174
 21
4.4311611014
  0
LINE
  5
23C
100
AcDbEntity
  8
ALL_ASSEMBLY_MEMBERS
100
AcDbLine
 62
7
  6
CONTINUOUS
 10
4.1558630233
 20
4.501401377
 11
4.155880785
 21
4.5012341589
  0
LINE
  5
23D
100
AcDbEntity
  8
ALL_ASSEMBLY_MEMBERS
100
AcDbLine
 62
7
  6
CONTINUOUS
 10
4.1613086287
 20
4.4410513586
 11
4.1618520698
 21
4.4358496668
  0
LINE
  5
23E
100
AcDbEntity
  8
ALL_ASSEMBLY_MEMBERS
100
AcDbLine
 62
7
  6
CONTINUOUS
 10
4.1608299875
 20
4.4457450141
 11
4.1613086287
 21
4.4410513586
  0
LINE
  5
23F
100
AcDbEntity
  8
ALL_ASSEMBLY_MEMBERS
100
AcDbLine
 62
7
  6
CONTINUOUS
 10
4.155880785
 20
4.5012341589
 11
4.1559156061
 21
4.5008856573
  0
LINE
  5
240
100
AcDbEntity
  8
ALL_ASSEMBLY_MEMBERS
100
AcDbLine
 62
7
  6
CONTINUOUS
 10
4.1602043054
 20
4.4520520023
 11
4.1608299875
 21
4.4457450141
  0
LINE
  5
241
100
AcDbEntity
  8
ALL_ASSEMBLY_MEMBERS
100
AcDbLine
 62
7
  6
CONTINUOUS
 10
4.1596673146
 20
4.4576321144
 11
4.1602043054
 21
4.4520520023
  0
LINE
  5
242
100
AcDbEntity
  8
ALL_ASSEMBLY_MEMBERS
100
AcDbLine
 62
7
  6
CONTINUOUS
 10
4.1559156061
 20
4.5008856573
 11
4.155987853
 21
4.500116937
  0
LINE
  5
243
100
AcDbEntity
  8
ALL_ASSEMBLY_MEMBERS
100
AcDbLine
 62
7
  6
CONTINUOUS
 10
4.1589213333
 20
4.4656640175
 11
4.1596673146
 21
4.4576321144
  0
LINE
  5
244
100
AcDbEntity
  8
ALL_ASSEMBLY_MEMBERS
100
AcDbLine
 62
7
  6
CONTINUOUS
 10
4.1625116124
 20
4.3793736426
 11
4.162251898
 21
4.3823215794
  0
LINE
  5
245
100
AcDbEntity
  8
ALL_ASSEMBLY_MEMBERS
100
AcDbLine
 62
7
  6
CONTINUOUS
 10
4.1581009737
 20
4.4749031842
 11
4.1589213333
 21
4.4656640175
  0
LINE
  5
246
100
AcDbEntity
  8
ALL_ASSEMBLY_MEMBERS
100
AcDbLine
 62
7
  6
CONTINUOUS
 10
4.155987853
 20
4.500116937
 11
4.1561411211
 21
4.4983791145
  0
LINE
  5
247
100
AcDbEntity
  8
ALL_ASSEMBLY_MEMBERS
100
AcDbLine
 62
7
  6
CONTINUOUS
 10
4.1625049719
 20
4.3793718978
 11
4.162251898
 21
4.3823215794
  0
LWPOLYLINE
  5
248
100
AcDbEntity
  8
ALL_ASSEMBLY_MEMBERS
100
AcDbPolyline
 62
7
  6
CONTINUOUS
 90
10
 70
0
 10
4.162257254
 20
4.3793512335
 10
4.1634164794
 20
4.3657381589
 10
4.1649103714
 20
4.3493109839
 10
4.1664923592
 20
4.3330394362
 10
4.1681592599
 20
4.316923855
 10
4.1699079107
 20
4.3009646287
 10
4.1717352149
 20
4.2851620143
 10
4.1736380604
 20
4.269516678
 10
4.1756132998
 20
4.2540297746
 10
4.1773147653
 20
4.2412283388
  0
LINE
  5
249
100
AcDbEntity
  8
ALL_ASSEMBLY_MEMBERS
100
AcDbLine
 62
7
  6
CONTINUOUS
 10
4.1561411211
 20
4.4983791145
 11
4.1564541898
 21
4.4946382495
  0
LINE
  5
24A
100
AcDbEntity
  8
ALL_ASSEMBLY_MEMBERS
100
AcDbLine
 62
7
  6
CONTINUOUS
 10
4.1569520032
 20
4.4885627227
 11
4.1581009737
 21
4.4749031842
  0
LINE
  5
24B
100
AcDbEntity
  8
ALL_ASSEMBLY_MEMBERS
100
AcDbLine
 62
7
  6
CONTINUOUS
 10
4.1564541898
 20
4.4946382495
 11
4.1569520032
 21
4.4885627227
  0
LWPOLYLINE
  5
24C
100
AcDbEntity
  8
ALL_ASSEMBLY_MEMBERS
100
AcDbPolyline
 62
7
  6
CONTINUOUS
 90
3
 70
0
 10
4.1615517426
 20
4.3880686626
 10
4.1619450833
 20
4.383165888
 10
4.1622572346
 20
4.3793514025
  0
LWPOLYLINE
  5
24D
100
AcDbEntity
  8
ALL_ASSEMBLY_MEMBERS
100
AcDbPolyline
 62
7
  6
CONTINUOUS
 90
3
 70
0
 10
4.1605578906
 20
4.4009824025
 10
4.1608596299
 20
4.3969764914
 10
4.1611896961
 20
4.3926815375
  0
LWPOLYLINE
  5
24E
100
AcDbEntity
  8
ALL_ASSEMBLY_MEMBERS
100
AcDbPolyline
 62
7
  6
CONTINUOUS
 90
3
 70
0
 10
4.1599905788
 20
4.4087361451
 10
4.1606670213
 20
4.3995245802
 10
4.1615517426
 20
4.3880686626
  0
LINE
  5
24F
100
AcDbEntity
  8
ALL_ASSEMBLY_MEMBERS
100
AcDbLine
 62
7
  6
CONTINUOUS
 10
4.1593302902
 20
4.418167436
 11
4.1600149944
 21
4.4083960948
  0
LINE
  5
250
100
AcDbEntity
  8
ALL_ASSEMBLY_MEMBERS
100
AcDbLine
 62
7
  6
CONTINUOUS
 10
4.1589406251
 20
4.4239648943
 11
4.1594292186
 21
4.4167240333
  0
LINE
  5
251
100
AcDbEntity
  8
ALL_ASSEMBLY_MEMBERS
100
AcDbLine
 62
7
  6
CONTINUOUS
 10
4.1584304197
 20
4.4318505778
 11
4.1589625662
 21
4.4236335214
  0
LINE
  5
252
100
AcDbEntity
  8
ALL_ASSEMBLY_MEMBERS
100
AcDbLine
 62
7
  6
CONTINUOUS
 10
4.1580012039
 20
4.4387757953
 11
4.1585548248
 21
4.4298948817
  0
LINE
  5
253
100
AcDbEntity
  8
ALL_ASSEMBLY_MEMBERS
100
AcDbLine
 62
7
  6
CONTINUOUS
 10
4.157653663
 20
4.4446033241
 11
4.1581968942
 21
4.4355832487
  0
LINE
  5
254
100
AcDbEntity
  8
ALL_ASSEMBLY_MEMBERS
100
AcDbLine
 62
7
  6
CONTINUOUS
 10
4.1572699294
 20
4.4512956652
 11
4.157889736
 21
4.4406224696
  0
LINE
  5
255
100
AcDbEntity
  8
ALL_ASSEMBLY_MEMBERS
100
AcDbLine
 62
7
  6
CONTINUOUS
 10
4.1567914318
 20
4.4600759633
 11
4.1573797386
 21
4.449351068
  0
LINE
  5
256
100
AcDbEntity
  8
ALL_ASSEMBLY_MEMBERS
100
AcDbLine
 62
7
  6
CONTINUOUS
 10
4.1622519009
 20
4.4331255123
 11
4.1623536235
 21
4.431161102
  0
LINE
  5
257
100
AcDbEntity
  8
ALL_ASSEMBLY_MEMBERS
100
AcDbLine
 62
7
  6
CONTINUOUS
 10
4.1565219078
 20
4.4652657249
 11
4.1569815778
 21
4.4565244799
  0
LINE
  5
258
100
AcDbEntity
  8
ALL_ASSEMBLY_MEMBERS
100
AcDbLine
 62
7
  6
CONTINUOUS
 10
4.155982177
 20
4.4762898891
 11
4.1566377738
 21
4.4630113705
  0
LINE
  5
259
100
AcDbEntity
  8
ALL_ASSEMBLY_MEMBERS
100
AcDbLine
 62
7
  6
CONTINUOUS
 10
4.1556036782
 20
4.4846260966
 11
4.156212618
 21
4.4714705166
  0
LINE
  5
25A
100
AcDbEntity
  8
ALL_ASSEMBLY_MEMBERS
100
AcDbLine
 62
7
  6
CONTINUOUS
 10
4.1553440767
 20
4.4907083227
 11
4.1556036782
 21
4.4846260966
  0
LINE
  5
25B
100
AcDbEntity
  8
ALL_ASSEMBLY_MEMBERS
100
AcDbLine
 62
7
  6
CONTINUOUS
 10
4.1773075938
 20
4.2414036934
 11
4.1773148058
 21
4.2412284327
  0
LINE
  5
25C
100
AcDbEntity
  8
ALL_ASSEMBLY_MEMBERS
100
AcDbLine
 62
7
  6
CONTINUOUS
 10
4.1772794351
 20
4.2416114009
 11
4.1772865404
 21
4.2414369312
  0
LINE
  5
25D
100
AcDbEntity
  8
ALL_ASSEMBLY_MEMBERS
100
AcDbLine
 62
7
  6
CONTINUOUS
 10
4.1622519009
 20
4.3795066635
 11
4.16225724
 21
4.3793514029
  0
LINE
  5
25E
100
AcDbEntity
  8
ALL_ASSEMBLY_MEMBERS
100
AcDbLine
 62
7
  6
CONTINUOUS
 10
4.1773074334
 20
4.9300969309
 11
4.1773075412
 21
4.9388369967
  0
LINE
  5
25F
100
AcDbEntity
  8
ALL_ASSEMBLY_MEMBERS
100
AcDbLine
 62
7
  6
CONTINUOUS
 10
4.1773074334
 20
4.8302612091
 11
4.1773075412
 21
4.8541379645
  0
LINE
  5
260
100
AcDbEntity
  8
ALL_ASSEMBLY_MEMBERS
100
AcDbLine
 62
7
  6
CONTINUOUS
 10
4.1773074334
 20
4.6660799358
 11
4.1773075412
 21
4.6986956235
  0
LINE
  5
261
100
AcDbEntity
  8
ALL_ASSEMBLY_MEMBERS
100
AcDbLine
 62
7
  6
CONTINUOUS
 10
4.1773075412
 20
4.5141606234
 11
4.1773074334
 21
4.4815453505
  0
LINE
  5
262
100
AcDbEntity
  8
ALL_ASSEMBLY_MEMBERS
100
AcDbLine
 62
7
  6
CONTINUOUS
 10
4.1773075412
 20
4.3499789685
 11
4.1773074334
 21
4.3261033464
  0
LINE
  5
263
100
AcDbEntity
  8
ALL_ASSEMBLY_MEMBERS
100
AcDbLine
 62
7
  6
CONTINUOUS
 10
4.1773075412
 20
4.2501430005
 11
4.1773074334
 21
4.241404483
  0
LINE
  5
264
100
AcDbEntity
  8
ALL_ASSEMBLY_MEMBERS
100
AcDbLine
 62
7
  6
CONTINUOUS
 10
4.1622518949
 20
4.8007340202
 11
4.1622572473
 21
4.8008894368
  0
LINE
  5
265
100
AcDbEntity
  8
ALL_ASSEMBLY_MEMBERS
100
AcDbLine
 62
7
  6
CONTINUOUS
 10
4.1772794353
 20
4.9386292823
 11
4.1772865402
 21
4.93880375
  0
LINE
  5
266
100
AcDbEntity
  8
ALL_ASSEMBLY_MEMBERS
100
AcDbLine
 62
7
  6
CONTINUOUS
 10
4.1773075412
 20
4.9388369967
 11
4.1773147565
 21
4.9390122795
  0
LINE
  5
267
100
AcDbEntity
  8
ALL_ASSEMBLY_MEMBERS
100
AcDbLine
 62
7
  6
CONTINUOUS
 10
4.1558933737
 20
4.7020451405
 11
4.155344076
 21
4.6895323425
  0
LINE
  5
268
100
AcDbEntity
  8
ALL_ASSEMBLY_MEMBERS
100
AcDbLine
 62
7
  6
CONTINUOUS
 10
4.1562854641
 20
4.7102577373
 11
4.1556929226
 21
4.6976310609
  0
LINE
  5
269
100
AcDbEntity
  8
ALL_ASSEMBLY_MEMBERS
100
AcDbLine
 62
7
  6
CONTINUOUS
 10
4.156652172
 20
4.7175073678
 11
4.1560911394
 21
4.7062515568
  0
LINE
  5
26A
100
AcDbEntity
  8
ALL_ASSEMBLY_MEMBERS
100
AcDbLine
 62
7
  6
CONTINUOUS
 10
4.1622518922
 20
4.7471151715
 11
4.1623536152
 21
4.7490795703
  0
LINE
  5
26B
100
AcDbEntity
  8
ALL_ASSEMBLY_MEMBERS
100
AcDbLine
 62
7
  6
CONTINUOUS
 10
4.157018423
 20
4.7243948128
 11
4.1564849826
 21
4.7142486982
  0
LINE
  5
26C
100
AcDbEntity
  8
ALL_ASSEMBLY_MEMBERS
100
AcDbLine
 62
7
  6
CONTINUOUS
 10
4.1573602152
 20
4.7305455561
 11
4.1568022743
 21
4.7203699564
  0
LINE
  5
26D
100
AcDbEntity
  8
ALL_ASSEMBLY_MEMBERS
100
AcDbLine
 62
7
  6
CONTINUOUS
 10
4.157653665
 20
4.7356373915
 11
4.1571726642
 21
4.7272012975
  0
LINE
  5
26E
100
AcDbEntity
  8
ALL_ASSEMBLY_MEMBERS
100
AcDbLine
 62
7
  6
CONTINUOUS
 10
4.1581351364
 20
4.743656439
 11
4.157617843
 21
4.7350244071
  0
LINE
  5
26F
100
AcDbEntity
  8
ALL_ASSEMBLY_MEMBERS
100
AcDbLine
 62
7
  6
CONTINUOUS
 10
4.1584304216
 20
4.7483901387
 11
4.1578897357
 21
4.7396182087
  0
LINE
  5
270
100
AcDbEntity
  8
ALL_ASSEMBLY_MEMBERS
100
AcDbLine
 62
7
  6
CONTINUOUS
 10
4.1587607919
 20
4.7535361563
 11
4.1581968943
 21
4.7446574318
  0
LINE
  5
271
100
AcDbEntity
  8
ALL_ASSEMBLY_MEMBERS
100
AcDbLine
 62
7
  6
CONTINUOUS
 10
4.1591301159
 20
4.7591179528
 11
4.1585548248
 21
4.7503458008
  0
LINE
  5
272
100
AcDbEntity
  8
ALL_ASSEMBLY_MEMBERS
100
AcDbLine
 62
7
  6
CONTINUOUS
 10
4.1595442163
 20
4.7651807167
 11
4.1589625662
 21
4.7566071628
  0
LINE
  5
273
100
AcDbEntity
  8
ALL_ASSEMBLY_MEMBERS
100
AcDbLine
 62
7
  6
CONTINUOUS
 10
4.1600149962
 20
4.771844616
 11
4.1594292185
 21
4.7635166514
  0
LINE
  5
274
100
AcDbEntity
  8
ALL_ASSEMBLY_MEMBERS
100
AcDbLine
 62
7
  6
CONTINUOUS
 10
4.1606670217
 20
4.7807161088
 11
4.159990579
 21
4.7715045421
  0
LWPOLYLINE
  5
275
100
AcDbEntity
  8
ALL_ASSEMBLY_MEMBERS
100
AcDbPolyline
 62
7
  6
CONTINUOUS
 90
3
 70
0
 10
4.1614862944
 20
4.7913381395
 10
4.1611896978
 20
4.7875591656
 10
4.1608596315
 20
4.7832642138
  0
LWPOLYLINE
  5
276
100
AcDbEntity
  8
ALL_ASSEMBLY_MEMBERS
100
AcDbPolyline
 62
7
  6
CONTINUOUS
 90
3
 70
0
 10
4.1622572473
 20
4.8008894368
 10
4.1614598704
 20
4.7910107737
 10
4.1605578925
 20
4.7792583044
  0
LINE
  5
277
100
AcDbEntity
  8
ALL_ASSEMBLY_MEMBERS
100
AcDbLine
 62
7
  6
CONTINUOUS
 10
4.162251898
 20
4.7979191038
 11
4.1625049709
 21
4.8008687736
  0
LINE
  5
278
100
AcDbEntity
  8
ALL_ASSEMBLY_MEMBERS
100
AcDbLine
 62
7
  6
CONTINUOUS
 10
4.1580563005
 20
4.704821651
 11
4.1561490747
 21
4.681954124
  0
LINE
  5
279
100
AcDbEntity
  8
ALL_ASSEMBLY_MEMBERS
100
AcDbLine
 62
7
  6
CONTINUOUS
 10
4.162251898
 20
4.7979191038
 11
4.1625116121
 21
4.8008670285
  0
LINE
  5
27A
100
AcDbEntity
  8
ALL_ASSEMBLY_MEMBERS
100
AcDbLine
 62
7
  6
CONTINUOUS
 10
4.1587120741
 20
4.712261567
 11
4.1580563005
 21
4.704821651
  0
LINE
  5
27B
100
AcDbEntity
  8
ALL_ASSEMBLY_MEMBERS
100
AcDbLine
 62
7
  6
CONTINUOUS
 10
4.1561490747
 20
4.681954124
 11
4.1560057228
 21
4.6803204186
  0
LINE
  5
27C
100
AcDbEntity
  8
ALL_ASSEMBLY_MEMBERS
100
AcDbLine
 62
7
  6
CONTINUOUS
 10
4.1591832573
 20
4.7174354313
 11
4.1587120741
 21
4.712261567
  0
LINE
  5
27D
100
AcDbEntity
  8
ALL_ASSEMBLY_MEMBERS
100
AcDbLine
 62
7
  6
CONTINUOUS
 10
4.1597306225
 20
4.7232748747
 11
4.1591832573
 21
4.7174354313
  0
LINE
  5
27E
100
AcDbEntity
  8
ALL_ASSEMBLY_MEMBERS
100
AcDbLine
 62
7
  6
CONTINUOUS
 10
4.1560057228
 20
4.6803204186
 11
4.1559210912
 21
4.6794114346
  0
LINE
  5
27F
100
AcDbEntity
  8
ALL_ASSEMBLY_MEMBERS
100
AcDbLine
 62
7
  6
CONTINUOUS
 10
4.1601488151
 20
4.7276194896
 11
4.1597306225
 21
4.7232748747
  0
LINE
  5
280
100
AcDbEntity
  8
ALL_ASSEMBLY_MEMBERS
100
AcDbLine
 62
7
  6
CONTINUOUS
 10
4.1606186288
 20
4.7323875394
 11
4.1601488151
 21
4.7276194896
  0
LINE
  5
281
100
AcDbEntity
  8
ALL_ASSEMBLY_MEMBERS
100
AcDbLine
 62
7
  6
CONTINUOUS
 10
4.1559238241
 20
4.6794401045
 11
4.1558670882
 21
4.6788765328
  0
LINE
  5
282
100
AcDbEntity
  8
ALL_ASSEMBLY_MEMBERS
100
AcDbLine
 62
7
  6
CONTINUOUS
 10
4.1611512675
 20
4.7376581966
 11
4.1606186288
 21
4.7323875394
  0
LINE
  5
283
100
AcDbEntity
  8
ALL_ASSEMBLY_MEMBERS
100
AcDbLine
 62
7
  6
CONTINUOUS
 10
4.1617673412
 20
4.7435885709
 11
4.1611512675
 21
4.7376581966
  0
LINE
  5
284
100
AcDbEntity
  8
ALL_ASSEMBLY_MEMBERS
100
AcDbLine
 62
7
  6
CONTINUOUS
 10
4.1623536152
 20
4.7490795703
 11
4.1617673412
 21
4.7435885709
  0
LINE
  5
285
100
AcDbEntity
  8
ALL_ASSEMBLY_MEMBERS
100
AcDbLine
 62
7
  6
CONTINUOUS
 10
4.1624639564
 20
4.7490646719
 11
4.162251898
 21
4.7471151711
  0
LINE
  5
286
100
AcDbEntity
  8
ALL_ASSEMBLY_MEMBERS
100
AcDbLine
 62
7
  6
CONTINUOUS
 10
4.1624697704
 20
4.7490666018
 11
4.162251898
 21
4.7471151711
  0
LINE
  5
287
100
AcDbEntity
  8
ALL_ASSEMBLY_MEMBERS
100
AcDbLine
 62
7
  6
CONTINUOUS
 10
4.1634512204
 20
4.7489418175
 11
4.1634696653
 21
4.7490881853
  0
LWPOLYLINE
  5
288
100
AcDbEntity
  8
ALL_ASSEMBLY_MEMBERS
100
AcDbPolyline
 62
7
  6
CONTINUOUS
 90
9
 70
0
 10
4.1758473752
 20
4.8470153108
 10
4.1738555315
 20
4.8347773108
 10
4.1719365751
 20
4.8224634686
 10
4.1700935721
 20
4.8100739274
 10
4.1683296602
 20
4.7976088146
 10
4.1666480408
 20
4.7850682695
 10
4.165051858
 20
4.772451573
 10
4.1635441685
 20
4.7597567432
 10
4.1623536823
 20
4.749080126
  0
LINE
  5
289
100
AcDbEntity
  8
ALL_ASSEMBLY_MEMBERS
100
AcDbLine
 62
7
  6
CONTINUOUS
 10
4.177530619
 20
4.8569800143
 11
4.1758473752
 21
4.8470153108
  0
LINE
  5
28A
100
AcDbEntity
  8
ALL_ASSEMBLY_MEMBERS
100
AcDbLine
 62
7
  6
CONTINUOUS
 10
4.1778124571
 20
4.8569108475
 11
4.1777800609
 21
4.8567408504
  0
LINE
  5
28B
100
AcDbEntity
  8
ALL_ASSEMBLY_MEMBERS
100
AcDbLine
 62
7
  6
CONTINUOUS
 10
4.1778810206
 20
4.8569094654
 11
4.1778458607
 21
4.8567395451
  0
LINE
  5
28C
100
AcDbEntity
  8
ALL_ASSEMBLY_MEMBERS
100
AcDbLine
 62
7
  6
CONTINUOUS
 10
4.1633766407
 20
4.6604579943
 11
4.1608454915
 21
4.6505224151
  0
LINE
  5
28D
100
AcDbEntity
  8
ALL_ASSEMBLY_MEMBERS
100
AcDbLine
 62
7
  6
CONTINUOUS
 10
4.1608454915
 20
4.6505224151
 11
4.1601721994
 21
4.6479138192
  0
LINE
  5
28E
100
AcDbEntity
  8
ALL_ASSEMBLY_MEMBERS
100
AcDbLine
 62
7
  6
CONTINUOUS
 10
4.1601721994
 20
4.6479138192
 11
4.1598448486
 21
4.6466745258
  0
LWPOLYLINE
  5
28F
100
AcDbEntity
  8
ALL_ASSEMBLY_MEMBERS
100
AcDbPolyline
 62
7
  6
CONTINUOUS
 90
7
 70
0
 10
4.1598448486
 20
4.6466745258
 10
4.1595937498
 20
4.6457478547
 10
4.1594936513
 20
4.645387253
 10
4.1594073699
 20
4.6450821101
 10
4.159337511
 20
4.644840274
 10
4.1592879913
 20
4.6446728735
 10
4.1592562274
 20
4.644568375
  0
LINE
  5
290
100
AcDbEntity
  8
ALL_ASSEMBLY_MEMBERS
100
AcDbLine
 62
7
  6
CONTINUOUS
 10
4.1647225464
 20
4.6605657343
 11
4.1645990006
 21
4.6601195387
  0
LINE
  5
291
100
AcDbEntity
  8
ALL_ASSEMBLY_MEMBERS
100
AcDbLine
 62
7
  6
CONTINUOUS
 10
4.1647225348
 20
4.6605697756
 11
4.1645955938
 21
4.6601211594
  0
LWPOLYLINE
  5
292
100
AcDbEntity
  8
ALL_ASSEMBLY_MEMBERS
100
AcDbPolyline
 62
7
  6
CONTINUOUS
 90
9
 70
0
 10
4.1776911956
 20
4.7061847928
 10
4.1756115085
 20
4.7003481921
 10
4.1735987707
 20
4.6945155527
 10
4.1716569222
 20
4.688687046
 10
4.169789403
 20
4.6828605994
 10
4.1679992255
 20
4.677031688
 10
4.166290067
 20
4.6711968845
 10
4.1646661222
 20
4.6653535033
 10
4.1633767247
 20
4.6604583133
  0
LINE
  5
293
100
AcDbEntity
  8
ALL_ASSEMBLY_MEMBERS
100
AcDbLine
 62
7
  6
CONTINUOUS
 10
4.1794500791
 20
4.7109904366
 11
4.1776911956
 21
4.7061847928
  0
LINE
  5
294
100
AcDbEntity
  8
ALL_ASSEMBLY_MEMBERS
100
AcDbLine
 62
7
  6
CONTINUOUS
 10
4.1794500791
 20
4.7109904366
 11
4.1794560778
 21
4.7110065964
  0
LWPOLYLINE
  5
295
100
AcDbEntity
  8
ALL_ASSEMBLY_MEMBERS
100
AcDbPolyline
 62
7
  6
CONTINUOUS
 90
11
 70
0
 10
4.1794562853
 20
4.4692336643
 10
4.1809351995
 20
4.465546815
 10
4.1836181219
 20
4.4599361623
 10
4.1867874975
 20
4.4544164017
 10
4.1904465682
 20
4.4489841892
 10
4.1945951923
 20
4.4436446801
 10
4.199225156
 20
4.4384099971
 10
4.2043353814
 20
4.4332803816
 10
4.209942449
 20
4.4282416253
 10
4.2160639472
 20
4.4232849239
 10
4.2199415303
 20
4.4203839187
  0
LINE
  5
296
100
AcDbEntity
  8
ALL_ASSEMBLY_MEMBERS
100
AcDbLine
 62
7
  6
CONTINUOUS
 10
4.1794114023
 20
4.4693546449
 11
4.1794562853
 21
4.4692336643
  0
LWPOLYLINE
  5
297
100
AcDbEntity
  8
ALL_ASSEMBLY_MEMBERS
100
AcDbPolyline
 62
7
  6
CONTINUOUS
 90
8
 70
0
 10
4.1593220494
 20
4.5354760675
 10
4.1592756556
 20
4.5356133887
 10
4.1592503066
 20
4.5356911814
 10
4.159257833
 20
4.5356671191
 10
4.1592876152
 20
4.5355690641
 10
4.1593369146
 20
4.5354024485
 10
4.1594065524
 20
4.5351614338
 10
4.1594926198
 20
4.5348571126
  0
LINE
  5
298
100
AcDbEntity
  8
ALL_ASSEMBLY_MEMBERS
100
AcDbLine
 62
7
  6
CONTINUOUS
 10
4.1645956063
 20
4.5201194785
 11
4.1647313957
 21
4.5196396662
  0
LINE
  5
299
100
AcDbEntity
  8
ALL_ASSEMBLY_MEMBERS
100
AcDbLine
 62
7
  6
CONTINUOUS
 10
4.164599233
 20
4.5201209444
 11
4.1647314072
 21
4.519643709
  0
LINE
  5
29A
100
AcDbEntity
  8
ALL_ASSEMBLY_MEMBERS
100
AcDbLine
 62
7
  6
CONTINUOUS
 10
4.1594926198
 20
4.5348571126
 11
4.1597082699
 21
4.534073548
  0
LINE
  5
29B
100
AcDbEntity
  8
ALL_ASSEMBLY_MEMBERS
100
AcDbLine
 62
7
  6
CONTINUOUS
 10
4.1597082699
 20
4.534073548
 11
4.1599968187
 21
4.5329942995
  0
LWPOLYLINE
  5
29C
100
AcDbEntity
  8
ALL_ASSEMBLY_MEMBERS
100
AcDbPolyline
 62
7
  6
CONTINUOUS
 90
10
 70
0
 10
4.1633767269
 20
4.5197823616
 10
4.1646424428
 20
4.5149748781
 10
4.1662647311
 20
4.5091325584
 10
4.1679722872
 20
4.5032987747
 10
4.1697609267
 20
4.4974708151
 10
4.1716269754
 20
4.4916452538
 10
4.1735674205
 20
4.485817571
 10
4.1755788322
 20
4.4799856575
 10
4.1776572745
 20
4.4741496856
 10
4.1794116311
 20
4.4693540256
  0
LINE
  5
29D
100
AcDbEntity
  8
ALL_ASSEMBLY_MEMBERS
100
AcDbLine
 62
7
  6
CONTINUOUS
 10
4.1599968187
 20
4.5329942995
 11
4.1605916441
 21
4.5307081131
  0
LWPOLYLINE
  5
29E
100
AcDbEntity
  8
ALL_ASSEMBLY_MEMBERS
100
AcDbPolyline
 62
7
  6
CONTINUOUS
 90
3
 70
0
 10
4.1605916441
 20
4.5307081131
 10
4.1617516132
 20
4.5261581648
 10
4.1633766519
 20
4.5197826457
  0
LINE
  5
29F
100
AcDbEntity
  8
ALL_ASSEMBLY_MEMBERS
100
AcDbLine
 62
7
  6
CONTINUOUS
 10
4.1778458711
 20
4.3235010752
 11
4.1778809904
 21
4.3233313434
  0
LWPOLYLINE
  5
2A0
100
AcDbEntity
  8
ALL_ASSEMBLY_MEMBERS
100
AcDbPolyline
 62
7
  6
CONTINUOUS
 90
22
 70
0
 10
4.1775309719
 20
4.3232589208
 10
4.1791771141
 20
4.3148804026
 10
4.181962478
 20
4.3039064494
 10
4.1854636888
 20
4.2929655891
 10
4.1896857128
 20
4.2820858512
 10
4.1946237709
 20
4.2713108993
 10
4.200259208
 20
4.260699585
 10
4.2065820614
 20
4.2502841256
 10
4.2135804135
 20
4.2400945695
 10
4.2212227507
 20
4.2301831379
 10
4.2294881002
 20
4.2205816117
 10
4.2383579353
 20
4.2113139806
 10
4.2477975051
 20
4.2024176819
 10
4.2577824312
 20
4.1939173761
 10
4.2682861573
 20
4.1858355335
 10
4.2792660096
 20
4.1782037738
 10
4.2906914149
 20
4.1710426538
 10
4.3025329119
 20
4.1643686468
 10
4.3147460547
 20
4.1582046382
 10
4.327293218
 20
4.1525673129
 10
4.340140372
 20
4.1474673026
 10
4.3506743652
 20
4.1437604333
  0
LINE
  5
2A1
100
AcDbEntity
  8
ALL_ASSEMBLY_MEMBERS
100
AcDbLine
 62
7
  6
CONTINUOUS
 10
4.1777800669
 20
4.3234997795
 11
4.1778124268
 21
4.3233299715
  0
LINE
  5
2A2
100
AcDbEntity
  8
ALL_ASSEMBLY_MEMBERS
100
AcDbLine
 62
7
  6
CONTINUOUS
 10
4.1634695313
 20
4.4311574158
 11
4.1634506227
 21
4.431302385
  0
LWPOLYLINE
  5
2A3
100
AcDbEntity
  8
ALL_ASSEMBLY_MEMBERS
100
AcDbPolyline
 62
7
  6
CONTINUOUS
 90
4
 70
0
 10
4.1558764317
 20
4.501292288
 10
4.1558698957
 20
4.5013446394
 10
4.1558619411
 20
4.5014110348
 10
4.1558630233
 20
4.501401377
  0
LINE
  5
2A4
100
AcDbEntity
  8
ALL_ASSEMBLY_MEMBERS
100
AcDbLine
 62
7
  6
CONTINUOUS
 10
4.162251898
 20
4.4331255121
 11
4.1624698375
 21
4.4311734863
  0
LWPOLYLINE
  5
2A5
100
AcDbEntity
  8
ALL_ASSEMBLY_MEMBERS
100
AcDbPolyline
 62
7
  6
CONTINUOUS
 90
10
 70
0
 10
4.1623536867
 20
4.4311605184
 10
4.1635223454
 20
4.4206740746
 10
4.1650284287
 20
4.4079801952
 10
4.1666230302
 20
4.3953643919
 10
4.1683030969
 20
4.3828246691
 10
4.1700654863
 20
4.3703603092
 10
4.1719069979
 20
4.3579714556
 10
4.1738244994
 20
4.3456582071
 10
4.1758149258
 20
4.3334207126
 10
4.177530619
 20
4.3232606689
  0
LINE
  5
2A6
100
AcDbEntity
  8
ALL_ASSEMBLY_MEMBERS
100
AcDbLine
 62
7
  6
CONTINUOUS
 10
4.3620569822
 20
4.2966758019
 11
4.3526457004
 21
4.2630243528
  0
LINE
  5
2A7
100
AcDbEntity
  8
ALL_ASSEMBLY_MEMBERS
100
AcDbLine
 62
7
  6
CONTINUOUS
 10
4.3620569822
 20
4.1172148286
 11
4.3526457004
 21
4.0842279537
  0
LINE
  5
2A8
100
AcDbEntity
  8
ALL_ASSEMBLY_MEMBERS
100
AcDbLine
 62
7
  6
CONTINUOUS
 10
4.3620569822
 20
4.5547650026
 11
4.3526457004
 21
4.5294658578
  0
LINE
  5
2A9
100
AcDbEntity
  8
ALL_ASSEMBLY_MEMBERS
100
AcDbLine
 62
7
  6
CONTINUOUS
 10
4.3620569822
 20
4.8223276378
 11
4.3526457004
 21
4.8121596829
  0
LINE
  5
2AA
100
AcDbEntity
  8
ALL_ASSEMBLY_MEMBERS
100
AcDbLine
 62
7
  6
CONTINUOUS
 10
4.2074392675
 20
4.5618360704
 11
4.1898064431
 21
4.5436004938
  0
LWPOLYLINE
  5
2AB
100
AcDbEntity
  8
ALL_ASSEMBLY_MEMBERS
100
AcDbPolyline
 62
7
  6
CONTINUOUS
 90
11
 70
0
 10
4.2199475195
 20
4.7598611138
 10
4.2161095319
 20
4.7569908341
 10
4.2099982116
 20
4.7520465591
 10
4.2043990208
 20
4.7470206598
 10
4.1992945699
 20
4.7419044796
 10
4.1946682534
 20
4.7366839092
 10
4.1905210511
 20
4.731359188
 10
4.1868612198
 20
4.725942386
 10
4.1836887811
 20
4.7204385735
 10
4.1810003128
 20
4.7148443044
 10
4.1794561529
 20
4.7110065685
  0
LINE
  5
2AC
100
AcDbEntity
  8
ALL_ASSEMBLY_MEMBERS
100
AcDbLine
 62
7
  6
CONTINUOUS
 10
4.2405449217
 20
4.7748165096
 11
4.2309859098
 21
4.767874263
  0
LWPOLYLINE
  5
2AD
100
AcDbEntity
  8
ALL_ASSEMBLY_MEMBERS
100
AcDbPolyline
 62
7
  6
CONTINUOUS
 90
3
 70
0
 10
4.2309859098
 20
4.767874263
 10
4.2258034815
 20
4.7641129472
 10
4.2199485389
 20
4.7598618543
  0
LINE
  5
2AE
100
AcDbEntity
  8
ALL_ASSEMBLY_MEMBERS
100
AcDbLine
 62
7
  6
CONTINUOUS
 10
4.3502288851
 20
5.1503226503
 11
4.3499921157
 21
5.150231321
  0
LWPOLYLINE
  5
2AF
100
AcDbEntity
  8
ALL_ASSEMBLY_MEMBERS
100
AcDbPolyline
 62
7
  6
CONTINUOUS
 90
20
 70
0
 10
4.3395045414
 20
5.1467742451
 10
4.3393708326
 20
5.1467231727
 10
4.3265455192
 20
5.1411136236
 10
4.3140262514
 20
5.1348315459
 10
4.3018529541
 20
5.1278940467
 10
4.2900607209
 20
5.120321316
 10
4.2786841351
 20
5.1121352164
 10
4.2677544037
 20
5.1033566194
 10
4.2573036738
 20
5.0940118493
 10
4.2473669751
 20
5.0841319528
 10
4.2379734164
 20
5.0737449257
 10
4.2291487197
 20
5.0628813159
 10
4.2209211849
 20
5.0515770831
 10
4.2133139662
 20
5.0398644852
 10
4.2063472911
 20
5.0277788733
 10
4.2000431291
 20
5.0153614209
 10
4.1944193066
 20
5.0026497138
 10
4.1894885721
 20
4.9896791197
 10
4.1852638459
 20
4.9764873074
 10
4.1817564695
 20
4.9631129113
  0
LWPOLYLINE
  5
2B0
100
AcDbEntity
  8
ALL_ASSEMBLY_MEMBERS
100
AcDbPolyline
 62
7
  6
CONTINUOUS
 90
22
 70
0
 10
4.3498075872
 20
5.1507097074
 10
4.339610683
 20
5.1468205458
 10
4.3267842146
 20
5.1412254275
 10
4.314262185
 20
5.1349576519
 10
4.3020848648
 20
5.1280343157
 10
4.2902876303
 20
5.1204754697
 10
4.2789048029
 20
5.1123028735
 10
4.2679675501
 20
5.1035371394
 10
4.2575081473
 20
5.0942044164
 10
4.2475616254
 20
5.0843358046
 10
4.2381572618
 20
5.0739591749
 10
4.2293209356
 20
5.0631049189
 10
4.2210809235
 20
5.0518090316
 10
4.2134605544
 20
5.0401036349
 10
4.2064802058
 20
5.0280239286
 10
4.2001618116
 20
5.0156110949
 10
4.1945233804
 20
5.0029026129
 10
4.189577902
 20
4.9899339281
 10
4.1853383607
 20
4.9767430058
 10
4.181816282
 20
4.9633682234
 10
4.1790195689
 20
4.9498530938
 10
4.1773148466
 20
4.9390122673
  0
LINE
  5
2B1
100
AcDbEntity
  8
ALL_ASSEMBLY_MEMBERS
100
AcDbLine
 62
7
  6
CONTINUOUS
 10
4.3502288851
 20
5.1503226503
 11
4.3499899874
 21
5.1502373986
  0
LWPOLYLINE
  5
2B2
100
AcDbEntity
  8
ALL_ASSEMBLY_MEMBERS
100
AcDbPolyline
 62
7
  6
CONTINUOUS
 90
19
 70
0
 10
4.3498075802
 20
4.0295309593
 10
4.3602762413
 20
4.026027189
 10
4.3738547873
 20
4.0221849947
 10
4.387612336
 20
4.0190698234
 10
4.4015070457
 20
4.0166902584
 10
4.4154983337
 20
4.015052636
 10
4.4295464949
 20
4.0141619811
 10
4.4436106389
 20
4.0140195164
 10
4.4576484338
 20
4.0146256336
 10
4.4716178666
 20
4.0159783095
 10
4.4854776632
 20
4.0180719018
 10
4.4991866416
 20
4.0209000976
 10
4.51270382
 20
4.0244530853
 10
4.5259890883
 20
4.0287189881
 10
4.5390027928
 20
4.0336842545
 10
4.5517059969
 20
4.0393320077
 10
4.5640607435
 20
4.0456440569
 10
4.5760307176
 20
4.0525994202
 10
4.578516881
 20
4.0541553975
  0
LINE
  5
2B3
100
AcDbEntity
  8
ALL_ASSEMBLY_MEMBERS
100
AcDbLine
 62
7
  6
CONTINUOUS
 10
4.349989987
 20
4.0300032858
 11
4.3502288851
 21
4.0299180329
  0
LINE
  5
2B4
100
AcDbEntity
  8
ALL_ASSEMBLY_MEMBERS
100
AcDbLine
 62
7
  6
CONTINUOUS
 10
4.349992115
 20
4.0300093624
 11
4.3502288851
 21
4.0299180329
  0
LWPOLYLINE
  5
2B5
100
AcDbEntity
  8
ALL_ASSEMBLY_MEMBERS
100
AcDbPolyline
 62
7
  6
CONTINUOUS
 90
3
 70
0
 10
4.3395045414
 20
4.0334664382
 10
4.339610683
 20
4.0334201374
 10
4.3498075872
 20
4.0295309758
  0
LINE
  5
2B6
100
AcDbEntity
  8
ALL_ASSEMBLY_MEMBERS
100
AcDbLine
 62
7
  6
CONTINUOUS
 10
4.2256719112
 20
4.4162232296
 11
4.2405238943
 21
4.405439454
  0
LINE
  5
2B7
100
AcDbEntity
  8
ALL_ASSEMBLY_MEMBERS
100
AcDbLine
 62
7
  6
CONTINUOUS
 10
4.2405439849
 20
4.4054248543
 11
4.2405238943
 21
4.405439454
  0
LINE
  5
2B8
100
AcDbEntity
  8
ALL_ASSEMBLY_MEMBERS
100
AcDbLine
 62
7
  6
CONTINUOUS
 10
4.2199431626
 20
4.420382733
 11
4.2256719112
 21
4.4162232296
  0
LINE
  5
2B9
100
AcDbEntity
  8
ALL_ASSEMBLY_MEMBERS
100
AcDbLine
 62
7
  6
CONTINUOUS
 10
4.1898064431
 20
4.6366401895
 11
4.2074392675
 21
4.6184046129
  0
LINE
  5
2BA
100
AcDbEntity
  8
ALL_ASSEMBLY_MEMBERS
100
AcDbLine
 62
7
  6
CONTINUOUS
 10
4.3526457004
 20
4.3680810004
 11
4.3620569822
 21
4.3579130454
  0
LINE
  5
2BB
100
AcDbEntity
  8
ALL_ASSEMBLY_MEMBERS
100
AcDbLine
 62
7
  6
CONTINUOUS
 10
4.3526457004
 20
4.6507748254
 11
4.3620569822
 21
4.6254756807
  0
LINE
  5
2BC
100
AcDbEntity
  8
ALL_ASSEMBLY_MEMBERS
100
AcDbLine
 62
7
  6
CONTINUOUS
 10
4.3526457004
 20
5.0960127295
 11
4.3620569822
 21
5.0630258546
  0
LINE
  5
2BD
100
AcDbEntity
  8
ALL_ASSEMBLY_MEMBERS
100
AcDbLine
 62
7
  6
CONTINUOUS
 10
4.3526457004
 20
4.9172163305
 11
4.3620569822
 21
4.8835648814
  0
LWPOLYLINE
  5
2BE
100
AcDbEntity
  8
ALL_ASSEMBLY_MEMBERS
100
AcDbPolyline
 62
7
  6
CONTINUOUS
 90
12
 70
0
 10
4.5885047961
 20
5.1079269937
 10
4.5884013746
 20
5.1100332626
 10
4.588092105
 20
5.1121192693
 10
4.5875799621
 20
5.114164945
 10
4.5868698727
 20
5.1161506092
 10
4.5859686678
 20
5.1180571582
 10
4.5848850177
 20
5.1198662491
 10
4.5836293477
 20
5.1215604769
 10
4.5822137378
 20
5.1231235421
 10
4.5806518071
 20
5.1245404069
 10
4.5789585823
 20
5.1257974396
 10
4.5785140375
 20
5.126086924
  0
LINE
  5
2BF
100
AcDbEntity
  8
ALL_ASSEMBLY_MEMBERS
100
AcDbLine
 62
7
  6
CONTINUOUS
 10
4.5788827726
 20
4.0948389944
 11
4.5788827903
 21
4.0546263351
  0
LINE
  5
2C0
100
AcDbEntity
  8
ALL_ASSEMBLY_MEMBERS
100
AcDbLine
 62
7
  6
CONTINUOUS
 10
4.5788827669
 20
4.2677619017
 11
4.5788828074
 21
4.1578988568
  0
LINE
  5
2C1
100
AcDbEntity
  8
ALL_ASSEMBLY_MEMBERS
100
AcDbLine
 62
7
  6
CONTINUOUS
 10
4.5788827669
 20
4.5270604954
 11
4.5788827903
 21
4.3769847685
  0
LINE
  5
2C2
100
AcDbEntity
  8
ALL_ASSEMBLY_MEMBERS
100
AcDbLine
 62
7
  6
CONTINUOUS
 10
4.5788827721
 20
5.0223418415
 11
4.5788827903
 21
4.912478775
  0
LINE
  5
2C3
100
AcDbEntity
  8
ALL_ASSEMBLY_MEMBERS
100
AcDbLine
 62
7
  6
CONTINUOUS
 10
4.5788827669
 20
4.803255924
 11
4.5788827903
 21
4.6531801894
  0
LINE
  5
2C4
100
AcDbEntity
  8
ALL_ASSEMBLY_MEMBERS
100
AcDbLine
 62
7
  6
CONTINUOUS
 10
4.578882767
 20
5.1256143639
 11
4.578882808
 21
5.0854016649
  0
LINE
  5
2C5
100
AcDbEntity
  8
ALL_ASSEMBLY_MEMBERS
100
AcDbLine
 62
7
  6
CONTINUOUS
 10
4.588506009
 20
4.1444491122
 11
4.588505713
 21
4.1454933475
  0
LWPOLYLINE
  5
2C6
100
AcDbEntity
  8
ALL_ASSEMBLY_MEMBERS
100
AcDbPolyline
 62
7
  6
CONTINUOUS
 90
3
 70
0
 10
4.5885041061
 20
4.148644347
 10
4.588504029
 20
4.149523418
 10
4.5885040479
 20
4.1499590606
  0
LWPOLYLINE
  5
2C7
100
AcDbEntity
  8
ALL_ASSEMBLY_MEMBERS
100
AcDbPolyline
 62
7
  6
CONTINUOUS
 90
3
 70
0
 10
4.588505204
 20
4.1553360994
 10
4.5885051884
 20
4.1557242777
 10
4.5885047775
 20
4.1583176053
  0
LINE
  5
2C8
100
AcDbEntity
  8
ALL_ASSEMBLY_MEMBERS
100
AcDbLine
 62
7
  6
CONTINUOUS
 10
4.5885047961
 20
5.1079302572
 11
4.5885047961
 21
4.0723104261
  0
LWPOLYLINE
  5
2C9
100
AcDbEntity
  8
ALL_ASSEMBLY_MEMBERS
100
AcDbPolyline
 62
7
  6
CONTINUOUS
 90
3
 70
0
 10
4.5885051437
 20
5.0249992928
 10
4.5885051264
 20
5.0253434096
 10
4.5885050891
 20
5.0256905312
  0
LINE
  5
2CA
100
AcDbEntity
  8
ALL_ASSEMBLY_MEMBERS
100
AcDbLine
 62
7
  6
CONTINUOUS
 10
4.5885047973
 20
5.0214201285
 11
4.5885047722
 21
5.0217295133
  0
LINE
  5
2CB
100
AcDbEntity
  8
ALL_ASSEMBLY_MEMBERS
100
AcDbLine
 62
7
  6
CONTINUOUS
 10
4.58850568
 20
5.0184896749
 11
4.5885056498
 21
5.0187695024
  0
LWPOLYLINE
  5
2CC
100
AcDbEntity
  8
ALL_ASSEMBLY_MEMBERS
100
AcDbPolyline
 62
7
  6
CONTINUOUS
 90
3
 70
0
 10
4.5885042188
 20
5.0293236467
 10
4.5885041731
 20
5.0297031433
 10
4.5885041504
 20
5.0300856034
  0
LINE
  5
2CD
100
AcDbEntity
  8
ALL_ASSEMBLY_MEMBERS
100
AcDbLine
 62
7
  6
CONTINUOUS
 10
4.6585047961
 20
4.4151203416
 11
4.6585047961
 21
4.7651203416
  0
LINE
  5
2CE
100
AcDbEntity
  8
ALL_ASSEMBLY_MEMBERS
100
AcDbLine
 62
7
  6
CONTINUOUS
 10
4.2074392675
 20
4.3922601894
 11
4.1898064431
 21
4.3741428711
  0
LWPOLYLINE
  5
2CF
100
AcDbEntity
  8
ALL_ASSEMBLY_MEMBERS
100
AcDbPolyline
 62
7
  6
CONTINUOUS
 90
22
 70
0
 10
4.3506743696
 20
5.0364802831
 10
4.3403746253
 20
5.0328604067
 10
4.3275277288
 20
5.0277723659
 10
4.3149790062
 20
5.0221469167
 10
4.3027628437
 20
5.0159946283
 10
4.2909171541
 20
5.0093321046
 10
4.2794862964
 20
5.0021822277
 10
4.2684996951
 20
4.9945611936
 10
4.2579880097
 20
4.9864894798
 10
4.2479940616
 20
4.977998874
 10
4.2385446276
 20
4.9691117339
 10
4.2296640915
 20
4.9598526366
 10
4.2213872053
 20
4.9502590961
 10
4.2137328074
 20
4.940355132
 10
4.206721729
 20
4.930172291
 10
4.2003851318
 20
4.9197622477
 10
4.194735273
 20
4.9091550133
 10
4.1897822643
 20
4.8983827446
 10
4.1855446247
 20
4.8875035885
 10
4.1820275161
 20
4.8765606562
 10
4.1792263555
 20
4.8655820399
 10
4.177531031
 20
4.8569818883
  0
LWPOLYLINE
  5
2D0
100
AcDbEntity
  8
ALL_ASSEMBLY_MEMBERS
100
AcDbPolyline
 62
7
  6
CONTINUOUS
 90
19
 70
0
 10
4.3506742584
 20
4.14376046
 10
4.3607484047
 20
4.1405915955
 10
4.373815917
 20
4.1369949743
 10
4.3870430047
 20
4.1339213126
 10
4.4003913194
 20
4.1313784834
 10
4.4138265103
 20
4.1293698914
 10
4.4273165163
 20
4.1278973429
 10
4.4408292311
 20
4.1269630445
 10
4.454328633
 20
4.1265670129
 10
4.4677767822
 20
4.1267077214
 10
4.481137935
 20
4.1273835951
 10
4.4943778311
 20
4.1285904956
 10
4.5074614018
 20
4.1303226228
 10
4.5203551415
 20
4.1325741949
 10
4.5330253346
 20
4.1353369627
 10
4.5454372919
 20
4.1386018648
 10
4.5575585193
 20
4.1423586733
 10
4.5693575636
 20
4.1465961911
 10
4.5751874325
 20
4.148916603
  0
LINE
  5
2D1
100
AcDbEntity
  8
ALL_ASSEMBLY_MEMBERS
100
AcDbLine
 62
7
  6
CONTINUOUS
 10
4.1898064431
 20
4.8060978123
 11
4.2074392675
 21
4.7879804938
  0
LINE
  5
2D2
100
AcDbEntity
  8
ALL_ASSEMBLY_MEMBERS
100
AcDbLine
 62
7
  6
CONTINUOUS
 10
4.8435047961
 20
4.601667347
 11
4.8435047961
 21
4.5785733362
  0
LINE
  5
2D3
100
AcDbEntity
  8
ALL_ASSEMBLY_MEMBERS
100
AcDbLine
 62
7
  6
CONTINUOUS
 10
4.8685047961
 20
4.5414439458
 11
4.8685047961
 21
4.4199175214
  0
LINE
  5
2D4
100
AcDbEntity
  8
ALL_ASSEMBLY_MEMBERS
100
AcDbLine
 62
7
  6
CONTINUOUS
 10
4.8685047961
 20
4.6308143215
 11
4.8685047961
 21
4.7651203416
  0
LINE
  5
2D5
100
AcDbEntity
  8
ALL_ASSEMBLY_MEMBERS
100
AcDbLine
 62
7
  6
CONTINUOUS
 10
4.8835047961
 20
4.5785733362
 11
4.8835047961
 21
4.601667347
  0
LINE
  5
2D6
100
AcDbEntity
  8
ALL_ASSEMBLY_MEMBERS
100
AcDbLine
 62
7
  6
CONTINUOUS
 10
4.1965880779
 20
4.2676121837
 11
4.1898064431
 21
4.2625562372
  0
LINE
  5
2D7
100
AcDbEntity
  8
ALL_ASSEMBLY_MEMBERS
100
AcDbLine
 62
7
  6
CONTINUOUS
 10
4.1965880639
 20
4.2676122275
 11
4.1898062829
 21
4.2625567364
  0
LINE
  5
2D8
100
AcDbEntity
  8
ALL_ASSEMBLY_MEMBERS
100
AcDbLine
 62
7
  6
CONTINUOUS
 10
5.9258551898
 20
4.0976203416
 11
6.0956551898
 21
4.0976203416
  0
LINE
  5
2D9
100
AcDbEntity
  8
ALL_ASSEMBLY_MEMBERS
100
AcDbLine
 62
7
  6
CONTINUOUS
 10
5.7290047961
 20
4.1051203416
 11
5.3015408708
 21
4.1051203416
  0
LINE
  5
2DA
100
AcDbEntity
  8
ALL_ASSEMBLY_MEMBERS
100
AcDbLine
 62
7
  6
CONTINUOUS
 10
5.8737882607
 20
4.1053703416
 11
5.8628442177
 21
4.1053703416
  0
LINE
  5
2DB
100
AcDbEntity
  8
ALL_ASSEMBLY_MEMBERS
100
AcDbLine
 62
7
  6
CONTINUOUS
 10
5.8391321196
 20
4.1053982908
 11
5.8281880767
 21
4.1053982908
  0
LINE
  5
2DC
100
AcDbEntity
  8
ALL_ASSEMBLY_MEMBERS
100
AcDbLine
 62
7
  6
CONTINUOUS
 10
5.8628442177
 20
4.107104049
 11
5.8391321196
 21
4.107104049
  0
LINE
  5
2DD
100
AcDbEntity
  8
ALL_ASSEMBLY_MEMBERS
100
AcDbLine
 62
7
  6
CONTINUOUS
 10
5.8281880767
 20
4.107104049
 11
5.7880599142
 21
4.107104049
  0
LINE
  5
2DE
100
AcDbEntity
  8
ALL_ASSEMBLY_MEMBERS
100
AcDbLine
 62
7
  6
CONTINUOUS
 10
5.7290047961
 20
4.107836877
 11
5.7880599142
 21
4.107836877
  0
LINE
  5
2DF
100
AcDbEntity
  8
ALL_ASSEMBLY_MEMBERS
100
AcDbLine
 62
7
  6
CONTINUOUS
 10
5.8737882607
 20
4.107836877
 11
5.9258551898
 21
4.107836877
  0
LINE
  5
2E0
100
AcDbEntity
  8
ALL_ASSEMBLY_MEMBERS
100
AcDbLine
 62
7
  6
CONTINUOUS
 10
5.8737882607
 20
4.1078748827
 11
5.7880599142
 21
4.1078748827
  0
LINE
  5
2E1
100
AcDbEntity
  8
ALL_ASSEMBLY_MEMBERS
100
AcDbLine
 62
7
  6
CONTINUOUS
 10
5.8460909607
 20
4.1103542941
 11
5.7880599142
 21
4.1103542941
  0
LINE
  5
2E2
100
AcDbEntity
  8
ALL_ASSEMBLY_MEMBERS
100
AcDbLine
 62
7
  6
CONTINUOUS
 10
4.1898064431
 20
4.9176844463
 11
4.1965861595
 21
4.9126299297
  0
LINE
  5
2E3
100
AcDbEntity
  8
ALL_ASSEMBLY_MEMBERS
100
AcDbLine
 62
7
  6
CONTINUOUS
 10
4.1898062829
 20
4.917683947
 11
4.1965861456
 21
4.9126298859
  0
LINE
  5
2E4
100
AcDbEntity
  8
ALL_ASSEMBLY_MEMBERS
100
AcDbLine
 62
7
  6
CONTINUOUS
 10
4.9635047961
 20
4.4151203416
 11
4.9635047961
 21
4.7651203416
  0
LINE
  5
2E5
100
AcDbEntity
  8
ALL_ASSEMBLY_MEMBERS
100
AcDbLine
 62
7
  6
CONTINUOUS
 10
4.9790047961
 20
4.7651420626
 11
4.9790047961
 21
4.4150986206
  0
LINE
  5
2E6
100
AcDbEntity
  8
ALL_ASSEMBLY_MEMBERS
100
AcDbLine
 62
7
  6
CONTINUOUS
 10
5.0013373414
 20
4.7963703416
 11
5.0013373414
 21
4.3838703416
  0
LINE
  5
2E7
100
AcDbEntity
  8
ALL_ASSEMBLY_MEMBERS
100
AcDbLine
 62
7
  6
CONTINUOUS
 10
4.8635047961
 20
4.6132143524
 11
4.8435047961
 21
4.601667347
  0
LINE
  5
2E8
100
AcDbEntity
  8
ALL_ASSEMBLY_MEMBERS
100
AcDbLine
 62
7
  6
CONTINUOUS
 10
4.8435047961
 20
4.5785733362
 11
4.8635047961
 21
4.5670263308
  0
LINE
  5
2E9
100
AcDbEntity
  8
ALL_ASSEMBLY_MEMBERS
100
AcDbLine
 62
7
  6
CONTINUOUS
 10
4.8419180774
 20
4.5657648442
 11
4.8418870579
 21
4.5657923745
  0
LINE
  5
2EA
100
AcDbEntity
  8
ALL_ASSEMBLY_MEMBERS
100
AcDbLine
 62
7
  6
CONTINUOUS
 10
4.8419223626
 20
4.5657696782
 11
4.8418917455
 21
4.5657976489
  0
LINE
  5
2EB
100
AcDbEntity
  8
ALL_ASSEMBLY_MEMBERS
100
AcDbLine
 62
7
  6
CONTINUOUS
 10
5.1040047961
 20
4.9133915524
 11
5.1040047961
 21
4.2668491308
  0
LINE
  5
2EC
100
AcDbEntity
  8
ALL_ASSEMBLY_MEMBERS
100
AcDbLine
 62
7
  6
CONTINUOUS
 10
4.8635047961
 20
4.5670263308
 11
4.8835047961
 21
4.5785733362
  0
LINE
  5
2ED
100
AcDbEntity
  8
ALL_ASSEMBLY_MEMBERS
100
AcDbLine
 62
7
  6
CONTINUOUS
 10
6.0956551898
 20
5.1201203416
 11
6.1751551898
 21
5.1501203416
  0
LINE
  5
2EE
100
AcDbEntity
  8
ALL_ASSEMBLY_MEMBERS
100
AcDbLine
 62
7
  6
CONTINUOUS
 10
5.8391321196
 20
4.3615095359
 11
5.8227160552
 21
4.3615095359
  0
LINE
  5
2EF
100
AcDbEntity
  8
ALL_ASSEMBLY_MEMBERS
100
AcDbLine
 62
7
  6
CONTINUOUS
 10
5.8373081125
 20
4.3676518175
 11
5.8245400624
 21
4.3676518175
  0
LINE
  5
2F0
100
AcDbEntity
  8
ALL_ASSEMBLY_MEMBERS
100
AcDbLine
 62
7
  6
CONTINUOUS
 10
5.8373081125
 20
4.368502387
 11
5.8245400624
 21
4.368502387
  0
LINE
  5
2F1
100
AcDbEntity
  8
ALL_ASSEMBLY_MEMBERS
100
AcDbLine
 62
7
  6
CONTINUOUS
 10
5.8373081125
 20
4.4001392377
 11
5.8245400624
 21
4.4001392377
  0
LINE
  5
2F2
100
AcDbEntity
  8
ALL_ASSEMBLY_MEMBERS
100
AcDbLine
 62
7
  6
CONTINUOUS
 10
5.8391321196
 20
4.4064911351
 11
5.8227160552
 21
4.4064911351
  0
LINE
  5
2F3
100
AcDbEntity
  8
ALL_ASSEMBLY_MEMBERS
100
AcDbLine
 62
7
  6
CONTINUOUS
 10
5.8391321196
 20
4.4073354
 11
5.8227160552
 21
4.4073354
  0
LINE
  5
2F4
100
AcDbEntity
  8
ALL_ASSEMBLY_MEMBERS
100
AcDbLine
 62
7
  6
CONTINUOUS
 10
5.853724182
 20
4.4167237134
 11
5.8500761626
 21
4.4167237134
  0
LINE
  5
2F5
100
AcDbEntity
  8
ALL_ASSEMBLY_MEMBERS
100
AcDbLine
 62
7
  6
CONTINUOUS
 10
5.7971799513
 20
4.4167237134
 11
5.7880599142
 21
4.4167237134
  0
LINE
  5
2F6
100
AcDbEntity
  8
ALL_ASSEMBLY_MEMBERS
100
AcDbLine
 62
7
  6
CONTINUOUS
 10
5.853724182
 20
4.4244542226
 11
5.8500761626
 21
4.4244542226
  0
LINE
  5
2F7
100
AcDbEntity
  8
ALL_ASSEMBLY_MEMBERS
100
AcDbLine
 62
7
  6
CONTINUOUS
 10
5.853724182
 20
4.4252978274
 11
5.8500761626
 21
4.4252978274
  0
LINE
  5
2F8
100
AcDbEntity
  8
ALL_ASSEMBLY_MEMBERS
100
AcDbLine
 62
7
  6
CONTINUOUS
 10
5.7971799513
 20
4.4638284492
 11
5.7880599142
 21
4.4638284492
  0
LINE
  5
2F9
100
AcDbEntity
  8
ALL_ASSEMBLY_MEMBERS
100
AcDbLine
 62
7
  6
CONTINUOUS
 10
5.7971799513
 20
4.4646751625
 11
5.7880599142
 21
4.4646751625
  0
LINE
  5
2FA
100
AcDbEntity
  8
ALL_ASSEMBLY_MEMBERS
100
AcDbLine
 62
7
  6
CONTINUOUS
 10
6.0956551898
 20
4.0601203416
 11
6.1751551898
 21
4.0301203416
  0
LINE
  5
2FB
100
AcDbEntity
  8
ALL_ASSEMBLY_MEMBERS
100
AcDbLine
 62
7
  6
CONTINUOUS
 10
4.8835047961
 20
4.601667347
 11
4.8635047961
 21
4.6132143524
  0
LINE
  5
2FC
100
AcDbEntity
  8
ALL_ASSEMBLY_MEMBERS
100
AcDbLine
 62
7
  6
CONTINUOUS
 10
5.3015408708
 20
5.0751203416
 11
5.3015408708
 21
4.1051203416
  0
LINE
  5
2FD
100
AcDbEntity
  8
ALL_ASSEMBLY_MEMBERS
100
AcDbLine
 62
7
  6
CONTINUOUS
 10
5.3360047961
 20
5.0721090228
 11
5.3360047961
 21
5.1859036097
  0
LINE
  5
2FE
100
AcDbEntity
  8
ALL_ASSEMBLY_MEMBERS
100
AcDbLine
 62
7
  6
CONTINUOUS
 10
5.8737882607
 20
4.4745325141
 11
5.7880599142
 21
4.4745325141
  0
LINE
  5
2FF
100
AcDbEntity
  8
ALL_ASSEMBLY_MEMBERS
100
AcDbLine
 62
7
  6
CONTINUOUS
 10
5.8591962034
 20
4.4826175751
 11
5.7880599142
 21
4.4826175751
  0
LINE
  5
300
100
AcDbEntity
  8
ALL_ASSEMBLY_MEMBERS
100
AcDbLine
 62
7
  6
CONTINUOUS
 10
5.8578581071
 20
4.4834678951
 11
5.7880599142
 21
4.4834678951
  0
LINE
  5
301
100
AcDbEntity
  8
ALL_ASSEMBLY_MEMBERS
100
AcDbLine
 62
7
  6
CONTINUOUS
 10
5.8610202106
 20
4.4907518282
 11
5.8464281482
 21
4.4907518282
  0
LINE
  5
302
100
AcDbEntity
  8
ALL_ASSEMBLY_MEMBERS
100
AcDbLine
 62
7
  6
CONTINUOUS
 10
5.8610202106
 20
4.4916041301
 11
5.8464281482
 21
4.4916041301
  0
LINE
  5
303
100
AcDbEntity
  8
ALL_ASSEMBLY_MEMBERS
100
AcDbLine
 62
7
  6
CONTINUOUS
 10
4.9790047961
 20
4.4982457781
 11
4.9635047961
 21
4.4982457781
  0
LINE
  5
304
100
AcDbEntity
  8
ALL_ASSEMBLY_MEMBERS
100
AcDbLine
 62
7
  6
CONTINUOUS
 10
4.9790047961
 20
4.501129881
 11
4.9635047961
 21
4.501129881
  0
LINE
  5
305
100
AcDbEntity
  8
ALL_ASSEMBLY_MEMBERS
100
AcDbLine
 62
7
  6
CONTINUOUS
 10
4.9790047961
 20
4.5093487447
 11
4.9635047961
 21
4.5093487447
  0
LINE
  5
306
100
AcDbEntity
  8
ALL_ASSEMBLY_MEMBERS
100
AcDbLine
 62
7
  6
CONTINUOUS
 10
4.9790047961
 20
4.5175619748
 11
4.9635047961
 21
4.5175619748
  0
LINE
  5
307
100
AcDbEntity
  8
ALL_ASSEMBLY_MEMBERS
100
AcDbLine
 62
7
  6
CONTINUOUS
 10
4.9635047961
 20
4.5290125044
 11
4.9790047961
 21
4.5290125044
  0
LINE
  5
308
100
AcDbEntity
  8
ALL_ASSEMBLY_MEMBERS
100
AcDbLine
 62
7
  6
CONTINUOUS
 10
4.9790047961
 20
4.5327484548
 11
4.9635047961
 21
4.5327484548
  0
LINE
  5
309
100
AcDbEntity
  8
ALL_ASSEMBLY_MEMBERS
100
AcDbLine
 62
7
  6
CONTINUOUS
 10
4.9790047961
 20
4.5450404222
 11
4.9635047961
 21
4.5450404222
  0
LINE
  5
30A
100
AcDbEntity
  8
ALL_ASSEMBLY_MEMBERS
100
AcDbLine
 62
7
  6
CONTINUOUS
 10
4.9635047961
 20
4.5544451981
 11
4.9790047961
 21
4.5544451981
  0
LINE
  5
30B
100
AcDbEntity
  8
ALL_ASSEMBLY_MEMBERS
100
AcDbLine
 62
7
  6
CONTINUOUS
 10
4.9635047961
 20
4.5633351969
 11
4.9790047961
 21
4.5633351969
  0
LINE
  5
30C
100
AcDbEntity
  8
ALL_ASSEMBLY_MEMBERS
100
AcDbLine
 62
7
  6
CONTINUOUS
 10
4.9790047961
 20
4.5648825145
 11
4.9635047961
 21
4.5648825145
  0
LINE
  5
30D
100
AcDbEntity
  8
ALL_ASSEMBLY_MEMBERS
100
AcDbLine
 62
7
  6
CONTINUOUS
 10
5.8766425914
 20
4.577325066
 11
5.7880599142
 21
4.577325066
  0
LINE
  5
30E
100
AcDbEntity
  8
ALL_ASSEMBLY_MEMBERS
100
AcDbLine
 62
7
  6
CONTINUOUS
 10
4.9790047961
 20
4.5793818786
 11
4.9635047961
 21
4.5793818786
  0
LINE
  5
30F
100
AcDbEntity
  8
ALL_ASSEMBLY_MEMBERS
100
AcDbLine
 62
7
  6
CONTINUOUS
 10
4.9635047961
 20
4.5853091089
 11
4.9790047961
 21
4.5853091089
  0
LINE
  5
310
100
AcDbEntity
  8
ALL_ASSEMBLY_MEMBERS
100
AcDbLine
 62
7
  6
CONTINUOUS
 10
4.9635047961
 20
4.5949315743
 11
4.9790047961
 21
4.5949315743
  0
LINE
  5
311
100
AcDbEntity
  8
ALL_ASSEMBLY_MEMBERS
100
AcDbLine
 62
7
  6
CONTINUOUS
 10
4.9790047961
 20
4.6008588046
 11
4.9635047961
 21
4.6008588046
  0
LINE
  5
312
100
AcDbEntity
  8
ALL_ASSEMBLY_MEMBERS
100
AcDbLine
 62
7
  6
CONTINUOUS
 10
5.8766425914
 20
4.6029156172
 11
5.7880599142
 21
4.6029156172
  0
LINE
  5
313
100
AcDbEntity
  8
ALL_ASSEMBLY_MEMBERS
100
AcDbLine
 62
7
  6
CONTINUOUS
 10
5.4660047961
 20
5.0721094976
 11
5.4660047961
 21
5.1859036097
  0
LWPOLYLINE
  5
314
100
AcDbEntity
  8
ALL_ASSEMBLY_MEMBERS
100
AcDbPolyline
 62
7
  6
CONTINUOUS
 90
12
 70
0
 10
4.5785140376
 20
4.0541537593
 10
4.5789585823
 20
4.0544432436
 10
4.5806518071
 20
4.0557002764
 10
4.5822137378
 20
4.0571171411
 10
4.5836293477
 20
4.0586802063
 10
4.5848850177
 20
4.0603744342
 10
4.5859686678
 20
4.0621835251
 10
4.5868698726
 20
4.064090074
 10
4.5875799621
 20
4.0660757383
 10
4.588092105
 20
4.068121414
 10
4.5884013746
 20
4.0702074207
 10
4.5885047961
 20
4.0723136896
  0
LINE
  5
315
100
AcDbEntity
  8
ALL_ASSEMBLY_MEMBERS
100
AcDbLine
 62
7
  6
CONTINUOUS
 10
4.5785134867
 20
4.0541534127
 11
4.5785121453
 21
4.0541525602
  0
LINE
  5
316
100
AcDbEntity
  8
ALL_ASSEMBLY_MEMBERS
100
AcDbLine
 62
7
  6
CONTINUOUS
 10
4.5784113503
 20
4.0543281371
 11
4.5788827648
 21
4.0546263184
  0
LINE
  5
317
100
AcDbEntity
  8
ALL_ASSEMBLY_MEMBERS
100
AcDbLine
 62
7
  6
CONTINUOUS
 10
4.5784070507
 20
4.0543343441
 11
4.5788827648
 21
4.0546263184
  0
LINE
  5
318
100
AcDbEntity
  8
ALL_ASSEMBLY_MEMBERS
100
AcDbLine
 62
7
  6
CONTINUOUS
 10
4.57518723
 20
4.1489162915
 11
4.5751852633
 21
4.1489154814
  0
LINE
  5
319
100
AcDbEntity
  8
ALL_ASSEMBLY_MEMBERS
100
AcDbLine
 62
7
  6
CONTINUOUS
 10
4.9790047961
 20
4.6153581688
 11
4.9635047961
 21
4.6153581688
  0
LINE
  5
31A
100
AcDbEntity
  8
ALL_ASSEMBLY_MEMBERS
100
AcDbLine
 62
7
  6
CONTINUOUS
 10
4.9635047961
 20
4.6169054864
 11
4.9790047961
 21
4.6169054864
  0
LINE
  5
31B
100
AcDbEntity
  8
ALL_ASSEMBLY_MEMBERS
100
AcDbLine
 62
7
  6
CONTINUOUS
 10
4.9635047961
 20
4.6257954852
 11
4.9790047961
 21
4.6257954852
  0
LINE
  5
31C
100
AcDbEntity
  8
ALL_ASSEMBLY_MEMBERS
100
AcDbLine
 62
7
  6
CONTINUOUS
 10
4.9790047961
 20
4.6352002611
 11
4.9635047961
 21
4.6352002611
  0
LINE
  5
31D
100
AcDbEntity
  8
ALL_ASSEMBLY_MEMBERS
100
AcDbLine
 62
7
  6
CONTINUOUS
 10
4.9790047961
 20
4.6474922285
 11
4.9635047961
 21
4.6474922285
  0
LINE
  5
31E
100
AcDbEntity
  8
ALL_ASSEMBLY_MEMBERS
100
AcDbLine
 62
7
  6
CONTINUOUS
 10
4.9635047961
 20
4.6512281788
 11
4.9790047961
 21
4.6512281788
  0
LINE
  5
31F
100
AcDbEntity
  8
ALL_ASSEMBLY_MEMBERS
100
AcDbLine
 62
7
  6
CONTINUOUS
 10
4.9790047961
 20
4.6626787085
 11
4.9635047961
 21
4.6626787085
  0
LINE
  5
320
100
AcDbEntity
  8
ALL_ASSEMBLY_MEMBERS
100
AcDbLine
 62
7
  6
CONTINUOUS
 10
4.9790047961
 20
4.6708919385
 11
4.9635047961
 21
4.6708919385
  0
LINE
  5
321
100
AcDbEntity
  8
ALL_ASSEMBLY_MEMBERS
100
AcDbLine
 62
7
  6
CONTINUOUS
 10
4.9790047961
 20
4.6791108022
 11
4.9635047961
 21
4.6791108022
  0
LINE
  5
322
100
AcDbEntity
  8
ALL_ASSEMBLY_MEMBERS
100
AcDbLine
 62
7
  6
CONTINUOUS
 10
4.9790047961
 20
4.6819949051
 11
4.9635047961
 21
4.6819949051
  0
LINE
  5
323
100
AcDbEntity
  8
ALL_ASSEMBLY_MEMBERS
100
AcDbLine
 62
7
  6
CONTINUOUS
 10
5.8190680384
 20
4.6906712031
 11
5.8117720098
 21
4.6906712031
  0
LINE
  5
324
100
AcDbEntity
  8
ALL_ASSEMBLY_MEMBERS
100
AcDbLine
 62
7
  6
CONTINUOUS
 10
5.8190680384
 20
4.6915229855
 11
5.8117720098
 21
4.6915229855
  0
LINE
  5
325
100
AcDbEntity
  8
ALL_ASSEMBLY_MEMBERS
100
AcDbLine
 62
7
  6
CONTINUOUS
 10
5.8737882607
 20
4.6941941158
 11
5.8646682249
 21
4.6941941158
  0
LINE
  5
326
100
AcDbEntity
  8
ALL_ASSEMBLY_MEMBERS
100
AcDbLine
 62
7
  6
CONTINUOUS
 10
5.8737882607
 20
4.6950450365
 11
5.8646682249
 21
4.6950450365
  0
LINE
  5
327
100
AcDbEntity
  8
ALL_ASSEMBLY_MEMBERS
100
AcDbLine
 62
7
  6
CONTINUOUS
 10
5.8172440312
 20
4.7003107906
 11
5.8135960169
 21
4.7003107906
  0
LWPOLYLINE
  5
328
100
AcDbEntity
  8
ALL_ASSEMBLY_MEMBERS
100
AcDbPolyline
 62
7
  6
CONTINUOUS
 90
19
 70
0
 10
4.5751874243
 20
5.031324083
 10
4.5695634306
 20
5.0335651759
 10
4.5577677164
 20
5.037812016
 10
4.5456499115
 20
5.0415778446
 10
4.5332417828
 20
5.0448516457
 10
4.5205756742
 20
5.0476231231
 10
4.5076859856
 20
5.0498835337
 10
4.4946064651
 20
5.0516245846
 10
4.4813705861
 20
5.0528404582
 10
4.4680130809
 20
5.0535257657
 10
4.4545680996
 20
5.0536759024
 10
4.441071343
 20
5.0532893523
 10
4.4275602779
 20
5.0523649771
 10
4.4140710397
 20
5.0509023832
 10
4.4006358619
 20
5.0489036571
 10
4.3872865675
 20
5.0463708193
 10
4.3740569339
 20
5.0433068529
 10
4.3609851027
 20
5.0397193386
 10
4.3506742723
 20
5.0364802077
  0
LINE
  5
329
100
AcDbEntity
  8
ALL_ASSEMBLY_MEMBERS
100
AcDbLine
 62
7
  6
CONTINUOUS
 10
4.5751852343
 20
5.0313252121
 11
4.5751872239
 21
5.0313243925
  0
LINE
  5
32A
100
AcDbEntity
  8
ALL_ASSEMBLY_MEMBERS
100
AcDbLine
 62
7
  6
CONTINUOUS
 10
4.578882767
 20
5.1256143645
 11
4.5784067783
 21
5.1259050762
  0
LWPOLYLINE
  5
32B
100
AcDbEntity
  8
ALL_ASSEMBLY_MEMBERS
100
AcDbPolyline
 62
7
  6
CONTINUOUS
 90
19
 70
0
 10
4.5785168297
 20
5.1260852658
 10
4.5762382334
 20
5.1275128536
 10
4.5642726786
 20
5.1344809511
 10
4.5519225911
 20
5.1408049902
 10
4.539224912
 20
5.1464647539
 10
4.52621717
 20
5.1514412863
 10
4.5129383001
 20
5.1557191695
 10
4.4994276582
 20
5.1592839533
 10
4.485725108
 20
5.162124091
 10
4.4718711423
 20
5.1642310723
 10
4.4579067621
 20
5.1655966877
 10
4.4438732967
 20
5.1662163753
 10
4.4298118529
 20
5.1660885089
 10
4.4157646513
 20
5.1652117642
 10
4.4017725012
 20
5.1635882317
 10
4.3878744077
 20
5.1612228261
 10
4.3741110544
 20
5.1581206849
 10
4.3605248179
 20
5.1542907062
 10
4.3498075969
 20
5.1507096813
  0
LINE
  5
32C
100
AcDbEntity
  8
ALL_ASSEMBLY_MEMBERS
100
AcDbLine
 62
7
  6
CONTINUOUS
 10
4.578882767
 20
5.1256143645
 11
4.5784117647
 21
5.1259122848
  0
LINE
  5
32D
100
AcDbEntity
  8
ALL_ASSEMBLY_MEMBERS
100
AcDbLine
 62
7
  6
CONTINUOUS
 10
4.5785121044
 20
5.1260880973
 11
4.5785134425
 21
5.126087247
  0
LINE
  5
32E
100
AcDbEntity
  8
ALL_ASSEMBLY_MEMBERS
100
AcDbLine
 62
7
  6
CONTINUOUS
 10
5.8646682249
 20
4.7442435241
 11
5.8360293648
 21
4.7442435241
  0
LINE
  5
32F
100
AcDbEntity
  8
ALL_ASSEMBLY_MEMBERS
100
AcDbLine
 62
7
  6
CONTINUOUS
 10
5.8646682249
 20
4.7450873665
 11
5.8354841053
 21
4.7450873665
  0
LINE
  5
330
100
AcDbEntity
  8
ALL_ASSEMBLY_MEMBERS
100
AcDbLine
 62
7
  6
CONTINUOUS
 10
5.8737882607
 20
4.7535230166
 11
5.8263640695
 21
4.7535230166
  0
LINE
  5
331
100
AcDbEntity
  8
ALL_ASSEMBLY_MEMBERS
100
AcDbLine
 62
7
  6
CONTINUOUS
 10
5.8737882607
 20
4.7660591481
 11
5.7880599142
 21
4.7660591481
  0
LINE
  5
332
100
AcDbEntity
  8
ALL_ASSEMBLY_MEMBERS
100
AcDbLine
 62
7
  6
CONTINUOUS
 10
5.8737882607
 20
4.7669030019
 11
5.7880599142
 21
4.7669030019
  0
LINE
  5
333
100
AcDbEntity
  8
ALL_ASSEMBLY_MEMBERS
100
AcDbLine
 62
7
  6
CONTINUOUS
 10
5.8591962034
 20
4.7768433844
 11
5.7880599142
 21
4.7768433844
  0
LINE
  5
334
100
AcDbEntity
  8
ALL_ASSEMBLY_MEMBERS
100
AcDbLine
 62
7
  6
CONTINUOUS
 10
5.8610202106
 20
4.7867024757
 11
5.8464281482
 21
4.7867024757
  0
LINE
  5
335
100
AcDbEntity
  8
ALL_ASSEMBLY_MEMBERS
100
AcDbLine
 62
7
  6
CONTINUOUS
 10
5.8737882607
 20
4.7988732151
 11
5.7880599142
 21
4.7988732151
  0
LINE
  5
336
100
AcDbEntity
  8
ALL_ASSEMBLY_MEMBERS
100
AcDbLine
 62
7
  6
CONTINUOUS
 10
5.8737882607
 20
4.7997209144
 11
5.7880599142
 21
4.7997209144
  0
LINE
  5
337
100
AcDbEntity
  8
ALL_ASSEMBLY_MEMBERS
100
AcDbLine
 62
7
  6
CONTINUOUS
 10
5.8591962034
 20
4.8093888944
 11
5.7880599142
 21
4.8093888944
  0
LINE
  5
338
100
AcDbEntity
  8
ALL_ASSEMBLY_MEMBERS
100
AcDbLine
 62
7
  6
CONTINUOUS
 10
5.8610202106
 20
4.8189740586
 11
5.8464281482
 21
4.8189740586
  0
LINE
  5
339
100
AcDbEntity
  8
ALL_ASSEMBLY_MEMBERS
100
AcDbLine
 62
7
  6
CONTINUOUS
 10
5.7290047961
 20
5.0751203416
 11
5.7290047961
 21
4.1051203416
  0
LINE
  5
33A
100
AcDbEntity
  8
ALL_ASSEMBLY_MEMBERS
100
AcDbLine
 62
7
  6
CONTINUOUS
 10
5.8766425914
 20
4.9777056972
 11
5.7880599142
 21
4.9777056972
  0
LINE
  5
33B
100
AcDbEntity
  8
ALL_ASSEMBLY_MEMBERS
100
AcDbLine
 62
7
  6
CONTINUOUS
 10
5.8766425914
 20
4.9797268725
 11
5.7880599142
 21
4.9797268725
  0
LINE
  5
33C
100
AcDbEntity
  8
ALL_ASSEMBLY_MEMBERS
100
AcDbLine
 62
7
  6
CONTINUOUS
 10
5.8766425914
 20
4.9944050097
 11
5.7880599142
 21
4.9944050097
  0
LINE
  5
33D
100
AcDbEntity
  8
ALL_ASSEMBLY_MEMBERS
100
AcDbLine
 62
7
  6
CONTINUOUS
 10
5.7880599142
 20
5.0745846891
 11
5.7880599142
 21
5.0704043074
  0
LINE
  5
33E
100
AcDbEntity
  8
ALL_ASSEMBLY_MEMBERS
100
AcDbLine
 62
7
  6
CONTINUOUS
 10
5.7880599142
 20
4.107104049
 11
5.7880599142
 21
4.1103542941
  0
LINE
  5
33F
100
AcDbEntity
  8
ALL_ASSEMBLY_MEMBERS
100
AcDbLine
 62
7
  6
CONTINUOUS
 10
5.7880599142
 20
4.4167237134
 11
5.7880599142
 21
4.4646751625
  0
LINE
  5
340
100
AcDbEntity
  8
ALL_ASSEMBLY_MEMBERS
100
AcDbLine
 62
7
  6
CONTINUOUS
 10
5.7880599142
 20
4.4745325141
 11
5.7880599142
 21
4.4834678951
  0
LINE
  5
341
100
AcDbEntity
  8
ALL_ASSEMBLY_MEMBERS
100
AcDbLine
 62
7
  6
CONTINUOUS
 10
5.7880599142
 20
4.577325066
 11
5.7880599142
 21
4.6029156172
  0
LINE
  5
342
100
AcDbEntity
  8
ALL_ASSEMBLY_MEMBERS
100
AcDbLine
 62
7
  6
CONTINUOUS
 10
5.7880599142
 20
4.7177142437
 11
5.7880599142
 21
4.7280470115
  0
LINE
  5
343
100
AcDbEntity
  8
ALL_ASSEMBLY_MEMBERS
100
AcDbLine
 62
7
  6
CONTINUOUS
 10
5.7880599142
 20
4.7660591481
 11
5.7880599142
 21
4.7768433844
  0
LINE
  5
344
100
AcDbEntity
  8
ALL_ASSEMBLY_MEMBERS
100
AcDbLine
 62
7
  6
CONTINUOUS
 10
5.7880599142
 20
4.7988732151
 11
5.7880599142
 21
4.8093888944
  0
LINE
  5
345
100
AcDbEntity
  8
ALL_ASSEMBLY_MEMBERS
100
AcDbLine
 62
7
  6
CONTINUOUS
 10
5.7880599142
 20
4.9777056972
 11
5.7880599142
 21
4.9944050097
  0
LINE
  5
346
100
AcDbEntity
  8
ALL_ASSEMBLY_MEMBERS
100
AcDbLine
 62
7
  6
CONTINUOUS
 10
5.7898839215
 20
5.0720600031
 11
5.7898839215
 21
5.0695790103
  0
LINE
  5
347
100
AcDbEntity
  8
ALL_ASSEMBLY_MEMBERS
100
AcDbLine
 62
7
  6
CONTINUOUS
 10
5.7898839215
 20
5.0747977692
 11
5.7898839215
 21
5.0735599068
  0
LINE
  5
348
100
AcDbEntity
  8
ALL_ASSEMBLY_MEMBERS
100
AcDbLine
 62
7
  6
CONTINUOUS
 10
5.7898839215
 20
4.7090410887
 11
5.7898839215
 21
4.7081931221
  0
LINE
  5
349
100
AcDbEntity
  8
ALL_ASSEMBLY_MEMBERS
100
AcDbLine
 62
7
  6
CONTINUOUS
 10
5.7898839215
 20
4.3913028841
 11
5.7898839215
 21
4.3921487874
  0
LINE
  5
34A
100
AcDbEntity
  8
ALL_ASSEMBLY_MEMBERS
100
AcDbLine
 62
7
  6
CONTINUOUS
 10
5.7953559435
 20
5.071266638
 11
5.7953559435
 21
5.068781533
  0
LINE
  5
34B
100
AcDbEntity
  8
ALL_ASSEMBLY_MEMBERS
100
AcDbLine
 62
7
  6
CONTINUOUS
 10
5.7953559435
 20
5.0748679848
 11
5.7953559435
 21
5.0740174184
  0
LINE
  5
34C
100
AcDbEntity
  8
ALL_ASSEMBLY_MEMBERS
100
AcDbLine
 62
7
  6
CONTINUOUS
 10
5.7953559435
 20
4.7003107906
 11
5.7953559435
 21
4.6994610695
  0
LINE
  5
34D
100
AcDbEntity
  8
ALL_ASSEMBLY_MEMBERS
100
AcDbLine
 62
7
  6
CONTINUOUS
 10
5.7953559435
 20
4.3976078574
 11
5.7953559435
 21
4.3984529568
  0
LINE
  5
34E
100
AcDbEntity
  8
ALL_ASSEMBLY_MEMBERS
100
AcDbLine
 62
7
  6
CONTINUOUS
 10
5.7971799513
 20
4.4167237134
 11
5.7971799513
 21
4.4532107394
  0
LINE
  5
34F
100
AcDbEntity
  8
ALL_ASSEMBLY_MEMBERS
100
AcDbLine
 62
7
  6
CONTINUOUS
 10
5.7971799513
 20
4.4638284492
 11
5.7971799513
 21
4.4646751625
  0
LINE
  5
350
100
AcDbEntity
  8
ALL_ASSEMBLY_MEMBERS
100
AcDbLine
 62
7
  6
CONTINUOUS
 10
5.7971799513
 20
4.7177142437
 11
5.7971799513
 21
4.7280470115
  0
LINE
  5
351
100
AcDbEntity
  8
ALL_ASSEMBLY_MEMBERS
100
AcDbLine
 62
7
  6
CONTINUOUS
 10
5.7990039584
 20
5.0734566144
 11
5.7990039584
 21
5.0722067508
  0
LINE
  5
352
100
AcDbEntity
  8
ALL_ASSEMBLY_MEMBERS
100
AcDbLine
 62
7
  6
CONTINUOUS
 10
5.7990039584
 20
4.7348902413
 11
5.7990039584
 21
4.7340457468
  0
LINE
  5
353
100
AcDbEntity
  8
ALL_ASSEMBLY_MEMBERS
100
AcDbLine
 62
7
  6
CONTINUOUS
 10
5.7990039584
 20
4.3775505108
 11
5.7990039584
 21
4.3783988007
  0
LINE
  5
354
100
AcDbEntity
  8
ALL_ASSEMBLY_MEMBERS
100
AcDbLine
 62
7
  6
CONTINUOUS
 10
5.8008279656
 20
5.0748632931
 11
5.8008279656
 21
5.0742448416
  0
LINE
  5
355
100
AcDbEntity
  8
ALL_ASSEMBLY_MEMBERS
100
AcDbLine
 62
7
  6
CONTINUOUS
 10
5.8008279656
 20
5.0707427726
 11
5.8008279656
 21
5.0682549449
  0
LINE
  5
356
100
AcDbEntity
  8
ALL_ASSEMBLY_MEMBERS
100
AcDbLine
 62
7
  6
CONTINUOUS
 10
5.8008279656
 20
4.4014069421
 11
5.8008279656
 21
4.4022516424
  0
LINE
  5
357
100
AcDbEntity
  8
ALL_ASSEMBLY_MEMBERS
100
AcDbLine
 62
7
  6
CONTINUOUS
 10
5.8026519727
 20
5.0737546952
 11
5.8026519727
 21
5.0717545944
  0
LINE
  5
358
100
AcDbEntity
  8
ALL_ASSEMBLY_MEMBERS
100
AcDbLine
 62
7
  6
CONTINUOUS
 10
5.8026519727
 20
4.7399989503
 11
5.8026519727
 21
4.7391548339
  0
LINE
  5
359
100
AcDbEntity
  8
ALL_ASSEMBLY_MEMBERS
100
AcDbLine
 62
7
  6
CONTINUOUS
 10
5.8026519727
 20
4.6950450365
 11
5.8026519727
 21
4.6941941158
  0
LINE
  5
35A
100
AcDbEntity
  8
ALL_ASSEMBLY_MEMBERS
100
AcDbLine
 62
7
  6
CONTINUOUS
 10
5.8026519727
 20
4.3738282895
 11
5.8026519727
 21
4.3746773799
  0
LINE
  5
35B
100
AcDbEntity
  8
ALL_ASSEMBLY_MEMBERS
100
AcDbLine
 62
7
  6
CONTINUOUS
 10
5.8081239955
 20
5.074840657
 11
5.8081239955
 21
5.0743768707
  0
LINE
  5
35C
100
AcDbEntity
  8
ALL_ASSEMBLY_MEMBERS
100
AcDbLine
 62
7
  6
CONTINUOUS
 10
5.8081239955
 20
5.0703735211
 11
5.8081239955
 21
5.0678837706
  0
LINE
  5
35D
100
AcDbEntity
  8
ALL_ASSEMBLY_MEMBERS
100
AcDbLine
 62
7
  6
CONTINUOUS
 10
5.8081239955
 20
4.4039463616
 11
5.8081239955
 21
4.4047908305
  0
LINE
  5
35E
100
AcDbEntity
  8
ALL_ASSEMBLY_MEMBERS
100
AcDbLine
 62
7
  6
CONTINUOUS
 10
5.8099480026
 20
4.7425495606
 11
5.8099480026
 21
4.7535230166
  0
LINE
  5
35F
100
AcDbEntity
  8
ALL_ASSEMBLY_MEMBERS
100
AcDbLine
 62
7
  6
CONTINUOUS
 10
5.8117720098
 20
4.6915229855
 11
5.8117720098
 21
4.6906712031
  0
LINE
  5
360
100
AcDbEntity
  8
ALL_ASSEMBLY_MEMBERS
100
AcDbLine
 62
7
  6
CONTINUOUS
 10
5.8135960169
 20
5.0748234858
 11
5.8135960169
 21
5.0744370144
  0
LINE
  5
361
100
AcDbEntity
  8
ALL_ASSEMBLY_MEMBERS
100
AcDbLine
 62
7
  6
CONTINUOUS
 10
5.8135960169
 20
5.0740971455
 11
5.8135960169
 21
5.0716266493
  0
LINE
  5
362
100
AcDbEntity
  8
ALL_ASSEMBLY_MEMBERS
100
AcDbLine
 62
7
  6
CONTINUOUS
 10
5.8135960169
 20
5.0701828806
 11
5.8135960169
 21
5.0676921363
  0
LINE
  5
363
100
AcDbEntity
  8
ALL_ASSEMBLY_MEMBERS
100
AcDbLine
 62
7
  6
CONTINUOUS
 10
5.8135960169
 20
4.3688843785
 11
5.8135960169
 21
4.3697346375
  0
LINE
  5
364
100
AcDbEntity
  8
ALL_ASSEMBLY_MEMBERS
100
AcDbLine
 62
7
  6
CONTINUOUS
 10
5.8135960169
 20
4.405218083
 11
5.8135960169
 21
4.4060624465
  0
LINE
  5
365
100
AcDbEntity
  8
ALL_ASSEMBLY_MEMBERS
100
AcDbLine
 62
7
  6
CONTINUOUS
 10
5.8190680384
 20
4.6915229855
 11
5.8190680384
 21
4.6906712031
  0
LINE
  5
366
100
AcDbEntity
  8
ALL_ASSEMBLY_MEMBERS
100
AcDbLine
 62
7
  6
CONTINUOUS
 10
5.8227160552
 20
5.0748024121
 11
5.8227160552
 21
5.0744932459
  0
LINE
  5
367
100
AcDbEntity
  8
ALL_ASSEMBLY_MEMBERS
100
AcDbLine
 62
7
  6
CONTINUOUS
 10
5.8227160552
 20
5.0699882233
 11
5.8227160552
 21
5.0674964633
  0
LINE
  5
368
100
AcDbEntity
  8
ALL_ASSEMBLY_MEMBERS
100
AcDbLine
 62
7
  6
CONTINUOUS
 10
5.8227160552
 20
4.4064911351
 11
5.8227160552
 21
4.4073354
  0
LINE
  5
369
100
AcDbEntity
  8
ALL_ASSEMBLY_MEMBERS
100
AcDbLine
 62
7
  6
CONTINUOUS
 10
5.8245400624
 20
5.0741729527
 11
5.8245400624
 21
5.0717028455
  0
LINE
  5
36A
100
AcDbEntity
  8
ALL_ASSEMBLY_MEMBERS
100
AcDbLine
 62
7
  6
CONTINUOUS
 10
5.8245400624
 20
4.3676518175
 11
5.8245400624
 21
4.368502387
  0
LINE
  5
36B
100
AcDbEntity
  8
ALL_ASSEMBLY_MEMBERS
100
AcDbLine
 62
7
  6
CONTINUOUS
 10
5.8263640695
 20
4.7408533276
 11
5.8263640695
 21
4.7535230166
  0
LINE
  5
36C
100
AcDbEntity
  8
ALL_ASSEMBLY_MEMBERS
100
AcDbLine
 62
7
  6
CONTINUOUS
 10
5.8281880767
 20
4.6950450365
 11
5.8281880767
 21
4.6941941158
  0
LINE
  5
36D
100
AcDbEntity
  8
ALL_ASSEMBLY_MEMBERS
100
AcDbLine
 62
7
  6
CONTINUOUS
 10
5.8281880767
 20
4.1053982908
 11
5.8281880767
 21
4.107104049
  0
LINE
  5
36E
100
AcDbEntity
  8
ALL_ASSEMBLY_MEMBERS
100
AcDbLine
 62
7
  6
CONTINUOUS
 10
5.831836091
 20
4.7348902413
 11
5.831836091
 21
4.7340457468
  0
LINE
  5
36F
100
AcDbEntity
  8
ALL_ASSEMBLY_MEMBERS
100
AcDbLine
 62
7
  6
CONTINUOUS
 10
5.8336600982
 20
4.7177142437
 11
5.8336600982
 21
4.7280470115
  0
LINE
  5
370
100
AcDbEntity
  8
ALL_ASSEMBLY_MEMBERS
100
AcDbLine
 62
7
  6
CONTINUOUS
 10
5.8354841053
 20
4.7003107906
 11
5.8354841053
 21
4.6994610695
  0
LINE
  5
371
100
AcDbEntity
  8
ALL_ASSEMBLY_MEMBERS
100
AcDbLine
 62
7
  6
CONTINUOUS
 10
5.8373081125
 20
5.0741729527
 11
5.8373081125
 21
5.0717028455
  0
LINE
  5
372
100
AcDbEntity
  8
ALL_ASSEMBLY_MEMBERS
100
AcDbLine
 62
7
  6
CONTINUOUS
 10
5.8373081125
 20
4.3676518175
 11
5.8373081125
 21
4.368502387
  0
LINE
  5
373
100
AcDbEntity
  8
ALL_ASSEMBLY_MEMBERS
100
AcDbLine
 62
7
  6
CONTINUOUS
 10
5.8391321196
 20
5.0748024121
 11
5.8391321196
 21
5.0744932459
  0
LINE
  5
374
100
AcDbEntity
  8
ALL_ASSEMBLY_MEMBERS
100
AcDbLine
 62
7
  6
CONTINUOUS
 10
5.8391321196
 20
5.0699882233
 11
5.8391321196
 21
5.0674964633
  0
LINE
  5
375
100
AcDbEntity
  8
ALL_ASSEMBLY_MEMBERS
100
AcDbLine
 62
7
  6
CONTINUOUS
 10
5.8391321196
 20
4.1053982908
 11
5.8391321196
 21
4.107104049
  0
LINE
  5
376
100
AcDbEntity
  8
ALL_ASSEMBLY_MEMBERS
100
AcDbLine
 62
7
  6
CONTINUOUS
 10
5.8391321196
 20
4.4064911351
 11
5.8391321196
 21
4.4073354
  0
LINE
  5
377
100
AcDbEntity
  8
ALL_ASSEMBLY_MEMBERS
100
AcDbLine
 62
7
  6
CONTINUOUS
 10
5.8409561268
 20
4.7090410887
 11
5.8409561268
 21
4.7081931221
  0
LINE
  5
378
100
AcDbEntity
  8
ALL_ASSEMBLY_MEMBERS
100
AcDbLine
 62
7
  6
CONTINUOUS
 10
5.8427801339
 20
4.4270417321
 11
5.8427801339
 21
4.427885352
  0
LINE
  5
379
100
AcDbEntity
  8
ALL_ASSEMBLY_MEMBERS
100
AcDbLine
 62
7
  6
CONTINUOUS
 10
5.8427801339
 20
4.7177142437
 11
5.8427801339
 21
4.7280470115
  0
LINE
  5
37A
100
AcDbEntity
  8
ALL_ASSEMBLY_MEMBERS
100
AcDbLine
 62
7
  6
CONTINUOUS
 10
5.8431780244
 20
4.1143080595
 11
5.8431780244
 21
4.1118081527
  0
LINE
  5
37B
100
AcDbEntity
  8
ALL_ASSEMBLY_MEMBERS
100
AcDbLine
 62
7
  6
CONTINUOUS
 10
5.8464281482
 20
4.8189740586
 11
5.8464281482
 21
4.8181217568
  0
LINE
  5
37C
100
AcDbEntity
  8
ALL_ASSEMBLY_MEMBERS
100
AcDbLine
 62
7
  6
CONTINUOUS
 10
5.8464281482
 20
4.7867024757
 11
5.8464281482
 21
4.7858568779
  0
LINE
  5
37D
100
AcDbEntity
  8
ALL_ASSEMBLY_MEMBERS
100
AcDbLine
 62
7
  6
CONTINUOUS
 10
5.8464281482
 20
4.4907518282
 11
5.8464281482
 21
4.4916041301
  0
LINE
  5
37E
100
AcDbEntity
  8
ALL_ASSEMBLY_MEMBERS
100
AcDbLine
 62
7
  6
CONTINUOUS
 10
5.8482521554
 20
5.0748234858
 11
5.8482521554
 21
5.0744370144
  0
LINE
  5
37F
100
AcDbEntity
  8
ALL_ASSEMBLY_MEMBERS
100
AcDbLine
 62
7
  6
CONTINUOUS
 10
5.8482521554
 20
5.0701828806
 11
5.8482521554
 21
5.0676921363
  0
LINE
  5
380
100
AcDbEntity
  8
ALL_ASSEMBLY_MEMBERS
100
AcDbLine
 62
7
  6
CONTINUOUS
 10
5.8482521554
 20
5.0740971455
 11
5.8482521554
 21
5.0716266493
  0
LINE
  5
381
100
AcDbEntity
  8
ALL_ASSEMBLY_MEMBERS
100
AcDbLine
 62
7
  6
CONTINUOUS
 10
5.8482521554
 20
4.3688843785
 11
5.8482521554
 21
4.3697346375
  0
LINE
  5
382
100
AcDbEntity
  8
ALL_ASSEMBLY_MEMBERS
100
AcDbLine
 62
7
  6
CONTINUOUS
 10
5.8482521554
 20
4.405218083
 11
5.8482521554
 21
4.4060624465
  0
LINE
  5
383
100
AcDbEntity
  8
ALL_ASSEMBLY_MEMBERS
100
AcDbLine
 62
7
  6
CONTINUOUS
 10
5.8500761626
 20
4.4244542226
 11
5.8500761626
 21
4.4252978274
  0
LINE
  5
384
100
AcDbEntity
  8
ALL_ASSEMBLY_MEMBERS
100
AcDbLine
 62
7
  6
CONTINUOUS
 10
5.853724182
 20
5.074840657
 11
5.853724182
 21
5.0743768707
  0
LINE
  5
385
100
AcDbEntity
  8
ALL_ASSEMBLY_MEMBERS
100
AcDbLine
 62
7
  6
CONTINUOUS
 10
5.853724182
 20
5.0703735211
 11
5.853724182
 21
5.0678837706
  0
LINE
  5
386
100
AcDbEntity
  8
ALL_ASSEMBLY_MEMBERS
100
AcDbLine
 62
7
  6
CONTINUOUS
 10
5.853724182
 20
4.4039463616
 11
5.853724182
 21
4.4047908305
  0
LINE
  5
387
100
AcDbEntity
  8
ALL_ASSEMBLY_MEMBERS
100
AcDbLine
 62
7
  6
CONTINUOUS
 10
5.853724182
 20
4.4244542226
 11
5.853724182
 21
4.4252978274
  0
LINE
  5
388
100
AcDbEntity
  8
ALL_ASSEMBLY_MEMBERS
100
AcDbLine
 62
7
  6
CONTINUOUS
 10
5.853724182
 20
4.455857095
 11
5.853724182
 21
4.4633430316
  0
LINE
  5
389
100
AcDbEntity
  8
ALL_ASSEMBLY_MEMBERS
100
AcDbLine
 62
7
  6
CONTINUOUS
 10
5.8591962034
 20
5.0737546952
 11
5.8591962034
 21
5.0717545944
  0
LINE
  5
38A
100
AcDbEntity
  8
ALL_ASSEMBLY_MEMBERS
100
AcDbLine
 62
7
  6
CONTINUOUS
 10
5.8591962034
 20
4.3738282895
 11
5.8591962034
 21
4.3746773799
  0
LINE
  5
38B
100
AcDbEntity
  8
ALL_ASSEMBLY_MEMBERS
100
AcDbLine
 62
7
  6
CONTINUOUS
 10
5.8591962034
 20
4.4270417321
 11
5.8591962034
 21
4.427885352
  0
LINE
  5
38C
100
AcDbEntity
  8
ALL_ASSEMBLY_MEMBERS
100
AcDbLine
 62
7
  6
CONTINUOUS
 10
5.8610202106
 20
5.0748632931
 11
5.8610202106
 21
5.0742448416
  0
LINE
  5
38D
100
AcDbEntity
  8
ALL_ASSEMBLY_MEMBERS
100
AcDbLine
 62
7
  6
CONTINUOUS
 10
5.8610202106
 20
5.0707427726
 11
5.8610202106
 21
5.0682549449
  0
LINE
  5
38E
100
AcDbEntity
  8
ALL_ASSEMBLY_MEMBERS
100
AcDbLine
 62
7
  6
CONTINUOUS
 10
5.8610202106
 20
4.4014069421
 11
5.8610202106
 21
4.4022516424
  0
LINE
  5
38F
100
AcDbEntity
  8
ALL_ASSEMBLY_MEMBERS
100
AcDbLine
 62
7
  6
CONTINUOUS
 10
5.8610202106
 20
4.461165944
 11
5.8610202106
 21
4.4620122559
  0
LINE
  5
390
100
AcDbEntity
  8
ALL_ASSEMBLY_MEMBERS
100
AcDbLine
 62
7
  6
CONTINUOUS
 10
5.8610202106
 20
4.4907518282
 11
5.8610202106
 21
4.4916041301
  0
LINE
  5
391
100
AcDbEntity
  8
ALL_ASSEMBLY_MEMBERS
100
AcDbLine
 62
7
  6
CONTINUOUS
 10
5.8628442177
 20
5.0734566144
 11
5.8628442177
 21
5.0722067508
  0
LINE
  5
392
100
AcDbEntity
  8
ALL_ASSEMBLY_MEMBERS
100
AcDbLine
 62
7
  6
CONTINUOUS
 10
5.8628442177
 20
4.1053703471
 11
5.8628442177
 21
4.107104049
  0
LINE
  5
393
100
AcDbEntity
  8
ALL_ASSEMBLY_MEMBERS
100
AcDbLine
 62
7
  6
CONTINUOUS
 10
5.8628442177
 20
4.3775505108
 11
5.8628442177
 21
4.3783988007
  0
LINE
  5
394
100
AcDbEntity
  8
ALL_ASSEMBLY_MEMBERS
100
AcDbLine
 62
7
  6
CONTINUOUS
 10
5.8628442177
 20
4.4309330089
 11
5.8628442177
 21
4.4317767025
  0
LINE
  5
395
100
AcDbEntity
  8
ALL_ASSEMBLY_MEMBERS
100
AcDbLine
 62
7
  6
CONTINUOUS
 10
5.8646682249
 20
4.4374451708
 11
5.8646682249
 21
4.4426789458
  0
LINE
  5
396
100
AcDbEntity
  8
ALL_ASSEMBLY_MEMBERS
100
AcDbLine
 62
7
  6
CONTINUOUS
 10
5.8646682249
 20
4.6941941158
 11
5.8646682249
 21
4.7450873665
  0
LINE
  5
397
100
AcDbEntity
  8
ALL_ASSEMBLY_MEMBERS
100
AcDbLine
 62
7
  6
CONTINUOUS
 10
5.866492232
 20
5.0748679848
 11
5.866492232
 21
5.0740174184
  0
LINE
  5
398
100
AcDbEntity
  8
ALL_ASSEMBLY_MEMBERS
100
AcDbLine
 62
7
  6
CONTINUOUS
 10
5.866492232
 20
5.071266638
 11
5.866492232
 21
5.068781533
  0
LINE
  5
399
100
AcDbEntity
  8
ALL_ASSEMBLY_MEMBERS
100
AcDbLine
 62
7
  6
CONTINUOUS
 10
5.866492232
 20
4.3976078574
 11
5.866492232
 21
4.3984529568
  0
LINE
  5
39A
100
AcDbEntity
  8
ALL_ASSEMBLY_MEMBERS
100
AcDbLine
 62
7
  6
CONTINUOUS
 10
5.8683162392
 20
4.455857095
 11
5.8683162392
 21
4.4567026885
  0
LINE
  5
39B
100
AcDbEntity
  8
ALL_ASSEMBLY_MEMBERS
100
AcDbLine
 62
7
  6
CONTINUOUS
 10
5.8719642535
 20
5.0747977692
 11
5.8719642535
 21
5.0735599068
  0
LINE
  5
39C
100
AcDbEntity
  8
ALL_ASSEMBLY_MEMBERS
100
AcDbLine
 62
7
  6
CONTINUOUS
 10
5.8719642535
 20
5.0720600031
 11
5.8719642535
 21
5.0695790103
  0
LINE
  5
39D
100
AcDbEntity
  8
ALL_ASSEMBLY_MEMBERS
100
AcDbLine
 62
7
  6
CONTINUOUS
 10
5.8719642535
 20
4.3913028841
 11
5.8719642535
 21
4.3921487874
  0
LINE
  5
39E
100
AcDbEntity
  8
ALL_ASSEMBLY_MEMBERS
100
AcDbLine
 62
7
  6
CONTINUOUS
 10
5.8719642535
 20
4.4505697493
 11
5.8719642535
 21
4.4514147359
  0
LINE
  5
39F
100
AcDbEntity
  8
ALL_ASSEMBLY_MEMBERS
100
AcDbLine
 62
7
  6
CONTINUOUS
 10
5.8737882607
 20
5.0745846891
 11
5.8737882607
 21
5.0704043074
  0
LINE
  5
3A0
100
AcDbEntity
  8
ALL_ASSEMBLY_MEMBERS
100
AcDbLine
 62
7
  6
CONTINUOUS
 10
5.8737882607
 20
4.1053703512
 11
5.8737882607
 21
4.1103542941
  0
LINE
  5
3A1
100
AcDbEntity
  8
ALL_ASSEMBLY_MEMBERS
100
AcDbLine
 62
7
  6
CONTINUOUS
 10
5.8737882607
 20
4.4361400653
 11
5.8737882607
 21
4.4413684976
  0
LINE
  5
3A2
100
AcDbEntity
  8
ALL_ASSEMBLY_MEMBERS
100
AcDbLine
 62
7
  6
CONTINUOUS
 10
5.8737882607
 20
4.4745325141
 11
5.8737882607
 21
4.4834678951
  0
LINE
  5
3A3
100
AcDbEntity
  8
ALL_ASSEMBLY_MEMBERS
100
AcDbLine
 62
7
  6
CONTINUOUS
 10
5.8737882607
 20
4.6941941158
 11
5.8737882607
 21
4.7535230166
  0
LINE
  5
3A4
100
AcDbEntity
  8
ALL_ASSEMBLY_MEMBERS
100
AcDbLine
 62
7
  6
CONTINUOUS
 10
5.8737882607
 20
4.7660591481
 11
5.8737882607
 21
4.7768433844
  0
LINE
  5
3A5
100
AcDbEntity
  8
ALL_ASSEMBLY_MEMBERS
100
AcDbLine
 62
7
  6
CONTINUOUS
 10
5.8737882607
 20
4.7988732151
 11
5.8737882607
 21
4.8093888944
  0
LINE
  5
3A6
100
AcDbEntity
  8
ALL_ASSEMBLY_MEMBERS
100
AcDbLine
 62
7
  6
CONTINUOUS
 10
5.8766425914
 20
4.1143080595
 11
5.8766425914
 21
4.1118081527
  0
LINE
  5
3A7
100
AcDbEntity
  8
ALL_ASSEMBLY_MEMBERS
100
AcDbLine
 62
7
  6
CONTINUOUS
 10
5.8766425914
 20
4.577325066
 11
5.8766425914
 21
4.6029156172
  0
LINE
  5
3A8
100
AcDbEntity
  8
ALL_ASSEMBLY_MEMBERS
100
AcDbLine
 62
7
  6
CONTINUOUS
 10
5.8766425914
 20
4.9777056972
 11
5.8766425914
 21
4.9944050097
  0
LINE
  5
3A9
100
AcDbEntity
  8
ALL_ASSEMBLY_MEMBERS
100
AcDbLine
 62
7
  6
CONTINUOUS
 10
6.0708649106
 20
5.0826203416
 11
6.0704889092
 21
5.0826130402
  0
LINE
  5
3AA
100
AcDbEntity
  8
ALL_ASSEMBLY_MEMBERS
100
AcDbLine
 62
7
  6
CONTINUOUS
 10
6.0704940496
 20
5.0826131577
 11
6.0708649106
 21
5.0826203416
  0
LINE
  5
3AB
100
AcDbEntity
  8
ALL_ASSEMBLY_MEMBERS
100
AcDbLine
 62
7
  6
CONTINUOUS
 10
5.8391321196
 20
5.0674964633
 11
5.8227160552
 21
5.0674964633
  0
LINE
  5
3AC
100
AcDbEntity
  8
ALL_ASSEMBLY_MEMBERS
100
AcDbLine
 62
7
  6
CONTINUOUS
 10
5.8391321196
 20
5.0699882233
 11
5.8227160552
 21
5.0699882233
  0
LINE
  5
3AD
100
AcDbEntity
  8
ALL_ASSEMBLY_MEMBERS
100
AcDbLine
 62
7
  6
CONTINUOUS
 10
5.8373081125
 20
5.0709213917
 11
5.8245400624
 21
5.0709213917
  0
LINE
  5
3AE
100
AcDbEntity
  8
ALL_ASSEMBLY_MEMBERS
100
AcDbLine
 62
7
  6
CONTINUOUS
 10
5.8373081125
 20
5.0717028455
 11
5.8245400624
 21
5.0717028455
  0
LINE
  5
3AF
100
AcDbEntity
  8
ALL_ASSEMBLY_MEMBERS
100
AcDbLine
 62
7
  6
CONTINUOUS
 10
5.7290047961
 20
5.0724038062
 11
5.7880599142
 21
5.0724038062
  0
LINE
  5
3B0
100
AcDbEntity
  8
ALL_ASSEMBLY_MEMBERS
100
AcDbLine
 62
7
  6
CONTINUOUS
 10
5.8737882607
 20
5.0724038062
 11
5.9258551898
 21
5.0724038062
  0
LINE
  5
3B1
100
AcDbEntity
  8
ALL_ASSEMBLY_MEMBERS
100
AcDbLine
 62
7
  6
CONTINUOUS
 10
5.8373081125
 20
5.0741729527
 11
5.8245400624
 21
5.0741729527
  0
LINE
  5
3B2
100
AcDbEntity
  8
ALL_ASSEMBLY_MEMBERS
100
AcDbLine
 62
7
  6
CONTINUOUS
 10
5.8391321196
 20
5.0744932459
 11
5.8227160552
 21
5.0744932459
  0
LINE
  5
3B3
100
AcDbEntity
  8
ALL_ASSEMBLY_MEMBERS
100
AcDbLine
 62
7
  6
CONTINUOUS
 10
5.8391321196
 20
5.0748024121
 11
5.8227160552
 21
5.0748024121
  0
LINE
  5
3B4
100
AcDbEntity
  8
ALL_ASSEMBLY_MEMBERS
100
AcDbLine
 62
7
  6
CONTINUOUS
 10
5.7290047961
 20
5.0751203416
 11
5.4885047961
 21
5.0751203416
  0
LINE
  5
3B5
100
AcDbEntity
  8
ALL_ASSEMBLY_MEMBERS
100
AcDbLine
 62
7
  6
CONTINUOUS
 10
5.3135047961
 20
5.0751203416
 11
5.3015408708
 21
5.0751203416
  0
LINE
  5
3B6
100
AcDbEntity
  8
ALL_ASSEMBLY_MEMBERS
100
AcDbLine
 62
7
  6
CONTINUOUS
 10
6.0608551898
 20
5.0825188188
 11
5.9808551898
 21
5.0825188188
  0
LINE
  5
3B7
100
AcDbEntity
  8
ALL_ASSEMBLY_MEMBERS
100
AcDbLine
 62
7
  6
CONTINUOUS
 10
5.9258551898
 20
5.0826203416
 11
5.9708551898
 21
5.0826203416
  0
LINE
  5
3B8
100
AcDbEntity
  8
ALL_ASSEMBLY_MEMBERS
100
AcDbLine
 62
7
  6
CONTINUOUS
 10
6.0708551898
 20
5.0826203416
 11
6.0956551898
 21
5.0826203416
  0
LINE
  5
3B9
100
AcDbEntity
  8
ALL_ASSEMBLY_MEMBERS
100
AcDbLine
 62
7
  6
CONTINUOUS
 10
5.9708454741
 20
5.0826203416
 11
5.9712151363
 21
5.0826131809
  0
LINE
  5
3BA
100
AcDbEntity
  8
ALL_ASSEMBLY_MEMBERS
100
AcDbLine
 62
7
  6
CONTINUOUS
 10
5.9712207591
 20
5.0826130574
 11
5.9708454719
 21
5.0826203416
  0
LINE
  5
3BB
100
AcDbEntity
  8
ALL_ASSEMBLY_MEMBERS
100
AcDbLine
 62
7
  6
CONTINUOUS
 10
5.9258551898
 20
5.0826203416
 11
5.9258551898
 21
4.0976203416
  0
LINE
  5
3BC
100
AcDbEntity
  8
ALL_ASSEMBLY_MEMBERS
100
AcDbLine
 62
7
  6
CONTINUOUS
 10
5.3360047961
 20
5.1859036097
 11
5.4660047961
 21
5.1859036097
  0
LINE
  5
3BD
100
AcDbEntity
  8
ALL_ASSEMBLY_MEMBERS
100
AcDbLine
 62
7
  6
CONTINUOUS
 10
5.4455502506
 20
5.214344501
 11
5.3564593415
 21
5.214344501
  0
LINE
  5
3BE
100
AcDbEntity
  8
ALL_ASSEMBLY_MEMBERS
100
AcDbLine
 62
7
  6
CONTINUOUS
 10
6.0956551898
 20
4.0601213612
 11
6.0956551898
 21
5.1201193221
  0
LWPOLYLINE
  5
3BF
100
AcDbEntity
  8
ALL_ASSEMBLY_MEMBERS
100
AcDbPolyline
 62
7
  6
CONTINUOUS
 90
3
 70
0
 10
4.3603904937
 20
5.1542458235
 10
4.3602762433
 20
5.1542134951
 10
4.3498075802
 20
5.150709724
  0
LINE
  5
3C0
100
AcDbEntity
  8
ALL_ASSEMBLY_MEMBERS
100
AcDbLine
 62
7
  6
CONTINUOUS
 10
6.1751551898
 20
3.0226203416
 11
6.1751551898
 21
6.1576203416
  0
LINE
  5
3C1
100
AcDbEntity
  8
ALL_ASSEMBLY_MEMBERS
100
AcDbLine
 62
7
  6
CONTINUOUS
 10
6.2376551898
 20
2.9651203416
 11
6.2376551898
 21
6.2151203416
  0
LINE
  5
3C2
100
AcDbEntity
  8
ALL_ASSEMBLY_MEMBERS
100
AcDbLine
 62
7
  6
CONTINUOUS
 10
6.3316551898
 20
2.9651203416
 11
6.3316551898
 21
6.2151203416
  0
LINE
  5
3C3
100
AcDbEntity
  8
ALL_ASSEMBLY_MEMBERS
100
AcDbLine
 62
7
  6
CONTINUOUS
 10
6.2376551898
 20
6.2151203416
 11
6.3316551898
 21
6.2151203416
  0
ARC
  5
3C4
100
AcDbEntity
  8
ALL_ASSEMBLY_MEMBERS
100
AcDbCircle
 62
7
  6
CONTINUOUS
 10
0.8984638662
 20
4.1523088244
 40
3.6735322903
100
AcDbArc
 50
359.5095310859
 51
359.8028959933
  0
ARC
  5
3C5
100
AcDbEntity
  8
ALL_ASSEMBLY_MEMBERS
100
AcDbCircle
 62
7
  6
CONTINUOUS
 10
1.0164536458
 20
4.3334662649
 40
3.55554277
100
AcDbArc
 50
359.5009687918
 51
359.7984607966
  0
ARC
  5
3C6
100
AcDbEntity
  8
ALL_ASSEMBLY_MEMBERS
100
AcDbCircle
 62
7
  6
CONTINUOUS
 10
1.8769733295
 20
4.0402144673
 40
2.3220764869
100
AcDbArc
 50
10.7649090595
 51
10.9673298792
  0
ARC
  5
3C7
100
AcDbEntity
  8
ALL_ASSEMBLY_MEMBERS
100
AcDbCircle
 62
7
  6
CONTINUOUS
 10
1.2690133469
 20
5.030156173
 40
3.3029774868
100
AcDbArc
 50
0.1806320751
 51
0.5069087702
  0
ARC
  5
3C8
100
AcDbEntity
  8
ALL_ASSEMBLY_MEMBERS
100
AcDbCircle
 62
7
  6
CONTINUOUS
 10
1.3705666176
 20
4.8489433623
 40
3.2014244927
100
AcDbArc
 50
0.1850143501
 51
0.5154122931
  0
ARC
  5
3C9
100
AcDbEntity
  8
ALL_ASSEMBLY_MEMBERS
100
AcDbCircle
 62
7
  6
CONTINUOUS
 10
2.750708001
 20
4.5833978549
 40
1.821288798
100
AcDbArc
 50
359.3017536982
 51
359.7159640595
  0
ARC
  5
3CA
100
AcDbEntity
  8
ALL_ASSEMBLY_MEMBERS
100
AcDbCircle
 62
7
  6
CONTINUOUS
 10
2.9305179351
 20
4.5983870826
 40
1.6414735477
100
AcDbArc
 50
0.2612479482
 51
0.7208325395
  0
ARC
  5
3CB
100
AcDbEntity
  8
ALL_ASSEMBLY_MEMBERS
100
AcDbCircle
 62
7
  6
CONTINUOUS
 10
5.3219132438
 20
2.4930427457
 40
1.9772712935
100
AcDbArc
 50
104.0749507691
 51
104.3187005578
  0
ARC
  5
3CC
100
AcDbEntity
  8
ALL_ASSEMBLY_MEMBERS
100
AcDbCircle
 62
7
  6
CONTINUOUS
 10
5.9355248256
 20
4.1965202127
 40
1.8306937218
100
AcDbArc
 50
165.6118112918
 51
165.7260747976
  0
ARC
  5
3CD
100
AcDbEntity
  8
ALL_ASSEMBLY_MEMBERS
100
AcDbCircle
 62
7
  6
CONTINUOUS
 10
5.2291689172
 20
2.8636227104
 40
1.5952619726
100
AcDbArc
 50
103.880366624
 51
104.0011178065
  0
ARC
  5
3CE
100
AcDbEntity
  8
ALL_ASSEMBLY_MEMBERS
100
AcDbCircle
 62
7
  6
CONTINUOUS
 10
4.8255120035
 20
3.5771950571
 40
0.8367425337
100
AcDbArc
 50
85.835992251
 51
86.0444132746
  0
ARC
  5
3CF
100
AcDbEntity
  8
ALL_ASSEMBLY_MEMBERS
100
AcDbCircle
 62
7
  6
CONTINUOUS
 10
5.1169019529
 20
3.6877929845
 40
0.7753624552
100
AcDbArc
 50
110.7017100799
 51
111.6475132358
  0
ARC
  5
3D0
100
AcDbEntity
  8
ALL_ASSEMBLY_MEMBERS
100
AcDbCircle
 62
7
  6
CONTINUOUS
 10
5.0746105634
 20
3.7902163091
 40
0.6625980562
100
AcDbArc
 50
109.7186068294
 51
110.1395442366
  0
ARC
  5
3D1
100
AcDbEntity
  8
ALL_ASSEMBLY_MEMBERS
100
AcDbCircle
 62
7
  6
CONTINUOUS
 10
4.8399862141
 20
3.7768446968
 40
0.6365689177
100
AcDbArc
 50
85.6106866045
 51
85.8305113297
  0
ARC
  5
3D2
100
AcDbEntity
  8
ALL_ASSEMBLY_MEMBERS
100
AcDbCircle
 62
7
  6
CONTINUOUS
 10
5.033124985
 20
3.9105078247
 40
0.5353485273
100
AcDbArc
 50
107.9086914129
 51
108.1492107234
  0
ARC
  5
3D3
100
AcDbEntity
  8
ALL_ASSEMBLY_MEMBERS
100
AcDbCircle
 62
7
  6
CONTINUOUS
 10
4.8522427849
 20
3.9349757604
 40
0.4760124563
100
AcDbArc
 50
85.3370642364
 51
85.6584859299
  0
ARC
  5
3D4
100
AcDbEntity
  8
ALL_ASSEMBLY_MEMBERS
100
AcDbCircle
 62
7
  6
CONTINUOUS
 10
4.2631823816
 20
4.3068669524
 40
0.3164854004
100
AcDbArc
 50
100.1445232398
 51
106.0081764947
  0
ARC
  5
3D5
100
AcDbEntity
  8
ALL_ASSEMBLY_MEMBERS
100
AcDbCircle
 62
7
  6
CONTINUOUS
 10
4.4321151561
 20
4.276068826
 40
0.2571572237
100
AcDbArc
 50
191.2923750743
 51
193.7427204112
  0
ARC
  5
3D6
100
AcDbEntity
  8
ALL_ASSEMBLY_MEMBERS
100
AcDbCircle
 62
7
  6
CONTINUOUS
 10
4.4314998338
 20
4.2759444919
 40
0.2565294671
100
AcDbArc
 50
190.6066099148
 51
191.2920540568
  0
ARC
  5
3D7
100
AcDbEntity
  8
ALL_ASSEMBLY_MEMBERS
100
AcDbCircle
 62
7
  6
CONTINUOUS
 10
4.4300803042
 20
4.2756925845
 40
0.2550878245
100
AcDbArc
 50
187.7249006511
 51
190.6096830475
  0
ARC
  5
3D8
100
AcDbEntity
  8
ALL_ASSEMBLY_MEMBERS
100
AcDbCircle
 62
7
  6
CONTINUOUS
 10
5.3015408708
 20
4.3066203416
 40
0.2015
100
AcDbArc
 50
191.3835410059
 51
270.0
  0
ARC
  5
3D9
100
AcDbEntity
  8
ALL_ASSEMBLY_MEMBERS
100
AcDbCircle
 62
7
  6
CONTINUOUS
 10
4.3359704273
 20
4.3535612796
 40
0.1610213771
100
AcDbArc
 50
189.8182605413
 51
190.7598308838
  0
ARC
  5
3DA
100
AcDbEntity
  8
ALL_ASSEMBLY_MEMBERS
100
AcDbCircle
 62
7
  6
CONTINUOUS
 10
4.9508285595
 20
4.2360091721
 40
0.15625
100
AcDbArc
 50
11.3835410059
 51
71.1400389567
  0
ARC
  5
3DB
100
AcDbEntity
  8
ALL_ASSEMBLY_MEMBERS
100
AcDbCircle
 62
7
  6
CONTINUOUS
 10
4.4770077413
 20
4.1807486845
 40
0.1033627822
100
AcDbArc
 50
341.6363319214
 51
342.1157596278
  0
ARC
  5
3DC
100
AcDbEntity
  8
ALL_ASSEMBLY_MEMBERS
100
AcDbCircle
 62
7
  6
CONTINUOUS
 10
6.1751551898
 20
2.9599029503
 40
0.0627173913
100
AcDbArc
 50
4.7718880608
 51
90.0
  0
ARC
  5
3DD
100
AcDbEntity
  8
ALL_ASSEMBLY_MEMBERS
100
AcDbCircle
 62
7
  6
CONTINUOUS
 10
5.8599101975
 20
4.1561489793
 40
0.0454241773
100
AcDbArc
 50
270.0001392816
 51
270.9972673085
  0
ARC
  5
3DE
100
AcDbEntity
  8
ALL_ASSEMBLY_MEMBERS
100
AcDbCircle
 62
7
  6
CONTINUOUS
 10
4.5670049608
 20
4.0726393568
 40
0.0215766491
100
AcDbArc
 50
303.4009535233
 51
315.8682496145
  0
ARC
  5
3DF
100
AcDbEntity
  8
ALL_ASSEMBLY_MEMBERS
100
AcDbCircle
 62
7
  6
CONTINUOUS
 10
4.5670047961
 20
4.1687985765
 40
0.0215
100
AcDbArc
 50
292.3608828196
 51
359.9999997216
  0
ARC
  5
3E0
100
AcDbEntity
  8
ALL_ASSEMBLY_MEMBERS
100
AcDbCircle
 62
7
  6
CONTINUOUS
 10
4.5672407886
 20
4.0724331012
 40
0.0212637205
100
AcDbArc
 50
315.824675381
 51
359.9765190002
  0
ARC
  5
3E1
100
AcDbEntity
  8
ALL_ASSEMBLY_MEMBERS
100
AcDbCircle
 62
7
  6
CONTINUOUS
 10
4.1929110456
 20
4.3259053068
 40
0.0156047007
100
AcDbArc
 50
179.2751241186
 51
189.7565031366
  0
ARC
  5
3E2
100
AcDbEntity
  8
ALL_ASSEMBLY_MEMBERS
100
AcDbCircle
 62
7
  6
CONTINUOUS
 10
4.1928564547
 20
4.326066943
 40
0.015578297
100
AcDbArc
 50
179.2662322141
 51
189.7449305763
  0
ARC
  5
3E3
100
AcDbEntity
  8
ALL_ASSEMBLY_MEMBERS
100
AcDbCircle
 62
7
  6
CONTINUOUS
 10
4.7518372217
 20
4.5131930271
 40
0.5965838821
100
AcDbArc
 50
181.3209475129
 51
181.5486414528
  0
ARC
  5
3E4
100
AcDbEntity
  8
ALL_ASSEMBLY_MEMBERS
100
AcDbCircle
 62
7
  6
CONTINUOUS
 10
4.7380246212
 20
4.6674000684
 40
0.5827668545
100
AcDbArc
 50
178.4149463174
 51
178.6628072364
  0
ARC
  5
3E5
100
AcDbEntity
  8
ALL_ASSEMBLY_MEMBERS
100
AcDbCircle
 62
7
  6
CONTINUOUS
 10
4.5288896853
 20
4.5572258685
 40
0.3785467289
100
AcDbArc
 50
164.2276052642
 51
165.5901436238
  0
ARC
  5
3E6
100
AcDbEntity
  8
ALL_ASSEMBLY_MEMBERS
100
AcDbCircle
 62
7
  6
CONTINUOUS
 10
4.5220428641
 20
4.6211685254
 40
0.3714558547
100
AcDbArc
 50
194.3968487964
 51
195.7854057355
  0
ARC
  5
3E7
100
AcDbEntity
  8
ALL_ASSEMBLY_MEMBERS
100
AcDbCircle
 62
7
  6
CONTINUOUS
 10
4.7635047961
 20
4.4588703416
 40
0.32375
100
AcDbArc
 50
71.0753555839
 51
108.9246444161
  0
ARC
  5
3E8
100
AcDbEntity
  8
ALL_ASSEMBLY_MEMBERS
100
AcDbCircle
 62
7
  6
CONTINUOUS
 10
4.7635047961
 20
4.7213703416
 40
0.32375
100
AcDbArc
 50
251.0753555839
 51
280.1288136794
  0
ARC
  5
3E9
100
AcDbEntity
  8
ALL_ASSEMBLY_MEMBERS
100
AcDbCircle
 62
7
  6
CONTINUOUS
 10
4.5885047961
 20
4.6338703416
 40
0.14875
100
AcDbArc
 50
61.9275130641
 51
90.0
  0
ARC
  5
3EA
100
AcDbEntity
  8
ALL_ASSEMBLY_MEMBERS
100
AcDbCircle
 62
7
  6
CONTINUOUS
 10
4.5885047961
 20
4.5463703416
 40
0.14875
100
AcDbArc
 50
270.0
 51
298.0724869359
  0
ARC
  5
3EB
100
AcDbEntity
  8
ALL_ASSEMBLY_MEMBERS
100
AcDbCircle
 62
7
  6
CONTINUOUS
 10
4.7796085346
 20
4.522340183
 40
0.1298075013
100
AcDbArc
 50
303.391680415
 51
305.0847416946
  0
ARC
  5
3EC
100
AcDbEntity
  8
ALL_ASSEMBLY_MEMBERS
100
AcDbCircle
 62
7
  6
CONTINUOUS
 10
4.1983029247
 20
4.651519411
 40
0.0360511423
100
AcDbArc
 50
165.6445826625
 51
180.14260166
  0
ARC
  5
3ED
100
AcDbEntity
  8
ALL_ASSEMBLY_MEMBERS
100
AcDbCircle
 62
7
  6
CONTINUOUS
 10
4.1983029274
 20
4.5287212547
 40
0.0360511385
100
AcDbArc
 50
179.8573702265
 51
194.3554602034
  0
ARC
  5
3EE
100
AcDbEntity
  8
ALL_ASSEMBLY_MEMBERS
100
AcDbCircle
 62
7
  6
CONTINUOUS
 10
4.2118513021
 20
4.6990125277
 40
0.0345451014
100
AcDbArc
 50
159.7119265559
 51
180.5256162413
  0
ARC
  5
3EF
100
AcDbEntity
  8
ALL_ASSEMBLY_MEMBERS
100
AcDbCircle
 62
7
  6
CONTINUOUS
 10
4.211851322
 20
4.4812281481
 40
0.0345450712
100
AcDbArc
 50
179.4743673897
 51
200.2880556679
  0
ARC
  5
3F0
100
AcDbEntity
  8
ALL_ASSEMBLY_MEMBERS
100
AcDbCircle
 62
7
  6
CONTINUOUS
 10
4.2118058136
 20
4.6989397617
 40
0.0345277513
100
AcDbArc
 50
159.7572318671
 51
180.5310237033
  0
ARC
  5
3F1
100
AcDbEntity
  8
ALL_ASSEMBLY_MEMBERS
100
AcDbCircle
 62
7
  6
CONTINUOUS
 10
4.2118058115
 20
4.4813009219
 40
0.0345277495
100
AcDbArc
 50
179.4689768467
 51
200.2427589965
  0
ARC
  5
3F2
100
AcDbEntity
  8
ALL_ASSEMBLY_MEMBERS
100
AcDbCircle
 62
7
  6
CONTINUOUS
 10
4.1880661232
 20
4.4182570986
 40
0.0306994598
100
AcDbArc
 50
359.9837602058
 51
3.858400823
  0
ARC
  5
3F3
100
AcDbEntity
  8
ALL_ASSEMBLY_MEMBERS
100
AcDbCircle
 62
7
  6
CONTINUOUS
 10
4.1881361784
 20
4.7619854873
 40
0.0306294042
100
AcDbArc
 50
354.1327453531
 51
0.0127178191
  0
ARC
  5
3F4
100
AcDbEntity
  8
ALL_ASSEMBLY_MEMBERS
100
AcDbCircle
 62
7
  6
CONTINUOUS
 10
4.1889591808
 20
4.4183172313
 40
0.0298043801
100
AcDbArc
 50
3.8585896051
 51
5.9108031449
  0
ARC
  5
3F5
100
AcDbEntity
  8
ALL_ASSEMBLY_MEMBERS
100
AcDbCircle
 62
7
  6
CONTINUOUS
 10
4.2631823816
 20
4.8733737309
 40
0.3164854004
100
AcDbArc
 50
253.9918235053
 51
259.8554767602
  0
ARC
  5
3F6
100
AcDbEntity
  8
ALL_ASSEMBLY_MEMBERS
100
AcDbCircle
 62
7
  6
CONTINUOUS
 10
4.4315011097
 20
4.9042958737
 40
0.2565307663
100
AcDbArc
 50
168.7511244241
 51
169.3669164609
  0
ARC
  5
3F7
100
AcDbEntity
  8
ALL_ASSEMBLY_MEMBERS
100
AcDbCircle
 62
7
  6
CONTINUOUS
 10
4.4304801629
 20
4.904483336
 40
0.25549276
100
AcDbArc
 50
169.3659879132
 51
172.272580941
  0
ARC
  5
3F8
100
AcDbEntity
  8
ALL_ASSEMBLY_MEMBERS
100
AcDbCircle
 62
7
  6
CONTINUOUS
 10
4.3362205556
 20
4.826633728
 40
0.161275631
100
AcDbArc
 50
169.2408363461
 51
170.1806780377
  0
ARC
  5
3F9
100
AcDbEntity
  8
ALL_ASSEMBLY_MEMBERS
100
AcDbCircle
 62
7
  6
CONTINUOUS
 10
4.4645616616
 20
4.9953705898
 40
0.1164721092
100
AcDbArc
 50
17.9342436188
 51
19.7539487053
  0
ARC
  5
3FA
100
AcDbEntity
  8
ALL_ASSEMBLY_MEMBERS
100
AcDbCircle
 62
7
  6
CONTINUOUS
 10
4.5670050486
 20
5.1076013962
 40
0.0215765428
100
AcDbArc
 50
44.1319865748
 51
56.5992139003
  0
ARC
  5
3FB
100
AcDbEntity
  8
ALL_ASSEMBLY_MEMBERS
100
AcDbCircle
 62
7
  6
CONTINUOUS
 10
4.5670047961
 20
5.0114421057
 40
0.0215
100
AcDbArc
 50
0.0000002779
 51
67.6391916372
  0
ARC
  5
3FC
100
AcDbEntity
  8
ALL_ASSEMBLY_MEMBERS
100
AcDbCircle
 62
7
  6
CONTINUOUS
 10
4.5672408067
 20
5.1078076009
 40
0.0212637007
100
AcDbArc
 50
0.0233594252
 51
44.1755319542
  0
ARC
  5
3FD
100
AcDbEntity
  8
ALL_ASSEMBLY_MEMBERS
100
AcDbCircle
 62
7
  6
CONTINUOUS
 10
4.1929109933
 20
4.8543353765
 40
0.0156047009
100
AcDbArc
 50
170.2434648117
 51
180.724856943
  0
ARC
  5
3FE
100
AcDbEntity
  8
ALL_ASSEMBLY_MEMBERS
100
AcDbCircle
 62
7
  6
CONTINUOUS
 10
4.1928564551
 20
4.8541737406
 40
0.0155782973
100
AcDbArc
 50
170.2550977225
 51
180.7337689464
  0
ARC
  5
3FF
100
AcDbEntity
  8
ALL_ASSEMBLY_MEMBERS
100
AcDbCircle
 62
7
  6
CONTINUOUS
 10
4.9967946236
 20
4.5198715063
 40
0.8416323031
100
AcDbArc
 50
181.55244823
 51
181.7351299926
  0
ARC
  5
400
100
AcDbEntity
  8
ALL_ASSEMBLY_MEMBERS
100
AcDbCircle
 62
7
  6
CONTINUOUS
 10
4.9121701896
 20
4.4578214013
 40
0.7786367177
100
AcDbArc
 50
164.6047598455
 51
165.1991558821
  0
ARC
  5
401
100
AcDbEntity
  8
ALL_ASSEMBLY_MEMBERS
100
AcDbCircle
 62
7
  6
CONTINUOUS
 10
4.9669772671
 20
4.5880509179
 40
0.195015865
100
AcDbArc
 50
247.8568416951
 51
249.1140949565
  0
ARC
  5
402
100
AcDbEntity
  8
ALL_ASSEMBLY_MEMBERS
100
AcDbCircle
 62
7
  6
CONTINUOUS
 10
4.9632507582
 20
4.5792072744
 40
0.1854185654
100
AcDbArc
 50
245.8767526952
 51
246.1498520251
  0
ARC
  5
403
100
AcDbEntity
  8
ALL_ASSEMBLY_MEMBERS
100
AcDbCircle
 62
7
  6
CONTINUOUS
 10
4.9623550776
 20
4.577211914
 40
0.1832313975
100
AcDbArc
 50
245.0163946682
 51
245.877363717
  0
ARC
  5
404
100
AcDbEntity
  8
ALL_ASSEMBLY_MEMBERS
100
AcDbCircle
 62
7
  6
CONTINUOUS
 10
4.9609670316
 20
4.5742184696
 40
0.1799318001
100
AcDbArc
 50
244.4042730846
 51
245.0144384882
  0
ARC
  5
405
100
AcDbEntity
  8
ALL_ASSEMBLY_MEMBERS
100
AcDbCircle
 62
7
  6
CONTINUOUS
 10
4.961028884
 20
4.574488416
 40
0.1782567468
100
AcDbArc
 50
243.4142958349
 51
246.0433161206
  0
ARC
  5
406
100
AcDbEntity
  8
ALL_ASSEMBLY_MEMBERS
100
AcDbCircle
 62
7
  6
CONTINUOUS
 10
4.9481037866
 20
4.5502403861
 40
0.1527090316
100
AcDbArc
 50
238.5841239385
 51
238.9557094214
  0
ARC
  5
407
100
AcDbEntity
  8
ALL_ASSEMBLY_MEMBERS
100
AcDbCircle
 62
7
  6
CONTINUOUS
 10
4.9160047961
 20
4.4991203416
 40
0.0965
100
AcDbArc
 50
267.9508861895
 51
299.4871256729
  0
ARC
  5
408
100
AcDbEntity
  8
ALL_ASSEMBLY_MEMBERS
100
AcDbCircle
 62
7
  6
CONTINUOUS
 10
4.9182286381
 20
4.4601184546
 40
0.059543514
100
AcDbArc
 50
229.9728972779
 51
234.0039586586
  0
ARC
  5
409
100
AcDbEntity
  8
ALL_ASSEMBLY_MEMBERS
100
AcDbCircle
 62
7
  6
CONTINUOUS
 10
4.9143437847
 20
4.455405332
 40
0.0534359728
100
AcDbArc
 50
227.3221993912
 51
229.9123638292
  0
ARC
  5
40A
100
AcDbEntity
  8
ALL_ASSEMBLY_MEMBERS
100
AcDbCircle
 62
7
  6
CONTINUOUS
 10
4.8634897056
 20
4.5900921094
 40
0.0494869978
100
AcDbArc
 50
61.8888754276
 51
62.1347165492
  0
ARC
  5
40B
100
AcDbEntity
  8
ALL_ASSEMBLY_MEMBERS
100
AcDbCircle
 62
7
  6
CONTINUOUS
 10
4.8635122859
 20
4.5901061005
 40
0.0494710741
100
AcDbArc
 50
116.040828918
 51
120.6639590213
  0
ARC
  5
40C
100
AcDbEntity
  8
ALL_ASSEMBLY_MEMBERS
100
AcDbCircle
 62
7
  6
CONTINUOUS
 10
4.8635133245
 20
4.590109626
 40
0.0494686792
100
AcDbArc
 50
125.7051488803
 51
131.2840396897
  0
ARC
  5
40D
100
AcDbEntity
  8
ALL_ASSEMBLY_MEMBERS
100
AcDbCircle
 62
7
  6
CONTINUOUS
 10
4.8634996629
 20
4.590110521
 40
0.0494660665
100
AcDbArc
 50
59.4423429921
 51
61.8889999657
  0
ARC
  5
40E
100
AcDbEntity
  8
ALL_ASSEMBLY_MEMBERS
100
AcDbCircle
 62
7
  6
CONTINUOUS
 10
4.8635031481
 20
4.5901179054
 40
0.0494520894
100
AcDbArc
 50
223.9498749463
 51
227.6317647718
  0
ARC
  5
40F
100
AcDbEntity
  8
ALL_ASSEMBLY_MEMBERS
100
AcDbCircle
 62
7
  6
CONTINUOUS
 10
4.8635042952
 20
4.5901061078
 40
0.0494407586
100
AcDbArc
 50
265.4821901533
 51
270.0343088665
  0
ARC
  5
410
100
AcDbEntity
  8
ALL_ASSEMBLY_MEMBERS
100
AcDbCircle
 62
7
  6
CONTINUOUS
 10
4.8634887731
 20
4.5901064155
 40
0.0494337595
100
AcDbArc
 50
219.0756048906
 51
223.4172753339
  0
ARC
  5
411
100
AcDbEntity
  8
ALL_ASSEMBLY_MEMBERS
100
AcDbCircle
 62
7
  6
CONTINUOUS
 10
4.8632697889
 20
4.5899652804
 40
0.0491734511
100
AcDbArc
 50
210.5993731382
 51
213.0872048956
  0
ARC
  5
412
100
AcDbEntity
  8
ALL_ASSEMBLY_MEMBERS
100
AcDbCircle
 62
7
  6
CONTINUOUS
 10
4.8635411838
 20
4.5898051489
 40
0.0491377149
100
AcDbArc
 50
276.7373159037
 51
278.5291918248
  0
ARC
  5
413
100
AcDbEntity
  8
ALL_ASSEMBLY_MEMBERS
100
AcDbCircle
 62
7
  6
CONTINUOUS
 10
4.8632828795
 20
4.589875269
 40
0.0491243851
100
AcDbArc
 50
225.5346319754
 51
227.6308666369
  0
ARC
  5
414
100
AcDbEntity
  8
ALL_ASSEMBLY_MEMBERS
100
AcDbCircle
 62
7
  6
CONTINUOUS
 10
4.8635335505
 20
4.5897629306
 40
0.0490964359
100
AcDbArc
 50
272.3885253423
 51
274.4153439614
  0
ARC
  5
415
100
AcDbEntity
  8
ALL_ASSEMBLY_MEMBERS
100
AcDbCircle
 62
7
  6
CONTINUOUS
 10
4.8634586103
 20
4.5897470671
 40
0.0490788798
100
AcDbArc
 50
261.1266611399
 51
262.8237420627
  0
ARC
  5
416
100
AcDbEntity
  8
ALL_ASSEMBLY_MEMBERS
100
AcDbCircle
 62
7
  6
CONTINUOUS
 10
4.892126799
 20
4.5837762847
 40
0.0484770661
100
AcDbArc
 50
240.8379070849
 51
241.9165796475
  0
ARC
  5
417
100
AcDbEntity
  8
ALL_ASSEMBLY_MEMBERS
100
AcDbCircle
 62
7
  6
CONTINUOUS
 10
4.8620447185
 20
4.5895174089
 40
0.0407362541
100
AcDbArc
 50
285.0016906207
 51
299.7312425192
  0
ARC
  5
418
100
AcDbEntity
  8
ALL_ASSEMBLY_MEMBERS
100
AcDbCircle
 62
7
  6
CONTINUOUS
 10
4.8621584848
 20
4.5892998376
 40
0.0404909042
100
AcDbArc
 50
299.7441339636
 51
305.0086210195
  0
ARC
  5
419
100
AcDbEntity
  8
ALL_ASSEMBLY_MEMBERS
100
AcDbCircle
 62
7
  6
CONTINUOUS
 10
4.8622418964
 20
4.5891798605
 40
0.0403447819
100
AcDbArc
 50
305.0093470605
 51
307.6526061685
  0
ARC
  5
41A
100
AcDbEntity
  8
ALL_ASSEMBLY_MEMBERS
100
AcDbCircle
 62
7
  6
CONTINUOUS
 10
4.8622935024
 20
4.5891116731
 40
0.0402592712
100
AcDbArc
 50
307.6537388096
 51
312.9670644572
  0
ARC
  5
41B
100
AcDbEntity
  8
ALL_ASSEMBLY_MEMBERS
100
AcDbCircle
 62
7
  6
CONTINUOUS
 10
4.8644704056
 20
4.5888744475
 40
0.0378400214
100
AcDbArc
 50
35.7140980812
 51
36.2482955883
  0
ARC
  5
41C
100
AcDbEntity
  8
ALL_ASSEMBLY_MEMBERS
100
AcDbCircle
 62
7
  6
CONTINUOUS
 10
4.8645275095
 20
4.5889200457
 40
0.0377670079
100
AcDbArc
 50
36.2437313385
 51
45.2428513838
  0
ARC
  5
41D
100
AcDbEntity
  8
ALL_ASSEMBLY_MEMBERS
100
AcDbCircle
 62
7
  6
CONTINUOUS
 10
5.0120047961
 20
4.4150986206
 40
0.033
100
AcDbArc
 50
180.0
 51
251.1400389567
  0
ARC
  5
41E
100
AcDbEntity
  8
ALL_ASSEMBLY_MEMBERS
100
AcDbCircle
 62
7
  6
CONTINUOUS
 10
4.8635688007
 20
4.5900648099
 40
0.0324602631
100
AcDbArc
 50
318.0369306147
 51
318.9885077706
  0
ARC
  5
41F
100
AcDbEntity
  8
ALL_ASSEMBLY_MEMBERS
100
AcDbCircle
 62
7
  6
CONTINUOUS
 10
4.8634395432
 20
4.5900451756
 40
0.0324454617
100
AcDbArc
 50
228.4470393358
 51
229.0174285023
  0
ARC
  5
420
100
AcDbEntity
  8
ALL_ASSEMBLY_MEMBERS
100
AcDbCircle
 62
7
  6
CONTINUOUS
 10
4.8602799301
 20
4.5853091647
 40
0.0323360116
100
AcDbArc
 50
324.7848547657
 51
329.2253844728
  0
ARC
  5
421
100
AcDbEntity
  8
ALL_ASSEMBLY_MEMBERS
100
AcDbCircle
 62
7
  6
CONTINUOUS
 10
4.8807797905
 20
4.5871655794
 40
0.0319116244
100
AcDbArc
 50
352.0621409734
 51
5.312742553
  0
ARC
  5
422
100
AcDbEntity
  8
ALL_ASSEMBLY_MEMBERS
100
AcDbCircle
 62
7
  6
CONTINUOUS
 10
4.8809493112
 20
4.5871432093
 40
0.0317406387
100
AcDbArc
 50
351.0507924801
 51
352.0598756815
  0
ARC
  5
423
100
AcDbEntity
  8
ALL_ASSEMBLY_MEMBERS
100
AcDbCircle
 62
7
  6
CONTINUOUS
 10
4.8809853131
 20
4.5871376474
 40
0.0317042099
100
AcDbArc
 50
346.6029061907
 51
351.0506006386
  0
ARC
  5
424
100
AcDbEntity
  8
ALL_ASSEMBLY_MEMBERS
100
AcDbCircle
 62
7
  6
CONTINUOUS
 10
4.8365410223
 20
4.6002936786
 40
0.0669699803
100
AcDbArc
 50
297.3544265808
 51
297.5477034347
  0
ARC
  5
425
100
AcDbEntity
  8
ALL_ASSEMBLY_MEMBERS
100
AcDbCircle
 62
7
  6
CONTINUOUS
 10
4.8366872096
 20
4.6000149399
 40
0.0666552336
100
AcDbArc
 50
297.5471013008
 51
298.5121859348
  0
ARC
  5
426
100
AcDbEntity
  8
ALL_ASSEMBLY_MEMBERS
100
AcDbCircle
 62
7
  6
CONTINUOUS
 10
4.8406909914
 20
4.6042009818
 40
0.0516999447
100
AcDbArc
 50
258.2669933828
 51
276.4211731802
  0
ARC
  5
427
100
AcDbEntity
  8
ALL_ASSEMBLY_MEMBERS
100
AcDbCircle
 62
7
  6
CONTINUOUS
 10
4.8581429017
 20
4.5924007577
 40
0.0403668311
100
AcDbArc
 50
245.1540523567
 51
250.2873789857
  0
ARC
  5
428
100
AcDbEntity
  8
ALL_ASSEMBLY_MEMBERS
100
AcDbCircle
 62
7
  6
CONTINUOUS
 10
4.85793043
 20
4.5918038569
 40
0.0397332437
100
AcDbArc
 50
250.2854811611
 51
255.7839426304
  0
ARC
  5
429
100
AcDbEntity
  8
ALL_ASSEMBLY_MEMBERS
100
AcDbCircle
 62
7
  6
CONTINUOUS
 10
4.8635294894
 20
4.5901443523
 40
0.0494894086
100
AcDbArc
 50
223.4167791424
 51
223.9507533788
  0
ARC
  5
42A
100
AcDbEntity
  8
ALL_ASSEMBLY_MEMBERS
100
AcDbCircle
 62
7
  6
CONTINUOUS
 10
4.8635320897
 20
4.5901405
 40
0.0494888725
100
AcDbArc
 50
213.0913868252
 51
218.507822224
  0
ARC
  5
42B
100
AcDbEntity
  8
ALL_ASSEMBLY_MEMBERS
100
AcDbCircle
 62
7
  6
CONTINUOUS
 10
4.8635062033
 20
4.5901390973
 40
0.0494737959
100
AcDbArc
 50
265.1664191611
 51
265.4829965609
  0
ARC
  5
42C
100
AcDbEntity
  8
ALL_ASSEMBLY_MEMBERS
100
AcDbCircle
 62
7
  6
CONTINUOUS
 10
4.863502906
 20
4.590132752
 40
0.0494675463
100
AcDbArc
 50
276.7368293263
 51
280.0799620466
  0
ARC
  5
42D
100
AcDbEntity
  8
ALL_ASSEMBLY_MEMBERS
100
AcDbCircle
 62
7
  6
CONTINUOUS
 10
4.8635140658
 20
4.5901261056
 40
0.0494658061
100
AcDbArc
 50
218.5077737385
 51
219.0748433719
  0
ARC
  5
42E
100
AcDbEntity
  8
ALL_ASSEMBLY_MEMBERS
100
AcDbCircle
 62
7
  6
CONTINUOUS
 10
4.863503362
 20
4.5901267897
 40
0.0494615962
100
AcDbArc
 50
280.0806507777
 51
285.5785653519
  0
ARC
  5
42F
100
AcDbEntity
  8
ALL_ASSEMBLY_MEMBERS
100
AcDbCircle
 62
7
  6
CONTINUOUS
 10
4.8635047322
 20
4.5901251652
 40
0.0494598142
100
AcDbArc
 50
270.0342051106
 51
274.4163237122
  0
ARC
  5
430
100
AcDbEntity
  8
ALL_ASSEMBLY_MEMBERS
100
AcDbCircle
 62
7
  6
CONTINUOUS
 10
4.8635046
 20
4.5901211955
 40
0.0494558226
100
AcDbArc
 50
262.8250251064
 51
265.1665224691
  0
ARC
  5
431
100
AcDbEntity
  8
ALL_ASSEMBLY_MEMBERS
100
AcDbCircle
 62
7
  6
CONTINUOUS
 10
4.8635066871
 20
4.5901244003
 40
0.049450514
100
AcDbArc
 50
62.1346238338
 51
67.0130517919
  0
ARC
  5
432
100
AcDbEntity
  8
ALL_ASSEMBLY_MEMBERS
100
AcDbCircle
 62
7
  6
CONTINUOUS
 10
4.863502927
 20
4.5901255575
 40
0.0494494837
100
AcDbArc
 50
115.7184798634
 51
116.040983056
  0
ARC
  5
433
100
AcDbEntity
  8
ALL_ASSEMBLY_MEMBERS
100
AcDbCircle
 62
7
  6
CONTINUOUS
 10
4.8635082646
 20
4.5901297879
 40
0.0494449382
100
AcDbArc
 50
67.0122964769
 51
68.9691753867
  0
ARC
  5
434
100
AcDbEntity
  8
ALL_ASSEMBLY_MEMBERS
100
AcDbCircle
 62
7
  6
CONTINUOUS
 10
4.863496967
 20
4.5901323883
 40
0.049440649
100
AcDbArc
 50
120.6642977445
 51
125.7051507867
  0
ARC
  5
435
100
AcDbEntity
  8
ALL_ASSEMBLY_MEMBERS
100
AcDbCircle
 62
7
  6
CONTINUOUS
 10
4.8634912069
 20
4.5901500128
 40
0.0494223651
100
AcDbArc
 50
114.7383456816
 51
115.7185416705
  0
ARC
  5
436
100
AcDbEntity
  8
ALL_ASSEMBLY_MEMBERS
100
AcDbCircle
 62
7
  6
CONTINUOUS
 10
4.8634568004
 20
4.5901788838
 40
0.0493793614
100
AcDbArc
 50
132.1007962625
 51
133.8562203926
  0
ARC
  5
437
100
AcDbEntity
  8
ALL_ASSEMBLY_MEMBERS
100
AcDbCircle
 62
7
  6
CONTINUOUS
 10
4.8633592393
 20
4.5902863068
 40
0.0492342485
100
AcDbArc
 50
131.2849540182
 51
132.1003694585
  0
ARC
  5
438
100
AcDbEntity
  8
ALL_ASSEMBLY_MEMBERS
100
AcDbCircle
 62
7
  6
CONTINUOUS
 10
4.8636401953
 20
4.5904733849
 40
0.049076883
100
AcDbArc
 50
67.8812504977
 51
68.9689837001
  0
ARC
  5
439
100
AcDbEntity
  8
ALL_ASSEMBLY_MEMBERS
100
AcDbCircle
 62
7
  6
CONTINUOUS
 10
4.8637160878
 20
4.5904792788
 40
0.0490384909
100
AcDbArc
 50
58.0583126707
 51
59.4410449569
  0
ARC
  5
43A
100
AcDbEntity
  8
ALL_ASSEMBLY_MEMBERS
100
AcDbCircle
 62
7
  6
CONTINUOUS
 10
4.8633214906
 20
4.5905184309
 40
0.0490167352
100
AcDbArc
 50
114.7383838107
 51
115.353988899
  0
ARC
  5
43B
100
AcDbEntity
  8
ALL_ASSEMBLY_MEMBERS
100
AcDbCircle
 62
7
  6
CONTINUOUS
 10
4.8635047961
 20
4.5901203416
 40
0.041
100
AcDbArc
 50
254.4666352726
 51
252.3145025329
  0
ARC
  5
43C
100
AcDbEntity
  8
ALL_ASSEMBLY_MEMBERS
100
AcDbCircle
 62
7
  6
CONTINUOUS
 10
4.8635047961
 20
4.5901203416
 40
0.0325449999
100
AcDbArc
 50
229.0174920094
 51
318.9886794061
  0
CIRCLE
  5
43D
100
AcDbEntity
  8
ALL_ASSEMBLY_MEMBERS
100
AcDbCircle
 62
7
  6
CONTINUOUS
 10
4.8635047961
 20
4.5901203416
 40
0.031
  0
ARC
  5
43E
100
AcDbEntity
  8
ALL_ASSEMBLY_MEMBERS
100
AcDbCircle
 62
7
  6
CONTINUOUS
 10
4.9040240074
 20
4.7202320197
 40
0.7702020321
100
AcDbArc
 50
194.7902222879
 51
195.3883736521
  0
ARC
  5
43F
100
AcDbEntity
  8
ALL_ASSEMBLY_MEMBERS
100
AcDbCircle
 62
7
  6
CONTINUOUS
 10
4.9160047961
 20
4.6811203416
 40
0.0965
100
AcDbArc
 50
60.5128743271
 51
119.4871256729
  0
ARC
  5
440
100
AcDbEntity
  8
ALL_ASSEMBLY_MEMBERS
100
AcDbCircle
 62
7
  6
CONTINUOUS
 10
5.0276807183
 20
4.6594997845
 40
0.8725306553
100
AcDbArc
 50
178.1710665536
 51
178.4224900934
  0
ARC
  5
441
100
AcDbEntity
  8
ALL_ASSEMBLY_MEMBERS
100
AcDbCircle
 62
7
  6
CONTINUOUS
 10
4.9596268835
 20
4.6247974534
 40
0.2266968753
100
AcDbArc
 50
252.3885980365
 51
252.7387984184
  0
ARC
  5
442
100
AcDbEntity
  8
ALL_ASSEMBLY_MEMBERS
100
AcDbCircle
 62
7
  6
CONTINUOUS
 10
4.9550303712
 20
4.6104227235
 40
0.2116051658
100
AcDbArc
 50
251.6114442416
 51
252.3972257382
  0
ARC
  5
443
100
AcDbEntity
  8
ALL_ASSEMBLY_MEMBERS
100
AcDbCircle
 62
7
  6
CONTINUOUS
 10
5.0120047961
 20
4.7651420626
 40
0.033
100
AcDbArc
 50
108.8599610433
 51
180.0
  0
ARC
  5
444
100
AcDbEntity
  8
ALL_ASSEMBLY_MEMBERS
100
AcDbCircle
 62
7
  6
CONTINUOUS
 10
5.4269744925
 20
4.5333213101
 40
1.2720222438
100
AcDbArc
 50
181.753965938
 51
182.088326382
  0
ARC
  5
445
100
AcDbEntity
  8
ALL_ASSEMBLY_MEMBERS
100
AcDbCircle
 62
7
  6
CONTINUOUS
 10
5.2721153564
 20
4.5758274497
 40
1.1180451628
100
AcDbArc
 50
186.9357758463
 51
187.4271709942
  0
ARC
  5
446
100
AcDbEntity
  8
ALL_ASSEMBLY_MEMBERS
100
AcDbCircle
 62
7
  6
CONTINUOUS
 10
5.4538600044
 20
4.6459931027
 40
1.2989239097
100
AcDbArc
 50
177.8367245241
 51
178.1755622442
  0
ARC
  5
447
100
AcDbEntity
  8
ALL_ASSEMBLY_MEMBERS
100
AcDbCircle
 62
7
  6
CONTINUOUS
 10
5.2749675025
 20
4.6040538443
 40
1.120919836
100
AcDbArc
 50
172.5734602148
 51
173.0635932146
  0
ARC
  5
448
100
AcDbEntity
  8
ALL_ASSEMBLY_MEMBERS
100
AcDbCircle
 62
7
  6
CONTINUOUS
 10
5.3015408708
 20
4.8736203416
 40
0.2015
100
AcDbArc
 50
90.0
 51
168.6164589941
  0
ARC
  5
449
100
AcDbEntity
  8
ALL_ASSEMBLY_MEMBERS
100
AcDbCircle
 62
7
  6
CONTINUOUS
 10
4.9508285595
 20
4.9442315112
 40
0.15625
100
AcDbArc
 50
288.8599610433
 51
348.6164589941
  0
ARC
  5
44A
100
AcDbEntity
  8
ALL_ASSEMBLY_MEMBERS
100
AcDbCircle
 62
7
  6
CONTINUOUS
 10
5.4010047961
 20
5.0816203416
 40
0.14
100
AcDbArc
 50
71.446995465
 51
108.553004535
  0
ARC
  5
44B
100
AcDbEntity
  8
ALL_ASSEMBLY_MEMBERS
100
AcDbCircle
 62
7
  6
CONTINUOUS
 10
5.3660047961
 20
5.1859036097
 40
0.03
100
AcDbArc
 50
108.553004535
 51
180.0
  0
ARC
  5
44C
100
AcDbEntity
  8
ALL_ASSEMBLY_MEMBERS
100
AcDbCircle
 62
7
  6
CONTINUOUS
 10
5.4360047961
 20
5.1859036097
 40
0.03
100
AcDbArc
 50
0.0
 51
71.446995465
  0
ARC
  5
44D
100
AcDbEntity
  8
ALL_ASSEMBLY_MEMBERS
100
AcDbCircle
 62
7
  6
CONTINUOUS
 10
4.9503335802
 20
5.9757241485
 40
1.564916516
100
AcDbArc
 50
266.2331768902
 51
266.3624949232
  0
ARC
  5
44E
100
AcDbEntity
  8
ALL_ASSEMBLY_MEMBERS
100
AcDbCircle
 62
7
  6
CONTINUOUS
 10
4.9167183491
 20
5.4665539398
 40
1.0565905656
100
AcDbArc
 50
265.9861789827
 51
266.187986272
  0
ARC
  5
44F
100
AcDbEntity
  8
ALL_ASSEMBLY_MEMBERS
100
AcDbCircle
 62
7
  6
CONTINUOUS
 10
6.8995602422
 20
4.5748085751
 40
2.7466159684
100
AcDbArc
 50
175.2817516188
 51
176.4413679191
  0
ARC
  5
450
100
AcDbEntity
  8
ALL_ASSEMBLY_MEMBERS
100
AcDbCircle
 62
7
  6
CONTINUOUS
 10
6.8970041608
 20
4.6052474383
 40
2.7440533589
100
AcDbArc
 50
183.5888423983
 51
184.7187956208
  0
ARC
  5
451
100
AcDbEntity
  8
ALL_ASSEMBLY_MEMBERS
100
AcDbCircle
 62
7
  6
CONTINUOUS
 10
6.8895811172
 20
4.5754619696
 40
2.7366155291
100
AcDbArc
 50
176.4420532018
 51
177.4537212447
  0
ARC
  5
452
100
AcDbEntity
  8
ALL_ASSEMBLY_MEMBERS
100
AcDbCircle
 62
7
  6
CONTINUOUS
 10
6.8885298401
 20
4.6047226388
 40
2.7355628064
100
AcDbArc
 50
182.6042480681
 51
183.5889825124
  0
ARC
  5
453
100
AcDbEntity
  8
ALL_ASSEMBLY_MEMBERS
100
AcDbCircle
 62
7
  6
CONTINUOUS
 10
6.8879536922
 20
4.6046897904
 40
2.734985761
100
AcDbArc
 50
182.4745062637
 51
182.6041090492
  0
ARC
  5
454
100
AcDbEntity
  8
ALL_ASSEMBLY_MEMBERS
100
AcDbCircle
 62
7
  6
CONTINUOUS
 10
6.8410047961
 20
4.5901203416
 40
2.6875
100
AcDbArc
 50
177.880105437
 51
182.1198947742
  0
ARC
  5
455
100
AcDbEntity
  8
ALL_ASSEMBLY_MEMBERS
100
AcDbCircle
 62
7
  6
CONTINUOUS
 10
6.4262442339
 20
4.6052056688
 40
2.2721795187
100
AcDbArc
 50
175.1346504899
 51
176.4636108998
  0
ARC
  5
456
100
AcDbEntity
  8
ALL_ASSEMBLY_MEMBERS
100
AcDbCircle
 62
7
  6
CONTINUOUS
 10
6.4207482883
 20
4.5746307057
 40
2.2666690859
100
AcDbArc
 50
183.546773808
 51
184.8669491525
  0
ARC
  5
457
100
AcDbEntity
  8
ALL_ASSEMBLY_MEMBERS
100
AcDbCircle
 62
7
  6
CONTINUOUS
 10
6.271043419
 20
4.6313286753
 40
2.1008443494
100
AcDbArc
 50
172.1659065171
 51
172.9611626586
  0
ARC
  5
458
100
AcDbEntity
  8
ALL_ASSEMBLY_MEMBERS
100
AcDbCircle
 62
7
  6
CONTINUOUS
 10
6.2632317788
 20
4.5478925925
 40
2.0929666647
100
AcDbArc
 50
187.0367237749
 51
187.835595445
  0
ARC
  5
459
100
AcDbEntity
  8
ALL_ASSEMBLY_MEMBERS
100
AcDbCircle
 62
7
  6
CONTINUOUS
 10
6.0608547025
 20
5.5750297263
 40
0.4925109075
100
AcDbArc
 50
270.000056693
 51
271.1214557203
  0
ARC
  5
45A
100
AcDbEntity
  8
ALL_ASSEMBLY_MEMBERS
100
AcDbCircle
 62
7
  6
CONTINUOUS
 10
5.9808485211
 20
5.5742993767
 40
0.4917805579
100
AcDbArc
 50
268.8775733666
 51
270.0007769503
  0
ARC
  5
45B
100
AcDbEntity
  8
ALL_ASSEMBLY_MEMBERS
100
AcDbCircle
 62
7
  6
CONTINUOUS
 10
6.1751551898
 20
6.2203377329
 40
0.0627173913
100
AcDbArc
 50
270.0
 51
355.2281119392
  0
SPLINE
  5
45C
100
AcDbEntity
  8
ALL_ASSEMBLY_MEMBERS
100
AcDbSpline
 62
7
  6
CONTINUOUS
 70
0
 71
3
 72
30
 73
26
 74
0
 42
0.0000001
 43
0.0000001
 44
0.0000000001
 40
0.0
 40
0.0
 40
0.0
 40
0.0
 40
0.0312557695
 40
0.0625117162
 40
0.0937676783
 40
0.1250233745
 40
0.1875189408
 40
0.2500133515
 40
0.2812681531
 40
0.3125227997
 40
0.3437774932
 40
0.3750323669
 40
0.4375261936
 40
0.500019876
 40
0.531274299
 40
0.5625286735
 40
0.6250207212
 40
0.6875126234
 40
0.7187666309
 40
0.7500209011
 40
0.8125127929
 40
0.875004112
 40
0.9062575384
 40
0.9375108145
 40
1.0
 40
1.0
 40
1.0
 40
1.0
 10
4.8897333295
 20
4.5596521278
 30
0.0
 10
4.8901629896
 20
4.5600523491
 30
0.0
 10
4.8910048906
 20
4.5608717405
 30
0.0
 10
4.8922123725
 20
4.5621550787
 30
0.0
 10
4.8933623026
 20
4.5634903165
 30
0.0
 10
4.8948153978
 20
4.5653360271
 30
0.0
 10
4.896476651
 20
4.5677609322
 30
0.0
 10
4.8979168422
 20
4.5703233284
 30
0.0
 10
4.8989286279
 20
4.5724432828
 30
0.0
 10
4.8996161478
 20
4.5740657157
 30
0.0
 10
4.9002305355
 20
4.5757172377
 30
0.0
 10
4.9009503304
 20
4.5779532569
 30
0.0
 10
4.9016613611
 20
4.5808053969
 30
0.0
 10
4.9021132278
 20
4.5837099017
 30
0.0
 10
4.9023166858
 20
4.586050123
 30
0.0
 10
4.9024141138
 20
4.5883971176
 30
0.0
 10
4.9023366839
 20
4.5913355315
 30
0.0
 10
4.9019925829
 20
4.5942547889
 30
0.0
 10
4.9015589218
 20
4.5965634329
 30
0.0
 10
4.9010201318
 20
4.598849826
 30
0.0
 10
4.9001514151
 20
4.6016580471
 30
0.0
 10
4.8990283117
 20
4.60437456
 30
0.0
 10
4.8979830546
 20
4.6064782188
 30
0.0
 10
4.8968417292
 20
4.6085310985
 30
0.0
 10
4.8958795106
 20
4.6100100448
 30
0.0
 10
4.8951942295
 20
4.6109632199
 30
0.0
  0
SPLINE
  5
45D
100
AcDbEntity
  8
ALL_ASSEMBLY_MEMBERS
100
AcDbSpline
 62
7
  6
CONTINUOUS
 70
0
 71
3
 72
19
 73
15
 74
0
 42
0.0000001
 43
0.0000001
 44
0.0000000001
 40
0.0
 40
0.0
 40
0.0
 40
0.0
 40
0.1249848826
 40
0.2499681338
 40
0.3124788321
 40
0.3749889279
 40
0.499967989
 40
0.5624796018
 40
0.6249899142
 40
0.6874968016
 40
0.7500028009
 40
0.8125148653
 40
0.8750391791
 40
1.0
 40
1.0
 40
1.0
 40
1.0
 10
4.8911193853
 20
4.6157383048
 30
0.0
 10
4.8902175113
 20
4.6166323435
 30
0.0
 10
4.8883219686
 20
4.6183303362
 30
0.0
 10
4.8857493931
 20
4.620200733
 30
0.0
 10
4.8835858127
 20
4.6215336118
 30
0.0
 10
4.8813569942
 20
4.6227538829
 30
0.0
 10
4.8790369343
 20
4.6238012068
 30
0.0
 10
4.8766470939
 20
4.6246645259
 30
0.0
 10
4.8748232162
 20
4.6252189887
 30
0.0
 10
4.8729732076
 20
4.625678335
 30
0.0
 10
4.8711018532
 20
4.626041111
 30
0.0
 10
4.869213915
 20
4.6263062874
 30
0.0
 10
4.8666827369
 20
4.6265280183
 30
0.0
 10
4.8647732746
 20
4.62654557
 30
0.0
 10
4.8635047961
 20
4.6264905844
 30
0.0
  0
SPLINE
  5
45E
100
AcDbEntity
  8
ALL_ASSEMBLY_MEMBERS
100
AcDbSpline
 62
7
  6
CONTINUOUS
 70
0
 71
3
 72
45
 73
41
 74
0
 42
0.0000001
 43
0.0000001
 44
0.0000000001
 40
0.0
 40
0.0
 40
0.0
 40
0.0
 40
0.0312443913
 40
0.0625045778
 40
0.0937586114
 40
0.1250086056
 40
0.1562602379
 40
0.1875121543
 40
0.2187631937
 40
0.2500136699
 40
0.2812644036
 40
0.3125149675
 40
0.3281429587
 40
0.3437708426
 40
0.3750207752
 40
0.3906483796
 40
0.4062758482
 40
0.4219032039
 40
0.4375305859
 40
0.4687797469
 40
0.500028972
 40
0.5312782965
 40
0.5625275099
 40
0.5937763633
 40
0.6250247555
 40
0.640651642
 40
0.656278377
 40
0.6875259544
 40
0.7187732236
 40
0.7343998672
 40
0.7500264502
 40
0.7812731576
 40
0.8125195071
 40
0.8281456401
 40
0.8437719521
 40
0.8750179404
 40
0.9062617073
 40
0.9375079568
 40
0.968762097
 40
1.0
 40
1.0
 40
1.0
 40
1.0
 10
4.8635047961
 20
4.6264905844
 30
0.0
 10
4.8626341536
 20
4.6264528441
 30
0.0
 10
4.8608945069
 20
4.6263144471
 30
0.0
 10
4.8583072018
 20
4.6259196085
 30
0.0
 10
4.8557550143
 20
4.6253382016
 30
0.0
 10
4.8532519958
 20
4.6245732126
 30
0.0
 10
4.8508114308
 20
4.6236278234
 30
0.0
 10
4.8484463199
 20
4.6225068416
 30
0.0
 10
4.8461698703
 20
4.6212153218
 30
0.0
 10
4.8439944739
 20
4.6197600245
 30
0.0
 10
4.8419325188
 20
4.6181481209
 30
0.0
 10
4.8403180547
 20
4.6166812461
 30
0.0
 10
4.8390948832
 20
4.6154384351
 30
0.0
 10
4.8379187758
 20
4.6141510719
 30
0.0
 10
4.836815473
 20
4.6127987095
 30
0.0
 10
4.8357908064
 20
4.6113878659
 30
0.0
 10
4.8350623316
 20
4.6103015565
 30
0.0
 10
4.8343751398
 20
4.6091886839
 30
0.0
 10
4.8335155287
 20
4.6076716188
 30
0.0
 10
4.832548956
 20
4.6057161429
 30
0.0
 10
4.8315698822
 20
4.6032889434
 30
0.0
 10
4.8307774341
 20
4.6007944742
 30
0.0
 10
4.830177143
 20
4.5982469196
 30
0.0
 10
4.8297728734
 20
4.5956610852
 30
0.0
 10
4.8296021533
 20
4.5934864262
 30
0.0
 10
4.8295660892
 20
4.5917431404
 30
0.0
 10
4.8295971594
 20
4.5899997704
 30
0.0
 10
4.829762339
 20
4.5878247821
 30
0.0
 10
4.8300952431
 20
4.5856690637
 30
0.0
 10
4.8304614936
 20
4.5839643291
 30
0.0
 10
4.8308937713
 20
4.5822751487
 30
0.0
 10
4.8315571932
 20
4.5801972327
 30
0.0
 10
4.832381355
 20
4.5781776679
 30
0.0
 10
4.8331340513
 20
4.5766049072
 30
0.0
 10
4.8339481902
 20
4.5750630782
 30
0.0
 10
4.8350789174
 20
4.5731977757
 30
0.0
 10
4.836608499
 20
4.5710741561
 30
0.0
 10
4.8383021457
 20
4.5690784263
 30
0.0
 10
4.8401495225
 20
4.5672245735
 30
0.0
 10
4.8414762397
 20
4.5660907163
 30
0.0
 10
4.8421608546
 20
4.5655518011
 30
0.0
  0
SPLINE
  5
45F
100
AcDbEntity
  8
ALL_ASSEMBLY_MEMBERS
100
AcDbSpline
 62
7
  6
CONTINUOUS
 70
0
 71
3
 72
24
 73
20
 74
0
 42
0.0000001
 43
0.0000001
 44
0.0000000001
 40
0.0
 40
0.0
 40
0.0
 40
0.0
 40
0.0626170546
 40
0.1252212681
 40
0.1878152185
 40
0.2503950845
 40
0.3129592023
 40
0.3755076974
 40
0.4380403551
 40
0.5005561654
 40
0.5630542902
 40
0.6255337222
 40
0.6879939315
 40
0.7504352941
 40
0.7816540176
 40
0.8128660159
 40
0.8752582138
 40
0.9376332499
 40
1.0
 40
1.0
 40
1.0
 40
1.0
 10
4.8481727771
 20
4.5532873817
 30
0.0
 10
4.8490496176
 20
4.553065342
 30
0.0
 10
4.8508189904
 20
4.5526814031
 30
0.0
 10
4.853505947
 20
4.5522912814
 30
0.0
 10
4.8562132652
 20
4.5520902907
 30
0.0
 10
4.8589274565
 20
4.5520816202
 30
0.0
 10
4.8616347099
 20
4.5522671867
 30
0.0
 10
4.8643208069
 20
4.5526481132
 30
0.0
 10
4.8669712145
 20
4.553224368
 30
0.0
 10
4.8695710569
 20
4.5539950267
 30
0.0
 10
4.8721052585
 20
4.5549578553
 30
0.0
 10
4.8745585631
 20
4.5561096392
 30
0.0
 10
4.8769156415
 20
4.5574456618
 30
0.0
 10
4.8787873338
 20
4.558708187
 30
0.0
 10
4.8802209427
 20
4.5598036088
 30
0.0
 10
4.8816095761
 20
4.5609543876
 30
0.0
 10
4.8832572493
 20
4.5624951272
 30
0.0
 10
4.885078121
 20
4.5644967914
 30
0.0
 10
4.8861787475
 20
4.5659265998
 30
0.0
 10
4.886698209
 20
4.5666626587
 30
0.0
  0
SPLINE
  5
460
100
AcDbEntity
  8
ALL_ASSEMBLY_MEMBERS
100
AcDbSpline
 62
7
  6
CONTINUOUS
 70
0
 71
3
 72
20
 73
16
 74
0
 42
0.0000001
 43
0.0000001
 44
0.0000000001
 40
0.0
 40
0.0
 40
0.0
 40
0.0
 40
0.0161728331
 40
0.0258036186
 40
0.0369209756
 40
0.0643334836
 40
0.0992315881
 40
0.1417947005
 40
0.1919721843
 40
0.2494665808
 40
0.313814204
 40
0.4610154349
 40
0.6286948361
 40
0.8109417894
 40
1.0
 40
1.0
 40
1.0
 40
1.0
 10
5.8667998014
 20
4.11180817
 30
0.0
 10
5.8667997998
 20
4.1118467223
 30
0.0
 10
5.8667789142
 20
4.1119084976
 30
0.0
 10
5.8667255381
 20
4.1119785614
 30
0.0
 10
5.8666419649
 20
4.112058014
 30
0.0
 10
5.8664934346
 20
4.1121528226
 30
0.0
 10
5.8662662914
 20
4.1122579905
 30
0.0
 10
5.8659793489
 20
4.1123602279
 30
0.0
 10
5.86563475
 20
4.1124583153
 30
0.0
 10
5.8652352175
 20
4.1125512035
 30
0.0
 10
5.8646052782
 20
4.1126722239
 30
0.0
 10
5.8637096392
 20
4.1127986949
 30
0.0
 10
5.8625294541
 20
4.1129093241
 30
0.0
 10
5.8612461582
 20
4.1129777353
 30
0.0
 10
5.860360979
 20
4.1129934412
 30
0.0
 10
5.8599103079
 20
4.1129934412
 30
0.0
  0
SPLINE
  5
461
100
AcDbEntity
  8
ALL_ASSEMBLY_MEMBERS
100
AcDbSpline
 62
7
  6
CONTINUOUS
 70
0
 71
3
 72
23
 73
19
 74
0
 42
0.0000001
 43
0.0000001
 44
0.0000000001
 40
0.0
 40
0.0
 40
0.0
 40
0.0
 40
0.0078034152
 40
0.0161641464
 40
0.0256081261
 40
0.0365034451
 40
0.0490751587
 40
0.0634558353
 40
0.0979038589
 40
0.1401458142
 40
0.1900907423
 40
0.247437934
 40
0.3118120388
 40
0.3826710245
 40
0.459367591
 40
0.6275128975
 40
0.8101911166
 40
1.0
 40
1.0
 40
1.0
 40
1.0
 10
5.8766423682
 20
4.1118081934
 30
0.0
 10
5.87664237
 20
4.1117632364
 30
0.0
 10
5.8766280326
 20
4.1116695996
 30
0.0
 10
5.8765648961
 20
4.1115345366
 30
0.0
 10
5.8764620815
 20
4.1114036423
 30
0.0
 10
5.8763205802
 20
4.111276425
 30
0.0
 10
5.876140853
 20
4.1111521893
 30
0.0
 10
5.8758314113
 20
4.1109799449
 30
0.0
 10
5.8753452863
 20
4.1107786616
 30
0.0
 10
5.8746480101
 20
4.1105622802
 30
0.0
 10
5.8738100451
 20
4.110360258
 30
0.0
 10
5.8728385331
 20
4.1101737315
 30
0.0
 10
5.871741821
 20
4.1100044961
 30
0.0
 10
5.8705301125
 20
4.1098533004
 30
0.0
 10
5.8687203017
 20
4.1096711792
 30
0.0
 10
5.8662626126
 20
4.109500365
 30
0.0
 10
5.8631499212
 20
4.1093795238
 30
0.0
 10
5.8610038341
 20
4.1093526367
 30
0.0
 10
5.8599103079
 20
4.1093526367
 30
0.0
  0
SPLINE
  5
462
100
AcDbEntity
  8
ALL_ASSEMBLY_MEMBERS
100
AcDbSpline
 62
7
  6
CONTINUOUS
 70
0
 71
3
 72
20
 73
16
 74
0
 42
0.0000001
 43
0.0000001
 44
0.0000000001
 40
0.0
 40
0.0
 40
0.0
 40
0.0
 40
0.189057575
 40
0.3713042276
 40
0.5389848736
 40
0.6861864316
 40
0.7505333508
 40
0.8080268943
 40
0.8582038084
 40
0.9007670648
 40
0.9356657355
 40
0.9630788201
 40
0.9741963456
 40
0.9838271894
 40
1.0
 40
1.0
 40
1.0
 40
1.0
 10
5.8599103079
 20
4.1129934412
 30
0.0
 10
5.8594596383
 20
4.1129934412
 30
0.0
 10
5.8585744613
 20
4.1129777362
 30
0.0
 10
5.8572911647
 20
4.1129093242
 30
0.0
 10
5.8561109767
 20
4.1127986935
 30
0.0
 10
5.8552153354
 20
4.1126722244
 30
0.0
 10
5.8545853989
 20
4.1125512051
 30
0.0
 10
5.8541858713
 20
4.1124583178
 30
0.0
 10
5.8538412757
 20
4.1123602301
 30
0.0
 10
5.8535543331
 20
4.1122579922
 30
0.0
 10
5.8533271867
 20
4.1121528238
 30
0.0
 10
5.853178653
 20
4.1120580149
 30
0.0
 10
5.8530950775
 20
4.1119785618
 30
0.0
 10
5.8530417008
 20
4.1119084979
 30
0.0
 10
5.8530208155
 20
4.1118467222
 30
0.0
 10
5.8530208143
 20
4.11180817
 30
0.0
  0
SPLINE
  5
463
100
AcDbEntity
  8
ALL_ASSEMBLY_MEMBERS
100
AcDbSpline
 62
7
  6
CONTINUOUS
 70
0
 71
3
 72
23
 73
19
 74
0
 42
0.0000001
 43
0.0000001
 44
0.0000000001
 40
0.0
 40
0.0
 40
0.0
 40
0.0
 40
0.1898090382
 40
0.3724871401
 40
0.5406320978
 40
0.6173287805
 40
0.6881879839
 40
0.752562232
 40
0.8099093563
 40
0.859854115
 40
0.9020959549
 40
0.9365440101
 40
0.9509247321
 40
0.9634964936
 40
0.9743918508
 40
0.9838358491
 40
0.9921965845
 40
1.0
 40
1.0
 40
1.0
 40
1.0
 10
5.8599103079
 20
4.1093526367
 30
0.0
 10
5.8588167808
 20
4.1093526367
 30
0.0
 10
5.8566706935
 20
4.1093795242
 30
0.0
 10
5.8535580039
 20
4.1095003646
 30
0.0
 10
5.8511003168
 20
4.1096711789
 30
0.0
 10
5.8492905062
 20
4.1098533006
 30
0.0
 10
5.848078795
 20
4.1100044966
 30
0.0
 10
5.8469820811
 20
4.1101737315
 30
0.0
 10
5.8460105695
 20
4.1103602576
 30
0.0
 10
5.8451726065
 20
4.1105622794
 30
0.0
 10
5.8444753319
 20
4.1107786611
 30
0.0
 10
5.8439892072
 20
4.1109799444
 30
0.0
 10
5.8436797647
 20
4.1111521888
 30
0.0
 10
5.8435000367
 20
4.1112764246
 30
0.0
 10
5.8433585346
 20
4.1114036419
 30
0.0
 10
5.8432557195
 20
4.1115345364
 30
0.0
 10
5.843192583
 20
4.1116695996
 30
0.0
 10
5.8431782457
 20
4.1117632364
 30
0.0
 10
5.8431782476
 20
4.1118081934
 30
0.0
  0
LINE
  5
464
100
AcDbEntity
  8
ALL_ASSEMBLY_MEMBERS
100
AcDbLine
 62
7
  6
CONTINUOUS
 10
5.8599103079
 20
4.1148650676
 11
5.8675205793
 21
4.1145009184
  0
SPLINE
  5
465
100
AcDbEntity
  8
ALL_ASSEMBLY_MEMBERS
100
AcDbSpline
 62
7
  6
CONTINUOUS
 70
0
 71
3
 72
19
 73
15
 74
0
 42
0.0000001
 43
0.0000001
 44
0.0000000001
 40
0.0
 40
0.0
 40
0.0
 40
0.0
 40
0.20355588
 40
0.388916636
 40
0.5529760947
 40
0.6930837406
 40
0.7535900277
 40
0.8074763989
 40
0.8546516999
 40
0.8951680966
 40
0.9292150896
 40
0.95723513
 40
0.9801956094
 40
1.0
 40
1.0
 40
1.0
 40
1.0
 10
5.8675205793
 20
4.1145009184
 30
0.0
 10
5.8681814294
 20
4.1144344811
 30
0.0
 10
5.8694422036
 20
4.1142877763
 30
0.0
 10
5.8712260247
 20
4.1140135098
 30
0.0
 10
5.8727932895
 20
4.1137026023
 30
0.0
 10
5.8739470049
 20
4.1134074102
 30
0.0
 10
5.8747380113
 20
4.1131538624
 30
0.0
 10
5.875232023
 20
4.1129691136
 30
0.0
 10
5.8756545145
 20
4.1127814148
 30
0.0
 10
5.8760041869
 20
4.112591835
 30
0.0
 10
5.8762803596
 20
4.1124011499
 30
0.0
 10
5.8764827148
 20
4.1122090434
 30
0.0
 10
5.8766106955
 20
4.1120131251
 30
0.0
 10
5.8766423656
 20
4.1118728131
 30
0.0
 10
5.8766423682
 20
4.1118081934
 30
0.0
  0
SPLINE
  5
466
100
AcDbEntity
  8
ALL_ASSEMBLY_MEMBERS
100
AcDbSpline
 62
7
  6
CONTINUOUS
 70
0
 71
3
 72
18
 73
14
 74
0
 42
0.0000001
 43
0.0000001
 44
0.0000000001
 40
0.0
 40
0.0
 40
0.0
 40
0.0
 40
0.0196331412
 40
0.0421488034
 40
0.0696179638
 40
0.1031481057
 40
0.143227933
 40
0.1900563012
 40
0.3040558468
 40
0.4444578624
 40
0.6090795544
 40
0.7953332078
 40
1.0
 40
1.0
 40
1.0
 40
1.0
 10
5.8530208143
 20
4.11180817
 30
0.0
 10
5.8530208134
 20
4.111781648
 30
0.0
 10
5.8530337623
 20
4.1117243062
 30
0.0
 10
5.8530872953
 20
4.1116452799
 30
0.0
 10
5.8531719784
 20
4.1115696572
 30
0.0
 10
5.8532875806
 20
4.1114962504
 30
0.0
 10
5.8534339316
 20
4.1114246482
 30
0.0
 10
5.8536867208
 20
4.1113252915
 30
0.0
 10
5.8540784114
 20
4.111212298
 30
0.0
 10
5.8546323905
 20
4.1110949013
 30
0.0
 10
5.8552880195
 20
4.1109904258
 30
0.0
 10
5.8560333011
 20
4.1109011988
 30
0.0
 10
5.8565594267
 20
4.1108547539
 30
0.0
 10
5.8568351212
 20
4.1108339245
 30
0.0
  0
LINE
  5
467
100
AcDbEntity
  8
ALL_ASSEMBLY_MEMBERS
100
AcDbLine
 62
7
  6
CONTINUOUS
 10
5.8568351212
 20
4.1108339245
 11
5.8599103079
 21
4.110724802
  0
SPLINE
  5
468
100
AcDbEntity
  8
ALL_ASSEMBLY_MEMBERS
100
AcDbSpline
 62
7
  6
CONTINUOUS
 70
0
 71
3
 72
23
 73
19
 74
0
 42
0.0000001
 43
0.0000001
 44
0.0000000001
 40
0.0
 40
0.0
 40
0.0
 40
0.0
 40
0.0078812127
 40
0.0164536615
 40
0.0261985843
 40
0.0374419714
 40
0.0503770288
 40
0.0651150352
 40
0.1002079959
 40
0.1429471231
 40
0.1932146859
 40
0.2507048315
 40
0.3150490248
 40
0.385731092
 40
0.4621336633
 40
0.6294611839
 40
0.8111746924
 40
1.0
 40
1.0
 40
1.0
 40
1.0
 10
5.876642366
 20
4.1143081009
 30
0.0
 10
5.8766423636
 20
4.1143538578
 30
0.0
 10
5.8766275934
 20
4.1144498203
 30
0.0
 10
5.8765642941
 20
4.1145896741
 30
0.0
 10
5.8764614913
 20
4.1147283303
 30
0.0
 10
5.876319985
 20
4.1148661932
 30
0.0
 10
5.8761402138
 20
4.1150037221
 30
0.0
 10
5.8758314194
 20
4.1151979319
 30
0.0
 10
5.8753464608
 20
4.1154328251
 30
0.0
 10
5.8746501637
 20
4.1156956843
 30
0.0
 10
5.8738138485
 20
4.115950477
 30
0.0
 10
5.8728444963
 20
4.1161940915
 30
0.0
 10
5.8717501735
 20
4.1164227993
 30
0.0
 10
5.8705407034
 20
4.1166336549
 30
0.0
 10
5.8687338715
 20
4.1168949366
 30
0.0
 10
5.8662760587
 20
4.1171509962
 30
0.0
 10
5.8631581394
 20
4.1173385293
 30
0.0
 10
5.8610065922
 20
4.1173811395
 30
0.0
 10
5.8599103079
 20
4.1173811395
 30
0.0
  0
SPLINE
  5
469
100
AcDbEntity
  8
ALL_ASSEMBLY_MEMBERS
100
AcDbSpline
 62
7
  6
CONTINUOUS
 70
0
 71
3
 72
19
 73
15
 74
0
 42
0.0000001
 43
0.0000001
 44
0.0000000001
 40
0.0
 40
0.0
 40
0.0
 40
0.0
 40
0.0198049523
 40
0.0427658196
 40
0.0707860016
 40
0.1048329554
 40
0.1453492186
 40
0.1925243779
 40
0.2464106673
 40
0.3069168988
 40
0.4470242174
 40
0.6110828505
 40
0.7964431978
 40
1.0
 40
1.0
 40
1.0
 40
1.0
 10
5.8431782476
 20
4.1118081934
 30
0.0
 10
5.8431782504
 20
4.1118728102
 30
0.0
 10
5.8432099174
 20
4.1120131151
 30
0.0
 10
5.8433378864
 20
4.1122090249
 30
0.0
 10
5.8435402233
 20
4.1124011234
 30
0.0
 10
5.8438163719
 20
4.1125918005
 30
0.0
 10
5.8441660145
 20
4.1127813724
 30
0.0
 10
5.8445884711
 20
4.1129690638
 30
0.0
 10
5.8450824434
 20
4.113153806
 30
0.0
 10
5.8458733873
 20
4.1134073455
 30
0.0
 10
5.8470270111
 20
4.1137025299
 30
0.0
 10
5.848594153
 20
4.1140134329
 30
0.0
 10
5.8503778402
 20
4.1142876986
 30
0.0
 10
5.8516385226
 20
4.1144344065
 30
0.0
 10
5.8522993268
 20
4.1145008468
 30
0.0
  0
LINE
  5
46A
100
AcDbEntity
  8
ALL_ASSEMBLY_MEMBERS
100
AcDbLine
 62
7
  6
CONTINUOUS
 10
5.8522993268
 20
4.1145008468
 11
5.8599103079
 21
4.1148650676
  0
LINE
  5
46B
100
AcDbEntity
  8
ALL_ASSEMBLY_MEMBERS
100
AcDbLine
 62
7
  6
CONTINUOUS
 10
5.8607007925
 20
4.1107316825
 11
5.8629854203
 21
4.1108339195
  0
SPLINE
  5
46C
100
AcDbEntity
  8
ALL_ASSEMBLY_MEMBERS
100
AcDbSpline
 62
7
  6
CONTINUOUS
 70
0
 71
3
 72
18
 73
14
 74
0
 42
0.0000001
 43
0.0000001
 44
0.0000000001
 40
0.0
 40
0.0
 40
0.0
 40
0.0
 40
0.2046682898
 40
0.3909226323
 40
0.5555427642
 40
0.6959425846
 40
0.8099416072
 40
0.856770528
 40
0.8968510988
 40
0.9303819048
 40
0.9578513979
 40
0.9803670226
 40
1.0
 40
1.0
 40
1.0
 40
1.0
 10
5.8629854203
 20
4.1108339195
 30
0.0
 10
5.8632611219
 20
4.110854749
 30
0.0
 10
5.8637872602
 20
4.1109011941
 30
0.0
 10
5.8645325567
 20
4.1109904197
 30
0.0
 10
5.865188194
 20
4.1110948938
 30
0.0
 10
5.8657421778
 20
4.1112122905
 30
0.0
 10
5.8661338727
 20
4.1113252855
 30
0.0
 10
5.8663866681
 20
4.111424643
 30
0.0
 10
5.8665330248
 20
4.1114962461
 30
0.0
 10
5.8666486322
 20
4.1115696539
 30
0.0
 10
5.8667333191
 20
4.1116452773
 30
0.0
 10
5.8667868539
 20
4.111724305
 30
0.0
 10
5.8667998025
 20
4.1117816477
 30
0.0
 10
5.8667998014
 20
4.11180817
 30
0.0
  0
SPLINE
  5
46D
100
AcDbEntity
  8
ALL_ASSEMBLY_MEMBERS
100
AcDbSpline
 62
7
  6
CONTINUOUS
 70
0
 71
3
 72
23
 73
19
 74
0
 42
0.0000001
 43
0.0000001
 44
0.0000000001
 40
0.0
 40
0.0
 40
0.0
 40
0.0
 40
0.1888229036
 40
0.3705327349
 40
0.5378605567
 40
0.6142646738
 40
0.6849485675
 40
0.7492938873
 40
0.8067841067
 40
0.8570512933
 40
0.899790283
 40
0.9348837029
 40
0.9496220702
 40
0.9625575115
 40
0.9738012536
 40
0.9835463683
 40
0.9921188286
 40
1.0
 40
1.0
 40
1.0
 40
1.0
 10
5.8599103079
 20
4.1173811395
 30
0.0
 10
5.8588140376
 20
4.1173811395
 30
0.0
 10
5.8566625256
 20
4.117338534
 30
0.0
 10
5.85354464
 20
4.1171510014
 30
0.0
 10
5.8510868373
 20
4.1168949484
 30
0.0
 10
5.8492799843
 20
4.1166336629
 30
0.0
 10
5.8480704881
 20
4.1164228061
 30
0.0
 10
5.8469761472
 20
4.116194099
 30
0.0
 10
5.8460067896
 20
4.1159504863
 30
0.0
 10
5.8451704766
 20
4.115695695
 30
0.0
 10
5.8444741803
 20
4.1154328343
 30
0.0
 10
5.8439892183
 20
4.1151979392
 30
0.0
 10
5.843680417
 20
4.1150037273
 30
0.0
 10
5.8435006395
 20
4.1148661964
 30
0.0
 10
5.8433591268
 20
4.1147283324
 30
0.0
 10
5.8432563194
 20
4.1145896753
 30
0.0
 10
5.8431930201
 20
4.1144498202
 30
0.0
 10
5.8431782516
 20
4.1143538575
 30
0.0
 10
5.84317825
 20
4.1143081009
 30
0.0
  0
SPLINE
  5
46E
100
AcDbEntity
  8
ALL_ASSEMBLY_MEMBERS
100
AcDbSpline
 62
7
  6
CONTINUOUS
 70
0
 71
3
 72
15
 73
11
 74
0
 42
0.0000001
 43
0.0000001
 44
0.0000000001
 40
0.0
 40
0.0
 40
0.0
 40
0.0
 40
0.0414433687
 40
0.1545443019
 40
0.3155767614
 40
0.4999968917
 40
0.6844178382
 40
0.8454508257
 40
0.9585536103
 40
1.0
 40
1.0
 40
1.0
 40
1.0
 10
5.4885047961
 20
5.0751203416
 30
0.0
 10
5.4861058196
 20
5.0747536692
 30
0.0
 10
5.4771517422
 20
5.0734387872
 30
0.0
 10
5.4588096912
 20
5.0711598992
 30
0.0
 10
5.4320383154
 20
5.068941866
 30
0.0
 10
5.4010052946
 20
5.0680396957
 30
0.0
 10
5.3699722408
 20
5.0689418059
 30
0.0
 10
5.3432006747
 20
5.0711598118
 30
0.0
 10
5.3248583075
 20
5.0734387212
 30
0.0
 10
5.3159039474
 20
5.0747536422
 30
0.0
 10
5.3135047961
 20
5.0751203416
 30
0.0
  0
LINE
  5
46F
100
AcDbEntity
  8
ALL_ASSEMBLY_MEMBERS
100
AcDbLine
 62
7
  6
CONTINUOUS
 10
4.8432099188
 20
4.4114910552
 11
4.8410587226
 21
4.4109532487
  0
LINE
  5
470
100
AcDbEntity
  8
ALL_ASSEMBLY_MEMBERS
100
AcDbLine
 62
7
  6
CONTINUOUS
 10
4.832903854
 20
4.4088902304
 11
4.8308952374
 21
4.4083768895
  0
SPLINE
  5
471
100
AcDbEntity
  8
ALL_ASSEMBLY_MEMBERS
100
AcDbSpline
 62
7
  6
CONTINUOUS
 70
0
 71
3
 72
11
 73
7
 74
0
 42
0.0000001
 43
0.0000001
 44
0.0000000001
 40
0.0
 40
0.0
 40
0.0
 40
0.0
 40
0.2482546559
 40
0.4980135016
 40
0.7488020956
 40
1.0
 40
1.0
 40
1.0
 40
1.0
 10
4.8220702727
 20
4.5631207622
 30
0.0
 10
4.8216671276
 20
4.5653284764
 30
0.0
 10
4.8209671846
 20
4.5697782814
 30
0.0
 10
4.820306155
 20
4.576519452
 30
0.0
 10
4.8200892323
 20
4.5833168721
 30
0.0
 10
4.8202671058
 20
4.5878561093
 30
0.0
 10
4.8204400552
 20
4.5901203416
 30
0.0
  0
LINE
  5
472
100
AcDbEntity
  8
ALL_ASSEMBLY_MEMBERS
100
AcDbLine
 62
7
  6
CONTINUOUS
 10
4.857327573
 20
4.5410526442
 11
4.8510493275
 21
4.5510580669
  0
LINE
  5
473
100
AcDbEntity
  8
ALL_ASSEMBLY_MEMBERS
100
AcDbLine
 62
7
  6
CONTINUOUS
 10
4.8428091823
 20
4.4130929846
 11
4.8663678254
 21
4.4192219836
  0
LINE
  5
474
100
AcDbEntity
  8
ALL_ASSEMBLY_MEMBERS
100
AcDbLine
 62
7
  6
CONTINUOUS
 10
4.8237037033
 20
4.4041639112
 11
4.8308742674
 21
4.4084698193
  0
LINE
  5
475
100
AcDbEntity
  8
ALL_ASSEMBLY_MEMBERS
100
AcDbLine
 62
7
  6
CONTINUOUS
 10
4.8886484667
 20
4.4115880078
 11
4.8934714839
 21
4.4074184528
  0
SPLINE
  5
476
100
AcDbEntity
  8
ALL_ASSEMBLY_MEMBERS
100
AcDbSpline
 62
7
  6
CONTINUOUS
 70
0
 71
3
 72
9
 73
5
 74
0
 42
0.0000001
 43
0.0000001
 44
0.0000000001
 40
0.0
 40
0.0
 40
0.0
 40
0.0
 40
0.2378077812
 40
1.0
 40
1.0
 40
1.0
 40
1.0
 10
4.8693516588
 20
4.4194040352
 30
0.0
 10
4.870280767
 20
4.4190238901
 30
0.0
 10
4.8742042546
 20
4.4174658589
 30
0.0
 10
4.8781903458
 20
4.4160668473
 30
0.0
 10
4.8812525772
 20
4.4150794807
 30
0.0
  0
LINE
  5
477
100
AcDbEntity
  8
ALL_ASSEMBLY_MEMBERS
100
AcDbLine
 62
7
  6
CONTINUOUS
 10
4.8832331671
 20
4.5541788422
 11
4.8767867425
 21
4.542482259
  0
SPLINE
  5
478
100
AcDbEntity
  8
ALL_ASSEMBLY_MEMBERS
100
AcDbSpline
 62
7
  6
CONTINUOUS
 70
0
 71
3
 72
9
 73
5
 74
0
 42
0.0000001
 43
0.0000001
 44
0.0000000001
 40
0.0
 40
0.0
 40
0.0
 40
0.0
 40
0.5013233663
 40
1.0
 40
1.0
 40
1.0
 40
1.0
 10
4.8204400552
 20
4.5901203416
 30
0.0
 10
4.8206768387
 20
4.5932202818
 30
0.0
 10
4.8214640477
 20
4.599383985
 30
0.0
 10
4.8228665549
 20
4.605435948
 30
0.0
 10
4.8237037033
 20
4.6084130418
 30
0.0
  0
SPLINE
  5
479
100
AcDbEntity
  8
ALL_ASSEMBLY_MEMBERS
100
AcDbSpline
 62
7
  6
CONTINUOUS
 70
0
 71
3
 72
9
 73
5
 74
0
 42
0.0000001
 43
0.0000001
 44
0.0000000001
 40
0.0
 40
0.0
 40
0.0
 40
0.0
 40
0.5033211914
 40
1.0
 40
1.0
 40
1.0
 40
1.0
 10
4.8237037033
 20
4.6084130418
 30
0.0
 10
4.8246212624
 20
4.6116760949
 30
0.0
 10
4.8267756169
 20
4.6180691613
 30
0.0
 10
4.8294554967
 20
4.6242536936
 30
0.0
 10
4.8308742674
 20
4.6272827638
 30
0.0
  0
SPLINE
  5
47A
100
AcDbEntity
  8
ALL_ASSEMBLY_MEMBERS
100
AcDbSpline
 62
7
  6
CONTINUOUS
 70
0
 71
3
 72
9
 73
5
 74
0
 42
0.0000001
 43
0.0000001
 44
0.0000000001
 40
0.0
 40
0.0
 40
0.0
 40
0.0
 40
0.4963571505
 40
1.0
 40
1.0
 40
1.0
 40
1.0
 10
4.8886484667
 20
4.6327066405
 30
0.0
 10
4.8895184678
 20
4.6303148188
 30
0.0
 10
4.8912428706
 20
4.6254855636
 30
0.0
 10
4.8927791618
 20
4.6205903998
 30
0.0
 10
4.8934714839
 20
4.6181024362
 30
0.0
  0
SPLINE
  5
47B
100
AcDbEntity
  8
ALL_ASSEMBLY_MEMBERS
100
AcDbSpline
 62
7
  6
CONTINUOUS
 70
0
 71
3
 72
18
 73
14
 74
0
 42
0.0000001
 43
0.0000001
 44
0.0000000001
 40
0.0
 40
0.0
 40
0.0
 40
0.0
 40
0.0143059277
 40
0.0354158805
 40
0.0633605752
 40
0.0981090875
 40
0.13959455
 40
0.1877487235
 40
0.3037712188
 40
0.4451087493
 40
0.6101288386
 40
0.7964449303
 40
1.0
 40
1.0
 40
1.0
 40
1.0
 10
4.9125541725
 20
4.4026818759
 30
0.0
 10
4.9124805942
 20
4.4026845085
 30
0.0
 10
4.9122988987
 20
4.4027008641
 30
0.0
 10
4.9119752579
 20
4.4027404469
 30
0.0
 10
4.9115482956
 20
4.4028017395
 30
0.0
 10
4.9110186583
 20
4.4028850969
 30
0.0
 10
4.9103873823
 20
4.4029914813
 30
0.0
 10
4.9093452706
 20
4.4031767298
 30
0.0
 10
4.9078005876
 20
4.4034706048
 30
0.0
 10
4.9056707302
 20
4.4039056804
 30
0.0
 10
4.9031937842
 20
4.4044480571
 30
0.0
 10
4.9004131253
 20
4.4050990342
 30
0.0
 10
4.8984666219
 20
4.4055863439
 30
0.0
 10
4.8974525177
 20
4.4058491154
 30
0.0
  0
LINE
  5
47C
100
AcDbEntity
  8
ALL_ASSEMBLY_MEMBERS
100
AcDbLine
 62
7
  6
CONTINUOUS
 10
4.8204400813
 20
4.4026660376
 11
4.8237037033
 21
4.4041639112
  0
SPLINE
  5
47D
100
AcDbEntity
  8
ALL_ASSEMBLY_MEMBERS
100
AcDbSpline
 62
7
  6
CONTINUOUS
 70
0
 71
3
 72
15
 73
11
 74
0
 42
0.0000001
 43
0.0000001
 44
0.0000000001
 40
0.0
 40
0.0
 40
0.0
 40
0.0
 40
0.0939542968
 40
0.192772079
 40
0.2991827237
 40
0.415280355
 40
0.5425925933
 40
0.6821357819
 40
0.8345015326
 40
1.0
 40
1.0
 40
1.0
 40
1.0
 10
4.1622518949
 20
4.3823215792
 30
0.0
 10
4.1622495393
 20
4.382596322
 30
0.0
 10
4.1623048863
 20
4.3831619335
 30
0.0
 10
4.1625580484
 20
4.3840041657
 30
0.0
 10
4.1629778949
 20
4.3848491358
 30
0.0
 10
4.1635609616
 20
4.3856932246
 30
0.0
 10
4.164304892
 20
4.386533287
 30
0.0
 10
4.1652062352
 20
4.3873667235
 30
0.0
 10
4.16626102
 20
4.3881912998
 30
0.0
 10
4.1670321378
 20
4.388711697
 30
0.0
 10
4.1674409107
 20
4.3889707973
 30
0.0
  0
SPLINE
  5
47E
100
AcDbEntity
  8
ALL_ASSEMBLY_MEMBERS
100
AcDbSpline
 62
7
  6
CONTINUOUS
 70
0
 71
3
 72
9
 73
5
 74
0
 42
0.0000001
 43
0.0000001
 44
0.0000000001
 40
0.0
 40
0.0
 40
0.0
 40
0.0
 40
0.2459842992
 40
1.0
 40
1.0
 40
1.0
 40
1.0
 10
4.1624640214
 20
4.431175417
 30
0.0
 10
4.163408821
 20
4.4225388312
 30
0.0
 10
4.1675348926
 20
4.3874600303
 30
0.0
 10
4.1727761936
 20
4.3525146133
 30
0.0
 10
4.1772794351
 20
4.3262664435
 30
0.0
  0
LINE
  5
47F
100
AcDbEntity
  8
ALL_ASSEMBLY_MEMBERS
100
AcDbLine
 62
7
  6
CONTINUOUS
 10
4.1772794351
 20
4.3262664435
 11
4.1773074334
 21
4.3261033464
  0
SPLINE
  5
480
100
AcDbEntity
  8
ALL_ASSEMBLY_MEMBERS
100
AcDbSpline
 62
7
  6
CONTINUOUS
 70
0
 71
3
 72
19
 73
15
 74
0
 42
0.0000001
 43
0.0000001
 44
0.0000000001
 40
0.0
 40
0.0
 40
0.0
 40
0.0
 40
0.0549904894
 40
0.1108540998
 40
0.1676585488
 40
0.2254812017
 40
0.3443375471
 40
0.4676948436
 40
0.5310625296
 40
0.5954854163
 40
0.7271866686
 40
0.8622811234
 40
0.9308962814
 40
1.0
 40
1.0
 40
1.0
 40
1.0
 10
4.1778124268
 20
4.3233299715
 30
0.0
 10
4.1786865432
 20
4.318756326
 30
0.0
 10
4.1808473939
 20
4.3096080805
 30
0.0
 10
4.1852482179
 20
4.2960949629
 30
0.0
 10
4.1908153088
 20
4.2827578248
 30
0.0
 10
4.199830525
 20
4.2651434337
 30
0.0
 10
4.2139428567
 20
4.24390131
 30
0.0
 10
4.231168191
 20
4.2244842458
 30
0.0
 10
4.2467565138
 20
4.2100006893
 30
0.0
 10
4.2637735782
 20
4.1960793949
 30
0.0
 10
4.2870796424
 20
4.1803501408
 30
0.0
 10
4.3123505306
 20
4.1672488313
 30
0.0
 10
4.3336724829
 20
4.1583362228
 30
0.0
 10
4.3446656998
 20
4.1544239846
 30
0.0
 10
4.3502288851
 20
4.1526098918
 30
0.0
  0
SPLINE
  5
481
100
AcDbEntity
  8
ALL_ASSEMBLY_MEMBERS
100
AcDbSpline
 62
7
  6
CONTINUOUS
 70
0
 71
3
 72
18
 73
14
 74
0
 42
0.0000001
 43
0.0000001
 44
0.0000000001
 40
0.0
 40
0.0
 40
0.0
 40
0.0
 40
0.2080983607
 40
0.3931911309
 40
0.5541479114
 40
0.6900009031
 40
0.8003497057
 40
0.8462293373
 40
0.8861978574
 40
0.9206630763
 40
0.9502964534
 40
0.976189544
 40
1.0
 40
1.0
 40
1.0
 40
1.0
 10
4.3502289094
 20
4.1526099461
 30
0.0
 10
4.3501336147
 20
4.1519807273
 30
0.0
 10
4.3499694943
 20
4.1507893106
 30
0.0
 10
4.3497964286
 20
4.1491031322
 30
0.0
 10
4.3497107659
 20
4.1476311748
 30
0.0
 10
4.3497130689
 20
4.1463852811
 30
0.0
 10
4.3497915826
 20
4.145493272
 30
0.0
 10
4.3499090825
 20
4.1449042572
 30
0.0
 10
4.3500140203
 20
4.1445509078
 30
0.0
 10
4.3501412668
 20
4.1442580849
 30
0.0
 10
4.3502918813
 20
4.1440257235
 30
0.0
 10
4.3504677057
 20
4.1438548152
 30
0.0
 10
4.3506052211
 20
4.1437836096
 30
0.0
 10
4.3506744309
 20
4.1437609793
 30
0.0
  0
SPLINE
  5
482
100
AcDbEntity
  8
ALL_ASSEMBLY_MEMBERS
100
AcDbSpline
 62
7
  6
CONTINUOUS
 70
0
 71
3
 72
14
 73
10
 74
0
 42
0.0000001
 43
0.0000001
 44
0.0000000001
 40
0.0
 40
0.0
 40
0.0
 40
0.0
 40
0.2569603753
 40
0.3857142945
 40
0.5135358069
 40
0.6396158332
 40
0.7631887366
 40
0.8835321065
 40
1.0
 40
1.0
 40
1.0
 40
1.0
 10
4.3502288851
 20
4.1526098918
 30
0.0
 10
4.3692174344
 20
4.1464186776
 30
0.0
 10
4.3986151719
 20
4.1396146526
 30
0.0
 10
4.4383576067
 20
4.135594528
 30
0.0
 10
4.468134715
 20
4.135105155
 30
0.0
 10
4.4974396926
 20
4.137124299
 30
0.0
 10
4.5258883211
 20
4.1415834695
 30
0.0
 10
4.5531004475
 20
4.1483770469
 30
0.0
 10
4.5705000557
 20
4.1544814919
 30
0.0
 10
4.5788827774
 20
4.1578988417
 30
0.0
  0
SPLINE
  5
483
100
AcDbEntity
  8
ALL_ASSEMBLY_MEMBERS
100
AcDbSpline
 62
7
  6
CONTINUOUS
 70
0
 71
3
 72
15
 73
11
 74
0
 42
0.0000001
 43
0.0000001
 44
0.0000000001
 40
0.0
 40
0.0
 40
0.0
 40
0.0
 40
0.1251638171
 40
0.2505951064
 40
0.3761155116
 40
0.5016188004
 40
0.6269271283
 40
0.7518567373
 40
0.8762834509
 40
1.0
 40
1.0
 40
1.0
 40
1.0
 10
4.5719744194
 20
4.13967148
 30
0.0
 10
4.5642094269
 20
4.1349420883
 30
0.0
 10
4.5481138578
 20
4.126343762
 30
0.0
 10
4.5226861081
 20
4.1162061803
 30
0.0
 10
4.4962707686
 20
4.1089217261
 30
0.0
 10
4.4692284297
 20
4.1045658238
 30
0.0
 10
4.4419157671
 20
4.1031818152
 30
0.0
 10
4.4146917339
 20
4.1047716897
 30
0.0
 10
4.387921566
 20
4.1093079068
 30
0.0
 10
4.3705469287
 20
4.1142682255
 30
0.0
 10
4.3620569822
 20
4.1172148286
 30
0.0
  0
SPLINE
  5
484
100
AcDbEntity
  8
ALL_ASSEMBLY_MEMBERS
100
AcDbSpline
 62
7
  6
CONTINUOUS
 70
0
 71
3
 72
9
 73
5
 74
0
 42
0.0000001
 43
0.0000001
 44
0.0000000001
 40
0.0
 40
0.0
 40
0.0
 40
0.0
 40
0.4989157904
 40
1.0
 40
1.0
 40
1.0
 40
1.0
 10
4.8428091823
 20
4.635036804
 30
0.0
 10
4.8468022226
 20
4.635177193
 30
0.0
 10
4.8548542131
 20
4.6346506208
 30
0.0
 10
4.8626365905
 20
4.63249709
 30
0.0
 10
4.8663678254
 20
4.6310202568
 30
0.0
  0
SPLINE
  5
485
100
AcDbEntity
  8
ALL_ASSEMBLY_MEMBERS
100
AcDbSpline
 62
7
  6
CONTINUOUS
 70
0
 71
3
 72
15
 73
11
 74
0
 42
0.0000001
 43
0.0000001
 44
0.0000000001
 40
0.0
 40
0.0
 40
0.0
 40
0.0
 40
0.1214984003
 40
0.2456868386
 40
0.3717763999
 40
0.4989643264
 40
0.6263239641
 40
0.7528952243
 40
0.8777750131
 40
1.0
 40
1.0
 40
1.0
 40
1.0
 10
4.5719744194
 20
4.8592810949
 30
0.0
 10
4.5641179223
 20
4.8630094368
 30
0.0
 10
4.547868422
 20
4.8698047077
 30
0.0
 10
4.5224973288
 20
4.8779258267
 30
0.0
 10
4.4961524825
 20
4.8840453686
 30
0.0
 10
4.4691886109
 20
4.8881261754
 30
0.0
 10
4.4419589409
 20
4.8901472167
 30
0.0
 10
4.4148192271
 20
4.8901112265
 30
0.0
 10
4.3881288513
 20
4.888035468
 30
0.0
 10
4.3706347417
 20
4.8852836995
 30
0.0
 10
4.3620569822
 20
4.8835648814
 30
0.0
  0
SPLINE
  5
486
100
AcDbEntity
  8
ALL_ASSEMBLY_MEMBERS
100
AcDbSpline
 62
7
  6
CONTINUOUS
 70
0
 71
3
 72
15
 73
11
 74
0
 42
0.0000001
 43
0.0000001
 44
0.0000000001
 40
0.0
 40
0.0
 40
0.0
 40
0.0
 40
0.1144854884
 40
0.2350151123
 40
0.3600569872
 40
0.4881322531
 40
0.6176927553
 40
0.7471876641
 40
0.875138627
 40
1.0
 40
1.0
 40
1.0
 40
1.0
 10
4.5719744194
 20
4.8319991496
 30
0.0
 10
4.5639712558
 20
4.8328460644
 30
0.0
 10
4.5475059091
 20
4.834253173
 30
0.0
 10
4.5222191332
 20
4.8354667656
 30
0.0
 10
4.4959492557
 20
4.8357699182
 30
0.0
 10
4.4690508554
 20
4.8351112551
 30
0.0
 10
4.4418813511
 20
4.8334589325
 30
0.0
 10
4.4147995741
 20
4.8308058079
 30
0.0
 10
4.388166369
 20
4.8271641339
 30
0.0
 10
4.370663135
 20
4.8240521454
 30
0.0
 10
4.3620569822
 20
4.8223276378
 30
0.0
  0
SPLINE
  5
487
100
AcDbEntity
  8
ALL_ASSEMBLY_MEMBERS
100
AcDbSpline
 62
7
  6
CONTINUOUS
 70
0
 71
3
 72
9
 73
5
 74
0
 42
0.0000001
 43
0.0000001
 44
0.0000000001
 40
0.0
 40
0.0
 40
0.0
 40
0.0
 40
0.2491728923
 40
1.0
 40
1.0
 40
1.0
 40
1.0
 10
4.162251898
 20
4.3795066632
 30
0.0
 10
4.1631995661
 20
4.3680239028
 30
0.0
 10
4.1673071669
 20
4.3219659646
 30
0.0
 10
4.1726257858
 20
4.2760164804
 30
0.0
 10
4.1772794351
 20
4.2416114009
 30
0.0
  0
SPLINE
  5
488
100
AcDbEntity
  8
ALL_ASSEMBLY_MEMBERS
100
AcDbSpline
 62
7
  6
CONTINUOUS
 70
0
 71
3
 72
19
 73
15
 74
0
 42
0.0000001
 43
0.0000001
 44
0.0000000001
 40
0.0
 40
0.0
 40
0.0
 40
0.0
 40
0.1548687643
 40
0.310695876
 40
0.4620449622
 40
0.6038140663
 40
0.6696546176
 40
0.7314313843
 40
0.7887147763
 40
0.8411396652
 40
0.8884678673
 40
0.9306190248
 40
0.9676793124
 40
1.0
 40
1.0
 40
1.0
 40
1.0
 10
4.3620569822
 20
4.8835648814
 30
0.0
 10
4.3629299719
 20
4.8804433757
 30
0.0
 10
4.3644725153
 20
4.8741209711
 30
0.0
 10
4.3661766719
 20
4.8645958947
 30
0.0
 10
4.367237843
 20
4.8552533561
 30
0.0
 10
4.3675641509
 20
4.847739511
 30
0.0
 10
4.3674499591
 20
4.8421009335
 30
0.0
 10
4.3671890671
 20
4.8382382566
 30
0.0
 10
4.3667549471
 20
4.8346735541
 30
0.0
 10
4.3661512334
 20
4.8314401185
 30
0.0
 10
4.3653834012
 20
4.828567606
 30
0.0
 10
4.3644586698
 20
4.8260802828
 30
0.0
 10
4.3633838009
 20
4.8240011033
 30
0.0
 10
4.3625164737
 20
4.8228240727
 30
0.0
 10
4.3620569822
 20
4.8223276378
 30
0.0
  0
LINE
  5
489
100
AcDbEntity
  8
ALL_ASSEMBLY_MEMBERS
100
AcDbLine
 62
7
  6
CONTINUOUS
 10
4.1772794351
 20
4.2416114009
 11
4.1773074334
 21
4.241404483
  0
SPLINE
  5
48A
100
AcDbEntity
  8
ALL_ASSEMBLY_MEMBERS
100
AcDbSpline
 62
7
  6
CONTINUOUS
 70
0
 71
3
 72
18
 73
14
 74
0
 42
0.0000001
 43
0.0000001
 44
0.0000000001
 40
0.0
 40
0.0
 40
0.0
 40
0.0
 40
0.0766423591
 40
0.1519037777
 40
0.2974646669
 40
0.4355653481
 40
0.5015952982
 40
0.5654965562
 40
0.6272151333
 40
0.6867312336
 40
0.7991388091
 40
0.9032375854
 40
1.0
 40
1.0
 40
1.0
 40
1.0
 10
4.3620569822
 20
4.8835648814
 30
0.0
 10
4.3573488365
 20
4.8826214595
 30
0.0
 10
4.3480518913
 20
4.8805728798
 30
0.0
 10
4.3300203431
 20
4.8758483749
 30
0.0
 10
4.3086241123
 20
4.868840978
 30
0.0
 10
4.2884495924
 20
4.8602113476
 30
0.0
 10
4.273533736
 20
4.8524836326
 30
0.0
 10
4.2631656428
 20
4.8464167152
 30
0.0
 10
4.2534850723
 20
4.8400151367
 30
0.0
 10
4.2417620245
 20
4.8312392869
 30
0.0
 10
4.228884781
 20
4.8196126778
 30
0.0
 10
4.2163084368
 20
4.804451601
 30
0.0
 10
4.2099535875
 20
4.7934967854
 30
0.0
 10
4.2074392675
 20
4.7879804938
 30
0.0
  0
SPLINE
  5
48B
100
AcDbEntity
  8
ALL_ASSEMBLY_MEMBERS
100
AcDbSpline
 62
7
  6
CONTINUOUS
 70
0
 71
3
 72
22
 73
18
 74
0
 42
0.0000001
 43
0.0000001
 44
0.0000000001
 40
0.0
 40
0.0
 40
0.0
 40
0.0
 40
0.0620931437
 40
0.124257713
 40
0.1864960721
 40
0.2488132304
 40
0.3112056145
 40
0.3736627421
 40
0.4361754958
 40
0.4987374534
 40
0.5613418801
 40
0.623980318
 40
0.686641291
 40
0.7493164354
 40
0.8120071109
 40
0.8747153079
 40
1.0
 40
1.0
 40
1.0
 40
1.0
 10
4.1824015493
 20
4.2146444377
 30
0.0
 10
4.1836852078
 20
4.2094254465
 30
0.0
 10
4.1865818242
 20
4.1990589521
 30
0.0
 10
4.1918932026
 20
4.1838048785
 30
0.0
 10
4.198149933
 20
4.1688919208
 30
0.0
 10
4.2053292392
 20
4.1543787358
 30
0.0
 10
4.213401615
 20
4.1403208617
 30
0.0
 10
4.2223347968
 20
4.1267733552
 30
0.0
 10
4.2320961547
 20
4.1137915228
 30
0.0
 10
4.2426448129
 20
4.1014241957
 30
0.0
 10
4.2539418218
 20
4.0897213139
 30
0.0
 10
4.265942109
 20
4.078728198
 30
0.0
 10
4.2785977333
 20
4.0684864505
 30
0.0
 10
4.2918614885
 20
4.0590382705
 30
0.0
 10
4.3056830468
 20
4.0504167811
 30
0.0
 10
4.3247707873
 20
4.0400793118
 30
0.0
 10
4.3397784284
 20
4.0336528895
 30
0.0
 10
4.349989987
 20
4.0300032858
 30
0.0
  0
SPLINE
  5
48C
100
AcDbEntity
  8
ALL_ASSEMBLY_MEMBERS
100
AcDbSpline
 62
7
  6
CONTINUOUS
 70
0
 71
3
 72
15
 73
11
 74
0
 42
0.0000001
 43
0.0000001
 44
0.0000000001
 40
0.0
 40
0.0
 40
0.0
 40
0.0
 40
0.1428767297
 40
0.2817190254
 40
0.4157984422
 40
0.5446074802
 40
0.6677310952
 40
0.7848229859
 40
0.8956190242
 40
1.0
 40
1.0
 40
1.0
 40
1.0
 10
4.3620569822
 20
4.8223276378
 30
0.0
 10
4.3559208348
 20
4.8210980718
 30
0.0
 10
4.3438655495
 20
4.8184478652
 30
0.0
 10
4.3262431662
 20
4.8138302287
 30
0.0
 10
4.3094237995
 20
4.8086397005
 30
0.0
 10
4.2935111707
 20
4.8029052881
 30
0.0
 10
4.2785973488
 20
4.7966533586
 30
0.0
 10
4.2647665342
 20
4.7899174345
 30
0.0
 10
4.2521005925
 20
4.782729065
 30
0.0
 10
4.2442438196
 20
4.7775037794
 30
0.0
 10
4.2405449706
 20
4.7748164947
 30
0.0
  0
LINE
  5
48D
100
AcDbEntity
  8
ALL_ASSEMBLY_MEMBERS
100
AcDbLine
 62
7
  6
CONTINUOUS
 10
4.3502288939
 20
4.0299180581
 11
4.3498084713
 21
4.029533448
  0
SPLINE
  5
48E
100
AcDbEntity
  8
ALL_ASSEMBLY_MEMBERS
100
AcDbSpline
 62
7
  6
CONTINUOUS
 70
0
 71
3
 72
15
 73
11
 74
0
 42
0.0000001
 43
0.0000001
 44
0.0000000001
 40
0.0
 40
0.0
 40
0.0
 40
0.0
 40
0.1262022783
 40
0.2522434223
 40
0.378021759
 40
0.5034471719
 40
0.6284346065
 40
0.7529046025
 40
0.8767793805
 40
1.0
 40
1.0
 40
1.0
 40
1.0
 10
4.3502288851
 20
4.0299180329
 30
0.0
 10
4.3596349462
 20
4.0265667972
 30
0.0
 10
4.3788284313
 20
4.0209185374
 30
0.0
 10
4.4083460693
 20
4.0157345337
 30
0.0
 10
4.4382014965
 20
4.0138988255
 30
0.0
 10
4.4679898978
 20
4.015427879
 30
0.0
 10
4.497314092
 20
4.020288088
 30
0.0
 10
4.5257835893
 20
4.0284001309
 30
0.0
 10
4.5530164217
 20
4.0396345779
 30
0.0
 10
4.5701662205
 20
4.0491255415
 30
0.0
 10
4.5784113503
 20
4.0543281371
 30
0.0
  0
SPLINE
  5
48F
100
AcDbEntity
  8
ALL_ASSEMBLY_MEMBERS
100
AcDbSpline
 62
7
  6
CONTINUOUS
 70
0
 71
3
 72
9
 73
5
 74
0
 42
0.0000001
 43
0.0000001
 44
0.0000000001
 40
0.0
 40
0.0
 40
0.0
 40
0.0
 40
0.2474838684
 40
1.0
 40
1.0
 40
1.0
 40
1.0
 10
4.2074392675
 20
4.7879804938
 30
0.0
 10
4.2047532213
 20
4.7820874436
 30
0.0
 10
4.193986347
 20
4.758236214
 30
0.0
 10
4.1835626159
 20
4.734230256
 30
0.0
 10
4.1759037686
 20
4.7160882704
 30
0.0
  0
SPLINE
  5
490
100
AcDbEntity
  8
ALL_ASSEMBLY_MEMBERS
100
AcDbSpline
 62
7
  6
CONTINUOUS
 70
0
 71
3
 72
15
 73
11
 74
0
 42
0.0000001
 43
0.0000001
 44
0.0000000001
 40
0.0
 40
0.0
 40
0.0
 40
0.0
 40
0.0911989033
 40
0.1978339309
 40
0.3166517881
 40
0.4448596057
 40
0.5799629467
 40
0.7192301458
 40
0.8599533279
 40
1.0
 40
1.0
 40
1.0
 40
1.0
 10
4.2074392675
 20
4.7879804938
 30
0.0
 10
4.2080551105
 20
4.7873477324
 30
0.0
 10
4.209346723
 20
4.7859314583
 30
0.0
 10
4.2112656505
 20
4.7835375305
 30
0.0
 10
4.2132051864
 20
4.7807111735
 30
0.0
 10
4.2150281377
 20
4.7774854795
 30
0.0
 10
4.2166022199
 20
4.7739120422
 30
0.0
 10
4.2178184912
 20
4.7700725158
 30
0.0
 10
4.2185875006
 20
4.7660695341
 30
0.0
 10
4.2187655818
 20
4.7633482024
 30
0.0
 10
4.2187655818
 20
4.7619922861
 30
0.0
  0
SPLINE
  5
491
100
AcDbEntity
  8
ALL_ASSEMBLY_MEMBERS
100
AcDbSpline
 62
7
  6
CONTINUOUS
 70
0
 71
3
 72
14
 73
10
 74
0
 42
0.0000001
 43
0.0000001
 44
0.0000000001
 40
0.0
 40
0.0
 40
0.0
 40
0.0
 40
0.2563129801
 40
0.3830936788
 40
0.5087659576
 40
0.6333069616
 40
0.7566896537
 40
0.878911194
 40
1.0
 40
1.0
 40
1.0
 40
1.0
 10
4.3620569822
 20
4.1172148286
 30
0.0
 10
4.3489157168
 20
4.1217757636
 30
0.0
 10
4.3297619743
 20
4.1301567037
 30
0.0
 10
4.3059667894
 20
4.1442029264
 30
0.0
 10
4.2892270421
 20
4.1560090342
 30
0.0
 10
4.273655537
 20
4.169029304
 30
0.0
 10
4.2593507815
 20
4.1831666577
 30
0.0
 10
4.246411992
 20
4.1983168063
 30
0.0
 10
4.2387137202
 20
4.2090689871
 30
0.0
 10
4.2351248371
 20
4.2145740097
 30
0.0
  0
LINE
  5
492
100
AcDbEntity
  8
ALL_ASSEMBLY_MEMBERS
100
AcDbLine
 62
7
  6
CONTINUOUS
 10
4.8470134324
 20
4.4142221295
 11
4.8475246426
 21
4.4141883582
  0
SPLINE
  5
493
100
AcDbEntity
  8
ALL_ASSEMBLY_MEMBERS
100
AcDbSpline
 62
7
  6
CONTINUOUS
 70
0
 71
3
 72
16
 73
12
 74
0
 42
0.0000001
 43
0.0000001
 44
0.0000000001
 40
0.0
 40
0.0
 40
0.0
 40
0.0
 40
0.1217417066
 40
0.2447374141
 40
0.3687178407
 40
0.431105163
 40
0.4937222481
 40
0.6194812703
 40
0.7458824968
 40
0.8727716544
 40
1.0
 40
1.0
 40
1.0
 40
1.0
 10
4.8882775109
 20
4.557450591
 30
0.0
 10
4.8896589783
 20
4.5576616053
 30
0.0
 10
4.8924088256
 20
4.5582947372
 30
0.0
 10
4.8963582987
 20
4.5598592041
 30
0.0
 10
4.8994324662
 20
4.5616676589
 30
0.0
 10
4.9017166655
 20
4.5633895105
 30
0.0
 10
4.9038777857
 20
4.5652946603
 30
0.0
 10
4.9063124456
 20
4.5679843933
 30
0.0
 10
4.9087321374
 20
4.5716190628
 30
0.0
 10
4.9106147115
 20
4.5755762077
 30
0.0
 10
4.9114883446
 20
4.5783711083
 30
0.0
 10
4.9118267763
 20
4.5797918276
 30
0.0
  0
SPLINE
  5
494
100
AcDbEntity
  8
ALL_ASSEMBLY_MEMBERS
100
AcDbSpline
 62
7
  6
CONTINUOUS
 70
0
 71
3
 72
11
 73
7
 74
0
 42
0.0000001
 43
0.0000001
 44
0.0000000001
 40
0.0
 40
0.0
 40
0.0
 40
0.0
 40
0.2470550249
 40
0.4967149412
 40
0.7480118178
 40
1.0
 40
1.0
 40
1.0
 40
1.0
 10
4.8974525177
 20
4.6131106047
 30
0.0
 10
4.8995676186
 20
4.6120647454
 30
0.0
 10
4.9035428995
 20
4.6093466334
 30
0.0
 10
4.9081949925
 20
4.603820647
 30
0.0
 10
4.9113295213
 20
4.5972702001
 30
0.0
 10
4.9123300055
 20
4.592516529
 30
0.0
 10
4.9125543267
 20
4.5901203416
 30
0.0
  0
SPLINE
  5
495
100
AcDbEntity
  8
ALL_ASSEMBLY_MEMBERS
100
AcDbSpline
 62
7
  6
CONTINUOUS
 70
0
 71
3
 72
9
 73
5
 74
0
 42
0.0000001
 43
0.0000001
 44
0.0000000001
 40
0.0
 40
0.0
 40
0.0
 40
0.0
 40
0.498865192
 40
1.0
 40
1.0
 40
1.0
 40
1.0
 10
4.8693516588
 20
4.6307013002
 30
0.0
 10
4.8711753952
 20
4.6319174942
 30
0.0
 10
4.8750122126
 20
4.6340953993
 30
0.0
 10
4.879138353
 20
4.6356654282
 30
0.0
 10
4.8812525772
 20
4.6362810748
 30
0.0
  0
LINE
  5
496
100
AcDbEntity
  8
ALL_ASSEMBLY_MEMBERS
100
AcDbLine
 62
7
  6
CONTINUOUS
 10
4.5751068748
 20
4.1481845211
 11
4.5738563345
 21
4.1446111923
  0
LINE
  5
497
100
AcDbEntity
  8
ALL_ASSEMBLY_MEMBERS
100
AcDbLine
 62
7
  6
CONTINUOUS
 10
4.5738563345
 20
4.1446111923
 11
4.5719744956
 21
4.1396714092
  0
SPLINE
  5
498
100
AcDbEntity
  8
ALL_ASSEMBLY_MEMBERS
100
AcDbSpline
 62
7
  6
CONTINUOUS
 70
0
 71
3
 72
11
 73
7
 74
0
 42
0.0000001
 43
0.0000001
 44
0.0000000001
 40
0.0
 40
0.0
 40
0.0
 40
0.0
 40
0.2186703322
 40
0.460904116
 40
0.7229019734
 40
1.0
 40
1.0
 40
1.0
 40
1.0
 10
4.3668829596
 20
4.1389132465
 30
0.0
 10
4.3666608793
 20
4.1373071122
 30
0.0
 10
4.366103614
 20
4.1339339085
 30
0.0
 10
4.3650225946
 20
4.1286827774
 30
0.0
 10
4.3636674582
 20
4.1230490846
 30
0.0
 10
4.3626206881
 20
4.1191906377
 30
0.0
 10
4.3620569822
 20
4.1172148286
 30
0.0
  0
SPLINE
  5
499
100
AcDbEntity
  8
ALL_ASSEMBLY_MEMBERS
100
AcDbSpline
 62
7
  6
CONTINUOUS
 70
0
 71
3
 72
15
 73
11
 74
0
 42
0.0000001
 43
0.0000001
 44
0.0000000001
 40
0.0
 40
0.0
 40
0.0
 40
0.0
 40
0.1400466721
 40
0.2807698542
 40
0.4200370533
 40
0.5551403943
 40
0.6833482119
 40
0.8021660691
 40
0.9088010967
 40
1.0
 40
1.0
 40
1.0
 40
1.0
 10
4.2187655818
 20
4.4182483972
 30
0.0
 10
4.2187655818
 20
4.4168924808
 30
0.0
 10
4.2185875006
 20
4.4141711491
 30
0.0
 10
4.2178184912
 20
4.4101681674
 30
0.0
 10
4.2166022199
 20
4.4063286411
 30
0.0
 10
4.2150281377
 20
4.4027552037
 30
0.0
 10
4.2132051864
 20
4.3995295097
 30
0.0
 10
4.2112656505
 20
4.3967031527
 30
0.0
 10
4.209346723
 20
4.394309225
 30
0.0
 10
4.2080551105
 20
4.3928929508
 30
0.0
 10
4.2074392675
 20
4.3922601894
 30
0.0
  0
SPLINE
  5
49A
100
AcDbEntity
  8
ALL_ASSEMBLY_MEMBERS
100
AcDbSpline
 62
7
  6
CONTINUOUS
 70
0
 71
3
 72
15
 73
11
 74
0
 42
0.0000001
 43
0.0000001
 44
0.0000000001
 40
0.0
 40
0.0
 40
0.0
 40
0.0
 40
0.0990313449
 40
0.2066427559
 40
0.3223954289
 40
0.4457224159
 40
0.5759342222
 40
0.7122891091
 40
0.8539874813
 40
1.0
 40
1.0
 40
1.0
 40
1.0
 10
4.2200149254
 20
4.4203306041
 30
0.0
 10
4.2238467855
 20
4.4175477939
 30
0.0
 10
4.2320990046
 20
4.4120901201
 30
0.0
 10
4.2455370376
 20
4.4045127693
 30
0.0
 10
4.2604560607
 20
4.3972607544
 30
0.0
 10
4.2767368891
 20
4.3904004975
 30
0.0
 10
4.2942512345
 20
4.3839879679
 30
0.0
 10
4.3128637344
 20
4.378075136
 30
0.0
 10
4.332425017
 20
4.3727095368
 30
0.0
 10
4.3458219946
 20
4.369561176
 30
0.0
 10
4.3526457138
 20
4.3680810477
 30
0.0
  0
SPLINE
  5
49B
100
AcDbEntity
  8
ALL_ASSEMBLY_MEMBERS
100
AcDbSpline
 62
7
  6
CONTINUOUS
 70
0
 71
3
 72
15
 73
11
 74
0
 42
0.0000001
 43
0.0000001
 44
0.0000000001
 40
0.0
 40
0.0
 40
0.0
 40
0.0
 40
0.1160064312
 40
0.237717141
 40
0.3635985285
 40
0.4921245213
 40
0.6216659305
 40
0.7505688882
 40
0.8772368174
 40
1.0
 40
1.0
 40
1.0
 40
1.0
 10
4.5719744194
 20
4.6058715801
 30
0.0
 10
4.5639877436
 20
4.6075718471
 30
0.0
 10
4.5475478557
 20
4.6107140352
 30
0.0
 10
4.5222583786
 20
4.6146716964
 30
0.0
 10
4.4959913931
 20
4.6180089597
 30
0.0
 10
4.4691003143
 20
4.6207323682
 30
0.0
 10
4.4419414534
 20
4.622846321
 30
0.0
 10
4.4148734379
 20
4.6243559749
 30
0.0
 10
4.3882561519
 20
4.6252640885
 30
0.0
 10
4.3706982413
 20
4.6254756807
 30
0.0
 10
4.3620569822
 20
4.6254756807
 30
0.0
  0
SPLINE
  5
49C
100
AcDbEntity
  8
ALL_ASSEMBLY_MEMBERS
100
AcDbSpline
 62
7
  6
CONTINUOUS
 70
0
 71
3
 72
15
 73
11
 74
0
 42
0.0000001
 43
0.0000001
 44
0.0000000001
 40
0.0
 40
0.0
 40
0.0
 40
0.0
 40
0.1160064294
 40
0.2377171378
 40
0.3635985262
 40
0.4921245194
 40
0.621665929
 40
0.7505688872
 40
0.877236817
 40
1.0
 40
1.0
 40
1.0
 40
1.0
 10
4.5719744194
 20
4.5743691031
 30
0.0
 10
4.5639877437
 20
4.5726688362
 30
0.0
 10
4.547547856
 20
4.569526648
 30
0.0
 10
4.5222583791
 20
4.5655689869
 30
0.0
 10
4.4959913936
 20
4.5622317236
 30
0.0
 10
4.4691003147
 20
4.5595083151
 30
0.0
 10
4.4419414537
 20
4.5573943622
 30
0.0
 10
4.4148734381
 20
4.5558847084
 30
0.0
 10
4.388256152
 20
4.5549765948
 30
0.0
 10
4.3706982413
 20
4.5547650026
 30
0.0
 10
4.3620569822
 20
4.5547650026
 30
0.0
  0
SPLINE
  5
49D
100
AcDbEntity
  8
ALL_ASSEMBLY_MEMBERS
100
AcDbSpline
 62
7
  6
CONTINUOUS
 70
0
 71
3
 72
19
 73
15
 74
0
 42
0.0000001
 43
0.0000001
 44
0.0000000001
 40
0.0
 40
0.0
 40
0.0
 40
0.0
 40
0.0533299149
 40
0.1102238669
 40
0.1702250423
 40
0.2328766259
 40
0.3641961884
 40
0.5
 40
0.6358038116
 40
0.7671233741
 40
0.8297749577
 40
0.8897761331
 40
0.9466700851
 40
1.0
 40
1.0
 40
1.0
 40
1.0
 10
4.3620569822
 20
4.6254756807
 30
0.0
 10
4.3625025044
 20
4.6242780405
 30
0.0
 10
4.3633412663
 20
4.6217717405
 30
0.0
 10
4.3644208265
 20
4.6178367476
 30
0.0
 10
4.3653526523
 20
4.6136350963
 30
0.0
 10
4.3664025822
 20
4.6076393162
 30
0.0
 10
4.3672733294
 20
4.5997767088
 30
0.0
 10
4.3676214719
 20
4.5901203416
 30
0.0
 10
4.3672733294
 20
4.5804639745
 30
0.0
 10
4.3664025822
 20
4.5726013671
 30
0.0
 10
4.3653526523
 20
4.5666055869
 30
0.0
 10
4.3644208265
 20
4.5624039357
 30
0.0
 10
4.3633412663
 20
4.5584689427
 30
0.0
 10
4.3625025044
 20
4.5559626427
 30
0.0
 10
4.3620569822
 20
4.5547650026
 30
0.0
  0
SPLINE
  5
49E
100
AcDbEntity
  8
ALL_ASSEMBLY_MEMBERS
100
AcDbSpline
 62
7
  6
CONTINUOUS
 70
0
 71
3
 72
18
 73
14
 74
0
 42
0.0000001
 43
0.0000001
 44
0.0000000001
 40
0.0
 40
0.0
 40
0.0
 40
0.0
 40
0.1791596608
 40
0.3469477077
 40
0.5009321662
 40
0.6390655813
 40
0.7594670367
 40
0.8125135992
 40
0.8605552259
 40
0.9034502731
 40
0.9410626718
 40
0.9732783133
 40
1.0
 40
1.0
 40
1.0
 40
1.0
 10
4.3620569822
 20
4.6254756807
 30
0.0
 10
4.3528070028
 20
4.6254756807
 30
0.0
 10
4.334893973
 20
4.6253746778
 30
0.0
 10
4.3090341771
 20
4.6249322543
 30
0.0
 10
4.2852986779
 20
4.624243871
 30
0.0
 10
4.2640184565
 20
4.6233521658
 30
0.0
 10
4.2479564773
 20
4.6224422673
 30
0.0
 10
4.2365495663
 20
4.6216321253
 30
0.0
 10
4.2291403204
 20
4.6210259924
 30
0.0
 10
4.2225326089
 20
4.620401415
 30
0.0
 10
4.2167474151
 20
4.6197640706
 30
0.0
 10
4.2118039866
 20
4.619120377
 30
0.0
 10
4.2087972428
 20
4.6186481239
 30
0.0
 10
4.2074392675
 20
4.6184046129
 30
0.0
  0
SPLINE
  5
49F
100
AcDbEntity
  8
ALL_ASSEMBLY_MEMBERS
100
AcDbSpline
 62
7
  6
CONTINUOUS
 70
0
 71
3
 72
18
 73
14
 74
0
 42
0.0000001
 43
0.0000001
 44
0.0000000001
 40
0.0
 40
0.0
 40
0.0
 40
0.0
 40
0.1791596608
 40
0.3469477077
 40
0.5009321662
 40
0.6390655813
 40
0.7594670367
 40
0.8125135992
 40
0.8605552259
 40
0.9034502731
 40
0.9410626718
 40
0.9732783133
 40
1.0
 40
1.0
 40
1.0
 40
1.0
 10
4.3620569822
 20
4.5547650026
 30
0.0
 10
4.3528070028
 20
4.5547650026
 30
0.0
 10
4.334893973
 20
4.5548660055
 30
0.0
 10
4.3090341771
 20
4.5553084289
 30
0.0
 10
4.2852986779
 20
4.5559968123
 30
0.0
 10
4.2640184565
 20
4.5568885174
 30
0.0
 10
4.2479564773
 20
4.5577984159
 30
0.0
 10
4.2365495663
 20
4.5586085579
 30
0.0
 10
4.2291403204
 20
4.5592146908
 30
0.0
 10
4.2225326089
 20
4.5598392682
 30
0.0
 10
4.2167474151
 20
4.5604766126
 30
0.0
 10
4.2118039866
 20
4.5611203062
 30
0.0
 10
4.2087972428
 20
4.5615925594
 30
0.0
 10
4.2074392675
 20
4.5618360704
 30
0.0
  0
SPLINE
  5
4A0
100
AcDbEntity
  8
ALL_ASSEMBLY_MEMBERS
100
AcDbSpline
 62
7
  6
CONTINUOUS
 70
0
 71
3
 72
34
 73
30
 74
0
 42
0.0000001
 43
0.0000001
 44
0.0000000001
 40
0.0
 40
0.0
 40
0.0
 40
0.0
 40
0.0998559707
 40
0.148400662
 40
0.1958567029
 40
0.2420292367
 40
0.2866411014
 40
0.3290780076
 40
0.3685656726
 40
0.3869322034
 40
0.4042130275
 40
0.4202354991
 40
0.4348991769
 40
0.4599391424
 40
0.4663078443
 40
0.4735797692
 40
0.482548184
 40
0.4943532209
 40
0.510985822
 40
0.5344475345
 40
0.5644884987
 40
0.5993504669
 40
0.6367994537
 40
0.6742680606
 40
0.7453169771
 40
0.8125288651
 40
0.8770053675
 40
0.9393495168
 40
1.0
 40
1.0
 40
1.0
 40
1.0
 10
4.1598701597
 20
4.6467690112
 30
0.0
 10
4.1596941905
 20
4.6464812391
 30
0.0
 10
4.1594285623
 20
4.6460560363
 30
0.0
 10
4.1590666349
 20
4.6455021908
 30
0.0
 10
4.158797494
 20
4.6451044026
 30
0.0
 10
4.1585280665
 20
4.6447229545
 30
0.0
 10
4.1582594263
 20
4.6443618295
 30
0.0
 10
4.1579920691
 20
4.6440281979
 30
0.0
 10
4.157766503
 20
4.6437750384
 30
0.0
 10
4.157585282
 20
4.6435971262
 30
0.0
 10
4.1574541379
 20
4.6434819938
 30
0.0
 10
4.1573229874
 20
4.6433854448
 30
0.0
 10
4.1571622834
 20
4.6432913022
 30
0.0
 10
4.1569960438
 20
4.6432485575
 30
0.0
 10
4.1568731238
 20
4.6432990301
 30
0.0
 10
4.1568137315
 20
4.6433485657
 30
0.0
 10
4.1567574897
 20
4.6434257567
 30
0.0
 10
4.1567060526
 20
4.6435421274
 30
0.0
 10
4.1566669971
 20
4.6437138267
 30
0.0
 10
4.1566431254
 20
4.6439498375
 30
0.0
 10
4.1566357209
 20
4.6442484883
 30
0.0
 10
4.156650266
 20
4.644594124
 30
0.0
 10
4.1566831209
 20
4.6449635716
 30
0.0
 10
4.1567406491
 20
4.6454533221
 30
0.0
 10
4.1568296842
 20
4.6460403591
 30
0.0
 10
4.1569497573
 20
4.6467146199
 30
0.0
 10
4.1570747908
 20
4.6473580411
 30
0.0
 10
4.1572031365
 20
4.6479781802
 30
0.0
 10
4.1572909674
 20
4.6483842672
 30
0.0
 10
4.1573350671
 20
4.6485843399
 30
0.0
  0
LINE
  5
4A1
100
AcDbEntity
  8
ALL_ASSEMBLY_MEMBERS
100
AcDbLine
 62
7
  6
CONTINUOUS
 10
4.1573350671
 20
4.6485843399
 11
4.1593689301
 21
4.6567319385
  0
SPLINE
  5
4A2
100
AcDbEntity
  8
ALL_ASSEMBLY_MEMBERS
100
AcDbSpline
 62
7
  6
CONTINUOUS
 70
0
 71
3
 72
12
 73
8
 74
0
 42
0.0000001
 43
0.0000001
 44
0.0000000001
 40
0.0
 40
0.0
 40
0.0
 40
0.0
 40
0.1300742273
 40
0.2580557584
 40
0.5097140645
 40
0.7569437259
 40
1.0
 40
1.0
 40
1.0
 40
1.0
 10
4.1614729336
 20
4.6645307815
 30
0.0
 10
4.1620869786
 20
4.6667694808
 30
0.0
 10
4.1633085335
 20
4.6712099445
 30
0.0
 10
4.1657233467
 20
4.6799802398
 30
0.0
 10
4.1686940646
 20
4.6907661071
 30
0.0
 10
4.1722327536
 20
4.7035257072
 30
0.0
 10
4.1746609813
 20
4.7119323839
 30
0.0
 10
4.1759037687
 20
4.7160882705
 30
0.0
  0
SPLINE
  5
4A3
100
AcDbEntity
  8
ALL_ASSEMBLY_MEMBERS
100
AcDbSpline
 62
7
  6
CONTINUOUS
 70
0
 71
3
 72
23
 73
19
 74
0
 42
0.0000001
 43
0.0000001
 44
0.0000000001
 40
0.0
 40
0.0
 40
0.0
 40
0.0
 40
0.0427927862
 40
0.0934014796
 40
0.150595532
 40
0.2133885654
 40
0.2809015442
 40
0.3520101934
 40
0.4254363151
 40
0.5
 40
0.5745636849
 40
0.6479898066
 40
0.7190984558
 40
0.7866114346
 40
0.849404468
 40
0.9065985204
 40
0.9572072138
 40
1.0
 40
1.0
 40
1.0
 40
1.0
 10
4.2074392675
 20
4.6184046129
 30
0.0
 10
4.2080582756
 20
4.617764446
 30
0.0
 10
4.2093574039
 20
4.6163163127
 30
0.0
 10
4.2112795819
 20
4.6138375539
 30
0.0
 10
4.2132218748
 20
4.6108605724
 30
0.0
 10
4.2150455966
 20
4.6074041692
 30
0.0
 10
4.2166175088
 20
4.6035104926
 30
0.0
 10
4.2178293852
 20
4.5992585899
 30
0.0
 10
4.2185926496
 20
4.5947540279
 30
0.0
 10
4.2188527126
 20
4.5901203416
 30
0.0
 10
4.2185926496
 20
4.5854866553
 30
0.0
 10
4.2178293852
 20
4.5809820933
 30
0.0
 10
4.2166175088
 20
4.5767301906
 30
0.0
 10
4.2150455966
 20
4.572836514
 30
0.0
 10
4.2132218748
 20
4.5693801108
 30
0.0
 10
4.2112795819
 20
4.5664031294
 30
0.0
 10
4.2093574039
 20
4.5639243706
 30
0.0
 10
4.2080582756
 20
4.5624762372
 30
0.0
 10
4.2074392675
 20
4.5618360704
 30
0.0
  0
LINE
  5
4A4
100
AcDbEntity
  8
ALL_ASSEMBLY_MEMBERS
100
AcDbLine
 62
7
  6
CONTINUOUS
 10
4.1566389902
 20
4.6982528733
 11
4.1581855107
 21
4.7063096591
  0
SPLINE
  5
4A5
100
AcDbEntity
  8
ALL_ASSEMBLY_MEMBERS
100
AcDbSpline
 62
7
  6
CONTINUOUS
 70
0
 71
3
 72
15
 73
11
 74
0
 42
0.0000001
 43
0.0000001
 44
0.0000000001
 40
0.0
 40
0.0
 40
0.0
 40
0.0
 40
0.1144854902
 40
0.2350151155
 40
0.3600569895
 40
0.488132255
 40
0.6176927568
 40
0.7471876651
 40
0.8751386273
 40
1.0
 40
1.0
 40
1.0
 40
1.0
 10
4.5719744194
 20
4.3482415337
 30
0.0
 10
4.5639712556
 20
4.3473946188
 30
0.0
 10
4.5475059088
 20
4.3459875103
 30
0.0
 10
4.5222191327
 20
4.3447739176
 30
0.0
 10
4.4959492552
 20
4.344470765
 30
0.0
 10
4.469050855
 20
4.3451294281
 30
0.0
 10
4.4418813508
 20
4.3467817508
 30
0.0
 10
4.4147995739
 20
4.3494348754
 30
0.0
 10
4.3881663689
 20
4.3530765493
 30
0.0
 10
4.370663135
 20
4.3561885378
 30
0.0
 10
4.3620569822
 20
4.3579130454
 30
0.0
  0
SPLINE
  5
4A6
100
AcDbEntity
  8
ALL_ASSEMBLY_MEMBERS
100
AcDbSpline
 62
7
  6
CONTINUOUS
 70
0
 71
3
 72
15
 73
11
 74
0
 42
0.0000001
 43
0.0000001
 44
0.0000000001
 40
0.0
 40
0.0
 40
0.0
 40
0.0
 40
0.1214983985
 40
0.2456868354
 40
0.3717763976
 40
0.4989643245
 40
0.6263239627
 40
0.7528952233
 40
0.8777750128
 40
1.0
 40
1.0
 40
1.0
 40
1.0
 10
4.5719744194
 20
4.3209595883
 30
0.0
 10
4.5641179224
 20
4.3172312465
 30
0.0
 10
4.5478684224
 20
4.3104359756
 30
0.0
 10
4.5224973293
 20
4.3023148567
 30
0.0
 10
4.4961524831
 20
4.2961953148
 30
0.0
 10
4.4691886113
 20
4.2921145078
 30
0.0
 10
4.4419589412
 20
4.2900934665
 30
0.0
 10
4.4148192273
 20
4.2901294567
 30
0.0
 10
4.3881288514
 20
4.2922052152
 30
0.0
 10
4.3706347417
 20
4.2949569837
 30
0.0
 10
4.3620569822
 20
4.2966758019
 30
0.0
  0
LINE
  5
4A7
100
AcDbEntity
  8
ALL_ASSEMBLY_MEMBERS
100
AcDbLine
 62
7
  6
CONTINUOUS
 10
4.8427600669
 20
4.4125549854
 11
4.8415884492
 21
4.4126382105
  0
SPLINE
  5
4A8
100
AcDbEntity
  8
ALL_ASSEMBLY_MEMBERS
100
AcDbSpline
 62
7
  6
CONTINUOUS
 70
0
 71
3
 72
15
 73
11
 74
0
 42
0.0000001
 43
0.0000001
 44
0.0000000001
 40
0.0
 40
0.0
 40
0.0
 40
0.0
 40
0.0743193958
 40
0.1582503375
 40
0.255679335
 40
0.3690767983
 40
0.4998261143
 40
0.6486418782
 40
0.8155771033
 40
1.0
 40
1.0
 40
1.0
 40
1.0
 10
4.5751865425
 20
5.0313244788
 30
0.0
 10
4.5754167889
 20
5.0312296182
 30
0.0
 10
4.5758762188
 20
5.0309485985
 30
0.0
 10
4.5764754909
 20
5.0303275944
 30
0.0
 10
4.5770189211
 20
5.0294977141
 30
0.0
 10
4.5775076351
 20
5.0284598283
 30
0.0
 10
4.5779423656
 20
5.0272150725
 30
0.0
 10
4.5783213024
 20
5.0257664835
 30
0.0
 10
4.5786423128
 20
5.0241207017
 30
0.0
 10
4.5788080232
 20
5.0229546157
 30
0.0
 10
4.5788822284
 20
5.0223411417
 30
0.0
  0
SPLINE
  5
4A9
100
AcDbEntity
  8
ALL_ASSEMBLY_MEMBERS
100
AcDbSpline
 62
7
  6
CONTINUOUS
 70
0
 71
3
 72
19
 73
15
 74
0
 42
0.0000001
 43
0.0000001
 44
0.0000000001
 40
0.0
 40
0.0
 40
0.0
 40
0.0
 40
0.0323207135
 40
0.0693810463
 40
0.1115322307
 40
0.1588604379
 40
0.2112853019
 40
0.2685686696
 40
0.33034541
 40
0.3961859318
 40
0.5379549673
 40
0.6893039626
 40
0.8451311015
 40
1.0
 40
1.0
 40
1.0
 40
1.0
 10
4.3620569822
 20
4.3579130454
 30
0.0
 10
4.3625164741
 20
4.3574166101
 30
0.0
 10
4.3633838015
 20
4.3562395778
 30
0.0
 10
4.3644586712
 20
4.3541603965
 30
0.0
 10
4.3653834035
 20
4.3516730718
 30
0.0
 10
4.3661512344
 20
4.3488005589
 30
0.0
 10
4.3667549481
 20
4.3455671242
 30
0.0
 10
4.3671890674
 20
4.3420024232
 30
0.0
 10
4.3674499591
 20
4.338139748
 30
0.0
 10
4.3675641509
 20
4.3325011731
 30
0.0
 10
4.3672378433
 20
4.324987332
 30
0.0
 10
4.366176673
 20
4.3156447961
 30
0.0
 10
4.3644725165
 20
4.3061197182
 30
0.0
 10
4.3629299727
 20
4.2997973102
 30
0.0
 10
4.3620569822
 20
4.2966758019
 30
0.0
  0
SPLINE
  5
4AA
100
AcDbEntity
  8
ALL_ASSEMBLY_MEMBERS
100
AcDbSpline
 62
7
  6
CONTINUOUS
 70
0
 71
3
 72
15
 73
11
 74
0
 42
0.0000001
 43
0.0000001
 44
0.0000000001
 40
0.0
 40
0.0
 40
0.0
 40
0.0
 40
0.1428770059
 40
0.281719517
 40
0.4157990745
 40
0.5446081705
 40
0.6677317532
 40
0.7848235165
 40
0.8956193331
 40
1.0
 40
1.0
 40
1.0
 40
1.0
 10
4.3620569822
 20
4.3579130454
 30
0.0
 10
4.3559207689
 20
4.3591426246
 30
0.0
 10
4.3438653569
 20
4.3617928616
 30
0.0
 10
4.3262427945
 20
4.3664105574
 30
0.0
 10
4.3094232683
 20
4.3716011569
 30
0.0
 10
4.2935105029
 20
4.3773356515
 30
0.0
 10
4.2785965697
 20
4.3835876731
 30
0.0
 10
4.2647656718
 20
4.390323698
 30
0.0
 10
4.2520996768
 20
4.397512176
 30
0.0
 10
4.2442428856
 20
4.4027375427
 30
0.0
 10
4.2405440338
 20
4.4054248692
 30
0.0
  0
SPLINE
  5
4AB
100
AcDbEntity
  8
ALL_ASSEMBLY_MEMBERS
100
AcDbSpline
 62
7
  6
CONTINUOUS
 70
0
 71
3
 72
18
 73
14
 74
0
 42
0.0000001
 43
0.0000001
 44
0.0000000001
 40
0.0
 40
0.0
 40
0.0
 40
0.0
 40
0.0766423591
 40
0.1519037777
 40
0.2974646669
 40
0.4355653481
 40
0.5015952982
 40
0.5654965562
 40
0.6272151333
 40
0.6867312336
 40
0.7991388091
 40
0.9032375854
 40
1.0
 40
1.0
 40
1.0
 40
1.0
 10
4.3620569822
 20
4.2966758019
 30
0.0
 10
4.3573488365
 20
4.2976192238
 30
0.0
 10
4.3480518913
 20
4.2996678035
 30
0.0
 10
4.3300203431
 20
4.3043923083
 30
0.0
 10
4.3086241123
 20
4.3113997052
 30
0.0
 10
4.2884495924
 20
4.3200293356
 30
0.0
 10
4.273533736
 20
4.3277570506
 30
0.0
 10
4.2631656428
 20
4.3338239681
 30
0.0
 10
4.2534850723
 20
4.3402255466
 30
0.0
 10
4.2417620245
 20
4.3490013963
 30
0.0
 10
4.228884781
 20
4.3606280055
 30
0.0
 10
4.2163084368
 20
4.3757890823
 30
0.0
 10
4.2099535875
 20
4.3867438978
 30
0.0
 10
4.2074392675
 20
4.3922601894
 30
0.0
  0
LINE
  5
4AC
100
AcDbEntity
  8
ALL_ASSEMBLY_MEMBERS
100
AcDbLine
 62
7
  6
CONTINUOUS
 10
4.5785151692
 20
5.126085356
 11
4.5788822067
 21
5.12561349
  0
SPLINE
  5
4AD
100
AcDbEntity
  8
ALL_ASSEMBLY_MEMBERS
100
AcDbSpline
 62
7
  6
CONTINUOUS
 70
0
 71
3
 72
14
 73
10
 74
0
 42
0.0000001
 43
0.0000001
 44
0.0000000001
 40
0.0
 40
0.0
 40
0.0
 40
0.0
 40
0.1164703429
 40
0.2368165411
 40
0.3603924534
 40
0.4864753224
 40
0.6142975118
 40
0.7430483759
 40
1.0
 40
1.0
 40
1.0
 40
1.0
 10
4.5788827721
 20
5.0223418446
 30
0.0
 10
4.5704998725
 20
5.0257592622
 30
0.0
 10
4.5530998722
 20
5.0318638337
 30
0.0
 10
4.5258870996
 20
5.0386574938
 30
0.0
 10
4.4974377814
 20
5.0431166368
 30
0.0
 10
4.4681322775
 20
5.0451355979
 30
0.0
 10
4.438355142
 20
5.0446459191
 30
0.0
 10
4.3986135781
 20
5.0406257952
 30
0.0
 10
4.369216789
 20
5.0338217908
 30
0.0
 10
4.3502288851
 20
5.0276307914
 30
0.0
  0
SPLINE
  5
4AE
100
AcDbEntity
  8
ALL_ASSEMBLY_MEMBERS
100
AcDbSpline
 62
7
  6
CONTINUOUS
 70
0
 71
3
 72
9
 73
5
 74
0
 42
0.0000001
 43
0.0000001
 44
0.0000000001
 40
0.0
 40
0.0
 40
0.0
 40
0.0
 40
0.2474838684
 40
1.0
 40
1.0
 40
1.0
 40
1.0
 10
4.2074392675
 20
4.3922601894
 30
0.0
 10
4.2047532213
 20
4.3981532397
 30
0.0
 10
4.193986347
 20
4.4220044692
 30
0.0
 10
4.1835626159
 20
4.4460104273
 30
0.0
 10
4.1759037686
 20
4.4641524128
 30
0.0
  0
SPLINE
  5
4AF
100
AcDbEntity
  8
ALL_ASSEMBLY_MEMBERS
100
AcDbSpline
 62
7
  6
CONTINUOUS
 70
0
 71
3
 72
19
 73
15
 74
0
 42
0.0000001
 43
0.0000001
 44
0.0000000001
 40
0.0
 40
0.0
 40
0.0
 40
0.0
 40
0.069103725
 40
0.1377188806
 40
0.2728133486
 40
0.40451459
 40
0.4689374723
 40
0.5323051636
 40
0.6556624464
 40
0.7745187909
 40
0.8323414891
 40
0.8891459344
 40
0.9450094719
 40
1.0
 40
1.0
 40
1.0
 40
1.0
 10
4.3502288851
 20
5.0276307914
 30
0.0
 10
4.344665697
 20
5.025816716
 30
0.0
 10
4.3336724815
 20
5.0219044894
 30
0.0
 10
4.3123505507
 20
5.0129918581
 30
0.0
 10
4.2870796793
 20
4.9998905539
 30
0.0
 10
4.2637736201
 20
4.9841613199
 30
0.0
 10
4.2467565635
 20
4.9702400362
 30
0.0
 10
4.2311682481
 20
4.9557564907
 30
0.0
 10
4.2139429152
 20
4.9363394459
 30
0.0
 10
4.1998305788
 20
4.9150973389
 30
0.0
 10
4.1908153573
 20
4.8974829589
 30
0.0
 10
4.1852482634
 20
4.8841458335
 30
0.0
 10
4.1808474398
 20
4.8706327272
 30
0.0
 10
4.1786865835
 20
4.8614844919
 30
0.0
 10
4.1778124571
 20
4.8569108475
 30
0.0
  0
SPLINE
  5
4B0
100
AcDbEntity
  8
ALL_ASSEMBLY_MEMBERS
100
AcDbSpline
 62
7
  6
CONTINUOUS
 70
0
 71
3
 72
18
 73
14
 74
0
 42
0.0000001
 43
0.0000001
 44
0.0000000001
 40
0.0
 40
0.0
 40
0.0
 40
0.0
 40
0.2080987336
 40
0.3931917547
 40
0.5541486559
 40
0.6900016332
 40
0.8003502944
 40
0.8462298159
 40
0.8861982069
 40
0.9206632888
 40
0.9502965399
 40
0.9761895463
 40
1.0
 40
1.0
 40
1.0
 40
1.0
 10
4.3502288997
 20
5.0276307587
 30
0.0
 10
4.3501336048
 20
5.0282599792
 30
0.0
 10
4.3499694841
 20
5.029451399
 30
0.0
 10
4.3497964182
 20
5.0311375813
 30
0.0
 10
4.349710756
 20
5.0326095414
 30
0.0
 10
4.34971306
 20
5.0338554362
 30
0.0
 10
4.349791575
 20
5.0347474453
 30
0.0
 10
4.3499090764
 20
5.0353364592
 30
0.0
 10
4.3500140152
 20
5.0356898075
 30
0.0
 10
4.350141263
 20
5.0359826289
 30
0.0
 10
4.350291879
 20
5.0362149885
 30
0.0
 10
4.3504677052
 20
5.0363858944
 30
0.0
 10
4.3506052217
 20
5.0364570979
 30
0.0
 10
4.3506744319
 20
5.0364797271
 30
0.0
  0
LINE
  5
4B1
100
AcDbEntity
  8
ALL_ASSEMBLY_MEMBERS
100
AcDbLine
 62
7
  6
CONTINUOUS
 10
4.1773075412
 20
4.8541379645
 11
4.1772794351
 21
4.8539742397
  0
SPLINE
  5
4B2
100
AcDbEntity
  8
ALL_ASSEMBLY_MEMBERS
100
AcDbSpline
 62
7
  6
CONTINUOUS
 70
0
 71
3
 72
15
 73
11
 74
0
 42
0.0000001
 43
0.0000001
 44
0.0000000001
 40
0.0
 40
0.0
 40
0.0
 40
0.0
 40
0.1251638189
 40
0.2505951096
 40
0.3761155138
 40
0.5016188023
 40
0.6269271297
 40
0.7518567383
 40
0.8762834512
 40
1.0
 40
1.0
 40
1.0
 40
1.0
 10
4.5719744194
 20
5.0405692032
 30
0.0
 10
4.5642094268
 20
5.045298595
 30
0.0
 10
4.5481138574
 20
5.0538969213
 30
0.0
 10
4.5226861076
 20
5.0640345032
 30
0.0
 10
4.4962707681
 20
5.0713189572
 30
0.0
 10
4.4692284293
 20
5.0756748594
 30
0.0
 10
4.4419157667
 20
5.077058868
 30
0.0
 10
4.4146917337
 20
5.0754689934
 30
0.0
 10
4.3879215659
 20
5.0709327764
 30
0.0
 10
4.3705469287
 20
5.0659724578
 30
0.0
 10
4.3620569822
 20
5.0630258546
 30
0.0
  0
SPLINE
  5
4B3
100
AcDbEntity
  8
ALL_ASSEMBLY_MEMBERS
100
AcDbSpline
 62
7
  6
CONTINUOUS
 70
0
 71
3
 72
17
 73
13
 74
0
 42
0.0000001
 43
0.0000001
 44
0.0000000001
 40
0.0
 40
0.0
 40
0.0
 40
0.0
 40
0.1232002642
 40
0.2470581867
 40
0.371514182
 40
0.4339681639
 40
0.4965424678
 40
0.6219607989
 40
0.7477304683
 40
0.8107447276
 40
0.8738160668
 40
1.0
 40
1.0
 40
1.0
 40
1.0
 10
4.5784117647
 20
5.1259122848
 30
0.0
 10
4.5701671595
 20
5.1311145509
 30
0.0
 10
4.5530179542
 20
5.1406052507
 30
0.0
 10
4.5257877312
 20
5.1518393018
 30
0.0
 10
4.5020824184
 20
5.1585940289
 30
0.0
 10
4.4826973819
 20
5.1623750305
 30
0.0
 10
4.4630539422
 20
5.1650658967
 30
0.0
 10
4.4382028912
 20
5.1663415819
 30
0.0
 10
4.4133317728
 20
5.1648124891
 30
0.0
 10
4.3936045578
 20
5.1619167873
 30
0.0
 10
4.3740407558
 20
5.1579130482
 30
0.0
 10
4.3596345582
 20
5.1536736746
 30
0.0
 10
4.3502288851
 20
5.1503226503
 30
0.0
  0
SPLINE
  5
4B4
100
AcDbEntity
  8
ALL_ASSEMBLY_MEMBERS
100
AcDbSpline
 62
7
  6
CONTINUOUS
 70
0
 71
3
 72
21
 73
17
 74
0
 42
0.0000001
 43
0.0000001
 44
0.0000000001
 40
0.0
 40
0.0
 40
0.0
 40
0.0
 40
0.1253343167
 40
0.1880665646
 40
0.2507803644
 40
0.3134784811
 40
0.3761606686
 40
0.4388159963
 40
0.5014325841
 40
0.5640022552
 40
0.6265177855
 40
0.6889713889
 40
0.7513517702
 40
0.8758029302
 40
0.9379478567
 40
1.0
 40
1.0
 40
1.0
 40
1.0
 10
4.3499899874
 20
5.1502373986
 30
0.0
 10
4.339321605
 20
5.1464245716
 30
0.0
 10
4.3236563112
 20
5.1396658773
 30
0.0
 10
4.3037889125
 20
5.1287286865
 30
0.0
 10
4.2894355344
 20
5.1195831024
 30
0.0
 10
4.2757012466
 20
5.1095415437
 30
0.0
 10
4.2626427395
 20
5.0986433686
 30
0.0
 10
4.2503132064
 20
5.0869376273
 30
0.0
 10
4.2387678769
 20
5.074471526
 30
0.0
 10
4.2280545497
 20
5.0612997809
 30
0.0
 10
4.2182189308
 20
5.0474786247
 30
0.0
 10
4.2093040422
 20
5.0330653323
 30
0.0
 10
4.1987040408
 20
5.0131676244
 30
0.0
 10
4.1900702479
 20
4.992301313
 30
0.0
 10
4.1835442792
 20
4.9707819281
 30
0.0
 10
4.180992682
 20
4.9598388877
 30
0.0
 10
4.179898528
 20
4.9543376058
 30
0.0
  0
LINE
  5
4B5
100
AcDbEntity
  8
ALL_ASSEMBLY_MEMBERS
100
AcDbLine
 62
7
  6
CONTINUOUS
 10
4.3502288997
 20
5.1503226084
 11
4.3498084784
 21
5.1507072187
  0
LINE
  5
4B6
100
AcDbEntity
  8
ALL_ASSEMBLY_MEMBERS
100
AcDbLine
 62
7
  6
CONTINUOUS
 10
4.1773075412
 20
4.9388369967
 11
4.1772794351
 21
4.9386292823
  0
SPLINE
  5
4B7
100
AcDbEntity
  8
ALL_ASSEMBLY_MEMBERS
100
AcDbSpline
 62
7
  6
CONTINUOUS
 70
0
 71
3
 72
9
 73
5
 74
0
 42
0.0000001
 43
0.0000001
 44
0.0000000001
 40
0.0
 40
0.0
 40
0.0
 40
0.0
 40
0.2542621097
 40
1.0
 40
1.0
 40
1.0
 40
1.0
 10
4.1772794351
 20
4.8539742397
 30
0.0
 10
4.175760891
 20
4.8451230543
 30
0.0
 10
4.1700355809
 20
4.8102701309
 30
0.0
 10
4.1653282544
 20
4.7752478329
 30
0.0
 10
4.1624639564
 20
4.7490646719
 30
0.0
  0
SPLINE
  5
4B8
100
AcDbEntity
  8
ALL_ASSEMBLY_MEMBERS
100
AcDbSpline
 62
7
  6
CONTINUOUS
 70
0
 71
3
 72
9
 73
5
 74
0
 42
0.0000001
 43
0.0000001
 44
0.0000000001
 40
0.0
 40
0.0
 40
0.0
 40
0.0
 40
0.2508632134
 40
1.0
 40
1.0
 40
1.0
 40
1.0
 10
4.1772794351
 20
4.9386292823
 30
0.0
 10
4.175724578
 20
4.9271340065
 30
0.0
 10
4.1698206605
 20
4.8812718766
 30
0.0
 10
4.1651010547
 20
4.8352568528
 30
0.0
 10
4.162251898
 20
4.80073402
 30
0.0
  0
LINE
  5
4B9
100
AcDbEntity
  8
ALL_ASSEMBLY_MEMBERS
100
AcDbLine
 62
7
  6
CONTINUOUS
 10
4.1556675482
 20
4.6970397294
 11
4.1555701563
 21
4.694829255
  0
LINE
  5
4BA
100
AcDbEntity
  8
ALL_ASSEMBLY_MEMBERS
100
AcDbLine
 62
7
  6
CONTINUOUS
 10
4.1555701563
 20
4.694829255
 11
4.1555414052
 21
4.6941687947
  0
LINE
  5
4BB
100
AcDbEntity
  8
ALL_ASSEMBLY_MEMBERS
100
AcDbLine
 62
7
  6
CONTINUOUS
 10
4.162251898
 20
4.7471151711
 11
4.1620015193
 21
4.7447874857
  0
SPLINE
  5
4BC
100
AcDbEntity
  8
ALL_ASSEMBLY_MEMBERS
100
AcDbSpline
 62
7
  6
CONTINUOUS
 70
0
 71
3
 72
10
 73
6
 74
0
 42
0.0000001
 43
0.0000001
 44
0.0000000001
 40
0.0
 40
0.0
 40
0.0
 40
0.0
 40
0.5194851956
 40
0.7665328358
 40
1.0
 40
1.0
 40
1.0
 40
1.0
 10
4.1620015193
 20
4.7447874857
 30
0.0
 10
4.1610708253
 20
4.7360873834
 30
0.0
 10
4.1597822254
 20
4.7232405712
 30
0.0
 10
4.1582604023
 20
4.7064663031
 30
0.0
 10
4.1575734567
 20
4.69840211
 30
0.0
 10
4.1572473246
 20
4.6944833466
 30
0.0
  0
LINE
  5
4BD
100
AcDbEntity
  8
ALL_ASSEMBLY_MEMBERS
100
AcDbLine
 62
7
  6
CONTINUOUS
 10
4.1572473246
 20
4.6944833466
 11
4.1566328915
 21
4.6870198343
  0
LINE
  5
4BE
100
AcDbEntity
  8
ALL_ASSEMBLY_MEMBERS
100
AcDbLine
 62
7
  6
CONTINUOUS
 10
4.1566328915
 20
4.6870198343
 11
4.1563288618
 21
4.683313311
  0
LINE
  5
4BF
100
AcDbEntity
  8
ALL_ASSEMBLY_MEMBERS
100
AcDbLine
 62
7
  6
CONTINUOUS
 10
4.1563288618
 20
4.683313311
 11
4.1561437098
 21
4.681087948
  0
LINE
  5
4C0
100
AcDbEntity
  8
ALL_ASSEMBLY_MEMBERS
100
AcDbLine
 62
7
  6
CONTINUOUS
 10
4.1561437098
 20
4.681087948
 11
4.1555434027
 21
4.6748440653
  0
SPLINE
  5
4C1
100
AcDbEntity
  8
ALL_ASSEMBLY_MEMBERS
100
AcDbSpline
 62
7
  6
CONTINUOUS
 70
0
 71
3
 72
22
 73
18
 74
0
 42
0.0000001
 43
0.0000001
 44
0.0000000001
 40
0.0
 40
0.0
 40
0.0
 40
0.0
 40
0.1871664152
 40
0.3302351426
 40
0.4248441398
 40
0.4530586979
 40
0.4692594842
 40
0.4750279992
 40
0.4819369053
 40
0.491609667
 40
0.5047608415
 40
0.5427239219
 40
0.5974242293
 40
0.6697734545
 40
0.7605243361
 40
0.8703753002
 40
1.0
 40
1.0
 40
1.0
 40
1.0
 10
4.1555434027
 20
4.6748440653
 30
0.0
 10
4.155534202
 20
4.6747828978
 30
0.0
 10
4.1555170516
 20
4.6746748378
 30
0.0
 10
4.1554901474
 20
4.67453785
 30
0.0
 10
4.1554680461
 20
4.6744511014
 30
0.0
 10
4.1554498529
 20
4.6744103721
 30
0.0
 10
4.1554386945
 20
4.6743955075
 30
0.0
 10
4.1554284145
 20
4.6743955288
 30
0.0
 10
4.1554225092
 20
4.6744005781
 30
0.0
 10
4.1554172646
 20
4.674408882
 30
0.0
 10
4.1554094659
 20
4.6744274968
 30
0.0
 10
4.1554010583
 20
4.6744615472
 30
0.0
 10
4.1553920695
 20
4.6745153426
 30
0.0
 10
4.15538373
 20
4.6745868655
 30
0.0
 10
4.1553760099
 20
4.6746767456
 30
0.0
 10
4.1553690316
 20
4.6747856646
 30
0.0
 10
4.1553652201
 20
4.6748647181
 30
0.0
 10
4.1553633973
 20
4.6749075183
 30
0.0
  0
LINE
  5
4C2
100
AcDbEntity
  8
ALL_ASSEMBLY_MEMBERS
100
AcDbLine
 62
7
  6
CONTINUOUS
 10
4.1553633973
 20
4.6749075183
 11
4.1554164707
 21
4.6809996893
  0
SPLINE
  5
4C3
100
AcDbEntity
  8
ALL_ASSEMBLY_MEMBERS
100
AcDbSpline
 62
7
  6
CONTINUOUS
 70
0
 71
3
 72
10
 73
6
 74
0
 42
0.0000001
 43
0.0000001
 44
0.0000000001
 40
0.0
 40
0.0
 40
0.0
 40
0.0
 40
0.2522341417
 40
0.5035759106
 40
1.0
 40
1.0
 40
1.0
 40
1.0
 10
4.1558618165
 20
4.6950239859
 30
0.0
 10
4.1560206944
 20
4.6992585248
 30
0.0
 10
4.1563707419
 20
4.7077114117
 30
0.0
 10
4.1571705941
 20
4.7244923595
 30
0.0
 10
4.1578768999
 20
4.7370352605
 30
0.0
 10
4.1583913436
 20
4.7453592733
 30
0.0
  0
SPLINE
  5
4C4
100
AcDbEntity
  8
ALL_ASSEMBLY_MEMBERS
100
AcDbSpline
 62
7
  6
CONTINUOUS
 70
0
 71
3
 72
11
 73
7
 74
0
 42
0.0000001
 43
0.0000001
 44
0.0000000001
 40
0.0
 40
0.0
 40
0.0
 40
0.0
 40
0.2770969401
 40
0.5390941495
 40
0.7813283286
 40
1.0
 40
1.0
 40
1.0
 40
1.0
 10
4.3620569822
 20
5.0630258546
 30
0.0
 10
4.3626206752
 20
5.0610500908
 30
0.0
 10
4.3636674235
 20
5.05719173
 30
0.0
 10
4.3650225371
 20
5.0515581552
 30
0.0
 10
4.3661035485
 20
5.0463071182
 30
0.0
 10
4.3666608167
 20
5.0429339679
 30
0.0
 10
4.3668829017
 20
5.0413278552
 30
0.0
  0
SPLINE
  5
4C5
100
AcDbEntity
  8
ALL_ASSEMBLY_MEMBERS
100
AcDbSpline
 62
7
  6
CONTINUOUS
 70
0
 71
3
 72
9
 73
5
 74
0
 42
0.0000001
 43
0.0000001
 44
0.0000000001
 40
0.0
 40
0.0
 40
0.0
 40
0.0
 40
0.2514854267
 40
1.0
 40
1.0
 40
1.0
 40
1.0
 10
4.1625049709
 20
4.8008687736
 30
0.0
 10
4.1634424665
 20
4.8117164406
 30
0.0
 10
4.1674664129
 20
4.854824609
 30
0.0
 10
4.1726812994
 20
4.8978224411
 30
0.0
 10
4.1772794351
 20
4.9299016357
 30
0.0
  0
SPLINE
  5
4C6
100
AcDbEntity
  8
ALL_ASSEMBLY_MEMBERS
100
AcDbSpline
 62
7
  6
CONTINUOUS
 70
0
 71
3
 72
15
 73
11
 74
0
 42
0.0000001
 43
0.0000001
 44
0.0000000001
 40
0.0
 40
0.0
 40
0.0
 40
0.0
 40
0.0939543002
 40
0.1927720711
 40
0.2991826987
 40
0.4152803146
 40
0.5425925446
 40
0.6821357359
 40
0.8345015023
 40
1.0
 40
1.0
 40
1.0
 40
1.0
 10
4.1622519009
 20
4.7979191036
 30
0.0
 10
4.1622495449
 20
4.7976443608
 30
0.0
 10
4.1623048911
 20
4.7970787491
 30
0.0
 10
4.1625580523
 20
4.7962365165
 30
0.0
 10
4.1629778981
 20
4.795391546
 30
0.0
 10
4.1635609643
 20
4.7945474568
 30
0.0
 10
4.1643048945
 20
4.793707394
 30
0.0
 10
4.1652062376
 20
4.7928739571
 30
0.0
 10
4.1662610224
 20
4.7920493803
 30
0.0
 10
4.1670321405
 20
4.7915289829
 30
0.0
 10
4.1674409134
 20
4.7912698824
 30
0.0
  0
LINE
  5
4C7
100
AcDbEntity
  8
ALL_ASSEMBLY_MEMBERS
100
AcDbLine
 62
7
  6
CONTINUOUS
 10
4.1772794351
 20
4.9299016357
 11
4.1773074334
 21
4.9300969309
  0
LINE
  5
4C8
100
AcDbEntity
  8
ALL_ASSEMBLY_MEMBERS
100
AcDbLine
 62
7
  6
CONTINUOUS
 10
4.1898064431
 20
4.9176844462
 11
4.189839187
 21
4.9178971999
  0
SPLINE
  5
4C9
100
AcDbEntity
  8
ALL_ASSEMBLY_MEMBERS
100
AcDbSpline
 62
7
  6
CONTINUOUS
 70
0
 71
3
 72
15
 73
11
 74
0
 42
0.0000001
 43
0.0000001
 44
0.0000000001
 40
0.0
 40
0.0
 40
0.0
 40
0.0
 40
0.0830138321
 40
0.173763259
 40
0.275820323
 40
0.3914232199
 40
0.5217062938
 40
0.6670523501
 40
0.8268876859
 40
1.0
 40
1.0
 40
1.0
 40
1.0
 10
4.1772794351
 20
4.9299016357
 30
0.0
 10
4.1772682545
 20
4.929395174
 30
0.0
 10
4.1774048792
 20
4.9283277662
 30
0.0
 10
4.1780356184
 20
4.9267527654
 30
0.0
 10
4.1790768366
 20
4.9251727909
 30
0.0
 10
4.1805141049
 20
4.9236008909
 30
0.0
 10
4.182331183
 20
4.9220450986
 30
0.0
 10
4.1845120031
 20
4.9205206526
 30
0.0
 10
4.1870311196
 20
4.9190417084
 30
0.0
 10
4.1888490318
 20
4.9181309352
 30
0.0
 10
4.1898064431
 20
4.9176844462
 30
0.0
  0
SPLINE
  5
4CA
100
AcDbEntity
  8
ALL_ASSEMBLY_MEMBERS
100
AcDbSpline
 62
7
  6
CONTINUOUS
 70
0
 71
3
 72
21
 73
17
 74
0
 42
0.0000001
 43
0.0000001
 44
0.0000000001
 40
0.0
 40
0.0
 40
0.0
 40
0.0
 40
0.1230554583
 40
0.1845759748
 40
0.2461019979
 40
0.3076957455
 40
0.3694106295
 40
0.4312876594
 40
0.4933654908
 40
0.5556801767
 40
0.618262283
 40
0.681131212
 40
0.7442984347
 40
0.8077782918
 40
0.8715852876
 40
1.0
 40
1.0
 40
1.0
 40
1.0
 10
4.1773074334
 20
4.9300969295
 30
0.0
 10
4.1788973085
 20
4.941213485
 30
0.0
 10
4.1825263537
 20
4.9577454553
 30
0.0
 10
4.1897579442
 20
4.9790225567
 30
0.0
 10
4.1963549621
 20
4.9945454116
 30
0.0
 10
4.204090375
 20
5.0095514624
 30
0.0
 10
4.2129273159
 20
5.0239743075
 30
0.0
 10
4.2228214354
 20
5.0377476626
 30
0.0
 10
4.2337278486
 20
5.0508053335
 30
0.0
 10
4.2455910753
 20
5.0630895909
 30
0.0
 10
4.2583571092
 20
5.0745408263
 30
0.0
 10
4.2719619809
 20
5.085108622
 30
0.0
 10
4.2863416382
 20
5.0947422464
 30
0.0
 10
4.3014303622
 20
5.1033981216
 30
0.0
 10
4.3224318111
 20
5.1135973602
 30
0.0
 10
4.3389770997
 20
5.1196336649
 30
0.0
 10
4.3502288851
 20
5.122908753
 30
0.0
  0
LINE
  5
4CB
100
AcDbEntity
  8
ALL_ASSEMBLY_MEMBERS
100
AcDbLine
 62
7
  6
CONTINUOUS
 10
4.5788822371
 20
4.054627164
 11
4.5785152142
 21
4.054155304
  0
SPLINE
  5
4CC
100
AcDbEntity
  8
ALL_ASSEMBLY_MEMBERS
100
AcDbSpline
 62
7
  6
CONTINUOUS
 70
0
 71
3
 72
21
 73
17
 74
0
 42
0.0000001
 43
0.0000001
 44
0.0000000001
 40
0.0
 40
0.0
 40
0.0
 40
0.0
 40
0.1228160514
 40
0.1842132805
 40
0.245623346
 40
0.3071154594
 40
0.3687485904
 40
0.4305683869
 40
0.4926159964
 40
0.5549292378
 40
0.6175389369
 40
0.6804642479
 40
0.7437156908
 40
0.8073057466
 40
0.8712467784
 40
1.0
 40
1.0
 40
1.0
 40
1.0
 10
4.1898392079
 20
4.9178972054
 30
0.0
 10
4.1914270484
 20
4.9282065763
 30
0.0
 10
4.1949737441
 20
4.9435239582
 30
0.0
 10
4.2019314967
 20
4.9632044021
 30
0.0
 10
4.2082394855
 20
4.9775470322
 30
0.0
 10
4.2156008775
 20
4.9913992526
 30
0.0
 10
4.2239786501
 20
5.0047028454
 30
0.0
 10
4.2333293361
 20
5.0173998395
 30
0.0
 10
4.2436093942
 20
5.0294325987
 30
0.0
 10
4.2547667445
 20
5.0407507423
 30
0.0
 10
4.2667506434
 20
5.0513025119
 30
0.0
 10
4.27950238
 20
5.0610437378
 30
0.0
 10
4.2929631777
 20
5.0699300941
 30
0.0
 10
4.3070733084
 20
5.0779231486
 30
0.0
 10
4.3267012434
 20
5.0873579693
 30
0.0
 10
4.3421452931
 20
5.0929599437
 30
0.0
 10
4.3526457138
 20
5.0960127187
 30
0.0
  0
SPLINE
  5
4CD
100
AcDbEntity
  8
ALL_ASSEMBLY_MEMBERS
100
AcDbSpline
 62
7
  6
CONTINUOUS
 70
0
 71
3
 72
13
 73
9
 74
0
 42
0.0000001
 43
0.0000001
 44
0.0000000001
 40
0.0
 40
0.0
 40
0.0
 40
0.0
 40
0.2441297228
 40
0.3674666722
 40
0.4915884201
 40
0.6168464582
 40
0.7435300696
 40
1.0
 40
1.0
 40
1.0
 40
1.0
 10
4.5885047961
 20
4.1113005351
 30
0.0
 10
4.588504798
 20
4.109681251
 30
0.0
 10
4.5881695725
 20
4.1072286932
 30
0.0
 10
4.5871015512
 20
4.1041412393
 30
0.0
 10
4.5859898754
 20
4.1019246722
 30
0.0
 10
4.5845906298
 20
4.0998510821
 30
0.0
 10
4.5823607824
 20
4.0973128943
 30
0.0
 10
4.5803358023
 20
4.0957236219
 30
0.0
 10
4.5788827726
 20
4.0948389944
 30
0.0
  0
SPLINE
  5
4CE
100
AcDbEntity
  8
ALL_ASSEMBLY_MEMBERS
100
AcDbSpline
 62
7
  6
CONTINUOUS
 70
0
 71
3
 72
15
 73
11
 74
0
 42
0.0000001
 43
0.0000001
 44
0.0000000001
 40
0.0
 40
0.0
 40
0.0
 40
0.0
 40
0.0829250137
 40
0.1736072676
 40
0.2756252905
 40
0.3912182609
 40
0.5215186524
 40
0.6669067057
 40
0.8268056419
 40
1.0
 40
1.0
 40
1.0
 40
1.0
 10
4.1773075938
 20
4.930097676
 30
0.0
 10
4.1772965385
 20
4.9295920097
 30
0.0
 10
4.1774335183
 20
4.9285261184
 30
0.0
 10
4.1780648249
 20
4.9269535375
 30
0.0
 10
4.1791066088
 20
4.9253759334
 30
0.0
 10
4.1805444497
 20
4.9238062893
 30
0.0
 10
4.1823621256
 20
4.9222526056
 30
0.0
 10
4.1845435691
 20
4.9207301057
 30
0.0
 10
4.1870633311
 20
4.9192529319
 30
0.0
 10
4.1888816061
 20
4.9183432051
 30
0.0
 10
4.1898392079
 20
4.9178972054
 30
0.0
  0
SPLINE
  5
4CF
100
AcDbEntity
  8
ALL_ASSEMBLY_MEMBERS
100
AcDbSpline
 62
7
  6
CONTINUOUS
 70
0
 71
3
 72
13
 73
9
 74
0
 42
0.0000001
 43
0.0000001
 44
0.0000000001
 40
0.0
 40
0.0
 40
0.0
 40
0.0
 40
0.3219488083
 40
0.6064988761
 40
0.7296944353
 40
0.8375176267
 40
0.9281524935
 40
1.0
 40
1.0
 40
1.0
 40
1.0
 10
4.571861541
 20
4.1208626803
 30
0.0
 10
4.5726839437
 20
4.1180891227
 30
0.0
 10
4.5741946953
 20
4.1128527314
 30
0.0
 10
4.5759346614
 20
4.1065308235
 30
0.0
 10
4.5771130626
 20
4.1020504446
 30
0.0
 10
4.5778276653
 20
4.0992498781
 30
0.0
 10
4.578408792
 20
4.0968915392
 30
0.0
 10
4.5787423969
 20
4.0954700683
 30
0.0
 10
4.5788822282
 20
4.0948397973
 30
0.0
  0
SPLINE
  5
4D0
100
AcDbEntity
  8
ALL_ASSEMBLY_MEMBERS
100
AcDbSpline
 62
7
  6
CONTINUOUS
 70
0
 71
3
 72
19
 73
15
 74
0
 42
0.0000001
 43
0.0000001
 44
0.0000000001
 40
0.0
 40
0.0
 40
0.0
 40
0.0
 40
0.023393588
 40
0.0495416198
 40
0.0803153755
 40
0.1168088826
 40
0.1595915238
 40
0.2088202972
 40
0.2644414616
 40
0.3262993192
 40
0.4676259599
 40
0.6298470195
 40
0.8091242925
 40
1.0
 40
1.0
 40
1.0
 40
1.0
 10
4.5885047961
 20
4.1256880456
 30
0.0
 10
4.5885047902
 20
4.1255477109
 30
0.0
 10
4.5884459964
 20
4.1252487284
 30
0.0
 10
4.588201286
 20
4.1248267094
 30
0.0
 10
4.5878118521
 20
4.1244186992
 30
0.0
 10
4.5872806553
 20
4.1240230359
 30
0.0
 10
4.5866096887
 20
4.123640691
 30
0.0
 10
4.5858032482
 20
4.1232725295
 30
0.0
 10
4.5848664629
 20
4.1229206715
 30
0.0
 10
4.5833844379
 20
4.1224560153
 30
0.0
 10
4.5812495002
 20
4.1219480575
 30
0.0
 10
4.5783932274
 20
4.1214594397
 30
0.0
 10
4.5752201978
 20
4.1210865584
 30
0.0
 10
4.5730049455
 20
4.1209237611
 30
0.0
 10
4.571861541
 20
4.1208626803
 30
0.0
  0
SPLINE
  5
4D1
100
AcDbEntity
  8
ALL_ASSEMBLY_MEMBERS
100
AcDbSpline
 62
7
  6
CONTINUOUS
 70
0
 71
3
 72
19
 73
15
 74
0
 42
0.0000001
 43
0.0000001
 44
0.0000000001
 40
0.0
 40
0.0
 40
0.0
 40
0.0
 40
0.1234287988
 40
0.247617838
 40
0.3099656199
 40
0.3724490859
 40
0.4350444655
 40
0.4977279605
 40
0.623227677
 40
0.7488417199
 40
0.8116718619
 40
0.8744815452
 40
0.937264677
 40
1.0
 40
1.0
 40
1.0
 40
1.0
 10
4.3526457119
 20
5.0960127202
 30
0.0
 10
4.3617211551
 20
5.098647766
 30
0.0
 10
4.3802438234
 20
5.1029026742
 30
0.0
 10
4.4038740094
 20
5.1055993826
 30
0.0
 10
4.4229397902
 20
5.1061747488
 30
0.0
 10
4.4372929252
 20
5.1058094942
 30
0.0
 10
4.4516294325
 20
5.1046476014
 30
0.0
 10
4.4706601083
 20
5.1020367166
 30
0.0
 10
4.4941606685
 20
5.0967940417
 30
0.0
 10
4.5169450482
 20
5.0889709473
 30
0.0
 10
4.534561165
 20
5.0812211479
 30
0.0
 10
4.5474275536
 20
5.0746782013
 30
0.0
 10
4.5598993535
 20
5.0674274086
 30
0.0
 10
4.5679276777
 20
5.062134122
 30
0.0
 10
4.5718615402
 20
5.0593779813
 30
0.0
  0
SPLINE
  5
4D2
100
AcDbEntity
  8
ALL_ASSEMBLY_MEMBERS
100
AcDbSpline
 62
7
  6
CONTINUOUS
 70
0
 71
3
 72
21
 73
17
 74
0
 42
0.0000001
 43
0.0000001
 44
0.0000000001
 40
0.0
 40
0.0
 40
0.0
 40
0.0
 40
0.0225960091
 40
0.0480583547
 40
0.078299972
 40
0.1144086192
 40
0.1348618494
 40
0.1569494496
 40
0.2060313116
 40
0.2616010171
 40
0.3234929633
 40
0.3914633751
 40
0.4651441403
 40
0.627941739
 40
0.8080511401
 40
1.0
 40
1.0
 40
1.0
 40
1.0
 10
4.5885047961
 20
4.1442860699
 30
0.0
 10
4.5885047961
 20
4.1441520552
 30
0.0
 10
4.5884458499
 20
4.1438652745
 30
0.0
 10
4.5882022633
 20
4.143462816
 30
0.0
 10
4.5878158795
 20
4.1430741931
 30
0.0
 10
4.5873958508
 20
4.1427734985
 30
0.0
 10
4.5869943341
 20
4.1425358231
 30
0.0
 10
4.5865126513
 20
4.1422837763
 30
0.0
 10
4.585823581
 20
4.1419813292
 30
0.0
 10
4.5848941314
 20
4.1416454505
 30
0.0
 10
4.5838408807
 20
4.1413274101
 30
0.0
 10
4.5826706403
 20
4.1410296908
 30
0.0
 10
4.5809051379
 20
4.1406494632
 30
0.0
 10
4.5784657864
 20
4.1402474244
 30
0.0
 10
4.5753130096
 20
4.1398886278
 30
0.0
 10
4.5731112885
 20
4.1397310646
 30
0.0
 10
4.5719744195
 20
4.1396714799
 30
0.0
  0
SPLINE
  5
4D3
100
AcDbEntity
  8
ALL_ASSEMBLY_MEMBERS
100
AcDbSpline
 62
7
  6
CONTINUOUS
 70
0
 71
3
 72
17
 73
13
 74
0
 42
0.0000001
 43
0.0000001
 44
0.0000000001
 40
0.0
 40
0.0
 40
0.0
 40
0.0
 40
0.0356235786
 40
0.0754062538
 40
0.1192999793
 40
0.1672217626
 40
0.2746977964
 40
0.3967757903
 40
0.5321158485
 40
0.6792370001
 40
0.8360348952
 40
1.0
 40
1.0
 40
1.0
 40
1.0
 10
4.3502289097
 20
5.1229086862
 30
0.0
 10
4.3501518726
 20
5.1225954058
 30
0.0
 10
4.3500171052
 20
5.1219252113
 30
0.0
 10
4.349871344
 20
5.1208541808
 30
0.0
 10
4.3497712973
 20
5.119666156
 30
0.0
 10
4.3496969085
 20
5.1178624368
 30
0.0
 10
4.3497342815
 20
5.1153479025
 30
0.0
 10
4.3499627201
 20
5.1120501403
 30
0.0
 10
4.3503735746
 20
5.1084086841
 30
0.0
 10
4.3509632142
 20
5.104473872
 30
0.0
 10
4.3517214457
 20
5.1003044353
 30
0.0
 10
4.3523206527
 20
5.0974616003
 30
0.0
 10
4.3526457119
 20
5.0960127202
 30
0.0
  0
SPLINE
  5
4D4
100
AcDbEntity
  8
ALL_ASSEMBLY_MEMBERS
100
AcDbSpline
 62
7
  6
CONTINUOUS
 70
0
 71
3
 72
19
 73
15
 74
0
 42
0.0000001
 43
0.0000001
 44
0.0000000001
 40
0.0
 40
0.0
 40
0.0
 40
0.0
 40
0.1235431402
 40
0.1856262392
 40
0.247851326
 40
0.3102097364
 40
0.3726929484
 40
0.4352830514
 40
0.4979563547
 40
0.6234217314
 40
0.7489909803
 40
0.8117953386
 40
0.8745813204
 40
1.0
 40
1.0
 40
1.0
 40
1.0
 10
4.3502288851
 20
5.122908753
 30
0.0
 10
4.3596931087
 20
5.1256630507
 30
0.0
 10
4.3741653171
 20
5.1289972902
 30
0.0
 10
4.3937454767
 20
5.1318124506
 30
0.0
 10
4.4085906427
 20
5.1331073866
 30
0.0
 10
4.4235157434
 20
5.1335786595
 30
0.0
 10
4.4384732793
 20
5.1332223833
 30
0.0
 10
4.453413782
 20
5.1320400185
 30
0.0
 10
4.4732470727
 20
5.1293656773
 30
0.0
 10
4.4977436143
 20
5.1239723934
 30
0.0
 10
4.5215077555
 20
5.115913716
 30
0.0
 10
4.539895647
 20
5.1079254657
 30
0.0
 10
4.5578006901
 20
5.098938364
 30
0.0
 10
4.5706487901
 20
5.0910877612
 30
0.0
 10
4.5788827777
 20
5.0854016839
 30
0.0
  0
SPLINE
  5
4D5
100
AcDbEntity
  8
ALL_ASSEMBLY_MEMBERS
100
AcDbSpline
 62
7
  6
CONTINUOUS
 70
0
 71
3
 72
15
 73
11
 74
0
 42
0.0000001
 43
0.0000001
 44
0.0000000001
 40
0.0
 40
0.0
 40
0.0
 40
0.0
 40
0.1116020132
 40
0.2300468027
 40
0.3538982033
 40
0.4816412708
 40
0.6117112383
 40
0.7425175083
 40
0.8724769203
 40
1.0
 40
1.0
 40
1.0
 40
1.0
 10
4.5788827669
 20
4.8032559292
 30
0.0
 10
4.5703538566
 20
4.8038703149
 30
0.0
 10
4.5527481867
 20
4.8048083051
 30
0.0
 10
4.5256324113
 20
4.8053246384
 30
0.0
 10
4.4972774041
 20
4.8049225224
 30
0.0
 10
4.4680611754
 20
4.8035462657
 30
0.0
 10
4.4383750419
 20
4.8011617914
 30
0.0
 10
4.4086170828
 20
4.7977576627
 30
0.0
 10
4.3791893026
 20
4.7933443389
 30
0.0
 10
4.3597941285
 20
4.7897024634
 30
0.0
 10
4.3502288851
 20
4.7877083608
 30
0.0
  0
SPLINE
  5
4D6
100
AcDbEntity
  8
ALL_ASSEMBLY_MEMBERS
100
AcDbSpline
 62
7
  6
CONTINUOUS
 70
0
 71
3
 72
15
 73
11
 74
0
 42
0.0000001
 43
0.0000001
 44
0.0000000001
 40
0.0
 40
0.0
 40
0.0
 40
0.0
 40
0.11128876
 40
0.2295697061
 40
0.3533740071
 40
0.4811502225
 40
0.6113064773
 40
0.7422313419
 40
0.8723220536
 40
1.0
 40
1.0
 40
1.0
 40
1.0
 10
4.5718615206
 20
4.8276553685
 30
0.0
 10
4.5637047522
 20
4.8282460966
 30
0.0
 10
4.5468548091
 20
4.8291511776
 30
0.0
 10
4.5208869253
 20
4.8296498907
 30
0.0
 10
4.4937050612
 20
4.8292522911
 30
0.0
 10
4.4656803382
 20
4.8278952492
 30
0.0
 10
4.43719656
 20
4.8255383118
 30
0.0
 10
4.4086435059
 20
4.8221638409
 30
0.0
 10
4.3804125525
 20
4.8177775159
 30
0.0
 10
4.361814883
 20
4.8141490243
 30
0.0
 10
4.3526457117
 20
4.8121596428
 30
0.0
  0
SPLINE
  5
4D7
100
AcDbEntity
  8
ALL_ASSEMBLY_MEMBERS
100
AcDbSpline
 62
7
  6
CONTINUOUS
 70
0
 71
3
 72
22
 73
18
 74
0
 42
0.0000001
 43
0.0000001
 44
0.0000000001
 40
0.0
 40
0.0
 40
0.0
 40
0.0
 40
0.0820006667
 40
0.1624259626
 40
0.3173072507
 40
0.391284168
 40
0.4626612982
 40
0.5312356423
 40
0.59681353
 40
0.6592254331
 40
0.7183326569
 40
0.7740176326
 40
0.8262025283
 40
0.8748448273
 40
0.9199554255
 40
0.9616205838
 40
1.0
 40
1.0
 40
1.0
 40
1.0
 10
4.3502288851
 20
4.7877083608
 30
0.0
 10
4.3451765456
 20
4.7866550356
 30
0.0
 10
4.3351927128
 20
4.7844516447
 30
0.0
 10
4.3158008914
 20
4.7796731025
 30
0.0
 10
4.2970792059
 20
4.7743007274
 30
0.0
 10
4.2791575518
 20
4.7683031931
 30
0.0
 10
4.2665243729
 20
4.7636392503
 30
0.0
 10
4.2545409216
 20
4.7587615093
 30
0.0
 10
4.2432537073
 20
4.7536898828
 30
0.0
 10
4.2327067613
 20
4.7484455835
 30
0.0
 10
4.2229397438
 20
4.7430531745
 30
0.0
 10
4.213990724
 20
4.7375346456
 30
0.0
 10
4.205893136
 20
4.7319159172
 30
0.0
 10
4.1986775615
 20
4.7262219509
 30
0.0
 10
4.1923716114
 20
4.7204755987
 30
0.0
 10
4.1869987866
 20
4.7147023589
 30
0.0
 10
4.1839330557
 20
4.7106904555
 30
0.0
 10
4.1825828994
 20
4.7086874919
 30
0.0
  0
SPLINE
  5
4D8
100
AcDbEntity
  8
ALL_ASSEMBLY_MEMBERS
100
AcDbSpline
 62
7
  6
CONTINUOUS
 70
0
 71
3
 72
9
 73
5
 74
0
 42
0.0000001
 43
0.0000001
 44
0.0000000001
 40
0.0
 40
0.0
 40
0.0
 40
0.0
 40
0.2633445047
 40
1.0
 40
1.0
 40
1.0
 40
1.0
 10
4.1825828994
 20
4.7086874919
 30
0.0
 10
4.1820278465
 20
4.7078640682
 30
0.0
 10
4.1799975804
 20
4.7046869627
 30
0.0
 10
4.1782929462
 20
4.7012927792
 30
0.0
 10
4.1773075412
 20
4.6986956235
 30
0.0
  0
SPLINE
  5
4D9
100
AcDbEntity
  8
ALL_ASSEMBLY_MEMBERS
100
AcDbSpline
 62
7
  6
CONTINUOUS
 70
0
 71
3
 72
15
 73
11
 74
0
 42
0.0000001
 43
0.0000001
 44
0.0000000001
 40
0.0
 40
0.0
 40
0.0
 40
0.0
 40
0.1460125787
 40
0.2877109258
 40
0.4240659425
 40
0.5542777833
 40
0.6776046988
 40
0.7933573926
 40
0.9009688038
 40
1.0
 40
1.0
 40
1.0
 40
1.0
 10
4.3526457077
 20
4.812159657
 30
0.0
 10
4.34582198
 20
4.8106795364
 30
0.0
 10
4.3324249967
 20
4.8075311574
 30
0.0
 10
4.3128637061
 20
4.8021655183
 30
0.0
 10
4.2942511833
 20
4.7962527031
 30
0.0
 10
4.2767368211
 20
4.7898401756
 30
0.0
 10
4.2604559934
 20
4.7829798941
 30
0.0
 10
4.2455369667
 20
4.7757278729
 30
0.0
 10
4.2320989291
 20
4.7681505249
 30
0.0
 10
4.2238467203
 20
4.7626928381
 30
0.0
 10
4.2200148682
 20
4.7599100247
 30
0.0
  0
SPLINE
  5
4DA
100
AcDbEntity
  8
ALL_ASSEMBLY_MEMBERS
100
AcDbSpline
 62
7
  6
CONTINUOUS
 70
0
 71
3
 72
17
 73
13
 74
0
 42
0.0000001
 43
0.0000001
 44
0.0000000001
 40
0.0
 40
0.0
 40
0.0
 40
0.0
 40
0.1707702896
 40
0.3318918724
 40
0.480947787
 40
0.6160228698
 40
0.7359714328
 40
0.8399532092
 40
0.8858711783
 40
0.9277652827
 40
0.9657406096
 40
1.0
 40
1.0
 40
1.0
 40
1.0
 10
4.3502288997
 20
4.7877083461
 30
0.0
 10
4.350087126
 20
4.7891221434
 30
0.0
 10
4.3498619263
 20
4.7918752569
 30
0.0
 10
4.3496981934
 20
4.795874821
 30
0.0
 10
4.3497197732
 20
4.79958105
 30
0.0
 10
4.3499283837
 20
4.802938939
 30
0.0
 10
4.3503183071
 20
4.8059030865
 30
0.0
 10
4.3508093842
 20
4.8080989872
 30
0.0
 10
4.3513046105
 20
4.8096172042
 30
0.0
 10
4.3517017256
 20
4.8105868143
 30
0.0
 10
4.3521383763
 20
4.8114315794
 30
0.0
 10
4.3524716577
 20
4.8119339085
 30
0.0
 10
4.3526457077
 20
4.812159657
 30
0.0
  0
SPLINE
  5
4DB
100
AcDbEntity
  8
ALL_ASSEMBLY_MEMBERS
100
AcDbSpline
 62
7
  6
CONTINUOUS
 70
0
 71
3
 72
15
 73
11
 74
0
 42
0.0000001
 43
0.0000001
 44
0.0000000001
 40
0.0
 40
0.0
 40
0.0
 40
0.0
 40
0.1844232625
 40
0.351358919
 40
0.5001748736
 40
0.630924112
 40
0.7443212895
 40
0.8417498476
 40
0.9256804548
 40
1.0
 40
1.0
 40
1.0
 40
1.0
 10
4.5788822408
 20
4.157899542
 30
0.0
 10
4.578808037
 20
4.157286066
 30
0.0
 10
4.5786423296
 20
4.1561199757
 30
0.0
 10
4.5783213236
 20
4.1544741879
 30
0.0
 10
4.5779423861
 20
4.1530255956
 30
0.0
 10
4.5775076514
 20
4.1517808404
 30
0.0
 10
4.5770189342
 20
4.1507429579
 30
0.0
 10
4.5764755039
 20
4.1499130808
 30
0.0
 10
4.5758762297
 20
4.1492920801
 30
0.0
 10
4.575416797
 20
4.1490110647
 30
0.0
 10
4.575186549
 20
4.148916206
 30
0.0
  0
SPLINE
  5
4DC
100
AcDbEntity
  8
ALL_ASSEMBLY_MEMBERS
100
AcDbSpline
 62
7
  6
CONTINUOUS
 70
0
 71
3
 72
15
 73
11
 74
0
 42
0.0000001
 43
0.0000001
 44
0.0000000001
 40
0.0
 40
0.0
 40
0.0
 40
0.0
 40
0.1167263201
 40
0.2347732413
 40
0.354666602
 40
0.4770255352
 40
0.602524873
 40
0.7316481525
 40
0.8643202523
 40
1.0
 40
1.0
 40
1.0
 40
1.0
 10
4.5885047961
 20
4.1722644804
 30
0.0
 10
4.5885047968
 20
4.1715579133
 30
0.0
 10
4.588393176
 20
4.1701345308
 30
0.0
 10
4.5879027602
 20
4.1680366218
 30
0.0
 10
4.5870948204
 20
4.1660022219
 30
0.0
 10
4.5859795982
 20
4.1640671949
 30
0.0
 10
4.5845777044
 20
4.1622580823
 30
0.0
 10
4.5829079634
 20
4.1606034615
 30
0.0
 10
4.5810015424
 20
4.1591269724
 30
0.0
 10
4.5796080871
 20
4.1582842089
 30
0.0
 10
4.5788828074
 20
4.1578988568
 30
0.0
  0
SPLINE
  5
4DD
100
AcDbEntity
  8
ALL_ASSEMBLY_MEMBERS
100
AcDbSpline
 62
7
  6
CONTINUOUS
 70
0
 71
3
 72
8
 73
4
 74
0
 42
0.0000001
 43
0.0000001
 44
0.0000000001
 40
0.0
 40
0.0
 40
0.0
 40
0.0
 40
1.0
 40
1.0
 40
1.0
 40
1.0
 10
4.1773075412
 20
4.6986956235
 30
0.0
 10
4.1772981625
 20
4.6986703388
 30
0.0
 10
4.1772887938
 20
4.6986450503
 30
0.0
 10
4.1772794351
 20
4.6986197582
 30
0.0
  0
SPLINE
  5
4DE
100
AcDbEntity
  8
ALL_ASSEMBLY_MEMBERS
100
AcDbSpline
 62
7
  6
CONTINUOUS
 70
0
 71
3
 72
15
 73
11
 74
0
 42
0.0000001
 43
0.0000001
 44
0.0000000001
 40
0.0
 40
0.0
 40
0.0
 40
0.0
 40
0.1038694078
 40
0.2107932799
 40
0.3228333903
 40
0.4417035729
 40
0.5686385903
 40
0.7043095019
 40
0.8484324183
 40
1.0
 40
1.0
 40
1.0
 40
1.0
 10
4.5885047961
 20
4.2784760532
 30
0.0
 10
4.5885047974
 20
4.2779478249
 30
0.0
 10
4.5883907567
 20
4.2768729082
 30
0.0
 10
4.587892775
 20
4.2752982869
 30
0.0
 10
4.5870759547
 20
4.2737763358
 30
0.0
 10
4.5859539897
 20
4.2723340822
 30
0.0
 10
4.5845481558
 20
4.2709884315
 30
0.0
 10
4.5828779822
 20
4.2697596951
 30
0.0
 10
4.5809732999
 20
4.2686635943
 30
0.0
 10
4.5795993567
 20
4.2680458525
 30
0.0
 10
4.5788827669
 20
4.2677619017
 30
0.0
  0
SPLINE
  5
4DF
100
AcDbEntity
  8
ALL_ASSEMBLY_MEMBERS
100
AcDbSpline
 62
7
  6
CONTINUOUS
 70
0
 71
3
 72
14
 73
10
 74
0
 42
0.0000001
 43
0.0000001
 44
0.0000000001
 40
0.0
 40
0.0
 40
0.0
 40
0.0
 40
0.1308546962
 40
0.2633602485
 40
0.5267535487
 40
0.6543980171
 40
0.7769975772
 40
0.8928015865
 40
1.0
 40
1.0
 40
1.0
 40
1.0
 10
4.5718615304
 20
4.3024988111
 30
0.0
 10
4.5722936495
 20
4.3010127198
 30
0.0
 10
4.5731278693
 20
4.2980113571
 30
0.0
 10
4.5746677603
 20
4.2919743611
 30
0.0
 10
4.5760153742
 20
4.2859285501
 30
0.0
 10
4.5771491597
 20
4.2799600595
 30
0.0
 10
4.5778653292
 20
4.2756899999
 30
0.0
 10
4.5784482564
 20
4.2716439245
 30
0.0
 10
4.5787557715
 20
4.2690239622
 30
0.0
 10
4.5788822065
 20
4.2677624277
 30
0.0
  0
SPLINE
  5
4E0
100
AcDbEntity
  8
ALL_ASSEMBLY_MEMBERS
100
AcDbSpline
 62
7
  6
CONTINUOUS
 70
0
 71
3
 72
20
 73
16
 74
0
 42
0.0000001
 43
0.0000001
 44
0.0000000001
 40
0.0
 40
0.0
 40
0.0
 40
0.0
 40
0.028084611
 40
0.0583274541
 40
0.0923160095
 40
0.1311183528
 40
0.1753806875
 40
0.2253691653
 40
0.28112657
 40
0.3425747147
 40
0.4095414354
 40
0.4817234673
 40
0.6402435459
 40
0.8146982844
 40
1.0
 40
1.0
 40
1.0
 40
1.0
 10
4.5885047961
 20
4.2964872778
 30
0.0
 10
4.5885047902
 20
4.2966610843
 30
0.0
 10
4.5884488404
 20
4.2970237922
 30
0.0
 10
4.5882087809
 20
4.297548336
 30
0.0
 10
4.5878206065
 20
4.2980592799
 30
0.0
 10
4.5872888221
 20
4.2985550783
 30
0.0
 10
4.5866165029
 20
4.2990336038
 30
0.0
 10
4.5858087906
 20
4.299493691
 30
0.0
 10
4.5848709463
 20
4.2999328974
 30
0.0
 10
4.5838088366
 20
4.3003482845
 30
0.0
 10
4.5826291774
 20
4.3007366965
 30
0.0
 10
4.5808540493
 20
4.3012311323
 30
0.0
 10
4.5783992405
 20
4.3017540782
 30
0.0
 10
4.5752241097
 20
4.3022194834
 30
0.0
 10
4.5730057702
 20
4.3024226458
 30
0.0
 10
4.5718615304
 20
4.3024988111
 30
0.0
  0
SPLINE
  5
4E1
100
AcDbEntity
  8
ALL_ASSEMBLY_MEMBERS
100
AcDbSpline
 62
7
  6
CONTINUOUS
 70
0
 71
3
 72
20
 73
16
 74
0
 42
0.0000001
 43
0.0000001
 44
0.0000000001
 40
0.0
 40
0.0
 40
0.0
 40
0.0
 40
0.0289036845
 40
0.0598712505
 40
0.0944366365
 40
0.1336538833
 40
0.1781762068
 40
0.2282873725
 40
0.2840484732
 40
0.3453975483
 40
0.4121770693
 40
0.4840984533
 40
0.6419285246
 40
0.8155548344
 40
1.0
 40
1.0
 40
1.0
 40
1.0
 10
4.5885047961
 20
4.3147547346
 30
0.0
 10
4.5885047961
 20
4.3149335089
 30
0.0
 10
4.588449677
 20
4.3153055203
 30
0.0
 10
4.588212276
 20
4.3158451162
 30
0.0
 10
4.5878275298
 20
4.316371397
 30
0.0
 10
4.5872999508
 20
4.3168823303
 30
0.0
 10
4.586632714
 20
4.317375563
 30
0.0
 10
4.5858310317
 20
4.317849847
 30
0.0
 10
4.5849001259
 20
4.318302717
 30
0.0
 10
4.5838457755
 20
4.3187311974
 30
0.0
 10
4.5826745825
 20
4.3191320821
 30
0.0
 10
4.5809124019
 20
4.3196426346
 30
0.0
 10
4.5784740992
 20
4.3201837126
 30
0.0
 10
4.5753182343
 20
4.320666992
 30
0.0
 10
4.5731124228
 20
4.3208793893
 30
0.0
 10
4.5719744195
 20
4.3209595884
 30
0.0
  0
SPLINE
  5
4E2
100
AcDbEntity
  8
ALL_ASSEMBLY_MEMBERS
100
AcDbSpline
 62
7
  6
CONTINUOUS
 70
0
 71
3
 72
9
 73
5
 74
0
 42
0.0000001
 43
0.0000001
 44
0.0000000001
 40
0.0
 40
0.0
 40
0.0
 40
0.0
 40
0.5166672995
 40
1.0
 40
1.0
 40
1.0
 40
1.0
 10
4.1772794351
 20
4.6986197582
 30
0.0
 10
4.1748842427
 20
4.6921467051
 30
0.0
 10
4.1704392682
 20
4.6795462529
 30
0.0
 10
4.1664841323
 20
4.6667814945
 30
0.0
 10
4.1647225348
 20
4.6605697756
 30
0.0
  0
SPLINE
  5
4E3
100
AcDbEntity
  8
ALL_ASSEMBLY_MEMBERS
100
AcDbSpline
 62
7
  6
CONTINUOUS
 70
0
 71
3
 72
26
 73
22
 74
0
 42
0.0000001
 43
0.0000001
 44
0.0000000001
 40
0.0
 40
0.0
 40
0.0
 40
0.0
 40
0.0321604046
 40
0.0654415168
 40
0.1008672477
 40
0.1394757585
 40
0.1604379381
 40
0.1827590036
 40
0.2066630077
 40
0.2324198025
 40
0.290372015
 40
0.3577522422
 40
0.3946773493
 40
0.4332976614
 40
0.5138949965
 40
0.596478703
 40
0.6792729571
 40
0.7613618485
 40
0.8423149988
 40
0.9219164386
 40
1.0
 40
1.0
 40
1.0
 40
1.0
 10
4.5719744668
 20
4.3482413392
 30
0.0
 10
4.5722817793
 20
4.3481421897
 30
0.0
 10
4.5728920081
 20
4.3478899504
 30
0.0
 10
4.5737587898
 20
4.3473585224
 30
0.0
 10
4.5745800603
 20
4.3466534294
 30
0.0
 10
4.5751909846
 20
4.3459147819
 30
0.0
 10
4.5756386314
 20
4.3452244106
 30
0.0
 10
4.5759630225
 20
4.3446321389
 30
0.0
 10
4.5762597113
 20
4.3439722328
 30
0.0
 10
4.5766221966
 20
4.3429532629
 30
0.0
 10
4.5769505465
 20
4.3414647748
 30
0.0
 10
4.5770474601
 20
4.3398326578
 30
0.0
 10
4.5770014
 20
4.3383977974
 30
0.0
 10
4.5768593135
 20
4.3368356634
 30
0.0
 10
4.5765301058
 20
4.334833768
 30
0.0
 10
4.5759644966
 20
4.3324286301
 30
0.0
 10
4.5752974315
 20
4.3300345845
 30
0.0
 10
4.5745521175
 20
4.3276809089
 30
0.0
 10
4.5737392083
 20
4.3253838708
 30
0.0
 10
4.5728857765
 20
4.323144741
 30
0.0
 10
4.5722844345
 20
4.321679828
 30
0.0
 10
4.5719744956
 20
4.3209596835
 30
0.0
  0
SPLINE
  5
4E4
100
AcDbEntity
  8
ALL_ASSEMBLY_MEMBERS
100
AcDbSpline
 62
7
  6
CONTINUOUS
 70
0
 71
3
 72
11
 73
7
 74
0
 42
0.0000001
 43
0.0000001
 44
0.0000000001
 40
0.0
 40
0.0
 40
0.0
 40
0.0
 40
0.2475745377
 40
0.496432487
 40
0.7472911609
 40
1.0
 40
1.0
 40
1.0
 40
1.0
 10
4.5885056011
 20
4.3686439454
 30
0.0
 10
4.5885055547
 20
4.3663157339
 30
0.0
 10
4.5876916991
 20
4.3616086681
 30
0.0
 10
4.584171354
 20
4.3553750209
 30
0.0
 10
4.5787628856
 20
4.3506164186
 30
0.0
 10
4.5742896172
 20
4.3487778155
 30
0.0
 10
4.5719744668
 20
4.3482413392
 30
0.0
  0
LINE
  5
4E5
100
AcDbEntity
  8
ALL_ASSEMBLY_MEMBERS
100
AcDbLine
 62
7
  6
CONTINUOUS
 10
4.5718615791
 20
4.3525852702
 11
4.5719744195
 21
4.3482415334
  0
SPLINE
  5
4E6
100
AcDbEntity
  8
ALL_ASSEMBLY_MEMBERS
100
AcDbSpline
 62
7
  6
CONTINUOUS
 70
0
 71
3
 72
11
 73
7
 74
0
 42
0.0000001
 43
0.0000001
 44
0.0000000001
 40
0.0
 40
0.0
 40
0.0
 40
0.0
 40
0.2473344353
 40
0.4960832615
 40
0.7470308099
 40
1.0
 40
1.0
 40
1.0
 40
1.0
 10
4.5885047961
 20
4.3729661315
 30
0.0
 10
4.5885048007
 20
4.370633922
 30
0.0
 10
4.5876838887
 20
4.3659170561
 30
0.0
 10
4.5841348621
 20
4.3596788066
 30
0.0
 10
4.5786873657
 20
4.3549304499
 30
0.0
 10
4.5741884177
 20
4.35311032
 30
0.0
 10
4.5718615791
 20
4.3525852702
 30
0.0
  0
SPLINE
  5
4E7
100
AcDbEntity
  8
ALL_ASSEMBLY_MEMBERS
100
AcDbSpline
 62
7
  6
CONTINUOUS
 70
0
 71
3
 72
15
 73
11
 74
0
 42
0.0000001
 43
0.0000001
 44
0.0000000001
 40
0.0
 40
0.0
 40
0.0
 40
0.0
 40
0.1674093467
 40
0.3253395374
 40
0.4717850997
 40
0.6054180101
 40
0.7252808961
 40
0.8308446626
 40
0.9221584356
 40
1.0
 40
1.0
 40
1.0
 40
1.0
 10
4.5788822371
 20
4.3769850984
 30
0.0
 10
4.5787643531
 20
4.375552905
 30
0.0
 10
4.5784829139
 20
4.3727735515
 30
0.0
 10
4.5779083003
 20
4.3687634762
 30
0.0
 10
4.5772003886
 20
4.3650692245
 30
0.0
 10
4.5763678427
 20
4.3617364223
 30
0.0
 10
4.5754198816
 20
4.3588007181
 30
0.0
 10
4.5743653765
 20
4.3562898017
 30
0.0
 10
4.5732168214
 20
4.354224301
 30
0.0
 10
4.5723254534
 20
4.3530662067
 30
0.0
 10
4.5718615734
 20
4.3525852776
 30
0.0
  0
SPLINE
  5
4E8
100
AcDbEntity
  8
ALL_ASSEMBLY_MEMBERS
100
AcDbSpline
 62
7
  6
CONTINUOUS
 70
0
 71
3
 72
16
 73
12
 74
0
 42
0.0000001
 43
0.0000001
 44
0.0000000001
 40
0.0
 40
0.0
 40
0.0
 40
0.0
 40
0.0412662088
 40
0.0834648008
 40
0.1732866926
 40
0.274281404
 40
0.3893116107
 40
0.5197070476
 40
0.6657724036
 40
0.8264980187
 40
1.0
 40
1.0
 40
1.0
 40
1.0
 10
4.5885047961
 20
4.3840687002
 30
0.0
 10
4.5885047962
 20
4.3838943418
 30
0.0
 10
4.5884765272
 20
4.3835410813
 30
0.0
 10
4.5883065038
 20
4.3828264382
 30
0.0
 10
4.5878691223
 20
4.3819301409
 30
0.0
 10
4.587040906
 20
4.3809268766
 30
0.0
 10
4.5859160692
 20
4.3799807439
 30
0.0
 10
4.584512032
 20
4.3790985611
 30
0.0
 10
4.5828466301
 20
4.3782925114
 30
0.0
 10
4.5809471552
 20
4.377572332
 30
0.0
 10
4.5795919351
 20
4.3771705731
 30
0.0
 10
4.5788827903
 20
4.3769847685
 30
0.0
  0
SPLINE
  5
4E9
100
AcDbEntity
  8
ALL_ASSEMBLY_MEMBERS
100
AcDbSpline
 62
7
  6
CONTINUOUS
 70
0
 71
3
 72
48
 73
44
 74
0
 42
0.0000001
 43
0.0000001
 44
0.0000000001
 40
0.0
 40
0.0
 40
0.0
 40
0.0
 40
0.043767934
 40
0.0852788113
 40
0.1242049389
 40
0.1425643057
 40
0.16009654
 40
0.1767169049
 40
0.1923249821
 40
0.2067987336
 40
0.2199893692
 40
0.2317136375
 40
0.2369571365
 40
0.2417445843
 40
0.2460398435
 40
0.2498030976
 40
0.2529966329
 40
0.2555918327
 40
0.2566680571
 40
0.2576077556
 40
0.2591843578
 40
0.2599562672
 40
0.2608209426
 40
0.2618549363
 40
0.2631203683
 40
0.2665300238
 40
0.271399453
 40
0.2780724742
 40
0.2869485561
 40
0.2985106538
 40
0.3133436001
 40
0.3321016569
 40
0.3553517961
 40
0.3832360344
 40
0.4151355706
 40
0.4856968449
 40
0.5577796834
 40
0.6276688738
 40
0.6948115024
 40
0.7594728374
 40
0.8220280705
 40
0.8828011603
 40
1.0
 40
1.0
 40
1.0
 40
1.0
 10
4.1613482106
 20
4.6478923894
 30
0.0
 10
4.1610942958
 20
4.6468948688
 30
0.0
 10
4.1606007261
 20
4.6449509718
 30
0.0
 10
4.159881661
 20
4.6421198217
 30
0.0
 10
4.1593051872
 20
4.6398689815
 30
0.0
 10
4.1588616538
 20
4.6381662406
 30
0.0
 10
4.158545584
 20
4.6369723962
 30
0.0
 10
4.1582396806
 20
4.6358428086
 30
0.0
 10
4.15794414
 20
4.6347849652
 30
0.0
 10
4.1576592511
 20
4.6338079406
 30
0.0
 10
4.1573853803
 20
4.6329229673
 30
0.0
 10
4.1571593265
 20
4.6322505438
 30
0.0
 10
4.1569815269
 20
4.6317707498
 30
0.0
 10
4.156856129
 20
4.6314579734
 30
0.0
 10
4.1567338395
 20
4.6311816421
 30
0.0
 10
4.1566147941
 20
4.6309450922
 30
0.0
 10
4.1564991557
 20
4.630752279
 30
0.0
 10
4.1564004105
 20
4.6306235445
 30
0.0
 10
4.1563205207
 20
4.6305495681
 30
0.0
 10
4.1562508672
 20
4.6305018569
 30
0.0
 10
4.1561717805
 20
4.6304789436
 30
0.0
 10
4.1560971245
 20
4.6304983229
 30
0.0
 10
4.1560436202
 20
4.6305327193
 30
0.0
 10
4.1559921858
 20
4.6305872217
 30
0.0
 10
4.1559183399
 20
4.6306999211
 30
0.0
 10
4.155833525
 20
4.6309094427
 30
0.0
 10
4.1557435002
 20
4.6312495961
 30
0.0
 10
4.1556582587
 20
4.6317226417
 30
0.0
 10
4.1555787232
 20
4.6323554053
 30
0.0
 10
4.1555064471
 20
4.6331819181
 30
0.0
 10
4.1554435016
 20
4.6342420502
 30
0.0
 10
4.1553927388
 20
4.6355779513
 30
0.0
 10
4.1553576334
 20
4.6372213571
 30
0.0
 10
4.1553414113
 20
4.6391741174
 30
0.0
 10
4.1553476705
 20
4.6422395941
 30
0.0
 10
4.1554068431
 20
4.64634421
 30
0.0
 10
4.1555305729
 20
4.6513410659
 30
0.0
 10
4.1556902532
 20
4.6562564519
 30
0.0
 10
4.1558737256
 20
4.6609963265
 30
0.0
 10
4.1560748885
 20
4.6655628371
 30
0.0
 10
4.1562906431
 20
4.6699787081
 30
0.0
 10
4.1565919018
 20
4.6756273866
 30
0.0
 10
4.1568410267
 20
4.6798055533
 30
0.0
 10
4.157016146
 20
4.6825562552
 30
0.0
  0
SPLINE
  5
4EA
100
AcDbEntity
  8
ALL_ASSEMBLY_MEMBERS
100
AcDbSpline
 62
7
  6
CONTINUOUS
 70
0
 71
3
 72
9
 73
5
 74
0
 42
0.0000001
 43
0.0000001
 44
0.0000000001
 40
0.0
 40
0.0
 40
0.0
 40
0.0
 40
0.5205032364
 40
1.0
 40
1.0
 40
1.0
 40
1.0
 10
4.157016146
 20
4.6825562552
 30
0.0
 10
4.1576457437
 20
4.6924457109
 30
0.0
 10
4.1591278963
 20
4.7114292398
 30
0.0
 10
4.1611493637
 20
4.7303627166
 30
0.0
 10
4.162251898
 20
4.7394246771
 30
0.0
  0
SPLINE
  5
4EB
100
AcDbEntity
  8
ALL_ASSEMBLY_MEMBERS
100
AcDbSpline
 62
7
  6
CONTINUOUS
 70
0
 71
3
 72
19
 73
15
 74
0
 42
0.0000001
 43
0.0000001
 44
0.0000000001
 40
0.0
 40
0.0
 40
0.0
 40
0.0
 40
0.0158782005
 40
0.0354574204
 40
0.0607625282
 40
0.0926825335
 40
0.1316029415
 40
0.1776841144
 40
0.2309139867
 40
0.291177878
 40
0.4321778714
 40
0.5992140283
 40
0.7896222453
 40
1.0
 40
1.0
 40
1.0
 40
1.0
 10
4.5885047961
 20
4.5291563978
 30
0.0
 10
4.5885047968
 20
4.5291031782
 30
0.0
 10
4.5884686379
 20
4.5289839815
 30
0.0
 10
4.5883325333
 20
4.5288283062
 30
0.0
 10
4.5881226358
 20
4.52867724
 30
0.0
 10
4.5878359433
 20
4.5285284311
 30
0.0
 10
4.5874722494
 20
4.5283814713
 30
0.0
 10
4.5870316812
 20
4.5282372372
 30
0.0
 10
4.586515598
 20
4.5280961756
 30
0.0
 10
4.585684644
 20
4.5279028155
 30
0.0
 10
4.584469981
 20
4.5276793483
 30
0.0
 10
4.5828157735
 20
4.5274435648
 30
0.0
 10
4.5809241278
 20
4.5272321025
 30
0.0
 10
4.5795857894
 20
4.5271149901
 30
0.0
 10
4.5788827669
 20
4.5270604954
 30
0.0
  0
SPLINE
  5
4EC
100
AcDbEntity
  8
ALL_ASSEMBLY_MEMBERS
100
AcDbSpline
 62
7
  6
CONTINUOUS
 70
0
 71
3
 72
14
 73
10
 74
0
 42
0.0000001
 43
0.0000001
 44
0.0000000001
 40
0.0
 40
0.0
 40
0.0
 40
0.0
 40
0.2563134289
 40
0.3830942461
 40
0.5087665659
 40
0.6333075292
 40
0.7566900974
 40
0.8789114441
 40
1.0
 40
1.0
 40
1.0
 40
1.0
 10
4.3620569822
 20
5.0630258546
 30
0.0
 10
4.3489148873
 20
5.0584646318
 30
0.0
 10
4.3297599688
 20
5.0500830641
 30
0.0
 10
4.3059634729
 20
5.0360356562
 30
0.0
 10
4.2892229049
 20
5.024228514
 30
0.0
 10
4.2736507543
 20
5.0112070801
 30
0.0
 10
4.2593455478
 20
4.99706845
 30
0.0
 10
4.2464065138
 20
4.9819169388
 30
0.0
 10
4.2387082248
 20
4.9711637985
 30
0.0
 10
4.2351193723
 20
4.9656582907
 30
0.0
  0
SPLINE
  5
4ED
100
AcDbEntity
  8
ALL_ASSEMBLY_MEMBERS
100
AcDbSpline
 62
7
  6
CONTINUOUS
 70
0
 71
3
 72
13
 73
9
 74
0
 42
0.0000001
 43
0.0000001
 44
0.0000000001
 40
0.0
 40
0.0
 40
0.0
 40
0.0
 40
0.1059659859
 40
0.2199039727
 40
0.4671726632
 40
0.7315304876
 40
0.8661983924
 40
1.0
 40
1.0
 40
1.0
 40
1.0
 10
4.5718615304
 20
4.5612029081
 30
0.0
 10
4.5723072219
 20
4.560051183
 30
0.0
 10
4.5731638045
 20
4.5576343457
 30
0.0
 10
4.5747457676
 20
4.5524232442
 30
0.0
 10
4.5764351891
 20
4.5453238032
 30
0.0
 10
4.5776976864
 20
4.5378934116
 30
0.0
 10
4.5784665117
 20
4.5317307872
 30
0.0
 10
4.5787605116
 20
4.5286151997
 30
0.0
 10
4.5788822066
 20
4.5270605982
 30
0.0
  0
SPLINE
  5
4EE
100
AcDbEntity
  8
ALL_ASSEMBLY_MEMBERS
100
AcDbSpline
 62
7
  6
CONTINUOUS
 70
0
 71
3
 72
15
 73
11
 74
0
 42
0.0000001
 43
0.0000001
 44
0.0000000001
 40
0.0
 40
0.0
 40
0.0
 40
0.0
 40
0.1074805998
 40
0.2178490538
 40
0.3328513618
 40
0.4538773862
 40
0.5816018573
 40
0.7159178211
 40
0.8560340952
 40
1.0
 40
1.0
 40
1.0
 40
1.0
 10
4.5885047961
 20
4.5459652544
 30
0.0
 10
4.5885047844
 20
4.5468409243
 30
0.0
 10
4.5882939358
 20
4.5486217596
 30
0.0
 10
4.5873765554
 20
4.5511957635
 30
0.0
 10
4.5858774592
 20
4.5536099851
 30
0.0
 10
4.5838554001
 20
4.5557983468
 30
0.0
 10
4.581366091
 20
4.5577033376
 30
0.0
 10
4.5784803779
 20
4.5592800487
 30
0.0
 10
4.5752789174
 20
4.5604793388
 30
0.0
 10
4.5730181099
 20
4.5610077789
 30
0.0
 10
4.5718615304
 20
4.5612029081
 30
0.0
  0
SPLINE
  5
4EF
100
AcDbEntity
  8
ALL_ASSEMBLY_MEMBERS
100
AcDbSpline
 62
7
  6
CONTINUOUS
 70
0
 71
3
 72
15
 73
11
 74
0
 42
0.0000001
 43
0.0000001
 44
0.0000000001
 40
0.0
 40
0.0
 40
0.0
 40
0.0
 40
0.1080824921
 40
0.2189468405
 40
0.3342600512
 40
0.4553746491
 40
0.582964367
 40
0.7169509442
 40
0.8565903139
 40
1.0
 40
1.0
 40
1.0
 40
1.0
 10
4.5885047961
 20
4.5590073912
 30
0.0
 10
4.5885047961
 20
4.5598876529
 30
0.0
 10
4.5882959551
 20
4.5616766919
 30
0.0
 10
4.5873866566
 20
4.56426431
 30
0.0
 10
4.5858999545
 20
4.5666932783
 30
0.0
 10
4.5838934616
 20
4.5688973003
 30
0.0
 10
4.581422033
 20
4.5708186435
 30
0.0
 10
4.5785555988
 20
4.5724121489
 30
0.0
 10
4.5753737034
 20
4.5736285538
 30
0.0
 10
4.5731250165
 20
4.574168353
 30
0.0
 10
4.5719744195
 20
4.5743691033
 30
0.0
  0
SPLINE
  5
4F0
100
AcDbEntity
  8
ALL_ASSEMBLY_MEMBERS
100
AcDbSpline
 62
7
  6
CONTINUOUS
 70
0
 71
3
 72
9
 73
5
 74
0
 42
0.0000001
 43
0.0000001
 44
0.0000000001
 40
0.0
 40
0.0
 40
0.0
 40
0.0
 40
0.5056019721
 40
1.0
 40
1.0
 40
1.0
 40
1.0
 10
4.1634696524
 20
4.7490841944
 30
0.0
 10
4.165262994
 20
4.7628262773
 30
0.0
 10
4.169318184
 20
4.7899424104
 30
0.0
 10
4.1744538727
 20
4.8168762084
 30
0.0
 10
4.1772794351
 20
4.8301298658
 30
0.0
  0
SPLINE
  5
4F1
100
AcDbEntity
  8
ALL_ASSEMBLY_MEMBERS
100
AcDbSpline
 62
7
  6
CONTINUOUS
 70
0
 71
3
 72
25
 73
21
 74
0
 42
0.0000001
 43
0.0000001
 44
0.0000000001
 40
0.0
 40
0.0
 40
0.0
 40
0.0
 40
0.0513503049
 40
0.1053734095
 40
0.1623610327
 40
0.22262897
 40
0.2540989737
 40
0.2865090768
 40
0.3542525242
 40
0.4258310273
 40
0.499975973
 40
0.5372469817
 40
0.5741334067
 40
0.6457369278
 40
0.7134791448
 40
0.7773638331
 40
0.8376327332
 40
0.8946236981
 40
0.9486477469
 40
1.0
 40
1.0
 40
1.0
 40
1.0
 10
4.5719744668
 20
4.6058714337
 30
0.0
 10
4.5722881047
 20
4.6053913305
 30
0.0
 10
4.5728984825
 20
4.604384243
 30
0.0
 10
4.5737545902
 20
4.6027850645
 30
0.0
 10
4.574568081
 20
4.6010527071
 30
0.0
 10
4.5751804293
 20
4.5995075212
 30
0.0
 10
4.5756330436
 20
4.598196845
 30
0.0
 10
4.5760713831
 20
4.5967935763
 30
0.0
 10
4.5765458893
 20
4.5949332826
 30
0.0
 10
4.5769347094
 20
4.5925774735
 30
0.0
 10
4.5770483485
 20
4.5905323316
 30
0.0
 10
4.5770033224
 20
4.5888759919
 30
0.0
 10
4.576866731
 20
4.5872531612
 30
0.0
 10
4.5765501399
 20
4.5853070652
 30
0.0
 10
4.5759836991
 20
4.5831070287
 30
0.0
 10
4.5753150859
 20
4.5810696143
 30
0.0
 10
4.5745685775
 20
4.5791879871
 30
0.0
 10
4.5737545651
 20
4.5774558147
 30
0.0
 10
4.5728996186
 20
4.5758559467
 30
0.0
 10
4.5722886862
 20
4.5748491064
 30
0.0
 10
4.5719744956
 20
4.5743693387
 30
0.0
  0
SPLINE
  5
4F2
100
AcDbEntity
  8
ALL_ASSEMBLY_MEMBERS
100
AcDbSpline
 62
7
  6
CONTINUOUS
 70
0
 71
3
 72
15
 73
11
 74
0
 42
0.0000001
 43
0.0000001
 44
0.0000000001
 40
0.0
 40
0.0
 40
0.0
 40
0.0
 40
0.108082369
 40
0.2189467665
 40
0.3342601621
 40
0.455375009
 40
0.5829649045
 40
0.7169515068
 40
0.8565906779
 40
1.0
 40
1.0
 40
1.0
 40
1.0
 10
4.5885056011
 20
4.6212332921
 30
0.0
 10
4.5885055778
 20
4.6203530092
 30
0.0
 10
4.588296681
 20
4.6185639311
 30
0.0
 10
4.5873872831
 20
4.6159762734
 30
0.0
 10
4.585900473
 20
4.6135472826
 30
0.0
 10
4.5838938715
 20
4.6113432515
 30
0.0
 10
4.5814223397
 20
4.6094219075
 30
0.0
 10
4.5785558107
 20
4.6078284038
 30
0.0
 10
4.5753738297
 20
4.6066119963
 30
0.0
 10
4.5731250898
 20
4.6060721897
 30
0.0
 10
4.5719744668
 20
4.6058714337
 30
0.0
  0
SPLINE
  5
4F3
100
AcDbEntity
  8
ALL_ASSEMBLY_MEMBERS
100
AcDbSpline
 62
7
  6
CONTINUOUS
 70
0
 71
3
 72
9
 73
5
 74
0
 42
0.0000001
 43
0.0000001
 44
0.0000000001
 40
0.0
 40
0.0
 40
0.0
 40
0.0
 40
0.254608334
 40
1.0
 40
1.0
 40
1.0
 40
1.0
 10
4.1759037632
 20
4.7160882661
 30
0.0
 10
4.1767466123
 20
4.7237733152
 30
0.0
 10
4.1803659691
 20
4.7539216079
 30
0.0
 10
4.1852849304
 20
4.7839203734
 30
0.0
 10
4.1898064423
 20
4.8060978117
 30
0.0
  0
SPLINE
  5
4F4
100
AcDbEntity
  8
ALL_ASSEMBLY_MEMBERS
100
AcDbSpline
 62
7
  6
CONTINUOUS
 70
0
 71
3
 72
15
 73
11
 74
0
 42
0.0000001
 43
0.0000001
 44
0.0000000001
 40
0.0
 40
0.0
 40
0.0
 40
0.0
 40
0.1074816623
 40
0.2178508525
 40
0.3328535394
 40
0.4538796125
 40
0.5816038216
 40
0.7159192716
 40
0.8560348438
 40
1.0
 40
1.0
 40
1.0
 40
1.0
 10
4.5885047961
 20
4.634275427
 30
0.0
 10
4.5885047984
 20
4.6333997459
 30
0.0
 10
4.5882939741
 20
4.6316188873
 30
0.0
 10
4.5873766152
 20
4.6290448476
 30
0.0
 10
4.5858775271
 20
4.6266305993
 30
0.0
 10
4.5838554673
 20
4.6244422237
 30
0.0
 10
4.5813661527
 20
4.6225372341
 30
0.0
 10
4.5784804332
 20
4.6209605392
 30
0.0
 10
4.5752789676
 20
4.6197612794
 30
0.0
 10
4.5730181585
 20
4.6192328675
 30
0.0
 10
4.5718615791
 20
4.6190377543
 30
0.0
  0
SPLINE
  5
4F5
100
AcDbEntity
  8
ALL_ASSEMBLY_MEMBERS
100
AcDbSpline
 62
7
  6
CONTINUOUS
 70
0
 71
3
 72
15
 73
11
 74
0
 42
0.0000001
 43
0.0000001
 44
0.0000000001
 40
0.0
 40
0.0
 40
0.0
 40
0.0
 40
0.1141893884
 40
0.2304505664
 40
0.3493654421
 40
0.4715188531
 40
0.5974867222
 40
0.7276654615
 40
0.8619844084
 40
1.0
 40
1.0
 40
1.0
 40
1.0
 10
4.1622519009
 20
4.739424677
 30
0.0
 10
4.1622480386
 20
4.7383557084
 30
0.0
 10
4.1623975279
 20
4.7361949692
 30
0.0
 10
4.1630745321
 20
4.7329854641
 30
0.0
 10
4.1641990126
 20
4.7298246019
 30
0.0
 10
4.1657599288
 20
4.7267537531
 30
0.0
 10
4.1677354211
 20
4.7238048547
 30
0.0
 10
4.1701054388
 20
4.7210122971
 30
0.0
 10
4.1728365032
 20
4.7184071861
 30
0.0
 10
4.1748493644
 20
4.7168349695
 30
0.0
 10
4.1759037632
 20
4.7160882661
 30
0.0
  0
SPLINE
  5
4F6
100
AcDbEntity
  8
ALL_ASSEMBLY_MEMBERS
100
AcDbSpline
 62
7
  6
CONTINUOUS
 70
0
 71
3
 72
13
 73
9
 74
0
 42
0.0000001
 43
0.0000001
 44
0.0000000001
 40
0.0
 40
0.0
 40
0.0
 40
0.0
 40
0.1338016488
 40
0.2684695439
 40
0.5328272305
 40
0.7800958059
 40
0.8940338822
 40
1.0
 40
1.0
 40
1.0
 40
1.0
 10
4.5788822371
 20
4.6531800918
 30
0.0
 10
4.578760549
 20
4.6516254879
 30
0.0
 10
4.5784665609
 20
4.6485098963
 30
0.0
 10
4.5776977536
 20
4.6423472656
 30
0.0
 10
4.5764352834
 20
4.6349168665
 30
0.0
 10
4.5747458792
 20
4.6278174155
 30
0.0
 10
4.5731638772
 20
4.6226063192
 30
0.0
 10
4.5723072712
 20
4.6201894854
 30
0.0
 10
4.5718615734
 20
4.6190377599
 30
0.0
  0
SPLINE
  5
4F7
100
AcDbEntity
  8
ALL_ASSEMBLY_MEMBERS
100
AcDbSpline
 62
7
  6
CONTINUOUS
 70
0
 71
3
 72
19
 73
15
 74
0
 42
0.0000001
 43
0.0000001
 44
0.0000000001
 40
0.0
 40
0.0
 40
0.0
 40
0.0
 40
0.0158800421
 40
0.0354605752
 40
0.0607665176
 40
0.0926870106
 40
0.1316076542
 40
0.1776888695
 40
0.2309186291
 40
0.2911822843
 40
0.4321815258
 40
0.5992166623
 40
0.7896236375
 40
1.0
 40
1.0
 40
1.0
 40
1.0
 10
4.5885047961
 20
4.6510842992
 30
0.0
 10
4.5885047962
 20
4.6511375251
 30
0.0
 10
4.5884686386
 20
4.6512567328
 30
0.0
 10
4.5883325336
 20
4.6514124264
 30
0.0
 10
4.5881226347
 20
4.6515635071
 30
0.0
 10
4.5878359415
 20
4.6517123274
 30
0.0
 10
4.5874722475
 20
4.6518592956
 30
0.0
 10
4.5870316798
 20
4.6520035355
 30
0.0
 10
4.5865155976
 20
4.6521446002
 30
0.0
 10
4.585684646
 20
4.6523379606
 30
0.0
 10
4.5844699864
 20
4.6525614211
 30
0.0
 10
4.5828157839
 20
4.6527971866
 30
0.0
 10
4.5809241442
 20
4.6530086209
 30
0.0
 10
4.5795858103
 20
4.6531257087
 30
0.0
 10
4.5788827903
 20
4.6531801894
 30
0.0
  0
LINE
  5
4F8
100
AcDbEntity
  8
ALL_ASSEMBLY_MEMBERS
100
AcDbLine
 62
7
  6
CONTINUOUS
 10
4.1772794351
 20
4.8301298658
 11
4.1773074334
 21
4.8302612091
  0
SPLINE
  5
4F9
100
AcDbEntity
  8
ALL_ASSEMBLY_MEMBERS
100
AcDbSpline
 62
7
  6
CONTINUOUS
 70
0
 71
3
 72
16
 73
12
 74
0
 42
0.0000001
 43
0.0000001
 44
0.0000000001
 40
0.0
 40
0.0
 40
0.0
 40
0.0
 40
0.0412674826
 40
0.0834671222
 40
0.1732903957
 40
0.2742856184
 40
0.3893156592
 40
0.519710446
 40
0.6657748213
 40
0.8264992722
 40
1.0
 40
1.0
 40
1.0
 40
1.0
 10
4.5885047961
 20
4.7961719818
 30
0.0
 10
4.5885047967
 20
4.7963463466
 30
0.0
 10
4.588476529
 20
4.7966996191
 30
0.0
 10
4.5883065079
 20
4.7974142833
 30
0.0
 10
4.5878691293
 20
4.7983106025
 30
0.0
 10
4.5870409114
 20
4.7993138857
 30
0.0
 10
4.5859160708
 20
4.8002600258
 30
0.0
 10
4.5845120285
 20
4.8011422051
 30
0.0
 10
4.5828466207
 20
4.8019482409
 30
0.0
 10
4.580947139
 20
4.8026683958
 30
0.0
 10
4.579591914
 20
4.8030701323
 30
0.0
 10
4.5788827669
 20
4.803255924
 30
0.0
  0
LINE
  5
4FA
100
AcDbEntity
  8
ALL_ASSEMBLY_MEMBERS
100
AcDbLine
 62
7
  6
CONTINUOUS
 10
4.1898064431
 20
4.8060978123
 11
4.189839187
 21
4.8062398312
  0
SPLINE
  5
4FB
100
AcDbEntity
  8
ALL_ASSEMBLY_MEMBERS
100
AcDbSpline
 62
7
  6
CONTINUOUS
 70
0
 71
3
 72
15
 73
11
 74
0
 42
0.0000001
 43
0.0000001
 44
0.0000000001
 40
0.0
 40
0.0
 40
0.0
 40
0.0
 40
0.0778409206
 40
0.1691542178
 40
0.2747179556
 40
0.3945811035
 40
0.5282143979
 40
0.6746603072
 40
0.8325906262
 40
1.0
 40
1.0
 40
1.0
 40
1.0
 10
4.5718615304
 20
4.8276554081
 30
0.0
 10
4.5723254031
 20
4.82717448
 30
0.0
 10
4.5732167493
 20
4.8260163811
 30
0.0
 10
4.5743652764
 20
4.8239508781
 30
0.0
 10
4.5754197778
 20
4.8214399641
 30
0.0
 10
4.5763677496
 20
4.8185042589
 30
0.0
 10
4.5772003122
 20
4.8151714533
 30
0.0
 10
4.5779082371
 20
4.8114771977
 30
0.0
 10
4.5784828653
 20
4.8074671215
 30
0.0
 10
4.578764316
 20
4.8046877687
 30
0.0
 10
4.5788822066
 20
4.8032555761
 30
0.0
  0
SPLINE
  5
4FC
100
AcDbEntity
  8
ALL_ASSEMBLY_MEMBERS
100
AcDbSpline
 62
7
  6
CONTINUOUS
 70
0
 71
3
 72
11
 73
7
 74
0
 42
0.0000001
 43
0.0000001
 44
0.0000000001
 40
0.0
 40
0.0
 40
0.0
 40
0.0
 40
0.2473338817
 40
0.4960825467
 40
0.7470303466
 40
1.0
 40
1.0
 40
1.0
 40
1.0
 10
4.5885047961
 20
4.8072745509
 30
0.0
 10
4.5885047728
 20
4.8096067532
 30
0.0
 10
4.5876838229
 20
4.8143235968
 30
0.0
 10
4.5841347915
 20
4.8205618262
 30
0.0
 10
4.5786873105
 20
4.8253101951
 30
0.0
 10
4.5741883689
 20
4.8271303471
 30
0.0
 10
4.5718615304
 20
4.8276554081
 30
0.0
  0
SPLINE
  5
4FD
100
AcDbEntity
  8
ALL_ASSEMBLY_MEMBERS
100
AcDbSpline
 62
7
  6
CONTINUOUS
 70
0
 71
3
 72
15
 73
11
 74
0
 42
0.0000001
 43
0.0000001
 44
0.0000000001
 40
0.0
 40
0.0
 40
0.0
 40
0.0
 40
0.1152096429
 40
0.2325761302
 40
0.3524551868
 40
0.4752226354
 40
0.6012815138
 40
0.7308999728
 40
0.8639517999
 40
1.0
 40
1.0
 40
1.0
 40
1.0
 10
4.1772794351
 20
4.8301298658
 30
0.0
 10
4.1772684468
 20
4.8290543042
 30
0.0
 10
4.1773919923
 20
4.8268791636
 30
0.0
 10
4.1779958302
 20
4.823636219
 30
0.0
 10
4.1790141828
 20
4.8204243095
 30
0.0
 10
4.1804381486
 20
4.8172820417
 30
0.0
 10
4.1822492977
 20
4.8142401991
 30
0.0
 10
4.1844308171
 20
4.811331623
 30
0.0
 10
4.1869539555
 20
4.8085871154
 30
0.0
 10
4.1888246463
 20
4.8069036705
 30
0.0
 10
4.1898064431
 20
4.8060978123
 30
0.0
  0
LINE
  5
4FE
100
AcDbEntity
  8
ALL_ASSEMBLY_MEMBERS
100
AcDbLine
 62
7
  6
CONTINUOUS
 10
4.5719744195
 20
4.8319991498
 11
4.5718615557
 21
4.8276554101
  0
SPLINE
  5
4FF
100
AcDbEntity
  8
ALL_ASSEMBLY_MEMBERS
100
AcDbSpline
 62
7
  6
CONTINUOUS
 70
0
 71
3
 72
11
 73
7
 74
0
 42
0.0000001
 43
0.0000001
 44
0.0000000001
 40
0.0
 40
0.0
 40
0.0
 40
0.0
 40
0.2475745477
 40
0.4964325258
 40
0.7472911861
 40
1.0
 40
1.0
 40
1.0
 40
1.0
 10
4.5885047961
 20
4.8115967379
 30
0.0
 10
4.5885047961
 20
4.8139248986
 30
0.0
 10
4.5876910654
 20
4.8186318779
 30
0.0
 10
4.584170946
 20
4.8248654752
 30
0.0
 10
4.5787626808
 20
4.8296240796
 30
0.0
 10
4.5742895182
 20
4.8314626815
 30
0.0
 10
4.5719744195
 20
4.8319991498
 30
0.0
  0
SPLINE
  5
500
100
AcDbEntity
  8
ALL_ASSEMBLY_MEMBERS
100
AcDbSpline
 62
7
  6
CONTINUOUS
 70
0
 71
3
 72
22
 73
18
 74
0
 42
0.0000001
 43
0.0000001
 44
0.0000000001
 40
0.0
 40
0.0
 40
0.0
 40
0.0
 40
0.0515635537
 40
0.1036785943
 40
0.1566352337
 40
0.2107329481
 40
0.2662506293
 40
0.3234138558
 40
0.3823895217
 40
0.4432983242
 40
0.5710783312
 40
0.6380320373
 40
0.7069384137
 40
0.7777170265
 40
0.8502669993
 40
0.9244369378
 40
1.0
 40
1.0
 40
1.0
 40
1.0
 10
4.1773074334
 20
4.8302612056
 30
0.0
 10
4.1781057493
 20
4.8340432164
 30
0.0
 10
4.1801273377
 20
4.8415661534
 30
0.0
 10
4.184372203
 20
4.8525360282
 30
0.0
 10
4.1898218578
 20
4.8631743184
 30
0.0
 10
4.1964439015
 20
4.8734279651
 30
0.0
 10
4.2042036066
 20
4.8832533334
 30
0.0
 10
4.2130614854
 20
4.8926091577
 30
0.0
 10
4.2229731404
 20
4.9014581952
 30
0.0
 10
4.237763329
 20
4.9127053802
 30
0.0
 10
4.2542756394
 20
4.9225733541
 30
0.0
 10
4.2721294644
 20
4.9310658363
 30
0.0
 10
4.2865034103
 20
4.9368664258
 30
0.0
 10
4.3015804334
 20
4.9419706673
 30
0.0
 10
4.3172920983
 20
4.9463556839
 30
0.0
 10
4.3335588929
 20
4.9499987202
 30
0.0
 10
4.3446253687
 20
4.9519062388
 30
0.0
 10
4.3502288851
 20
4.9527346311
 30
0.0
  0
SPLINE
  5
501
100
AcDbEntity
  8
ALL_ASSEMBLY_MEMBERS
100
AcDbSpline
 62
7
  6
CONTINUOUS
 70
0
 71
3
 72
27
 73
23
 74
0
 42
0.0000001
 43
0.0000001
 44
0.0000000001
 40
0.0
 40
0.0
 40
0.0
 40
0.0
 40
0.0780811233
 40
0.1576728169
 40
0.2386161205
 40
0.3207001277
 40
0.3620424411
 40
0.403487112
 40
0.4860473785
 40
0.5666405832
 40
0.6421711156
 40
0.6770559307
 40
0.7095801199
 40
0.7675706051
 40
0.7933104681
 40
0.8172177388
 40
0.8395469581
 40
0.8605106582
 40
0.8991261556
 40
0.9345545972
 40
0.9678211847
 40
1.0
 40
1.0
 40
1.0
 40
1.0
 10
4.5719744668
 20
4.8592810358
 30
0.0
 10
4.5722838229
 20
4.858560634
 30
0.0
 10
4.5728845856
 20
4.857095571
 30
0.0
 10
4.5737392437
 20
4.8548570407
 30
0.0
 10
4.574551657
 20
4.8525599838
 30
0.0
 10
4.5751706639
 20
4.8506030076
 30
0.0
 10
4.5756285508
 20
4.8490120366
 30
0.0
 10
4.5760593944
 20
4.8474085909
 30
0.0
 10
4.576526127
 20
4.845406928
 30
0.0
 10
4.5769201465
 20
4.8430405201
 30
0.0
 10
4.5770487123
 20
4.8411222486
 30
0.0
 10
4.5770053646
 20
4.839686438
 30
0.0
 10
4.5768748863
 20
4.838433342
 30
0.0
 10
4.5766256268
 20
4.837286822
 30
0.0
 10
4.5762615702
 20
4.8362680427
 30
0.0
 10
4.5759635632
 20
4.8356088008
 30
0.0
 10
4.5756397517
 20
4.8350160693
 30
0.0
 10
4.5751923477
 20
4.8343252613
 30
0.0
 10
4.5745804982
 20
4.8335871266
 30
0.0
 10
4.573759072
 20
4.8328823829
 30
0.0
 10
4.5728926755
 20
4.8323500949
 30
0.0
 10
4.5722821132
 20
4.8320983088
 30
0.0
 10
4.5719744956
 20
4.8319994624
 30
0.0
  0
SPLINE
  5
502
100
AcDbEntity
  8
ALL_ASSEMBLY_MEMBERS
100
AcDbSpline
 62
7
  6
CONTINUOUS
 70
0
 71
3
 72
20
 73
16
 74
0
 42
0.0000001
 43
0.0000001
 44
0.0000000001
 40
0.0
 40
0.0
 40
0.0
 40
0.0
 40
0.0289036662
 40
0.0598715814
 40
0.0944375818
 40
0.133655588
 40
0.1781787084
 40
0.2282906246
 40
0.2840523647
 40
0.3454019126
 40
0.4121816934
 40
0.4841031049
 40
0.6419325036
 40
0.8155571704
 40
1.0
 40
1.0
 40
1.0
 40
1.0
 10
4.5885056011
 20
4.8654859489
 30
0.0
 10
4.5885055894
 20
4.8653071682
 30
0.0
 10
4.5884504428
 20
4.8649351451
 30
0.0
 10
4.5882129979
 20
4.8643955393
 30
0.0
 10
4.5878282048
 20
4.8638692509
 30
0.0
 10
4.5873005761
 20
4.8633583119
 30
0.0
 10
4.5866332874
 20
4.8628650753
 30
0.0
 10
4.5858315518
 20
4.8623907891
 30
0.0
 10
4.584900592
 20
4.8619379185
 30
0.0
 10
4.583846188
 20
4.8615094385
 30
0.0
 10
4.5826749425
 20
4.861108555
 30
0.0
 10
4.5809126948
 20
4.8605980053
 30
0.0
 10
4.5784743141
 20
4.8600569293
 30
0.0
 10
4.5753183626
 20
4.8595736461
 30
0.0
 10
4.5731124965
 20
4.8593612408
 30
0.0
 10
4.5719744668
 20
4.8592810358
 30
0.0
  0
SPLINE
  5
503
100
AcDbEntity
  8
ALL_ASSEMBLY_MEMBERS
100
AcDbSpline
 62
7
  6
CONTINUOUS
 70
0
 71
3
 72
22
 73
18
 74
0
 42
0.0000001
 43
0.0000001
 44
0.0000000001
 40
0.0
 40
0.0
 40
0.0
 40
0.0
 40
0.0510234787
 40
0.1026506219
 40
0.1551919509
 40
0.2089616213
 40
0.264245614
 40
0.3212697302
 40
0.3801962537
 40
0.4411375127
 40
0.5691926736
 40
0.636365844
 40
0.7055366354
 40
0.7766179281
 40
0.8495037763
 40
0.9240400285
 40
1.0
 40
1.0
 40
1.0
 40
1.0
 10
4.1898392079
 20
4.806239847
 30
0.0
 10
4.1906369311
 20
4.8096980861
 30
0.0
 10
4.1926314634
 20
4.8165716671
 30
0.0
 10
4.1967535462
 20
4.8265696225
 30
0.0
 10
4.2019976718
 20
4.8362454958
 30
0.0
 10
4.2083299463
 20
4.8455537589
 30
0.0
 10
4.2157142006
 20
4.8544586341
 30
0.0
 10
4.224111013
 20
4.8629262842
 30
0.0
 10
4.2334770395
 20
4.8709263346
 30
0.0
 10
4.2474240588
 20
4.8810916606
 30
0.0
 10
4.2629330379
 20
4.889993684
 30
0.0
 10
4.2796600433
 20
4.8976532818
 30
0.0
 10
4.2931147377
 20
4.9028867117
 30
0.0
 10
4.3072135211
 20
4.9074928212
 30
0.0
 10
4.3218944926
 20
4.9114513238
 30
0.0
 10
4.337085886
 20
4.9147421486
 30
0.0
 10
4.3474155911
 20
4.9164667432
 30
0.0
 10
4.3526457138
 20
4.9172163448
 30
0.0
  0
SPLINE
  5
504
100
AcDbEntity
  8
ALL_ASSEMBLY_MEMBERS
100
AcDbSpline
 62
7
  6
CONTINUOUS
 70
0
 71
3
 72
20
 73
16
 74
0
 42
0.0000001
 43
0.0000001
 44
0.0000000001
 40
0.0
 40
0.0
 40
0.0
 40
0.0
 40
0.0280857029
 40
0.0583292937
 40
0.0923183171
 40
0.1311209298
 40
0.1753834026
 40
0.2253719302
 40
0.2811293182
 40
0.3425773873
 40
0.409543973
 40
0.4817258114
 40
0.6402453181
 40
0.814699239
 40
1.0
 40
1.0
 40
1.0
 40
1.0
 10
4.5885047961
 20
4.883753403
 30
0.0
 10
4.5885047973
 20
4.883579589
 30
0.0
 10
4.588448862
 20
4.8832168658
 30
0.0
 10
4.5882088187
 20
4.8826922959
 30
0.0
 10
4.587820656
 20
4.8821813278
 30
0.0
 10
4.5872888795
 20
4.8816855082
 30
0.0
 10
4.5866165652
 20
4.8812069647
 30
0.0
 10
4.5858088554
 20
4.8807468632
 30
0.0
 10
4.5848710116
 20
4.8803076461
 30
0.0
 10
4.5838089009
 20
4.8798922524
 30
0.0
 10
4.5826292396
 20
4.8795038382
 30
0.0
 10
4.5808541085
 20
4.8790094058
 30
0.0
 10
4.5783992955
 20
4.8784864766
 30
0.0
 10
4.5752241603
 20
4.8780211096
 30
0.0
 10
4.5730058191
 20
4.8778179845
 30
0.0
 10
4.5718615791
 20
4.877741841
 30
0.0
  0
SPLINE
  5
505
100
AcDbEntity
  8
ALL_ASSEMBLY_MEMBERS
100
AcDbSpline
 62
7
  6
CONTINUOUS
 70
0
 71
3
 72
15
 73
11
 74
0
 42
0.0000001
 43
0.0000001
 44
0.0000000001
 40
0.0
 40
0.0
 40
0.0
 40
0.0
 40
0.1151861072
 40
0.2325338552
 40
0.3524004943
 40
0.4751629408
 40
0.601224817
 40
0.7308544801
 40
0.863925426
 40
1.0
 40
1.0
 40
1.0
 40
1.0
 10
4.1773075938
 20
4.83026171
 30
0.0
 10
4.1772967296
 20
4.8291866266
 30
0.0
 10
4.1774205573
 20
4.8270124171
 30
0.0
 10
4.1780248812
 20
4.8237708857
 30
0.0
 10
4.1790437798
 20
4.8205603513
 30
0.0
 10
4.1804683403
 20
4.8174194117
 30
0.0
 10
4.1822801221
 20
4.8143788389
 30
0.0
 10
4.184462301
 20
4.8114714659
 30
0.0
 10
4.1869861142
 20
4.8087280837
 30
0.0
 10
4.1888572092
 20
4.8070453636
 30
0.0
 10
4.1898392079
 20
4.806239847
 30
0.0
  0
SPLINE
  5
506
100
AcDbEntity
  8
ALL_ASSEMBLY_MEMBERS
100
AcDbSpline
 62
7
  6
CONTINUOUS
 70
0
 71
3
 72
14
 73
10
 74
0
 42
0.0000001
 43
0.0000001
 44
0.0000000001
 40
0.0
 40
0.0
 40
0.0
 40
0.0
 40
0.1071984702
 40
0.2230025115
 40
0.3456021871
 40
0.4732466949
 40
0.7366398836
 40
0.8691453645
 40
1.0
 40
1.0
 40
1.0
 40
1.0
 10
4.5788822371
 20
4.912478276
 30
0.0
 10
4.5787558093
 20
4.9112167382
 30
0.0
 10
4.5784483059
 20
4.9085967695
 30
0.0
 10
4.5778653923
 20
4.9045506836
 30
0.0
 10
4.5771492373
 20
4.9002806129
 30
0.0
 10
4.576015475
 20
4.8943121083
 30
0.0
 10
4.5746678718
 20
4.8882662864
 30
0.0
 10
4.5731279412
 20
4.8822292938
 30
0.0
 10
4.5722936984
 20
4.8792279345
 30
0.0
 10
4.5718615734
 20
4.8777418432
 30
0.0
  0
SPLINE
  5
507
100
AcDbEntity
  8
ALL_ASSEMBLY_MEMBERS
100
AcDbSpline
 62
7
  6
CONTINUOUS
 70
0
 71
3
 72
15
 73
11
 74
0
 42
0.0000001
 43
0.0000001
 44
0.0000000001
 40
0.0
 40
0.0
 40
0.0
 40
0.0
 40
0.1038711558
 40
0.2107961766
 40
0.3228368231
 40
0.4417069902
 40
0.5686415492
 40
0.7043116762
 40
0.848433573
 40
1.0
 40
1.0
 40
1.0
 40
1.0
 10
4.5885047961
 20
4.9017646551
 30
0.0
 10
4.5885047963
 20
4.9022928918
 30
0.0
 10
4.5883907549
 20
4.903367822
 30
0.0
 10
4.5878927736
 20
4.9049424601
 30
0.0
 10
4.5870759546
 20
4.90646442
 30
0.0
 10
4.5859539923
 20
4.9079066741
 30
0.0
 10
4.584548162
 20
4.9092523171
 30
0.0
 10
4.582877993
 20
4.9104810375
 30
0.0
 10
4.5809733166
 20
4.9115771147
 30
0.0
 10
4.5795993776
 20
4.9121948358
 30
0.0
 10
4.5788827903
 20
4.912478775
 30
0.0
  0
SPLINE
  5
508
100
AcDbEntity
  8
ALL_ASSEMBLY_MEMBERS
100
AcDbSpline
 62
7
  6
CONTINUOUS
 70
0
 71
3
 72
14
 73
10
 74
0
 42
0.0000001
 43
0.0000001
 44
0.0000000001
 40
0.0
 40
0.0
 40
0.0
 40
0.0
 40
0.1225692001
 40
0.2476970545
 40
0.3744397435
 40
0.5018387219
 40
0.6289514522
 40
0.7548927933
 40
1.0
 40
1.0
 40
1.0
 40
1.0
 10
4.3526457046
 20
4.917216335
 30
0.0
 10
4.3618073478
 20
4.9185263899
 30
0.0
 10
4.3804407158
 20
4.9203990168
 30
0.0
 10
4.408734882
 20
4.9209834861
 30
0.0
 10
4.4373549702
 20
4.9193446191
 30
0.0
 10
4.4659088945
 20
4.915471408
 30
0.0
 10
4.4940166503
 20
4.9093737837
 30
0.0
 10
4.5300307099
 20
4.8984384913
 30
0.0
 10
4.5557866155
 20
4.886913368
 30
0.0
 10
4.5718615647
 20
4.8777418567
 30
0.0
  0
SPLINE
  5
509
100
AcDbEntity
  8
ALL_ASSEMBLY_MEMBERS
100
AcDbSpline
 62
7
  6
CONTINUOUS
 70
0
 71
3
 72
15
 73
11
 74
0
 42
0.0000001
 43
0.0000001
 44
0.0000000001
 40
0.0
 40
0.0
 40
0.0
 40
0.0
 40
0.1167274017
 40
0.2347750528
 40
0.3546687832
 40
0.4770277411
 40
0.602526806
 40
0.7316495757
 40
0.864321008
 40
1.0
 40
1.0
 40
1.0
 40
1.0
 10
4.5885047961
 20
5.0079762004
 30
0.0
 10
4.588504797
 20
5.0086827764
 30
0.0
 10
4.5883931765
 20
5.0101061745
 30
0.0
 10
4.5879027594
 20
5.0122041039
 30
0.0
 10
4.587094817
 20
5.0142385177
 30
0.0
 10
4.5859795904
 20
5.0161735516
 30
0.0
 10
4.584577691
 20
5.0179826637
 30
0.0
 10
4.5829079436
 20
5.0196372766
 30
0.0
 10
4.5810015152
 20
5.02111375
 30
0.0
 10
4.5796080544
 20
5.0219564984
 30
0.0
 10
4.5788827721
 20
5.0223418415
 30
0.0
  0
SPLINE
  5
50A
100
AcDbEntity
  8
ALL_ASSEMBLY_MEMBERS
100
AcDbSpline
 62
7
  6
CONTINUOUS
 70
0
 71
3
 72
13
 73
9
 74
0
 42
0.0000001
 43
0.0000001
 44
0.0000000001
 40
0.0
 40
0.0
 40
0.0
 40
0.0
 40
0.1087613003
 40
0.2253572941
 40
0.4754763194
 40
0.7381360926
 40
0.8701537855
 40
1.0
 40
1.0
 40
1.0
 40
1.0
 10
4.3502288939
 20
4.9527346148
 30
0.0
 10
4.3500776167
 20
4.9514475633
 30
0.0
 10
4.349845997
 20
4.9487707765
 30
0.0
 10
4.3496384037
 20
4.9431074698
 30
0.0
 10
4.349871735
 20
4.9356026112
 30
0.0
 10
4.3506914735
 20
4.9279563763
 30
0.0
 10
4.3516957823
 20
4.9217866884
 30
0.0
 10
4.3523106946
 20
4.918726771
 30
0.0
 10
4.3526457046
 20
4.917216335
 30
0.0
  0
SPLINE
  5
50B
100
AcDbEntity
  8
ALL_ASSEMBLY_MEMBERS
100
AcDbSpline
 62
7
  6
CONTINUOUS
 70
0
 71
3
 72
14
 73
10
 74
0
 42
0.0000001
 43
0.0000001
 44
0.0000000001
 40
0.0
 40
0.0
 40
0.0
 40
0.0
 40
0.1226960895
 40
0.247849298
 40
0.3745536086
 40
0.5018844697
 40
0.6289310572
 40
0.7548337951
 40
1.0
 40
1.0
 40
1.0
 40
1.0
 10
4.3502288851
 20
4.9527346311
 30
0.0
 10
4.3597810691
 20
4.95414653
 30
0.0
 10
4.3792058347
 20
4.9561828692
 30
0.0
 10
4.4087027886
 20
4.9568990893
 30
0.0
 10
4.4385316205
 20
4.9552860263
 30
0.0
 10
4.4682908284
 20
4.9513395414
 30
0.0
 10
4.4975923431
 20
4.9450775818
 30
0.0
 10
4.5351650414
 20
4.9338137417
 30
0.0
 10
4.5620630429
 20
4.921931886
 30
0.0
 10
4.5788827648
 20
4.9124787856
 30
0.0
  0
SPLINE
  5
50C
100
AcDbEntity
  8
ALL_ASSEMBLY_MEMBERS
100
AcDbSpline
 62
7
  6
CONTINUOUS
 70
0
 71
3
 72
15
 73
11
 74
0
 42
0.0000001
 43
0.0000001
 44
0.0000000001
 40
0.0
 40
0.0
 40
0.0
 40
0.0
 40
0.1143451257
 40
0.2347153803
 40
0.3597411353
 40
0.487924976
 40
0.6176835458
 40
0.7473819778
 40
0.8753747984
 40
1.0
 40
1.0
 40
1.0
 40
1.0
 10
4.5788827669
 20
4.527060501
 30
0.0
 10
4.5703958304
 20
4.5246595877
 30
0.0
 10
4.5528546893
 20
4.5201502444
 30
0.0
 10
4.5257248848
 20
4.514296755
 30
0.0
 10
4.4973635039
 20
4.5091702837
 30
0.0
 10
4.4681471791
 20
4.5047816321
 30
0.0
 10
4.4384658291
 20
4.5011391309
 30
0.0
 10
4.4087169353
 20
4.4982484676
 30
0.0
 10
4.3793015918
 20
4.4961137432
 30
0.0
 10
4.3598359504
 20
4.4951788986
 30
0.0
 10
4.3502288851
 20
4.4948423801
 30
0.0
  0
SPLINE
  5
50D
100
AcDbEntity
  8
ALL_ASSEMBLY_MEMBERS
100
AcDbSpline
 62
7
  6
CONTINUOUS
 70
0
 71
3
 72
15
 73
11
 74
0
 42
0.0000001
 43
0.0000001
 44
0.0000000001
 40
0.0
 40
0.0
 40
0.0
 40
0.0
 40
0.1141197632
 40
0.2343843632
 40
0.3594056602
 40
0.487652826
 40
0.6175097803
 40
0.7473078554
 40
0.875363276
 40
1.0
 40
1.0
 40
1.0
 40
1.0
 10
4.5718615206
 20
4.561202879
 30
0.0
 10
4.5637471166
 20
4.558869267
 30
0.0
 10
4.5469607631
 20
4.5544905486
 30
0.0
 10
4.520977601
 20
4.5488117722
 30
0.0
 10
4.4937890975
 20
4.5438304309
 30
0.0
 10
4.4657647848
 20
4.5395478632
 30
0.0
 10
4.4372869651
 20
4.5359635191
 30
0.0
 10
4.4087447121
 20
4.5330756518
 30
0.0
 10
4.3805285241
 20
4.5308812306
 30
0.0
 10
4.3618587213
 20
4.5298593451
 30
0.0
 10
4.3526457117
 20
4.5294658277
 30
0.0
  0
SPLINE
  5
50E
100
AcDbEntity
  8
ALL_ASSEMBLY_MEMBERS
100
AcDbSpline
 62
7
  6
CONTINUOUS
 70
0
 71
3
 72
29
 73
25
 74
0
 42
0.0000001
 43
0.0000001
 44
0.0000000001
 40
0.0
 40
0.0
 40
0.0
 40
0.0
 40
0.1872052674
 40
0.2762643043
 40
0.3617077382
 40
0.4431700441
 40
0.520297371
 40
0.5927503257
 40
0.6602120799
 40
0.6919879886
 40
0.7224182876
 40
0.7514733777
 40
0.7791291707
 40
0.830162092
 40
0.8535102799
 40
0.8753973195
 40
0.8958236357
 40
0.9147964552
 40
0.9323308411
 40
0.9484526543
 40
0.9632040659
 40
0.9766476662
 40
0.9888717801
 40
1.0
 40
1.0
 40
1.0
 40
1.0
 10
4.3502288851
 20
4.4948423801
 30
0.0
 10
4.3392263136
 20
4.4944571028
 30
0.0
 10
4.3229811968
 20
4.494087095
 30
0.0
 10
4.3017090653
 20
4.4940537885
 30
0.0
 10
4.2866568077
 20
4.4942571973
 30
0.0
 10
4.2723112581
 20
4.4946870848
 30
0.0
 10
4.2587388633
 20
4.4953423709
 30
0.0
 10
4.2460042326
 20
4.496221825
 30
0.0
 10
4.2359495269
 20
4.4971581016
 30
0.0
 10
4.2283735346
 20
4.498028918
 30
0.0
 10
4.2230516207
 20
4.4987246022
 30
0.0
 10
4.2179819515
 20
4.4994756457
 30
0.0
 10
4.2117326846
 20
4.5005231668
 30
0.0
 10
4.20584481
 20
4.5016952987
 30
0.0
 10
4.2003415804
 20
4.5030271909
 30
0.0
 10
4.1966173234
 20
4.5040500746
 30
0.0
 10
4.1931765649
 20
4.5051258328
 30
0.0
 10
4.1900230226
 20
4.5062539627
 30
0.0
 10
4.1871602337
 20
4.5074338632
 30
0.0
 10
4.1845916238
 20
4.5086653595
 30
0.0
 10
4.1823200247
 20
4.5099475508
 30
0.0
 10
4.1803473699
 20
4.5112793494
 30
0.0
 10
4.1786761435
 20
4.5126597419
 30
0.0
 10
4.1777237556
 20
4.5136555951
 30
0.0
 10
4.1773075412
 20
4.5141606234
 30
0.0
  0
LINE
  5
50F
100
AcDbEntity
  8
ALL_ASSEMBLY_MEMBERS
100
AcDbLine
 62
7
  6
CONTINUOUS
 10
4.5719744668
 20
5.0405692473
 11
4.5741797045
 21
5.0347360174
  0
SPLINE
  5
510
100
AcDbEntity
  8
ALL_ASSEMBLY_MEMBERS
100
AcDbSpline
 62
7
  6
CONTINUOUS
 70
0
 71
3
 72
21
 73
17
 74
0
 42
0.0000001
 43
0.0000001
 44
0.0000000001
 40
0.0
 40
0.0
 40
0.0
 40
0.0
 40
0.0225958219
 40
0.0480586656
 40
0.0783011962
 40
0.1144109363
 40
0.1348647248
 40
0.1569528707
 40
0.2060357399
 40
0.261606275
 40
0.3234988111
 40
0.3914695242
 40
0.4651502829
 40
0.6279469252
 40
0.8080541565
 40
1.0
 40
1.0
 40
1.0
 40
1.0
 10
4.5885056011
 20
5.0359546135
 30
0.0
 10
4.5885055893
 20
5.0360886323
 30
0.0
 10
4.588446613
 20
5.0363754202
 30
0.0
 10
4.5882029831
 20
5.0367778809
 30
0.0
 10
4.5878165536
 20
5.0371665085
 30
0.0
 10
4.5873964856
 20
5.037467208
 30
0.0
 10
4.5869949353
 20
5.0377048877
 30
0.0
 10
4.5865132167
 20
5.0379569385
 30
0.0
 10
4.5858241015
 20
5.0382593905
 30
0.0
 10
4.584894598
 20
5.0385952748
 30
0.0
 10
4.5838412938
 20
5.0389133201
 30
0.0
 10
4.5826710008
 20
5.0392110434
 30
0.0
 10
4.5809054317
 20
5.0395912746
 30
0.0
 10
4.5784660025
 20
5.0399933153
 30
0.0
 10
4.5753131385
 20
5.0403521096
 30
0.0
 10
4.5731113622
 20
5.040509667
 30
0.0
 10
4.5719744668
 20
5.0405692473
 30
0.0
  0
SPLINE
  5
511
100
AcDbEntity
  8
ALL_ASSEMBLY_MEMBERS
100
AcDbSpline
 62
7
  6
CONTINUOUS
 70
0
 71
3
 72
27
 73
23
 74
0
 42
0.0000001
 43
0.0000001
 44
0.0000000001
 40
0.0
 40
0.0
 40
0.0
 40
0.0
 40
0.1867114882
 40
0.2755873945
 40
0.3609071761
 40
0.4423130211
 40
0.5194557373
 40
0.5919967231
 40
0.6596161488
 40
0.7220368441
 40
0.7790042527
 40
0.8303130075
 40
0.8537943493
 40
0.8758047539
 40
0.8963380133
 40
0.9153937124
 40
0.9329781408
 40
0.9491069833
 40
0.9638110196
 40
0.9771399207
 40
0.9891671192
 40
1.0
 40
1.0
 40
1.0
 40
1.0
 10
4.3526457077
 20
4.5294658384
 30
0.0
 10
4.3423724844
 20
4.5290293654
 30
0.0
 10
4.3272011772
 20
4.5285497567
 30
0.0
 10
4.3073267344
 20
4.5282916408
 30
0.0
 10
4.2932498973
 20
4.5282943416
 30
0.0
 10
4.2798206038
 20
4.5284891457
 30
0.0
 10
4.2670994161
 20
4.5288756846
 30
0.0
 10
4.2551454305
 20
4.5294538416
 30
0.0
 10
4.244014649
 20
4.5302236611
 30
0.0
 10
4.2337595597
 20
4.5311851307
 30
0.0
 10
4.2244285603
 20
4.5323387999
 30
0.0
 10
4.2172621114
 20
4.5334910205
 30
0.0
 10
4.2120322025
 20
4.5345267714
 30
0.0
 10
4.2084852899
 20
4.5353294871
 30
0.0
 10
4.2052008556
 20
4.536180929
 30
0.0
 10
4.2021828126
 20
4.5370811084
 30
0.0
 10
4.1994349048
 20
4.5380299295
 30
0.0
 10
4.1969607131
 20
4.5390276724
 30
0.0
 10
4.194763215
 20
4.5400738704
 30
0.0
 10
4.1928444425
 20
4.5411677912
 30
0.0
 10
4.1912067934
 20
4.5423088256
 30
0.0
 10
4.1902577277
 20
4.5431420647
 30
0.0
 10
4.1898392209
 20
4.5435672281
 30
0.0
  0
SPLINE
  5
512
100
AcDbEntity
  8
ALL_ASSEMBLY_MEMBERS
100
AcDbSpline
 62
7
  6
CONTINUOUS
 70
0
 71
3
 72
19
 73
15
 74
0
 42
0.0000001
 43
0.0000001
 44
0.0000000001
 40
0.0
 40
0.0
 40
0.0
 40
0.0
 40
0.023392195
 40
0.0495388485
 40
0.0803114706
 40
0.1168041705
 40
0.1595863361
 40
0.2088149298
 40
0.2644361657
 40
0.3262943005
 40
0.4676219393
 40
0.6298443273
 40
0.8091229888
 40
1.0
 40
1.0
 40
1.0
 40
1.0
 10
4.5885047961
 20
5.0545526327
 30
0.0
 10
4.5885047973
 20
5.0546929585
 30
0.0
 10
4.5884460168
 20
5.0549919264
 30
0.0
 10
4.5882013196
 20
5.0554139245
 30
0.0
 10
4.5878118961
 20
5.0558219142
 30
0.0
 10
4.587280707
 20
5.0562175592
 30
0.0
 10
4.5866097452
 20
5.0565998885
 30
0.0
 10
4.5858033067
 20
5.0569680374
 30
0.0
 10
4.5848665211
 20
5.0573198861
 30
0.0
 10
4.5833844917
 20
5.0577845347
 30
0.0
 10
4.5812495474
 20
5.058292493
 30
0.0
 10
4.5783932668
 20
5.0587811282
 30
0.0
 10
4.5752202303
 20
5.0591540463
 30
0.0
 10
4.5730049735
 20
5.0593168806
 30
0.0
 10
4.5718615668
 20
5.0593779835
 30
0.0
  0
SPLINE
  5
513
100
AcDbEntity
  8
ALL_ASSEMBLY_MEMBERS
100
AcDbSpline
 62
7
  6
CONTINUOUS
 70
0
 71
3
 72
14
 73
10
 74
0
 42
0.0000001
 43
0.0000001
 44
0.0000000001
 40
0.0
 40
0.0
 40
0.0
 40
0.0
 40
0.1347380835
 40
0.2702206211
 40
0.5354252383
 40
0.6619544711
 40
0.7825385968
 40
0.8957135417
 40
1.0
 40
1.0
 40
1.0
 40
1.0
 10
4.3502288997
 20
4.4948423872
 30
0.0
 10
4.3500826606
 20
4.4964026855
 30
0.0
 10
4.3498538009
 20
4.4995383677
 30
0.0
 10
4.3496446419
 20
4.5057633148
 30
0.0
 10
4.3497991237
 20
4.5119019641
 30
0.0
 10
4.3503407466
 20
4.5178377255
 30
0.0
 10
4.3509205005
 20
4.5219898319
 30
0.0
 10
4.351668846
 20
4.5258516121
 30
0.0
 10
4.3522989406
 20
4.5283035088
 30
0.0
 10
4.3526457077
 20
4.5294658384
 30
0.0
  0
SPLINE
  5
514
100
AcDbEntity
  8
ALL_ASSEMBLY_MEMBERS
100
AcDbSpline
 62
7
  6
CONTINUOUS
 70
0
 71
3
 72
13
 73
9
 74
0
 42
0.0000001
 43
0.0000001
 44
0.0000000001
 40
0.0
 40
0.0
 40
0.0
 40
0.0
 40
0.0718474653
 40
0.1624822907
 40
0.2703056226
 40
0.3935012611
 40
0.6780512404
 40
1.0
 40
1.0
 40
1.0
 40
1.0
 10
4.5788822413
 20
5.0854008796
 30
0.0
 10
4.5787424137
 20
5.0847706078
 30
0.0
 10
4.578408816
 20
5.083349135
 30
0.0
 10
4.5778276908
 20
5.0809907936
 30
0.0
 10
4.5771130852
 20
5.0781902243
 30
0.0
 10
4.5759346952
 20
5.0737098382
 30
0.0
 10
4.5741947178
 20
5.0673879295
 30
0.0
 10
4.5726839515
 20
5.0621515402
 30
0.0
 10
4.5718615469
 20
5.0593779817
 30
0.0
  0
SPLINE
  5
515
100
AcDbEntity
  8
ALL_ASSEMBLY_MEMBERS
100
AcDbSpline
 62
7
  6
CONTINUOUS
 70
0
 71
3
 72
13
 73
9
 74
0
 42
0.0000001
 43
0.0000001
 44
0.0000000001
 40
0.0
 40
0.0
 40
0.0
 40
0.0
 40
0.244130857
 40
0.3674680329
 40
0.4915898008
 40
0.6168476813
 40
0.7435309921
 40
1.0
 40
1.0
 40
1.0
 40
1.0
 10
4.5885047961
 20
5.0689401534
 30
0.0
 10
4.5885047976
 20
5.070559442
 30
0.0
 10
4.5881695746
 20
5.0730120043
 30
0.0
 10
4.5871015567
 20
5.0760994626
 30
0.0
 10
4.5859898855
 20
5.0783160275
 30
0.0
 10
4.5845906453
 20
5.0803896122
 30
0.0
 10
4.582360807
 20
5.0829277875
 30
0.0
 10
4.5803358332
 20
5.0845170479
 30
0.0
 10
4.578882808
 20
5.0854016649
 30
0.0
  0
SPLINE
  5
516
100
AcDbEntity
  8
ALL_ASSEMBLY_MEMBERS
100
AcDbSpline
 62
7
  6
CONTINUOUS
 70
0
 71
3
 72
8
 73
4
 74
0
 42
0.0000001
 43
0.0000001
 44
0.0000000001
 40
0.0
 40
0.0
 40
0.0
 40
0.0
 40
1.0
 40
1.0
 40
1.0
 40
1.0
 10
4.1773075412
 20
4.5141606234
 30
0.0
 10
4.1772981826
 20
4.5141714063
 30
0.0
 10
4.1772888139
 20
4.5141821804
 30
0.0
 10
4.1772794351
 20
4.5141929456
 30
0.0
  0
SPLINE
  5
517
100
AcDbEntity
  8
ALL_ASSEMBLY_MEMBERS
100
AcDbSpline
 62
7
  6
CONTINUOUS
 70
0
 71
3
 72
8
 73
4
 74
0
 42
0.0000001
 43
0.0000001
 44
0.0000000001
 40
0.0
 40
0.0
 40
0.0
 40
0.0
 40
1.0
 40
1.0
 40
1.0
 40
1.0
 10
4.189839187
 20
4.5435672635
 30
0.0
 10
4.1898282805
 20
4.5435783482
 30
0.0
 10
4.1898173658
 20
4.543589425
 30
0.0
 10
4.1898064431
 20
4.5436004937
 30
0.0
  0
SPLINE
  5
518
100
AcDbEntity
  8
ALL_ASSEMBLY_MEMBERS
100
AcDbSpline
 62
7
  6
CONTINUOUS
 70
0
 71
3
 72
13
 73
9
 74
0
 42
0.0000001
 43
0.0000001
 44
0.0000000001
 40
0.0
 40
0.0
 40
0.0
 40
0.0
 40
0.2484370191
 40
0.373343418
 40
0.4983859789
 40
0.6236406936
 40
0.7491761883
 40
1.0
 40
1.0
 40
1.0
 40
1.0
 10
4.1773075412
 20
4.5141606234
 30
0.0
 10
4.1772859045
 20
4.5168795355
 30
0.0
 10
4.1776829302
 20
4.5209844515
 30
0.0
 10
4.1790298372
 20
4.5262766521
 30
0.0
 10
4.1804481569
 20
4.5301384809
 30
0.0
 10
4.1822546721
 20
4.5338422479
 30
0.0
 10
4.1851549662
 20
4.5385109985
 30
0.0
 10
4.1878539626
 20
4.5416713285
 30
0.0
 10
4.189839187
 20
4.5435672635
 30
0.0
  0
SPLINE
  5
519
100
AcDbEntity
  8
ALL_ASSEMBLY_MEMBERS
100
AcDbSpline
 62
7
  6
CONTINUOUS
 70
0
 71
3
 72
10
 73
6
 74
0
 42
0.0000001
 43
0.0000001
 44
0.0000000001
 40
0.0
 40
0.0
 40
0.0
 40
0.0
 40
0.2434665581
 40
0.4909714695
 40
1.0
 40
1.0
 40
1.0
 40
1.0
 10
4.1772794351
 20
4.5141929456
 30
0.0
 10
4.1757125235
 20
4.5159914952
 30
0.0
 10
4.1727253756
 20
4.51977294
 30
0.0
 10
4.1673619256
 20
4.5279827037
 30
0.0
 10
4.1641071373
 20
4.5346871039
 30
0.0
 10
4.162251898
 20
4.5393164089
 30
0.0
  0
SPLINE
  5
51A
100
AcDbEntity
  8
ALL_ASSEMBLY_MEMBERS
100
AcDbSpline
 62
7
  6
CONTINUOUS
 70
0
 71
3
 72
11
 73
7
 74
0
 42
0.0000001
 43
0.0000001
 44
0.0000000001
 40
0.0
 40
0.0
 40
0.0
 40
0.0
 40
0.2420268713
 40
0.4889952825
 40
0.7415985943
 40
1.0
 40
1.0
 40
1.0
 40
1.0
 10
4.1898064429
 20
4.5436004939
 30
0.0
 10
4.1883184653
 20
4.5454300827
 30
0.0
 10
4.1854985381
 20
4.5492818646
 30
0.0
 10
4.1817911141
 20
4.5554951078
 30
0.0
 10
4.1785621601
 20
4.5621465001
 30
0.0
 10
4.176741471
 20
4.5667865099
 30
0.0
 10
4.1759037637
 20
4.5691608957
 30
0.0
  0
SPLINE
  5
51B
100
AcDbEntity
  8
ALL_ASSEMBLY_MEMBERS
100
AcDbSpline
 62
7
  6
CONTINUOUS
 70
0
 71
3
 72
13
 73
9
 74
0
 42
0.0000001
 43
0.0000001
 44
0.0000000001
 40
0.0
 40
0.0
 40
0.0
 40
0.0
 40
0.2484473358
 40
0.373356316
 40
0.498399664
 40
0.6236533654
 40
0.7491861036
 40
1.0
 40
1.0
 40
1.0
 40
1.0
 10
4.1772794353
 20
4.5141929456
 30
0.0
 10
4.1772575507
 20
4.5169118742
 30
0.0
 10
4.1776541171
 20
4.5210168218
 30
0.0
 10
4.1790003226
 20
4.5263091588
 30
0.0
 10
4.1804180559
 20
4.5301710766
 30
0.0
 10
4.1822239429
 20
4.5338749533
 30
0.0
 10
4.1851233401
 20
4.5385438587
 30
0.0
 10
4.1878216566
 20
4.5417043956
 30
0.0
 10
4.1898064429
 20
4.5436004939
 30
0.0
  0
SPLINE
  5
51C
100
AcDbEntity
  8
ALL_ASSEMBLY_MEMBERS
100
AcDbSpline
 62
7
  6
CONTINUOUS
 70
0
 71
3
 72
14
 73
10
 74
0
 42
0.0000001
 43
0.0000001
 44
0.0000000001
 40
0.0
 40
0.0
 40
0.0
 40
0.0
 40
0.1449615086
 40
0.3218152269
 40
0.4302076977
 40
0.5617610572
 40
0.7360364115
 40
0.8537156298
 40
1.0
 40
1.0
 40
1.0
 40
1.0
 10
4.162251898
 20
4.5393164089
 30
0.0
 10
4.1613253109
 20
4.5416284115
 30
0.0
 10
4.1595899383
 20
4.5468922736
 30
0.0
 10
4.1580074758
 20
4.5541239875
 30
0.0
 10
4.1569249587
 20
4.5612048968
 30
0.0
 10
4.1561544131
 20
4.5682825695
 30
0.0
 10
4.1556721761
 20
4.5755456173
 30
0.0
 10
4.155399937
 20
4.5830710641
 30
0.0
 10
4.1553437668
 20
4.587606845
 30
0.0
 10
4.1553440731
 20
4.5901203416
 30
0.0
  0
SPLINE
  5
51D
100
AcDbEntity
  8
ALL_ASSEMBLY_MEMBERS
100
AcDbSpline
 62
7
  6
CONTINUOUS
 70
0
 71
3
 72
26
 73
22
 74
0
 42
0.0000001
 43
0.0000001
 44
0.0000000001
 40
0.0
 40
0.0
 40
0.0
 40
0.0
 40
0.1017100217
 40
0.2049673067
 40
0.3106405929
 40
0.4196039301
 40
0.5330151719
 40
0.5919930839
 40
0.6222234647
 40
0.6530462622
 40
0.6846122604
 40
0.7171445416
 40
0.7862871006
 40
0.8047740824
 40
0.823947631
 40
0.8440935062
 40
0.86563239
 40
0.8892109723
 40
0.9161002378
 40
0.9495326505
 40
1.0
 40
1.0
 40
1.0
 40
1.0
 10
4.1759037687
 20
4.5691608901
 30
0.0
 10
4.1750775882
 20
4.5697022853
 30
0.0
 10
4.1734431455
 20
4.5708403214
 30
0.0
 10
4.1710501388
 20
4.572678749
 30
0.0
 10
4.1686761756
 20
4.5746533253
 30
0.0
 10
4.1662835879
 20
4.5767574563
 30
0.0
 10
4.1642845274
 20
4.578620973
 30
0.0
 10
4.1628835571
 20
4.5800029844
 30
0.0
 10
4.1620682055
 20
4.5808361139
 30
0.0
 10
4.1614468126
 20
4.5814864807
 30
0.0
 10
4.1608219709
 20
4.5821643665
 30
0.0
 10
4.1599700741
 20
4.5831384488
 30
0.0
 10
4.1592414861
 20
4.5840515666
 30
0.0
 10
4.158635673
 20
4.5848935464
 30
0.0
 10
4.1583180623
 20
4.5853565434
 30
0.0
 10
4.1580004985
 20
4.5858551953
 30
0.0
 10
4.1576842973
 20
4.5864047947
 30
0.0
 10
4.157369049
 20
4.5870294778
 30
0.0
 10
4.1570539809
 20
4.5877819012
 30
0.0
 10
4.1567367867
 20
4.588812203
 30
0.0
 10
4.1566384712
 20
4.5896302231
 30
0.0
 10
4.1566386413
 20
4.5901203416
 30
0.0
  0
SPLINE
  5
51E
100
AcDbEntity
  8
ALL_ASSEMBLY_MEMBERS
100
AcDbSpline
 62
7
  6
CONTINUOUS
 70
0
 71
3
 72
13
 73
9
 74
0
 42
0.0000001
 43
0.0000001
 44
0.0000000001
 40
0.0
 40
0.0
 40
0.0
 40
0.0
 40
0.2479342812
 40
0.3726503824
 40
0.4975707688
 40
0.622811954
 40
0.7484782283
 40
1.0
 40
1.0
 40
1.0
 40
1.0
 10
4.1622518951
 20
4.5393164089
 30
0.0
 10
4.1622441962
 20
4.5421097908
 30
0.0
 10
4.1626974316
 20
4.5463272527
 30
0.0
 10
4.1641821244
 20
4.5517405422
 30
0.0
 10
4.1657349601
 20
4.5556776944
 30
0.0
 10
4.1677036246
 20
4.5594362052
 30
0.0
 10
4.1708542423
 20
4.5641478461
 30
0.0
 10
4.1737700531
 20
4.5672960186
 30
0.0
 10
4.1759037687
 20
4.5691608901
 30
0.0
  0
SPLINE
  5
51F
100
AcDbEntity
  8
ALL_ASSEMBLY_MEMBERS
100
AcDbSpline
 62
7
  6
CONTINUOUS
 70
0
 71
3
 72
14
 73
10
 74
0
 42
0.0000001
 43
0.0000001
 44
0.0000000001
 40
0.0
 40
0.0
 40
0.0
 40
0.0
 40
0.1462742612
 40
0.2639541467
 40
0.4382330477
 40
0.5697886997
 40
0.6781824046
 40
0.8550376894
 40
1.0
 40
1.0
 40
1.0
 40
1.0
 10
4.1553440731
 20
4.5901203416
 30
0.0
 10
4.1553438456
 20
4.5926336645
 30
0.0
 10
4.1553999042
 20
4.5971692831
 30
0.0
 10
4.1556721701
 20
4.6046946289
 30
0.0
 10
4.1561543811
 20
4.6119577895
 30
0.0
 10
4.1569249306
 20
4.6190355846
 30
0.0
 10
4.1580074541
 20
4.6261165812
 30
0.0
 10
4.1595899207
 20
4.6333483578
 30
0.0
 10
4.1613253054
 20
4.6386122591
 30
0.0
 10
4.162251898
 20
4.6409242743
 30
0.0
  0
SPLINE
  5
520
100
AcDbEntity
  8
ALL_ASSEMBLY_MEMBERS
100
AcDbSpline
 62
7
  6
CONTINUOUS
 70
0
 71
3
 72
29
 73
25
 74
0
 42
0.0000001
 43
0.0000001
 44
0.0000000001
 40
0.0
 40
0.0
 40
0.0
 40
0.0
 40
0.0148151931
 40
0.0284267447
 40
0.0402001539
 40
0.0505366998
 40
0.0839750174
 40
0.1108645916
 40
0.1344417147
 40
0.1559801038
 40
0.1761203264
 40
0.1952957801
 40
0.2137837278
 40
0.2829190438
 40
0.3154511176
 40
0.3470121186
 40
0.3778325075
 40
0.4080608005
 40
0.4670333017
 40
0.5804343788
 40
0.6893878435
 40
0.7950514463
 40
0.8982993389
 40
1.0
 40
1.0
 40
1.0
 40
1.0
 10
4.1566386415
 20
4.5901203416
 30
0.0
 10
4.1566386037
 20
4.5902642355
 30
0.0
 10
4.1566490746
 20
4.5905403917
 30
0.0
 10
4.1566869292
 20
4.5909291905
 30
0.0
 10
4.1567404556
 20
4.5912721955
 30
0.0
 10
4.1568526476
 20
4.5918000646
 30
0.0
 10
4.1570534324
 20
4.5924584831
 30
0.0
 10
4.157368908
 20
4.5932107256
 30
0.0
 10
4.1576841251
 20
4.593835508
 30
0.0
 10
4.1580001997
 20
4.5943851706
 30
0.0
 10
4.1583180522
 20
4.5948836623
 30
0.0
 10
4.1586354821
 20
4.5953468147
 30
0.0
 10
4.1592411607
 20
4.5961889774
 30
0.0
 10
4.1599701022
 20
4.597101877
 30
0.0
 10
4.1608216146
 20
4.5980763112
 30
0.0
 10
4.1614467551
 20
4.5987539533
 30
0.0
 10
4.1620680669
 20
4.5994043936
 30
0.0
 10
4.1628833832
 20
4.6002375919
 30
0.0
 10
4.1642844259
 20
4.6016195723
 30
0.0
 10
4.1662834751
 20
4.6034831478
 30
0.0
 10
4.1686761051
 20
4.6055872879
 30
0.0
 10
4.1710500662
 20
4.6075619219
 30
0.0
 10
4.1734431288
 20
4.609400331
 30
0.0
 10
4.1750775793
 20
4.6105383927
 30
0.0
 10
4.1759037687
 20
4.6110797931
 30
0.0
  0
SPLINE
  5
521
100
AcDbEntity
  8
ALL_ASSEMBLY_MEMBERS
100
AcDbSpline
 62
7
  6
CONTINUOUS
 70
0
 71
3
 72
10
 73
6
 74
0
 42
0.0000001
 43
0.0000001
 44
0.0000000001
 40
0.0
 40
0.0
 40
0.0
 40
0.0
 40
0.5090286032
 40
0.7565333595
 40
1.0
 40
1.0
 40
1.0
 40
1.0
 10
4.162251898
 20
4.6409242743
 30
0.0
 10
4.1641071382
 20
4.6455535798
 30
0.0
 10
4.1673619229
 20
4.6522579807
 30
0.0
 10
4.1727253765
 20
4.6604677428
 30
0.0
 10
4.1757125281
 20
4.664249183
 30
0.0
 10
4.1772794351
 20
4.6660477376
 30
0.0
  0
SPLINE
  5
522
100
AcDbEntity
  8
ALL_ASSEMBLY_MEMBERS
100
AcDbSpline
 62
7
  6
CONTINUOUS
 70
0
 71
3
 72
11
 73
7
 74
0
 42
0.0000001
 43
0.0000001
 44
0.0000000001
 40
0.0
 40
0.0
 40
0.0
 40
0.0
 40
0.2584014036
 40
0.5110047981
 40
0.7579731099
 40
1.0
 40
1.0
 40
1.0
 40
1.0
 10
4.1759037632
 20
4.611079787
 30
0.0
 10
4.1767414709
 20
4.6134541727
 30
0.0
 10
4.1785621614
 20
4.6180941826
 30
0.0
 10
4.1817911116
 20
4.6247455764
 30
0.0
 10
4.1854985392
 20
4.630958818
 30
0.0
 10
4.1883184699
 20
4.6348105955
 30
0.0
 10
4.1898064423
 20
4.6366401887
 30
0.0
  0
SPLINE
  5
523
100
AcDbEntity
  8
ALL_ASSEMBLY_MEMBERS
100
AcDbSpline
 62
7
  6
CONTINUOUS
 70
0
 71
3
 72
13
 73
9
 74
0
 42
0.0000001
 43
0.0000001
 44
0.0000000001
 40
0.0
 40
0.0
 40
0.0
 40
0.0
 40
0.2479342797
 40
0.3726503804
 40
0.4975707666
 40
0.6228119519
 40
0.7484782267
 40
1.0
 40
1.0
 40
1.0
 40
1.0
 10
4.1622519009
 20
4.6409242742
 30
0.0
 10
4.1622442007
 20
4.6381308923
 30
0.0
 10
4.1626974342
 20
4.63391343
 30
0.0
 10
4.1641821248
 20
4.6285001398
 30
0.0
 10
4.165734959
 20
4.6245629868
 30
0.0
 10
4.1677036221
 20
4.6208044751
 30
0.0
 10
4.1708542382
 20
4.6160928329
 30
0.0
 10
4.1737700482
 20
4.6129446594
 30
0.0
 10
4.1759037632
 20
4.611079787
 30
0.0
  0
SPLINE
  5
524
100
AcDbEntity
  8
ALL_ASSEMBLY_MEMBERS
100
AcDbSpline
 62
7
  6
CONTINUOUS
 70
0
 71
3
 72
8
 73
4
 74
0
 42
0.0000001
 43
0.0000001
 44
0.0000000001
 40
0.0
 40
0.0
 40
0.0
 40
0.0
 40
1.0
 40
1.0
 40
1.0
 40
1.0
 10
4.1772794351
 20
4.6660477376
 30
0.0
 10
4.177288778
 20
4.6660584616
 30
0.0
 10
4.1772981107
 20
4.6660691943
 30
0.0
 10
4.1773074334
 20
4.6660799358
 30
0.0
  0
SPLINE
  5
525
100
AcDbEntity
  8
ALL_ASSEMBLY_MEMBERS
100
AcDbSpline
 62
7
  6
CONTINUOUS
 70
0
 71
3
 72
8
 73
4
 74
0
 42
0.0000001
 43
0.0000001
 44
0.0000000001
 40
0.0
 40
0.0
 40
0.0
 40
0.0
 40
1.0
 40
1.0
 40
1.0
 40
1.0
 10
4.1898064431
 20
4.6366401895
 30
0.0
 10
4.1898173658
 20
4.6366512582
 30
0.0
 10
4.1898282804
 20
4.636662335
 30
0.0
 10
4.189839187
 20
4.6366734197
 30
0.0
  0
SPLINE
  5
526
100
AcDbEntity
  8
ALL_ASSEMBLY_MEMBERS
100
AcDbSpline
 62
7
  6
CONTINUOUS
 70
0
 71
3
 72
13
 73
9
 74
0
 42
0.0000001
 43
0.0000001
 44
0.0000000001
 40
0.0
 40
0.0
 40
0.0
 40
0.0
 40
0.2484473359
 40
0.373356316
 40
0.4983996641
 40
0.6236533654
 40
0.7491861036
 40
1.0
 40
1.0
 40
1.0
 40
1.0
 10
4.1772794351
 20
4.6660477376
 30
0.0
 10
4.1772575506
 20
4.6633288091
 30
0.0
 10
4.177654117
 20
4.6592238614
 30
0.0
 10
4.1790003226
 20
4.6539315244
 30
0.0
 10
4.180418056
 20
4.6500696067
 30
0.0
 10
4.182223943
 20
4.64636573
 30
0.0
 10
4.1851233402
 20
4.6416968247
 30
0.0
 10
4.1878216567
 20
4.6385362878
 30
0.0
 10
4.1898064431
 20
4.6366401895
 30
0.0
  0
SPLINE
  5
527
100
AcDbEntity
  8
ALL_ASSEMBLY_MEMBERS
100
AcDbSpline
 62
7
  6
CONTINUOUS
 70
0
 71
3
 72
29
 73
25
 74
0
 42
0.0000001
 43
0.0000001
 44
0.0000000001
 40
0.0
 40
0.0
 40
0.0
 40
0.0
 40
0.0111282173
 40
0.0233522446
 40
0.0367957311
 40
0.0515470334
 40
0.0676687554
 40
0.0852030647
 40
0.1041758161
 40
0.1246020704
 40
0.1464890553
 40
0.1698371964
 40
0.2208700458
 40
0.2485258158
 40
0.2775808912
 40
0.3080111823
 40
0.3397870899
 40
0.4072488647
 40
0.4797018735
 40
0.5568292794
 40
0.6382916767
 40
0.7237352233
 40
0.8127944207
 40
1.0
 40
1.0
 40
1.0
 40
1.0
 10
4.1773074334
 20
4.6660799312
 30
0.0
 10
4.17772363
 20
4.6665849748
 30
0.0
 10
4.1786759914
 20
4.6675808498
 30
0.0
 10
4.1803471985
 20
4.6689612514
 30
0.0
 10
4.1823198403
 20
4.6702930416
 30
0.0
 10
4.1845914292
 20
4.6715752186
 30
0.0
 10
4.1871600274
 20
4.6728067076
 30
0.0
 10
4.1900228022
 20
4.6739866133
 30
0.0
 10
4.1931763308
 20
4.6751147551
 30
0.0
 10
4.1966170769
 20
4.6761905285
 30
0.0
 10
4.200341324
 20
4.6772134263
 30
0.0
 10
4.2058445459
 20
4.6785453309
 30
0.0
 10
4.2117324174
 20
4.6797174668
 30
0.0
 10
4.2179816835
 20
4.6807649906
 30
0.0
 10
4.2230513546
 20
4.6815160374
 30
0.0
 10
4.2283732717
 20
4.6822117269
 30
0.0
 10
4.2359492712
 20
4.6830825517
 30
0.0
 10
4.2460039902
 20
4.6840188386
 30
0.0
 10
4.2587386423
 20
4.684898297
 30
0.0
 10
4.2723110635
 20
4.6855535848
 30
0.0
 10
4.2866566436
 20
4.6859834792
 30
0.0
 10
4.3017089372
 20
4.6861868975
 30
0.0
 10
4.3229811241
 20
4.6861535916
 30
0.0
 10
4.3392262842
 20
4.6857835715
 30
0.0
 10
4.3502288851
 20
4.6853983032
 30
0.0
  0
SPLINE
  5
528
100
AcDbEntity
  8
ALL_ASSEMBLY_MEMBERS
100
AcDbSpline
 62
7
  6
CONTINUOUS
 70
0
 71
3
 72
27
 73
23
 74
0
 42
0.0000001
 43
0.0000001
 44
0.0000000001
 40
0.0
 40
0.0
 40
0.0
 40
0.0
 40
0.0108328443
 40
0.0228600738
 40
0.0361890614
 40
0.0508931972
 40
0.0670220913
 40
0.0846064948
 40
0.1036621188
 40
0.1241952876
 40
0.1462056232
 40
0.169686948
 40
0.2209957737
 40
0.2779632549
 40
0.3403839202
 40
0.4080033017
 40
0.4805443251
 40
0.5576870957
 40
0.6390928989
 40
0.7244125758
 40
0.8132884681
 40
1.0
 40
1.0
 40
1.0
 40
1.0
 10
4.1898392079
 20
4.6366734416
 30
0.0
 10
4.1902576983
 20
4.6370986185
 30
0.0
 10
4.1912067507
 20
4.6379318752
 30
0.0
 10
4.1928444055
 20
4.639072911
 30
0.0
 10
4.1947631983
 20
4.6401668218
 30
0.0
 10
4.196960718
 20
4.6412130054
 30
0.0
 10
4.199434921
 20
4.6422107395
 30
0.0
 10
4.2021828263
 20
4.6431595607
 30
0.0
 10
4.2052008578
 20
4.6440597439
 30
0.0
 10
4.208485278
 20
4.6449111913
 30
0.0
 10
4.2120321803
 20
4.6457139119
 30
0.0
 10
4.2172620889
 20
4.6467496656
 30
0.0
 10
4.2244285468
 20
4.6479018828
 30
0.0
 10
4.2337595545
 20
4.649055549
 30
0.0
 10
4.2440146453
 20
4.6500170223
 30
0.0
 10
4.2551454266
 20
4.6507868445
 30
0.0
 10
4.2670994172
 20
4.651364999
 30
0.0
 10
4.2798206101
 20
4.651751535
 30
0.0
 10
4.2932499009
 20
4.6519463416
 30
0.0
 10
4.3073267318
 20
4.6519490481
 30
0.0
 10
4.3272011742
 20
4.6516909301
 30
0.0
 10
4.3423724854
 20
4.6512113146
 30
0.0
 10
4.3526457138
 20
4.650774861
 30
0.0
  0
SPLINE
  5
529
100
AcDbEntity
  8
ALL_ASSEMBLY_MEMBERS
100
AcDbSpline
 62
7
  6
CONTINUOUS
 70
0
 71
3
 72
13
 73
9
 74
0
 42
0.0000001
 43
0.0000001
 44
0.0000000001
 40
0.0
 40
0.0
 40
0.0
 40
0.0
 40
0.2484370202
 40
0.3733434185
 40
0.498385979
 40
0.6236406932
 40
0.7491761874
 40
1.0
 40
1.0
 40
1.0
 40
1.0
 10
4.1773075938
 20
4.6660800583
 30
0.0
 10
4.1772859565
 20
4.6633611492
 30
0.0
 10
4.1776829804
 20
4.6592562378
 30
0.0
 10
4.1790298834
 20
4.6539640424
 30
0.0
 10
4.1804481994
 20
4.6501022171
 30
0.0
 10
4.1822547101
 20
4.6463984531
 30
0.0
 10
4.1851549973
 20
4.6417297054
 30
0.0
 10
4.1878539877
 20
4.6385693765
 30
0.0
 10
4.1898392079
 20
4.6366734416
 30
0.0
  0
SPLINE
  5
52A
100
AcDbEntity
  8
ALL_ASSEMBLY_MEMBERS
100
AcDbSpline
 62
7
  6
CONTINUOUS
 70
0
 71
3
 72
15
 73
11
 74
0
 42
0.0000001
 43
0.0000001
 44
0.0000000001
 40
0.0
 40
0.0
 40
0.0
 40
0.0
 40
0.1246357005
 40
0.2526920513
 40
0.3824908535
 40
0.5123478671
 40
0.6405951821
 40
0.7656163265
 40
0.885880511
 40
1.0
 40
1.0
 40
1.0
 40
1.0
 10
4.3526457046
 20
4.6507748365
 30
0.0
 10
4.3618586426
 20
4.6503813691
 30
0.0
 10
4.3805284423
 20
4.6493594585
 30
0.0
 10
4.4087446836
 20
4.6471650395
 30
0.0
 10
4.4372870685
 20
4.644277148
 30
0.0
 10
4.4657649656
 20
4.6406928102
 30
0.0
 10
4.4937892833
 20
4.6364102044
 30
0.0
 10
4.5209777631
 20
4.6314288685
 30
0.0
 10
4.5469608632
 20
4.6257500776
 30
0.0
 10
4.5637471858
 20
4.6213714231
 30
0.0
 10
4.5718615647
 20
4.6190377905
 30
0.0
  0
SPLINE
  5
52B
100
AcDbEntity
  8
ALL_ASSEMBLY_MEMBERS
100
AcDbSpline
 62
7
  6
CONTINUOUS
 70
0
 71
3
 72
14
 73
10
 74
0
 42
0.0000001
 43
0.0000001
 44
0.0000000001
 40
0.0
 40
0.0
 40
0.0
 40
0.0
 40
0.1347380927
 40
0.2702206398
 40
0.5354252706
 40
0.6619545046
 40
0.782538626
 40
0.89571356
 40
1.0
 40
1.0
 40
1.0
 40
1.0
 10
4.3502288939
 20
4.6853982989
 30
0.0
 10
4.3500826547
 20
4.683838
 30
0.0
 10
4.3498537949
 20
4.6807023165
 30
0.0
 10
4.3496446359
 20
4.6744773669
 30
0.0
 10
4.349799118
 20
4.6683387154
 30
0.0
 10
4.3503407414
 20
4.6624029519
 30
0.0
 10
4.3509204958
 20
4.6582508443
 30
0.0
 10
4.3516688421
 20
4.6543890634
 30
0.0
 10
4.3522989372
 20
4.6519371663
 30
0.0
 10
4.3526457046
 20
4.6507748365
 30
0.0
  0
SPLINE
  5
52C
100
AcDbEntity
  8
ALL_ASSEMBLY_MEMBERS
100
AcDbSpline
 62
7
  6
CONTINUOUS
 70
0
 71
3
 72
15
 73
11
 74
0
 42
0.0000001
 43
0.0000001
 44
0.0000000001
 40
0.0
 40
0.0
 40
0.0
 40
0.0
 40
0.1246308614
 40
0.252616181
 40
0.3823104755
 40
0.5120633911
 40
0.6402439574
 40
0.765271817
 40
0.8856468133
 40
1.0
 40
1.0
 40
1.0
 40
1.0
 10
4.3502288851
 20
4.6853983032
 30
0.0
 10
4.3598363873
 20
4.6850617916
 30
0.0
 10
4.3793018866
 20
4.6841269312
 30
0.0
 10
4.4087167648
 20
4.6819921907
 30
0.0
 10
4.4384643393
 20
4.6791017466
 30
0.0
 10
4.4681446901
 20
4.6754593828
 30
0.0
 10
4.4973605081
 20
4.6710709052
 30
0.0
 10
4.5257221714
 20
4.6659444525
 30
0.0
 10
4.5528531308
 20
4.6600908622
 30
0.0
 10
4.5703952292
 20
4.6555812712
 30
0.0
 10
4.5788827648
 20
4.653180192
 30
0.0
  0
SPLINE
  5
52D
100
AcDbEntity
  8
ALL_ASSEMBLY_MEMBERS
100
AcDbSpline
 62
7
  6
CONTINUOUS
 70
0
 71
3
 72
15
 73
11
 74
0
 42
0.0000001
 43
0.0000001
 44
0.0000000001
 40
0.0
 40
0.0
 40
0.0
 40
0.0
 40
0.2451467459
 40
0.3079144038
 40
0.3710710788
 40
0.4981176085
 40
0.6254505749
 40
0.7521555545
 40
0.8773127509
 40
1.0
 40
1.0
 40
1.0
 40
1.0
 10
4.5788827669
 20
4.2677619062
 30
0.0
 10
4.5620639269
 20
4.2583093066
 30
0.0
 10
4.5397337297
 20
4.2484452451
 30
0.0
 10
4.511946556
 20
4.2394671667
 30
0.0
 10
4.4927598255
 20
4.234129728
 30
0.0
 10
4.4682937066
 20
4.2289018192
 30
0.0
 10
4.4385330048
 20
4.2249549813
 30
0.0
 10
4.4087029899
 20
4.2233416273
 30
0.0
 10
4.3792055257
 20
4.2240578107
 30
0.0
 10
4.3597806451
 20
4.2260942723
 30
0.0
 10
4.3502288851
 20
4.2275060521
 30
0.0
  0
SPLINE
  5
52E
100
AcDbEntity
  8
ALL_ASSEMBLY_MEMBERS
100
AcDbSpline
 62
7
  6
CONTINUOUS
 70
0
 71
3
 72
14
 73
10
 74
0
 42
0.0000001
 43
0.0000001
 44
0.0000000001
 40
0.0
 40
0.0
 40
0.0
 40
0.0
 40
0.245108023
 40
0.371049428
 40
0.498161892
 40
0.6255608159
 40
0.7523028347
 40
0.8774297934
 40
1.0
 40
1.0
 40
1.0
 40
1.0
 10
4.5718615206
 20
4.3024988002
 30
0.0
 10
4.5557864794
 20
4.2933273414
 30
0.0
 10
4.5300306072
 20
4.2818020296
 30
0.0
 10
4.4940164658
 20
4.2708668547
 30
0.0
 10
4.4659086981
 20
4.2647694526
 30
0.0
 10
4.4373548625
 20
4.2608962524
 30
0.0
 10
4.408734916
 20
4.2592573626
 30
0.0
 10
4.3804407922
 20
4.2598416103
 30
0.0
 10
4.3618074401
 20
4.2617143723
 30
0.0
 10
4.3526457117
 20
4.2630243406
 30
0.0
  0
SPLINE
  5
52F
100
AcDbEntity
  8
ALL_ASSEMBLY_MEMBERS
100
AcDbSpline
 62
7
  6
CONTINUOUS
 70
0
 71
3
 72
22
 73
18
 74
0
 42
0.0000001
 43
0.0000001
 44
0.0000000001
 40
0.0
 40
0.0
 40
0.0
 40
0.0
 40
0.075563052
 40
0.1497329473
 40
0.2222828883
 40
0.2930614809
 40
0.3619678432
 40
0.4289215429
 40
0.5567015525
 40
0.6176103619
 40
0.6765860458
 40
0.7337492906
 40
0.7892669659
 40
0.843364673
 40
0.8963213788
 40
0.9484365361
 40
1.0
 40
1.0
 40
1.0
 40
1.0
 10
4.3502288851
 20
4.2275060521
 30
0.0
 10
4.34462538
 20
4.2283344262
 30
0.0
 10
4.3335589315
 20
4.2302419315
 30
0.0
 10
4.3172921851
 20
4.233884978
 30
0.0
 10
4.3015805646
 20
4.2382699851
 30
0.0
 10
4.2865035756
 20
4.2433741968
 30
0.0
 10
4.272129659
 20
4.2491747558
 30
0.0
 10
4.2542758703
 20
4.2576672049
 30
0.0
 10
4.2377635855
 20
4.2675351336
 30
0.0
 10
4.2229734065
 20
4.2787822639
 30
0.0
 10
4.2130617554
 20
4.2876312646
 30
0.0
 10
4.2042038737
 20
4.2969870479
 30
0.0
 10
4.1964441509
 20
4.306812365
 30
0.0
 10
4.1898220738
 20
4.3170659616
 30
0.0
 10
4.1843723963
 20
4.3277042251
 30
0.0
 10
4.1801275194
 20
4.3386740734
 30
0.0
 10
4.1781058893
 20
4.3461969805
 30
0.0
 10
4.1773075412
 20
4.3499789685
 30
0.0
  0
SPLINE
  5
530
100
AcDbEntity
  8
ALL_ASSEMBLY_MEMBERS
100
AcDbSpline
 62
7
  6
CONTINUOUS
 70
0
 71
3
 72
22
 73
18
 74
0
 42
0.0000001
 43
0.0000001
 44
0.0000000001
 40
0.0
 40
0.0
 40
0.0
 40
0.0
 40
0.0759599817
 40
0.1504961846
 40
0.2233820477
 40
0.2944633923
 40
0.3636341953
 40
0.4308073356
 40
0.5588625057
 40
0.6198037699
 40
0.6787302541
 40
0.7357543386
 40
0.7910383547
 40
0.8448080702
 40
0.8973494247
 40
0.9489765851
 40
1.0
 40
1.0
 40
1.0
 40
1.0
 10
4.3526457077
 20
4.2630243449
 30
0.0
 10
4.3474155814
 20
4.2637739225
 30
0.0
 10
4.3370858776
 20
4.2654985083
 30
0.0
 10
4.3218944965
 20
4.2687893738
 30
0.0
 10
4.307213528
 20
4.272747883
 30
0.0
 10
4.2931147328
 20
4.277353968
 30
0.0
 10
4.2796600324
 20
4.2825873859
 30
0.0
 10
4.2629330383
 20
4.2902470028
 30
0.0
 10
4.2474240653
 20
4.2991490272
 30
0.0
 10
4.2334770391
 20
4.3093143382
 30
0.0
 10
4.2241110254
 20
4.3173143955
 30
0.0
 10
4.2157142297
 20
4.3257820548
 30
0.0
 10
4.2083299626
 20
4.3346869192
 30
0.0
 10
4.2019976489
 20
4.3439951626
 30
0.0
 10
4.1967535299
 20
4.3536710483
 30
0.0
 10
4.1926315167
 20
4.3636690299
 30
0.0
 10
4.190636979
 20
4.3705426004
 30
0.0
 10
4.1898392209
 20
4.3740008265
 30
0.0
  0
SPLINE
  5
531
100
AcDbEntity
  8
ALL_ASSEMBLY_MEMBERS
100
AcDbSpline
 62
7
  6
CONTINUOUS
 70
0
 71
3
 72
13
 73
9
 74
0
 42
0.0000001
 43
0.0000001
 44
0.0000000001
 40
0.0
 40
0.0
 40
0.0
 40
0.0
 40
0.108761302
 40
0.2253572945
 40
0.475476313
 40
0.7381360821
 40
0.8701537776
 40
1.0
 40
1.0
 40
1.0
 40
1.0
 10
4.3502288997
 20
4.2275060793
 30
0.0
 10
4.3500776226
 20
4.2287931303
 30
0.0
 10
4.349846003
 20
4.231469916
 30
0.0
 10
4.3496384097
 20
4.2371332203
 30
0.0
 10
4.3498717406
 20
4.2446380757
 30
0.0
 10
4.3506914783
 20
4.2522843074
 30
0.0
 10
4.3516957862
 20
4.258453993
 30
0.0
 10
4.352310698
 20
4.2615139094
 30
0.0
 10
4.3526457077
 20
4.2630243449
 30
0.0
  0
LINE
  5
532
100
AcDbEntity
  8
ALL_ASSEMBLY_MEMBERS
100
AcDbLine
 62
7
  6
CONTINUOUS
 10
4.1773075412
 20
4.3499789685
 11
4.1772794351
 21
4.3501108175
  0
LINE
  5
533
100
AcDbEntity
  8
ALL_ASSEMBLY_MEMBERS
100
AcDbLine
 62
7
  6
CONTINUOUS
 10
4.189839187
 20
4.3740008521
 11
4.1898064431
 21
4.374142871
  0
SPLINE
  5
534
100
AcDbEntity
  8
ALL_ASSEMBLY_MEMBERS
100
AcDbSpline
 62
7
  6
CONTINUOUS
 70
0
 71
3
 72
15
 73
11
 74
0
 42
0.0000001
 43
0.0000001
 44
0.0000000001
 40
0.0
 40
0.0
 40
0.0
 40
0.0
 40
0.1151860926
 40
0.2325338306
 40
0.3524004641
 40
0.4751629097
 40
0.6012247894
 40
0.7308544599
 40
0.8639254158
 40
1.0
 40
1.0
 40
1.0
 40
1.0
 10
4.1773075412
 20
4.3499789685
 30
0.0
 10
4.1772966773
 20
4.3510540531
 30
0.0
 10
4.1774205059
 20
4.3532282651
 30
0.0
 10
4.178024832
 20
4.3564698
 30
0.0
 10
4.1790437336
 20
4.3596803377
 30
0.0
 10
4.1804682979
 20
4.3628212804
 30
0.0
 10
4.1822800842
 20
4.3658618558
 30
0.0
 10
4.1844622683
 20
4.3687692309
 30
0.0
 10
4.1869860872
 20
4.3715126146
 30
0.0
 10
4.1888571862
 20
4.3731953352
 30
0.0
 10
4.189839187
 20
4.3740008521
 30
0.0
  0
SPLINE
  5
535
100
AcDbEntity
  8
ALL_ASSEMBLY_MEMBERS
100
AcDbSpline
 62
7
  6
CONTINUOUS
 70
0
 71
3
 72
9
 73
5
 74
0
 42
0.0000001
 43
0.0000001
 44
0.0000000001
 40
0.0
 40
0.0
 40
0.0
 40
0.0
 40
0.4943980057
 40
1.0
 40
1.0
 40
1.0
 40
1.0
 10
4.1772794351
 20
4.3501108175
 30
0.0
 10
4.1744538374
 20
4.3633646242
 30
0.0
 10
4.1693181028
 20
4.390298731
 30
0.0
 10
4.1652628817
 20
4.4174151746
 30
0.0
 10
4.1634695313
 20
4.4311574158
 30
0.0
  0
SPLINE
  5
536
100
AcDbEntity
  8
ALL_ASSEMBLY_MEMBERS
100
AcDbSpline
 62
7
  6
CONTINUOUS
 70
0
 71
3
 72
9
 73
5
 74
0
 42
0.0000001
 43
0.0000001
 44
0.0000000001
 40
0.0
 40
0.0
 40
0.0
 40
0.0
 40
0.2451056146
 40
1.0
 40
1.0
 40
1.0
 40
1.0
 10
4.1898064429
 20
4.3741428711
 30
0.0
 10
4.1883196223
 20
4.3814355169
 30
0.0
 10
4.1826316695
 20
4.4112652359
 30
0.0
 10
4.1784027756
 20
4.4413665641
 30
0.0
 10
4.1759037637
 20
4.4641524168
 30
0.0
  0
SPLINE
  5
537
100
AcDbEntity
  8
ALL_ASSEMBLY_MEMBERS
100
AcDbSpline
 62
7
  6
CONTINUOUS
 70
0
 71
3
 72
15
 73
11
 74
0
 42
0.0000001
 43
0.0000001
 44
0.0000000001
 40
0.0
 40
0.0
 40
0.0
 40
0.0
 40
0.115209643
 40
0.2325761303
 40
0.352455187
 40
0.4752226355
 40
0.6012815139
 40
0.7308999728
 40
0.8639517999
 40
1.0
 40
1.0
 40
1.0
 40
1.0
 10
4.1772794353
 20
4.3501108175
 30
0.0
 10
4.177268447
 20
4.3511863791
 30
0.0
 10
4.1773919925
 20
4.3533615196
 30
0.0
 10
4.1779958303
 20
4.3566044643
 30
0.0
 10
4.1790141828
 20
4.3598163737
 30
0.0
 10
4.1804381486
 20
4.3629586416
 30
0.0
 10
4.1822492976
 20
4.3660004842
 30
0.0
 10
4.184430817
 20
4.3689090603
 30
0.0
 10
4.1869539554
 20
4.3716535679
 30
0.0
 10
4.1888246462
 20
4.3733370128
 30
0.0
 10
4.1898064429
 20
4.3741428711
 30
0.0
  0
SPLINE
  5
538
100
AcDbEntity
  8
ALL_ASSEMBLY_MEMBERS
100
AcDbSpline
 62
7
  6
CONTINUOUS
 70
0
 71
3
 72
9
 73
5
 74
0
 42
0.0000001
 43
0.0000001
 44
0.0000000001
 40
0.0
 40
0.0
 40
0.0
 40
0.0
 40
0.4793731682
 40
1.0
 40
1.0
 40
1.0
 40
1.0
 10
4.162251898
 20
4.4408160061
 30
0.0
 10
4.1611452322
 20
4.4499119394
 30
0.0
 10
4.1591167074
 20
4.4689214274
 30
0.0
 10
4.15763168
 20
4.4879813018
 30
0.0
 10
4.1570016272
 20
4.4979128903
 30
0.0
  0
SPLINE
  5
539
100
AcDbEntity
  8
ALL_ASSEMBLY_MEMBERS
100
AcDbSpline
 62
7
  6
CONTINUOUS
 70
0
 71
3
 72
47
 73
43
 74
0
 42
0.0000001
 43
0.0000001
 44
0.0000000001
 40
0.0
 40
0.0
 40
0.0
 40
0.0
 40
0.1183142602
 40
0.1797405075
 40
0.2430372614
 40
0.3085539846
 40
0.37668483
 40
0.4476366537
 40
0.5204372247
 40
0.5899489099
 40
0.6201821549
 40
0.645852088
 40
0.6667509549
 40
0.6833263773
 40
0.696256438
 40
0.7061943369
 40
0.7136869963
 40
0.7191835653
 40
0.7230633336
 40
0.7245085235
 40
0.7256839114
 40
0.7274477444
 40
0.7282115325
 40
0.7290054652
 40
0.7298927248
 40
0.7309101299
 40
0.7333917643
 40
0.7364911785
 40
0.7401840604
 40
0.7444308445
 40
0.7491902413
 40
0.7600941135
 40
0.7726275994
 40
0.7865743703
 40
0.8017611183
 40
0.8180470334
 40
0.8353161757
 40
0.8534723005
 40
0.8724355706
 40
0.9125215976
 40
0.9551471533
 40
1.0
 40
1.0
 40
1.0
 40
1.0
 10
4.1570016272
 20
4.4979128903
 30
0.0
 10
4.1568231145
 20
4.5007268038
 30
0.0
 10
4.1565695157
 20
4.5050027869
 30
0.0
 10
4.1562638098
 20
4.5107865953
 30
0.0
 10
4.1560452997
 20
4.5153149845
 30
0.0
 10
4.155842341
 20
4.520004034
 30
0.0
 10
4.1556586098
 20
4.5248764467
 30
0.0
 10
4.1555014361
 20
4.52992348
 30
0.0
 10
4.1553855212
 20
4.5350045538
 30
0.0
 10
4.1553386092
 20
4.5391164352
 30
0.0
 10
4.1553470374
 20
4.5421052632
 30
0.0
 10
4.1553740209
 20
4.543935403
 30
0.0
 10
4.1554189987
 20
4.5454396078
 30
0.0
 10
4.1554782465
 20
4.5466394319
 30
0.0
 10
4.1555483671
 20
4.5475769411
 30
0.0
 10
4.1556268721
 20
4.5482963489
 30
0.0
 10
4.1557117539
 20
4.5488364697
 30
0.0
 10
4.1558022173
 20
4.5492284708
 30
0.0
 10
4.1558870859
 20
4.5494731627
 30
0.0
 10
4.1559615839
 20
4.5496097485
 30
0.0
 10
4.1560238081
 20
4.5496933087
 30
0.0
 10
4.1560991284
 20
4.5497494956
 30
0.0
 10
4.1561797169
 20
4.5497566697
 30
0.0
 10
4.1562370377
 20
4.5497422696
 30
0.0
 10
4.1562938949
 20
4.5497111812
 30
0.0
 10
4.1563752332
 20
4.5496448914
 30
0.0
 10
4.1564758759
 20
4.5495225712
 30
0.0
 10
4.1565931097
 20
4.5493350187
 30
0.0
 10
4.1567139878
 20
4.5491010782
 30
0.0
 10
4.1568383223
 20
4.5488250822
 30
0.0
 10
4.1570166353
 20
4.5483852859
 30
0.0
 10
4.1572426208
 20
4.547752212
 30
0.0
 10
4.1575159016
 20
4.5469041883
 30
0.0
 10
4.1578010192
 20
4.5459529713
 30
0.0
 10
4.1580974813
 20
4.5449119421
 30
0.0
 10
4.158404877
 20
4.5437917654
 30
0.0
 10
4.1587229731
 20
4.5426011815
 30
0.0
 10
4.1590516123
 20
4.5413473897
 30
0.0
 10
4.1595122484
 20
4.5395660854
 30
0.0
 10
4.1601112613
 20
4.5372182582
 30
0.0
 10
4.1608590005
 20
4.5342716402
 30
0.0
 10
4.1613726642
 20
4.5322511976
 30
0.0
 10
4.1616368587
 20
4.531215465
 30
0.0
  0
LINE
  5
53A
100
AcDbEntity
  8
ALL_ASSEMBLY_MEMBERS
100
AcDbLine
 62
7
  6
CONTINUOUS
 10
4.1616368587
 20
4.531215465
 11
4.1619377037
 21
4.5300375646
  0
LINE
  5
53B
100
AcDbEntity
  8
ALL_ASSEMBLY_MEMBERS
100
AcDbLine
 62
7
  6
CONTINUOUS
 10
4.1619377037
 20
4.5300375646
 11
4.162251898
 21
4.5288109987
  0
SPLINE
  5
53C
100
AcDbEntity
  8
ALL_ASSEMBLY_MEMBERS
100
AcDbSpline
 62
7
  6
CONTINUOUS
 70
0
 71
3
 72
12
 73
8
 74
0
 42
0.0000001
 43
0.0000001
 44
0.0000000001
 40
0.0
 40
0.0
 40
0.0
 40
0.0
 40
0.2430290594
 40
0.4902419274
 40
0.7418990496
 40
0.8698934803
 40
1.0
 40
1.0
 40
1.0
 40
1.0
 10
4.1759037687
 20
4.4641524127
 30
0.0
 10
4.1746577295
 20
4.4683191769
 30
0.0
 10
4.1722232909
 20
4.4767481025
 30
0.0
 10
4.1686755379
 20
4.4895418558
 30
0.0
 10
4.1656966708
 20
4.5003570587
 30
0.0
 10
4.1632751869
 20
4.5091520881
 30
0.0
 10
4.1620499817
 20
4.5136054244
 30
0.0
 10
4.16143428
 20
4.515850839
 30
0.0
  0
LINE
  5
53D
100
AcDbEntity
  8
ALL_ASSEMBLY_MEMBERS
100
AcDbLine
 62
7
  6
CONTINUOUS
 10
4.1593411045
 20
4.5236142575
 11
4.1574357293
 21
4.5312055855
  0
SPLINE
  5
53E
100
AcDbEntity
  8
ALL_ASSEMBLY_MEMBERS
100
AcDbSpline
 62
7
  6
CONTINUOUS
 70
0
 71
3
 72
35
 73
31
 74
0
 42
0.0000001
 43
0.0000001
 44
0.0000000001
 40
0.0
 40
0.0
 40
0.0
 40
0.0
 40
0.1181190276
 40
0.1797063946
 40
0.243614342
 40
0.3105404665
 40
0.3818239824
 40
0.418777268
 40
0.453703575
 40
0.484017544
 40
0.5081133184
 40
0.5253127607
 40
0.5373251505
 40
0.5462543409
 40
0.5534554618
 40
0.5597201498
 40
0.5656897674
 40
0.5779951994
 40
0.5916773266
 40
0.6067910698
 40
0.6232067666
 40
0.6407888558
 40
0.6593668865
 40
0.6788316663
 40
0.7199720811
 40
0.7634071941
 40
0.8084696224
 40
0.8548253826
 40
0.9022867143
 40
1.0
 40
1.0
 40
1.0
 40
1.0
 10
4.1574357293
 20
4.5312055855
 30
0.0
 10
4.1573437539
 20
4.5316126593
 30
0.0
 10
4.1572079326
 20
4.532232933
 30
0.0
 10
4.1570360314
 20
4.5330763431
 30
0.0
 10
4.1569096324
 20
4.533744375
 30
0.0
 10
4.1567888705
 20
4.5344482559
 30
0.0
 10
4.156704813
 20
4.5350616403
 30
0.0
 10
4.1566564733
 20
4.5355652128
 30
0.0
 10
4.1566363768
 20
4.5359259106
 30
0.0
 10
4.1566402149
 20
4.5362418044
 30
0.0
 10
4.1566624114
 20
4.5364941377
 30
0.0
 10
4.1566999743
 20
4.5366793759
 30
0.0
 10
4.1567509797
 20
4.5368052409
 30
0.0
 10
4.1568090279
 20
4.5368870163
 30
0.0
 10
4.1568696484
 20
4.5369393961
 30
0.0
 10
4.1569336435
 20
4.5369671054
 30
0.0
 10
4.1570205224
 20
4.5369779835
 30
0.0
 10
4.1571337566
 20
4.536956099
 30
0.0
 10
4.1572649014
 20
4.5368920837
 30
0.0
 10
4.1573977474
 20
4.5368028025
 30
0.0
 10
4.1575318958
 20
4.536692438
 30
0.0
 10
4.1576670344
 20
4.536564847
 30
0.0
 10
4.1578033234
 20
4.5364231653
 30
0.0
 10
4.1579893176
 20
4.5362141058
 30
0.0
 10
4.1582211326
 20
4.5359286083
 30
0.0
 10
4.158496009
 20
4.5355621479
 30
0.0
 10
4.1587717665
 20
4.5351735421
 30
0.0
 10
4.1590473919
 20
4.5347675491
 30
0.0
 10
4.159418073
 20
4.5342013666
 30
0.0
 10
4.1596899627
 20
4.5337663512
 30
0.0
 10
4.1598700698
 20
4.5334718165
 30
0.0
  0
SPLINE
  5
53F
100
AcDbEntity
  8
ALL_ASSEMBLY_MEMBERS
100
AcDbSpline
 62
7
  6
CONTINUOUS
 70
0
 71
3
 72
15
 73
11
 74
0
 42
0.0000001
 43
0.0000001
 44
0.0000000001
 40
0.0
 40
0.0
 40
0.0
 40
0.0
 40
0.114189387
 40
0.2304505659
 40
0.3493654439
 40
0.4715188572
 40
0.597486728
 40
0.7276654674
 40
0.8619844125
 40
1.0
 40
1.0
 40
1.0
 40
1.0
 10
4.1622518958
 20
4.440816006
 30
0.0
 10
4.1622480342
 20
4.4418849746
 30
0.0
 10
4.1623975247
 20
4.4440457138
 30
0.0
 10
4.1630745306
 20
4.4472552187
 30
0.0
 10
4.1641990127
 20
4.4504160805
 30
0.0
 10
4.1657599302
 20
4.4534869288
 30
0.0
 10
4.1677354238
 20
4.4564358266
 30
0.0
 10
4.1701054426
 20
4.4592283834
 30
0.0
 10
4.172836508
 20
4.4618334936
 30
0.0
 10
4.1748493696
 20
4.4634057096
 30
0.0
 10
4.1759037687
 20
4.4641524127
 30
0.0
  0
SPLINE
  5
540
100
AcDbEntity
  8
ALL_ASSEMBLY_MEMBERS
100
AcDbSpline
 62
7
  6
CONTINUOUS
 70
0
 71
3
 72
9
 73
5
 74
0
 42
0.0000001
 43
0.0000001
 44
0.0000000001
 40
0.0
 40
0.0
 40
0.0
 40
0.0
 40
0.4833462329
 40
1.0
 40
1.0
 40
1.0
 40
1.0
 10
4.1647313957
 20
4.5196396662
 30
0.0
 10
4.1664921196
 20
4.5134329489
 30
0.0
 10
4.1704447197
 20
4.5006787499
 30
0.0
 10
4.1748862412
 20
4.488088563
 30
0.0
 10
4.1772794351
 20
4.481620925
 30
0.0
  0
SPLINE
  5
541
100
AcDbEntity
  8
ALL_ASSEMBLY_MEMBERS
100
AcDbSpline
 62
7
  6
CONTINUOUS
 70
0
 71
3
 72
8
 73
4
 74
0
 42
0.0000001
 43
0.0000001
 44
0.0000000001
 40
0.0
 40
0.0
 40
0.0
 40
0.0
 40
1.0
 40
1.0
 40
1.0
 40
1.0
 10
4.1772794351
 20
4.481620925
 30
0.0
 10
4.1772887579
 20
4.4815957299
 30
0.0
 10
4.1772980907
 20
4.4815705383
 30
0.0
 10
4.1773074334
 20
4.4815453505
 30
0.0
  0
SPLINE
  5
542
100
AcDbEntity
  8
ALL_ASSEMBLY_MEMBERS
100
AcDbSpline
 62
7
  6
CONTINUOUS
 70
0
 71
3
 72
9
 73
5
 74
0
 42
0.0000001
 43
0.0000001
 44
0.0000000001
 40
0.0
 40
0.0
 40
0.0
 40
0.0
 40
0.2376645814
 40
1.0
 40
1.0
 40
1.0
 40
1.0
 10
4.1773074334
 20
4.481545346
 30
0.0
 10
4.1776253937
 20
4.4807073019
 30
0.0
 10
4.179080963
 20
4.4772259396
 30
0.0
 10
4.1809761247
 20
4.4739368113
 30
0.0
 10
4.1825831701
 20
4.4715527871
 30
0.0
  0
SPLINE
  5
543
100
AcDbEntity
  8
ALL_ASSEMBLY_MEMBERS
100
AcDbSpline
 62
7
  6
CONTINUOUS
 70
0
 71
3
 72
22
 73
18
 74
0
 42
0.0000001
 43
0.0000001
 44
0.0000000001
 40
0.0
 40
0.0
 40
0.0
 40
0.0
 40
0.0383797014
 40
0.0800449949
 40
0.1251556581
 40
0.1737980452
 40
0.2259830441
 40
0.2816680984
 40
0.3407753534
 40
0.4031872542
 40
0.4687651242
 40
0.5373394315
 40
0.6087164933
 40
0.6826933061
 40
0.8375743587
 40
0.9179995286
 40
1.0
 40
1.0
 40
1.0
 40
1.0
 10
4.1825831701
 20
4.4715527871
 30
0.0
 10
4.1839333469
 20
4.469549823
 30
0.0
 10
4.1869991094
 20
4.4655379269
 30
0.0
 10
4.1923719765
 20
4.459764712
 30
0.0
 10
4.1986779563
 20
4.4540183983
 30
0.0
 10
4.2058935477
 20
4.4483244662
 30
0.0
 10
4.2139911426
 20
4.4427057624
 30
0.0
 10
4.222940162
 20
4.4371872586
 30
0.0
 10
4.2327071716
 20
4.4317948805
 30
0.0
 10
4.2432541007
 20
4.4265506136
 30
0.0
 10
4.2545412896
 20
4.4214790167
 30
0.0
 10
4.266524707
 20
4.4166013011
 30
0.0
 10
4.2791578441
 20
4.4119373828
 30
0.0
 10
4.2970794315
 20
4.4059398828
 30
0.0
 10
4.3158010454
 20
4.4005675452
 30
0.0
 10
4.3351927858
 20
4.395789035
 30
0.0
 10
4.345176572
 20
4.3935856491
 30
0.0
 10
4.3502288851
 20
4.3925323224
 30
0.0
  0
SPLINE
  5
544
100
AcDbEntity
  8
ALL_ASSEMBLY_MEMBERS
100
AcDbSpline
 62
7
  6
CONTINUOUS
 70
0
 71
3
 72
15
 73
11
 74
0
 42
0.0000001
 43
0.0000001
 44
0.0000000001
 40
0.0
 40
0.0
 40
0.0
 40
0.0
 40
0.1276768839
 40
0.2577686205
 40
0.3886942435
 40
0.5188505388
 40
0.6466268524
 40
0.7704309822
 40
0.8887115094
 40
1.0
 40
1.0
 40
1.0
 40
1.0
 10
4.3526457046
 20
4.3680810152
 30
0.0
 10
4.3618147985
 20
4.3660916326
 30
0.0
 10
4.3804124875
 20
4.3624632318
 30
0.0
 10
4.4086434674
 20
4.3580766925
 30
0.0
 10
4.4371966594
 20
4.3547021564
 30
0.0
 10
4.4656805144
 20
4.3523452339
 30
0.0
 10
4.4937052516
 20
4.3509883601
 30
0.0
 10
4.5208870871
 20
4.3505908339
 30
0.0
 10
4.5468549142
 20
4.3510895478
 30
0.0
 10
4.5637048141
 20
4.3519945857
 30
0.0
 10
4.5718615647
 20
4.3525853172
 30
0.0
  0
SPLINE
  5
545
100
AcDbEntity
  8
ALL_ASSEMBLY_MEMBERS
100
AcDbSpline
 62
7
  6
CONTINUOUS
 70
0
 71
3
 72
17
 73
13
 74
0
 42
0.0000001
 43
0.0000001
 44
0.0000000001
 40
0.0
 40
0.0
 40
0.0
 40
0.0
 40
0.1707703178
 40
0.3318919238
 40
0.4809478542
 40
0.6160229434
 40
0.7359715022
 40
0.8399532637
 40
0.8858712216
 40
0.9277653128
 40
0.965740625
 40
1.0
 40
1.0
 40
1.0
 40
1.0
 10
4.3502288939
 20
4.3925323313
 30
0.0
 10
4.3500871201
 20
4.3911185334
 30
0.0
 10
4.3498619203
 20
4.3883654187
 30
0.0
 10
4.3496981874
 20
4.3843658532
 30
0.0
 10
4.3497197674
 20
4.3806596228
 30
0.0
 10
4.3499283781
 20
4.3773017329
 30
0.0
 10
4.3503183019
 20
4.3743375848
 30
0.0
 10
4.3508093795
 20
4.3721416839
 30
0.0
 10
4.3513046062
 20
4.370623467
 30
0.0
 10
4.3517017217
 20
4.3696538571
 30
0.0
 10
4.3521383728
 20
4.3688090923
 30
0.0
 10
4.3524716545
 20
4.3683067635
 30
0.0
 10
4.3526457046
 20
4.3680810152
 30
0.0
  0
SPLINE
  5
546
100
AcDbEntity
  8
ALL_ASSEMBLY_MEMBERS
100
AcDbSpline
 62
7
  6
CONTINUOUS
 70
0
 71
3
 72
15
 73
11
 74
0
 42
0.0000001
 43
0.0000001
 44
0.0000000001
 40
0.0
 40
0.0
 40
0.0
 40
0.0
 40
0.1275288478
 40
0.2574806799
 40
0.3882828459
 40
0.5183471334
 40
0.6460869944
 40
0.7699405564
 40
0.8883901041
 40
1.0
 40
1.0
 40
1.0
 40
1.0
 10
4.3502288851
 20
4.3925323224
 30
0.0
 10
4.3597945576
 20
4.3905381122
 30
0.0
 10
4.379189608
 20
4.3868963255
 30
0.0
 10
4.4086169209
 20
4.3824829649
 30
0.0
 10
4.4383735428
 20
4.3790788243
 30
0.0
 10
4.4680587003
 20
4.3766946154
 30
0.0
 10
4.4972744094
 20
4.3753183458
 30
0.0
 10
4.5256296997
 20
4.3749160629
 30
0.0
 10
4.5527466108
 20
4.3754323474
 30
0.0
 10
4.5703532527
 20
4.3763703244
 30
0.0
 10
4.5788827648
 20
4.3769847624
 30
0.0
  0
SPLINE
  5
547
100
AcDbEntity
  8
ALL_ASSEMBLY_MEMBERS
100
AcDbSpline
 62
7
  6
CONTINUOUS
 70
0
 71
3
 72
19
 73
15
 74
0
 42
0.0000001
 43
0.0000001
 44
0.0000000001
 40
0.0
 40
0.0
 40
0.0
 40
0.0
 40
0.1254215945
 40
0.1882093978
 40
0.2510152038
 40
0.3765877008
 40
0.5020552776
 40
0.5647282786
 40
0.6273176689
 40
0.6898001376
 40
0.7521569211
 40
0.8143792519
 40
0.8764590504
 40
1.0
 40
1.0
 40
1.0
 40
1.0
 10
4.5788827726
 20
4.0948389965
 30
0.0
 10
4.57064859
 20
4.0891527919
 30
0.0
 10
4.5578001635
 20
4.081301992
 30
0.0
 10
4.5398946368
 20
4.0723147517
 30
0.0
 10
4.5215062467
 20
4.0643263467
 30
0.0
 10
4.4977415213
 20
4.0562676318
 30
0.0
 10
4.4732445059
 20
4.0508746395
 30
0.0
 10
4.4534111258
 20
4.0482002271
 30
0.0
 10
4.4384707306
 20
4.0470182536
 30
0.0
 10
4.423513444
 20
4.0466620454
 30
0.0
 10
4.4085887525
 20
4.0471334122
 30
0.0
 10
4.3937442116
 20
4.0484284144
 30
0.0
 10
4.3741646852
 20
4.0512433686
 30
0.0
 10
4.3596929453
 20
4.0545776961
 30
0.0
 10
4.3502288851
 20
4.0573319302
 30
0.0
  0
SPLINE
  5
548
100
AcDbEntity
  8
ALL_ASSEMBLY_MEMBERS
100
AcDbSpline
 62
7
  6
CONTINUOUS
 70
0
 71
3
 72
19
 73
15
 74
0
 42
0.0000001
 43
0.0000001
 44
0.0000000001
 40
0.0
 40
0.0
 40
0.0
 40
0.0
 40
0.0627362195
 40
0.1255208543
 40
0.1883318039
 40
0.2511630917
 40
0.3767798154
 40
0.5022813234
 40
0.5649647942
 40
0.6275595073
 40
0.6900422176
 40
0.7523891076
 40
0.8765733703
 40
1.0
 40
1.0
 40
1.0
 40
1.0
 10
4.5718615313
 20
4.1208626905
 30
0.0
 10
4.5679276095
 20
4.1181065148
 30
0.0
 10
4.5598991276
 20
4.1128131341
 30
0.0
 10
4.5474270846
 20
4.1055621996
 30
0.0
 10
4.5345604038
 20
4.0990191648
 30
0.0
 10
4.5169438949
 20
4.0912692845
 30
0.0
 10
4.4941590345
 20
4.0834462663
 30
0.0
 10
4.4706581292
 20
4.0782035795
 30
0.0
 10
4.4516273533
 20
4.0755928036
 30
0.0
 10
4.4372909465
 20
4.0744310051
 30
0.0
 10
4.4229379829
 20
4.074066038
 30
0.0
 10
4.4038726983
 20
4.0746413222
 30
0.0
 10
4.3802430931
 20
4.0773379535
 30
0.0
 10
4.3617210037
 20
4.0815929805
 30
0.0
 10
4.352645716
 20
4.0842279663
 30
0.0
  0
SPLINE
  5
549
100
AcDbEntity
  8
ALL_ASSEMBLY_MEMBERS
100
AcDbSpline
 62
7
  6
CONTINUOUS
 70
0
 71
3
 72
21
 73
17
 74
0
 42
0.0000001
 43
0.0000001
 44
0.0000000001
 40
0.0
 40
0.0
 40
0.0
 40
0.0
 40
0.1284147124
 40
0.1922217132
 40
0.2557015648
 40
0.318868779
 40
0.3817377061
 40
0.4443198166
 40
0.5066345101
 40
0.5687123557
 40
0.6305894098
 40
0.6923043145
 40
0.7538980543
 40
0.8154240457
 40
0.8769445534
 40
1.0
 40
1.0
 40
1.0
 40
1.0
 10
4.3502288851
 20
4.0573319302
 30
0.0
 10
4.3389771182
 20
4.0606069657
 30
0.0
 10
4.3224318829
 20
4.0666432881
 30
0.0
 10
4.3014304971
 20
4.0768425036
 30
0.0
 10
4.2863418057
 20
4.0854983368
 30
0.0
 10
4.2719621773
 20
4.0951319157
 30
0.0
 10
4.2583573334
 20
4.1056996683
 30
0.0
 10
4.245591321
 20
4.1171508577
 30
0.0
 10
4.2337281062
 20
4.1294350637
 30
0.0
 10
4.2228216968
 20
4.1424926818
 30
0.0
 10
4.2129275772
 20
4.1562659856
 30
0.0
 10
4.2040906306
 20
4.1706887759
 30
0.0
 10
4.1963551989
 20
4.1856947621
 30
0.0
 10
4.1897581558
 20
4.2012175506
 30
0.0
 10
4.1825265397
 20
4.2224945737
 30
0.0
 10
4.1788974764
 20
4.2390264861
 30
0.0
 10
4.1773075412
 20
4.2501430005
 30
0.0
  0
SPLINE
  5
54A
100
AcDbEntity
  8
ALL_ASSEMBLY_MEMBERS
100
AcDbSpline
 62
7
  6
CONTINUOUS
 70
0
 71
3
 72
21
 73
17
 74
0
 42
0.0000001
 43
0.0000001
 44
0.0000000001
 40
0.0
 40
0.0
 40
0.0
 40
0.0
 40
0.1287531977
 40
0.1926942485
 40
0.2562843116
 40
0.3195357406
 40
0.3824610406
 40
0.4450707479
 40
0.5073840071
 40
0.5694316266
 40
0.6312514284
 40
0.6928845743
 40
0.7543767022
 40
0.8157867564
 40
0.877183962
 40
1.0
 40
1.0
 40
1.0
 40
1.0
 10
4.3526457077
 20
4.0842279596
 30
0.0
 10
4.3421452719
 20
4.0872806736
 30
0.0
 10
4.3267012465
 20
4.0928827309
 30
0.0
 10
4.3070733217
 20
4.102317562
 30
0.0
 10
4.2929631715
 20
4.1103105828
 30
0.0
 10
4.2795023657
 20
4.1191969243
 30
0.0
 10
4.2667506429
 20
4.1289381657
 30
0.0
 10
4.2547667554
 20
4.1394899483
 30
0.0
 10
4.2436093959
 20
4.1508080854
 30
0.0
 10
4.2333293272
 20
4.162840839
 30
0.0
 10
4.2239786541
 20
4.1755378457
 30
0.0
 10
4.2156009
 20
4.1888414521
 30
0.0
 10
4.2082394919
 20
4.2026936638
 30
0.0
 10
4.2019314658
 20
4.2170362747
 30
0.0
 10
4.194973728
 20
4.2367167237
 30
0.0
 10
4.1914271289
 20
4.2520341156
 30
0.0
 10
4.1898392208
 20
4.2623434744
 30
0.0
  0
SPLINE
  5
54B
100
AcDbEntity
  8
ALL_ASSEMBLY_MEMBERS
100
AcDbSpline
 62
7
  6
CONTINUOUS
 70
0
 71
3
 72
17
 73
13
 74
0
 42
0.0000001
 43
0.0000001
 44
0.0000000001
 40
0.0
 40
0.0
 40
0.0
 40
0.0
 40
0.0356235762
 40
0.0754062505
 40
0.1192999763
 40
0.1672217609
 40
0.2746977996
 40
0.3967757995
 40
0.5321158626
 40
0.6792370158
 40
0.8360349071
 40
1.0
 40
1.0
 40
1.0
 40
1.0
 10
4.3502288997
 20
4.0573319701
 30
0.0
 10
4.3501518626
 20
4.0576452507
 30
0.0
 10
4.3500170952
 20
4.0583154458
 30
0.0
 10
4.349871334
 20
4.0593864772
 30
0.0
 10
4.3497712873
 20
4.0605745032
 30
0.0
 10
4.3496968988
 20
4.0623782241
 30
0.0
 10
4.3497342721
 20
4.0648927606
 30
0.0
 10
4.3499627114
 20
4.0681905259
 30
0.0
 10
4.3503735667
 20
4.0718319853
 30
0.0
 10
4.3509632074
 20
4.0757668009
 30
0.0
 10
4.3517214401
 20
4.0799362411
 30
0.0
 10
4.352320648
 20
4.0827790784
 30
0.0
 10
4.3526457077
 20
4.0842279596
 30
0.0
  0
LINE
  5
54C
100
AcDbEntity
  8
ALL_ASSEMBLY_MEMBERS
100
AcDbLine
 62
7
  6
CONTINUOUS
 10
4.1773075412
 20
4.2501430005
 11
4.1772794351
 21
4.2503390475
  0
LINE
  5
54D
100
AcDbEntity
  8
ALL_ASSEMBLY_MEMBERS
100
AcDbLine
 62
7
  6
CONTINUOUS
 10
4.189839187
 20
4.2623434833
 11
4.1898064431
 21
4.262556237
  0
SPLINE
  5
54E
100
AcDbEntity
  8
ALL_ASSEMBLY_MEMBERS
100
AcDbSpline
 62
7
  6
CONTINUOUS
 70
0
 71
3
 72
15
 73
11
 74
0
 42
0.0000001
 43
0.0000001
 44
0.0000000001
 40
0.0
 40
0.0
 40
0.0
 40
0.0
 40
0.0829249713
 40
0.1736072
 40
0.2756252147
 40
0.3912181905
 40
0.5215185968
 40
0.6669066701
 40
0.8268056266
 40
1.0
 40
1.0
 40
1.0
 40
1.0
 10
4.1773075412
 20
4.2501430005
 30
0.0
 10
4.1772964862
 20
4.2506486674
 30
0.0
 10
4.177433467
 20
4.2517145602
 30
0.0
 10
4.1780647759
 20
4.2532871429
 30
0.0
 10
4.1791065629
 20
4.2548647487
 30
0.0
 10
4.1805444075
 20
4.2564343945
 30
0.0
 10
4.1823620879
 20
4.2579880797
 30
0.0
 10
4.1845435366
 20
4.2595105809
 30
0.0
 10
4.1870633043
 20
4.260987756
 30
0.0
 10
4.1888815831
 20
4.2618974834
 30
0.0
 10
4.189839187
 20
4.2623434833
 30
0.0
  0
SPLINE
  5
54F
100
AcDbEntity
  8
ALL_ASSEMBLY_MEMBERS
100
AcDbSpline
 62
7
  6
CONTINUOUS
 70
0
 71
3
 72
9
 73
5
 74
0
 42
0.0000001
 43
0.0000001
 44
0.0000000001
 40
0.0
 40
0.0
 40
0.0
 40
0.0
 40
0.2484102432
 40
1.0
 40
1.0
 40
1.0
 40
1.0
 10
4.1772794351
 20
4.2503390475
 30
0.0
 10
4.1757534455
 20
4.2609852087
 30
0.0
 10
4.1699192755
 20
4.303886182
 30
0.0
 10
4.1653067748
 20
4.3469525166
 30
0.0
 10
4.1625049719
 20
4.3793718978
 30
0.0
  0
SPLINE
  5
550
100
AcDbEntity
  8
ALL_ASSEMBLY_MEMBERS
100
AcDbSpline
 62
7
  6
CONTINUOUS
 70
0
 71
3
 72
15
 73
11
 74
0
 42
0.0000001
 43
0.0000001
 44
0.0000000001
 40
0.0
 40
0.0
 40
0.0
 40
0.0
 40
0.0830138323
 40
0.1737632591
 40
0.2758203228
 40
0.3914232193
 40
0.521706293
 40
0.6670523493
 40
0.8268876853
 40
1.0
 40
1.0
 40
1.0
 40
1.0
 10
4.1772794353
 20
4.2503390475
 30
0.0
 10
4.1772682546
 20
4.2508455092
 30
0.0
 10
4.1774048793
 20
4.251912917
 30
0.0
 10
4.1780356185
 20
4.2534879179
 30
0.0
 10
4.1790768366
 20
4.2550678924
 30
0.0
 10
4.1805141048
 20
4.2566397924
 30
0.0
 10
4.1823311829
 20
4.2581955846
 30
0.0
 10
4.1845120029
 20
4.2597200307
 30
0.0
 10
4.1870311194
 20
4.2611989748
 30
0.0
 10
4.1888490316
 20
4.2621097481
 30
0.0
 10
4.1898064429
 20
4.2625562371
 30
0.0
  0
SPLINE
  5
551
100
AcDbEntity
  8
ALL_ASSEMBLY_MEMBERS
100
AcDbSpline
 62
7
  6
CONTINUOUS
 70
0
 71
3
 72
10
 73
6
 74
0
 42
0.0000001
 43
0.0000001
 44
0.0000000001
 40
0.0
 40
0.0
 40
0.0
 40
0.0
 40
0.4964716305
 40
0.7479524647
 40
1.0
 40
1.0
 40
1.0
 40
1.0
 10
4.1584207159
 20
4.434406955
 30
0.0
 10
4.1578816538
 20
4.44309975
 30
0.0
 10
4.1571442802
 20
4.4562005821
 30
0.0
 10
4.1563166129
 20
4.4737238947
 30
0.0
 10
4.1559578028
 20
4.4825499975
 30
0.0
 10
4.1557970763
 20
4.4869686901
 30
0.0
  0
LINE
  5
552
100
AcDbEntity
  8
ALL_ASSEMBLY_MEMBERS
100
AcDbLine
 62
7
  6
CONTINUOUS
 10
4.155411883
 20
4.4994400738
 11
4.1553867161
 21
4.5056782691
  0
LINE
  5
553
100
AcDbEntity
  8
ALL_ASSEMBLY_MEMBERS
100
AcDbLine
 62
7
  6
CONTINUOUS
 10
4.1553867161
 20
4.5056782691
 11
4.1554431583
 21
4.5058385862
  0
LINE
  5
554
100
AcDbEntity
  8
ALL_ASSEMBLY_MEMBERS
100
AcDbLine
 62
7
  6
CONTINUOUS
 10
4.1554851788
 20
4.5057195601
 11
4.1561327269
 21
4.4992832239
  0
LINE
  5
555
100
AcDbEntity
  8
ALL_ASSEMBLY_MEMBERS
100
AcDbLine
 62
7
  6
CONTINUOUS
 10
4.1561327269
 20
4.4992832239
 11
4.1563119196
 21
4.4971325825
  0
LINE
  5
556
100
AcDbEntity
  8
ALL_ASSEMBLY_MEMBERS
100
AcDbLine
 62
7
  6
CONTINUOUS
 10
4.1563119196
 20
4.4971325825
 11
4.1565227785
 21
4.4945664517
  0
LINE
  5
557
100
AcDbEntity
  8
ALL_ASSEMBLY_MEMBERS
100
AcDbLine
 62
7
  6
CONTINUOUS
 10
4.1565227785
 20
4.4945664517
 11
4.1571729935
 21
4.4866519771
  0
SPLINE
  5
558
100
AcDbEntity
  8
ALL_ASSEMBLY_MEMBERS
100
AcDbSpline
 62
7
  6
CONTINUOUS
 70
0
 71
3
 72
10
 73
6
 74
0
 42
0.0000001
 43
0.0000001
 44
0.0000000001
 40
0.0
 40
0.0
 40
0.0
 40
0.0
 40
0.2327195121
 40
0.4797242236
 40
1.0
 40
1.0
 40
1.0
 40
1.0
 10
4.1571729935
 20
4.4866519771
 30
0.0
 10
4.1575034003
 20
4.4826687183
 30
0.0
 10
4.1581999426
 20
4.4744589487
 30
0.0
 10
4.1597469796
 20
4.457353784
 30
0.0
 10
4.161061012
 20
4.4442409599
 30
0.0
 10
4.162011919
 20
4.4353560058
 30
0.0
  0
LINE
  5
559
100
AcDbEntity
  8
ALL_ASSEMBLY_MEMBERS
100
AcDbLine
 62
7
  6
CONTINUOUS
 10
4.162011919
 20
4.4353560058
 11
4.162251898
 21
4.4331255121
  0
ELLIPSE
  5
55A
100
AcDbEntity
  8
ALL_ASSEMBLY_MEMBERS
100
AcDbEllipse
 62
7
  6
CONTINUOUS
 10
5.7917380717
 20
4.5901203416
 30
0.0
 11
-0.0
 21
0.48475
 31
0.0
 40
0.2210555332
 41
6.3004893413
 42
6.3175170955
  0
ELLIPSE
  5
55B
100
AcDbEntity
  8
ALL_ASSEMBLY_MEMBERS
100
AcDbEllipse
 62
7
  6
CONTINUOUS
 10
5.7965588607
 20
4.5901203416
 30
0.0
 11
0.0
 21
0.48475
 31
0.0
 40
0.7957997678
 41
6.2863035852
 42
6.3004893413
  0
ELLIPSE
  5
55C
100
AcDbEntity
  8
ALL_ASSEMBLY_MEMBERS
100
AcDbEllipse
 62
7
  6
CONTINUOUS
 10
5.8652893149
 20
4.5901203416
 30
0.0
 11
0.0
 21
0.48475
 31
0.0
 40
0.7957996981
 41
-0.0173040341
 42
-0.0031182781
  0
ELLIPSE
  5
55D
100
AcDbEntity
  8
ALL_ASSEMBLY_MEMBERS
100
AcDbEllipse
 62
7
  6
CONTINUOUS
 10
5.8701101035
 20
4.5901203416
 30
0.0
 11
0.0
 21
0.48475
 31
0.0
 40
0.2210555139
 41
-0.0343317884
 42
-0.0173040341
  0
ELLIPSE
  5
55E
100
AcDbEntity
  8
ALL_ASSEMBLY_MEMBERS
100
AcDbEllipse
 62
7
  6
CONTINUOUS
 10
5.9494927993
 20
4.5901203416
 30
0.0
 11
3.2147129739
 21
-0.0
 31
0.0
 40
0.1507910672
 41
1.6102429677
 42
1.6130823074
  0
ELLIPSE
  5
55F
100
AcDbEntity
  8
ALL_ASSEMBLY_MEMBERS
100
AcDbEllipse
 62
7
  6
CONTINUOUS
 10
5.8951335969
 20
4.5901203416
 30
0.0
 11
1.9288162072
 21
-0.0
 31
0.0
 40
0.2513199538
 41
1.6130823074
 42
1.6159220045
  0
ELLIPSE
  5
560
100
AcDbEntity
  8
ALL_ASSEMBLY_MEMBERS
100
AcDbEllipse
 62
7
  6
CONTINUOUS
 10
5.8661305725
 20
4.5901203416
 30
0.0
 11
1.2858813755
 21
-0.0
 31
0.0
 40
0.3769787861
 41
1.6159220045
 42
1.621602498
  0
ELLIPSE
  5
561
100
AcDbEntity
  8
ALL_ASSEMBLY_MEMBERS
100
AcDbEllipse
 62
7
  6
CONTINUOUS
 10
5.833479236
 20
4.5901203416
 30
0.0
 11
0.6429400371
 21
0.0
 31
0.0
 40
0.7539583352
 41
1.621602498
 42
1.6301263818
  0
ELLIPSE
  5
562
100
AcDbEntity
  8
ALL_ASSEMBLY_MEMBERS
100
AcDbEllipse
 62
7
  6
CONTINUOUS
 10
5.8182299009
 20
4.5901203416
 30
0.0
 11
0.0
 21
0.48475
 31
0.0
 40
0.7957993124
 41
0.059330055
 42
0.0735464445
  0
ELLIPSE
  5
563
100
AcDbEntity
  8
ALL_ASSEMBLY_MEMBERS
100
AcDbEllipse
 62
7
  6
CONTINUOUS
 10
5.7977578107
 20
4.5901203416
 30
0.0
 11
-0.0
 21
0.48475
 31
0.0
 40
0.2210555332
 41
0.0735464445
 42
0.0906260353
  0
ELLIPSE
  5
564
100
AcDbEntity
  8
ALL_ASSEMBLY_MEMBERS
100
AcDbEllipse
 62
7
  6
CONTINUOUS
 10
5.864090365
 20
4.5901203416
 30
0.0
 11
0.0
 21
0.48475
 31
0.0
 40
0.2210555139
 41
-0.0906260353
 42
-0.0735464445
  0
ELLIPSE
  5
565
100
AcDbEntity
  8
ALL_ASSEMBLY_MEMBERS
100
AcDbEllipse
 62
7
  6
CONTINUOUS
 10
5.8436182766
 20
4.5901203416
 30
0.0
 11
0.0
 21
0.48475
 31
0.0
 40
0.7957992427
 41
-0.0735464445
 42
-0.059330055
  0
ELLIPSE
  5
566
100
AcDbEntity
  8
ALL_ASSEMBLY_MEMBERS
100
AcDbEllipse
 62
7
  6
CONTINUOUS
 10
5.8283689439
 20
4.5901203416
 30
0.0
 11
0.642939962
 21
-0.0
 31
0.0
 40
0.7539584232
 41
7.794651579
 42
7.8031754627
  0
ELLIPSE
  5
567
100
AcDbEntity
  8
ALL_ASSEMBLY_MEMBERS
100
AcDbEllipse
 62
7
  6
CONTINUOUS
 10
5.795717615
 20
4.5901203416
 30
0.0
 11
1.2858811504
 21
0.0
 31
0.0
 40
0.3769788521
 41
1.5199901556
 42
1.5256706491
  0
ELLIPSE
  5
568
100
AcDbEntity
  8
ALL_ASSEMBLY_MEMBERS
100
AcDbEllipse
 62
7
  6
CONTINUOUS
 10
5.7667144993
 20
4.5901203416
 30
0.0
 11
1.9288180083
 21
0.0
 31
0.0
 40
0.2513197191
 41
1.5256706491
 42
1.5285103462
  0
ELLIPSE
  5
569
100
AcDbEntity
  8
ALL_ASSEMBLY_MEMBERS
100
AcDbEllipse
 62
7
  6
CONTINUOUS
 10
5.7123554111
 20
4.5901203416
 30
0.0
 11
3.2147120734
 21
-0.0
 31
0.0
 40
0.1507911094
 41
1.5285103462
 42
1.5313496859
  0
ELLIPSE
  5
56A
100
AcDbEntity
  8
ALL_ASSEMBLY_MEMBERS
100
AcDbEllipse
 62
7
  6
CONTINUOUS
 10
5.8763057041
 20
4.5901203416
 30
0.0
 11
-0.0
 21
0.48475
 31
0.0
 40
0.2652667178
 41
0.0906260353
 42
0.1048790886
  0
ELLIPSE
  5
56B
100
AcDbEntity
  8
ALL_ASSEMBLY_MEMBERS
100
AcDbEllipse
 62
7
  6
CONTINUOUS
 10
5.9077158218
 20
4.5901203416
 30
0.0
 11
0.0
 21
0.48475
 31
0.0
 40
0.8842220554
 41
0.1048790886
 42
0.1134410125
  0
ELLIPSE
  5
56C
100
AcDbEntity
  8
ALL_ASSEMBLY_MEMBERS
100
AcDbEllipse
 62
7
  6
CONTINUOUS
 10
5.9683653436
 20
4.5901203416
 30
0.0
 11
0.9644099335
 21
0.0
 31
0.0
 40
0.5026389538
 41
1.6842373393
 42
1.6956663613
  0
ELLIPSE
  5
56D
100
AcDbEntity
  8
ALL_ASSEMBLY_MEMBERS
100
AcDbEllipse
 62
7
  6
CONTINUOUS
 10
6.3287067458
 20
4.5901203416
 30
0.0
 11
3.857654488
 21
-0.0
 31
0.0
 40
0.1256592578
 41
1.6956663613
 42
1.6985261089
  0
ELLIPSE
  5
56E
100
AcDbEntity
  8
ALL_ASSEMBLY_MEMBERS
100
AcDbEllipse
 62
7
  6
CONTINUOUS
 10
5.3331413144
 20
4.5901203416
 30
0.0
 11
3.8576553886
 21
0.0
 31
0.0
 40
0.1256592285
 41
1.4430665446
 42
1.4459262923
  0
ELLIPSE
  5
56F
100
AcDbEntity
  8
ALL_ASSEMBLY_MEMBERS
100
AcDbEllipse
 62
7
  6
CONTINUOUS
 10
5.6934828708
 20
4.5901203416
 30
0.0
 11
0.9644095958
 21
-0.0
 31
0.0
 40
0.5026391298
 41
1.4459262923
 42
1.4573553143
  0
ELLIPSE
  5
570
100
AcDbEntity
  8
ALL_ASSEMBLY_MEMBERS
100
AcDbEllipse
 62
7
  6
CONTINUOUS
 10
5.7541323544
 20
4.5901203416
 30
0.0
 11
-0.0
 21
0.48475
 31
0.0
 40
0.8842220554
 41
-0.1134410125
 42
-0.1048790886
  0
ELLIPSE
  5
571
100
AcDbEntity
  8
ALL_ASSEMBLY_MEMBERS
100
AcDbEllipse
 62
7
  6
CONTINUOUS
 10
5.7855424721
 20
4.5901203416
 30
0.0
 11
0.0
 21
0.48475
 31
0.0
 40
0.2652667178
 41
-0.1048790886
 42
-0.0906260353
  0
ELLIPSE
  5
572
100
AcDbEntity
  8
ALL_ASSEMBLY_MEMBERS
100
AcDbEllipse
 62
7
  6
CONTINUOUS
 10
5.9431110033
 20
4.5901203416
 30
0.0
 11
0.5716780154
 21
-0.4744956074
 31
0.0
 40
0.1734875795
 41
1.8341228243
 42
1.8564220296
  0
ELLIPSE
  5
573
100
AcDbEntity
  8
ALL_ASSEMBLY_MEMBERS
100
AcDbEllipse
 62
7
  6
CONTINUOUS
 10
5.9005508279
 20
4.5901203416
 30
0.0
 11
0.5716778757
 21
-0.4744956116
 31
0.0
 40
0.1734875871
 41
1.7601616376
 42
1.7823049235
  0
ELLIPSE
  5
574
100
AcDbEntity
  8
ALL_ASSEMBLY_MEMBERS
100
AcDbEllipse
 62
7
  6
CONTINUOUS
 10
5.8438853337
 20
4.5901203416
 30
0.0
 11
0.117123106
 21
0.4846535957
 31
0.0
 40
0.0825387411
 41
1.3243861563
 42
1.3391838673
  0
ELLIPSE
  5
575
100
AcDbEntity
  8
ALL_ASSEMBLY_MEMBERS
100
AcDbEllipse
 62
7
  6
CONTINUOUS
 10
5.8639673743
 20
4.5901203416
 30
0.0
 11
0.3205164298
 21
0.4819141273
 31
0.0
 40
0.1633544133
 41
1.4274608739
 42
1.438573063
  0
ELLIPSE
  5
576
100
AcDbEntity
  8
ALL_ASSEMBLY_MEMBERS
100
AcDbEllipse
 62
7
  6
CONTINUOUS
 10
5.9086913428
 20
4.5901203416
 30
0.0
 11
0.7387483593
 21
0.4700085841
 31
0.0
 40
0.1605905019
 41
1.5775999118
 42
1.5850154544
  0
ELLIPSE
  5
577
100
AcDbEntity
  8
ALL_ASSEMBLY_MEMBERS
100
AcDbEllipse
 62
7
  6
CONTINUOUS
 10
5.9946676945
 20
4.5901203416
 30
0.0
 11
1.4844556253
 21
0.4605286781
 31
0.0
 40
0.1019322549
 41
1.6552211679
 42
1.6589312972
  0
ELLIPSE
  5
578
100
AcDbEntity
  8
ALL_ASSEMBLY_MEMBERS
100
AcDbEllipse
 62
7
  6
CONTINUOUS
 10
5.6361724365
 20
4.5901203416
 30
0.0
 11
1.4844549309
 21
-0.4605286823
 31
0.0
 40
0.1019322941
 41
1.4826613836
 42
1.4863715129
  0
ELLIPSE
  5
579
100
AcDbEntity
  8
ALL_ASSEMBLY_MEMBERS
100
AcDbEllipse
 62
7
  6
CONTINUOUS
 10
5.7221486879
 20
4.5901203416
 30
0.0
 11
0.7387485344
 21
-0.47000858
 31
0.0
 40
0.1605904861
 41
1.5565771643
 42
1.5639927069
  0
ELLIPSE
  5
57A
100
AcDbEntity
  8
ALL_ASSEMBLY_MEMBERS
100
AcDbEllipse
 62
7
  6
CONTINUOUS
 10
5.7668726751
 20
4.5901203416
 30
0.0
 11
-0.3205164298
 21
0.4819141273
 31
0.0
 40
0.1633544133
 41
-1.438573063
 42
-1.4274608739
  0
ELLIPSE
  5
57B
100
AcDbEntity
  8
ALL_ASSEMBLY_MEMBERS
100
AcDbEllipse
 62
7
  6
CONTINUOUS
 10
6.0313913798
 20
4.5901203416
 30
0.0
 11
3.8575848219
 21
0.456341581
 31
0.0
 40
0.0423861521
 41
-1.6322987713
 42
-1.629457479
  0
ELLIPSE
  5
57C
100
AcDbEntity
  8
ALL_ASSEMBLY_MEMBERS
100
AcDbEllipse
 62
7
  6
CONTINUOUS
 10
5.7869547157
 20
4.5901203416
 30
0.0
 11
-0.117123106
 21
0.4846535957
 31
0.0
 40
0.0825387411
 41
-1.3391838673
 42
-1.3243861563
  0
ELLIPSE
  5
57D
100
AcDbEntity
  8
ALL_ASSEMBLY_MEMBERS
100
AcDbEllipse
 62
7
  6
CONTINUOUS
 10
5.868045007
 20
4.5901203416
 30
0.0
 11
0.9622071635
 21
0.4656770005
 31
0.0
 40
0.1399266045
 41
-1.7062712763
 42
-1.6949013418
  0
ELLIPSE
  5
57E
100
AcDbEntity
  8
ALL_ASSEMBLY_MEMBERS
100
AcDbEllipse
 62
7
  6
CONTINUOUS
 10
5.8317155124
 20
4.5901203416
 30
0.0
 11
0.4203531079
 21
0.479141308
 31
0.0
 40
0.1749164141
 41
-1.8439863269
 42
-1.8354531791
  0
ELLIPSE
  5
57F
100
AcDbEntity
  8
ALL_ASSEMBLY_MEMBERS
100
AcDbEllipse
 62
7
  6
CONTINUOUS
 10
5.8088174171
 20
4.5901203416
 30
0.0
 11
0.1217484006
 21
0.4846385345
 31
0.0
 40
0.0853799597
 41
-1.9890427863
 42
-1.9748081556
  0
ELLIPSE
  5
580
100
AcDbEntity
  8
ALL_ASSEMBLY_MEMBERS
100
AcDbEllipse
 62
7
  6
CONTINUOUS
 10
5.8151414967
 20
4.5901203416
 30
0.0
 11
0.9880542361
 21
0.465285186
 31
0.0
 40
0.1376303424
 41
1.5113205669
 42
1.5186896574
  0
ELLIPSE
  5
581
100
AcDbEntity
  8
ALL_ASSEMBLY_MEMBERS
100
AcDbEllipse
 62
7
  6
CONTINUOUS
 10
5.8109783253
 20
4.5901203416
 30
0.0
 11
0.6553159276
 21
0.4721187462
 31
0.0
 40
0.1677639688
 41
1.4631295299
 42
1.4741845703
  0
ELLIPSE
  5
582
100
AcDbEntity
  8
ALL_ASSEMBLY_MEMBERS
100
AcDbEllipse
 62
7
  6
CONTINUOUS
 10
5.802386018
 20
4.5901203416
 30
0.0
 11
0.2873264341
 21
0.4826711449
 31
0.0
 40
0.1560789432
 41
1.3380452399
 42
1.356477401
  0
ELLIPSE
  5
583
100
AcDbEntity
  8
ALL_ASSEMBLY_MEMBERS
100
AcDbEllipse
 62
7
  6
CONTINUOUS
 10
5.7940512822
 20
4.5901203416
 30
0.0
 11
0.0934735408
 21
0.4847090996
 31
0.0
 40
0.0673658948
 41
1.2768224913
 42
1.2952689988
  0
ELLIPSE
  5
584
100
AcDbEntity
  8
ALL_ASSEMBLY_MEMBERS
100
AcDbEllipse
 62
7
  6
CONTINUOUS
 10
5.8367887664
 20
4.5901203416
 30
0.0
 11
-0.0934735326
 21
0.4847090996
 31
0.0
 40
0.0673658893
 41
-1.2952689966
 42
-1.2768224891
  0
ELLIPSE
  5
585
100
AcDbEntity
  8
ALL_ASSEMBLY_MEMBERS
100
AcDbEllipse
 62
7
  6
CONTINUOUS
 10
5.8284540314
 20
4.5901203416
 30
0.0
 11
-0.287326408
 21
0.4826711454
 31
0.0
 40
0.1560789367
 41
-1.3564773887
 42
-1.3380452276
  0
ELLIPSE
  5
586
100
AcDbEntity
  8
ALL_ASSEMBLY_MEMBERS
100
AcDbEllipse
 62
7
  6
CONTINUOUS
 10
5.853030759
 20
4.5901203416
 30
0.0
 11
-0.1217484006
 21
0.4846385345
 31
0.0
 40
0.0853799597
 41
-4.3083771516
 42
-4.2941425209
  0
ELLIPSE
  5
587
100
AcDbEntity
  8
ALL_ASSEMBLY_MEMBERS
100
AcDbEllipse
 62
7
  6
CONTINUOUS
 10
5.8301326637
 20
4.5901203416
 30
0.0
 11
-0.4203531079
 21
0.479141308
 31
0.0
 40
0.1749164141
 41
-4.4477321281
 42
-4.4391989803
  0
ELLIPSE
  5
588
100
AcDbEntity
  8
ALL_ASSEMBLY_MEMBERS
100
AcDbEllipse
 62
7
  6
CONTINUOUS
 10
5.7938031462
 20
4.5901203416
 30
0.0
 11
0.962207503
 21
-0.4656769952
 31
0.0
 40
0.1399265741
 41
-1.4466913509
 42
-1.4353214165
  0
ELLIPSE
  5
589
100
AcDbEntity
  8
ALL_ASSEMBLY_MEMBERS
100
AcDbEllipse
 62
7
  6
CONTINUOUS
 10
5.6304568434
 20
4.5901203416
 30
0.0
 11
3.8575839213
 21
-0.4563415814
 31
0.0
 40
0.0423861617
 41
-1.5121351722
 42
-1.5092938799
  0
ELLIPSE
  5
58A
100
AcDbEntity
  8
ALL_ASSEMBLY_MEMBERS
100
AcDbEllipse
 62
7
  6
CONTINUOUS
 10
5.95303961
 20
4.5901203416
 30
0.0
 11
0.7463252756
 21
-0.4698307894
 31
0.0
 40
0.1599009769
 41
-1.6130857077
 42
-1.5959095904
  0
ELLIPSE
  5
58B
100
AcDbEntity
  8
ALL_ASSEMBLY_MEMBERS
100
AcDbEllipse
 62
7
  6
CONTINUOUS
 10
5.8326518916
 20
4.5901203416
 30
0.0
 11
0.5597140252
 21
-0.4748533936
 31
0.0
 40
0.1741096516
 41
-1.4868806225
 42
-1.4159149133
  0
ELLIPSE
  5
58C
100
AcDbEntity
  8
ALL_ASSEMBLY_MEMBERS
100
AcDbEllipse
 62
7
  6
CONTINUOUS
 10
5.8293713886
 20
4.5901203416
 30
0.0
 11
0.9622042765
 21
-0.4656770454
 31
0.0
 40
0.139926863
 41
-1.4949495759
 42
-1.489275252
  0
ELLIPSE
  5
58D
100
AcDbEntity
  8
ALL_ASSEMBLY_MEMBERS
100
AcDbEllipse
 62
7
  6
CONTINUOUS
 10
5.8070232752
 20
4.5901203416
 30
0.0
 11
2.5716108227
 21
-0.4573304865
 31
0.0
 40
0.0624983615
 41
-1.5457781432
 42
-1.5429408411
  0
ELLIPSE
  5
58E
100
AcDbEntity
  8
ALL_ASSEMBLY_MEMBERS
100
AcDbEllipse
 62
7
  6
CONTINUOUS
 10
5.8967770694
 20
4.5901203416
 30
0.0
 11
2.5716108227
 21
0.4573304865
 31
0.0
 40
0.0624983615
 41
-1.5986518125
 42
-1.5958145104
  0
ELLIPSE
  5
58F
100
AcDbEntity
  8
ALL_ASSEMBLY_MEMBERS
100
AcDbEllipse
 62
7
  6
CONTINUOUS
 10
5.8699593869
 20
4.5901203416
 30
0.0
 11
0.6379530235
 21
0.4725921354
 31
0.0
 40
0.1691116546
 41
-1.7093280947
 42
-1.6979797282
  0
ELLIPSE
  5
590
100
AcDbEntity
  8
ALL_ASSEMBLY_MEMBERS
100
AcDbEllipse
 62
7
  6
CONTINUOUS
 10
5.8834861563
 20
4.5901203416
 30
0.0
 11
0.10123742
 21
0.4846944896
 31
0.0
 40
0.0724615456
 41
-2.012460577
 42
-1.9953544323
  0
ELLIPSE
  5
591
100
AcDbEntity
  8
ALL_ASSEMBLY_MEMBERS
100
AcDbEllipse
 62
7
  6
CONTINUOUS
 10
5.9134431193
 20
4.5901203416
 30
0.0
 11
0.3768576551
 21
0.4804196369
 31
0.0
 40
0.1715483869
 41
-1.9081086021
 42
-1.8938294856
  0
ELLIPSE
  5
592
100
AcDbEntity
  8
ALL_ASSEMBLY_MEMBERS
100
AcDbEllipse
 62
7
  6
CONTINUOUS
 10
5.8691378136
 20
4.5901203416
 30
0.0
 11
0.3118799231
 21
0.4821211713
 31
0.0
 40
0.1616508637
 41
-1.8182260229
 42
-1.8068779936
  0
ELLIPSE
  5
593
100
AcDbEntity
  8
ALL_ASSEMBLY_MEMBERS
100
AcDbEllipse
 62
7
  6
CONTINUOUS
 10
5.944743681
 20
4.5901203416
 30
0.0
 11
0.6379533341
 21
0.4725921268
 31
0.0
 40
0.1691116311
 41
-1.8260145634
 42
-1.8174352631
  0
ELLIPSE
  5
594
100
AcDbEntity
  8
ALL_ASSEMBLY_MEMBERS
100
AcDbEllipse
 62
7
  6
CONTINUOUS
 10
6.0284668321
 20
4.5901203416
 30
0.0
 11
1.2847916974
 21
0.4619431809
 31
0.0
 40
0.1143679302
 41
-1.7482093125
 42
-1.7424844324
  0
ELLIPSE
  5
595
100
AcDbEntity
  8
ALL_ASSEMBLY_MEMBERS
100
AcDbEllipse
 62
7
  6
CONTINUOUS
 10
5.8710221071
 20
4.5901203416
 30
0.0
 11
0.10123742
 21
0.4846944896
 31
0.0
 40
0.0724615456
 41
-1.89593605
 42
-1.8789114217
  0
ELLIPSE
  5
596
100
AcDbEntity
  8
ALL_ASSEMBLY_MEMBERS
100
AcDbEllipse
 62
7
  6
CONTINUOUS
 10
6.1158399017
 20
4.5901203416
 30
0.0
 11
1.9284678459
 21
0.4586391126
 31
0.0
 40
0.0813849018
 41
-1.7293289027
 42
-1.7264648042
  0
ELLIPSE
  5
597
100
AcDbEntity
  8
ALL_ASSEMBLY_MEMBERS
100
AcDbEllipse
 62
7
  6
CONTINUOUS
 10
6.2942313161
 20
4.5901203416
 30
0.0
 11
3.2146291591
 21
0.4566950122
 31
0.0
 40
0.0505558762
 41
-1.7200233845
 42
-1.7171581365
  0
ELLIPSE
  5
598
100
AcDbEntity
  8
ALL_ASSEMBLY_MEMBERS
100
AcDbEllipse
 62
7
  6
CONTINUOUS
 10
5.3676167313
 20
4.5901203416
 30
0.0
 11
3.2146300597
 21
-0.4566950116
 31
0.0
 40
0.0505558626
 41
-1.4244345211
 42
-1.421569273
  0
ELLIPSE
  5
599
100
AcDbEntity
  8
ALL_ASSEMBLY_MEMBERS
100
AcDbEllipse
 62
7
  6
CONTINUOUS
 10
5.5460085205
 20
4.5901203416
 30
0.0
 11
1.9284660439
 21
-0.458639118
 31
0.0
 40
0.0813849697
 41
-1.4151278149
 42
-1.4122637165
  0
ELLIPSE
  5
59A
100
AcDbEntity
  8
ALL_ASSEMBLY_MEMBERS
100
AcDbEllipse
 62
7
  6
CONTINUOUS
 10
5.9196597878
 20
4.5901203416
 30
0.0
 11
0.9622070503
 21
-0.4656770023
 31
0.0
 40
0.1399266146
 41
-1.5716017881
 42
-1.5659156053
  0
ELLIPSE
  5
59B
100
AcDbEntity
  8
ALL_ASSEMBLY_MEMBERS
100
AcDbEllipse
 62
7
  6
CONTINUOUS
 10
5.6333813148
 20
4.5901203416
 30
0.0
 11
1.2847919231
 21
-0.461943179
 31
0.0
 40
0.1143679148
 41
-1.3991082341
 42
-1.393383354
  0
ELLIPSE
  5
59C
100
AcDbEntity
  8
ALL_ASSEMBLY_MEMBERS
100
AcDbEllipse
 62
7
  6
CONTINUOUS
 10
5.7171044854
 20
4.5901203416
 30
0.0
 11
0.6379534101
 21
-0.4725921247
 31
0.0
 40
0.1691116253
 41
-1.3241574099
 42
-1.3155781096
  0
ELLIPSE
  5
59D
100
AcDbEntity
  8
ALL_ASSEMBLY_MEMBERS
100
AcDbEllipse
 62
7
  6
CONTINUOUS
 10
5.886068882
 20
4.5901203416
 30
0.0
 11
-0.4203531079
 21
0.479141308
 31
0.0
 40
0.1749164141
 41
-4.5783263692
 42
-4.5698008357
  0
ELLIPSE
  5
59E
100
AcDbEntity
  8
ALL_ASSEMBLY_MEMBERS
100
AcDbEllipse
 62
7
  6
CONTINUOUS
 10
5.7484050521
 20
4.5901203416
 30
0.0
 11
-0.3768576893
 21
0.480419636
 31
0.0
 40
0.1715483905
 41
-4.3893558366
 42
-4.3750767201
  0
ELLIPSE
  5
59F
100
AcDbEntity
  8
ALL_ASSEMBLY_MEMBERS
100
AcDbEllipse
 62
7
  6
CONTINUOUS
 10
5.8698116157
 20
4.5901203416
 30
0.0
 11
-0.1217484712
 21
0.4846385342
 31
0.0
 40
0.0853800028
 41
-4.4389790303
 42
-4.4247782581
  0
ELLIPSE
  5
5A0
100
AcDbEntity
  8
ALL_ASSEMBLY_MEMBERS
100
AcDbEllipse
 62
7
  6
CONTINUOUS
 10
5.7783620177
 20
4.5901203416
 30
0.0
 11
-0.101237429
 21
0.4846944896
 31
0.0
 40
0.0724615514
 41
-4.2878308774
 42
-4.2707247327
  0
ELLIPSE
  5
5A1
100
AcDbEntity
  8
ALL_ASSEMBLY_MEMBERS
100
AcDbEllipse
 62
7
  6
CONTINUOUS
 10
5.7867785263
 20
4.5901203416
 30
0.0
 11
1.9288162072
 21
0.0
 31
0.0
 40
0.2513199538
 41
7.8400775852
 42
7.8429147916
  0
ELLIPSE
  5
5A2
100
AcDbEntity
  8
ALL_ASSEMBLY_MEMBERS
100
AcDbEllipse
 62
7
  6
CONTINUOUS
 10
5.7688999309
 20
4.5901203416
 30
0.0
 11
3.2147129739
 21
0.0
 31
0.0
 40
0.1507910672
 41
7.837240283
 42
7.8400775852
  0
ELLIPSE
  5
5A3
100
AcDbEntity
  8
ALL_ASSEMBLY_MEMBERS
100
AcDbEllipse
 62
7
  6
CONTINUOUS
 10
5.8929482289
 20
4.5901203416
 30
0.0
 11
3.2147120734
 21
0.0
 31
0.0
 40
0.1507911094
 41
1.5847003756
 42
1.5875376778
  0
ELLIPSE
  5
5A4
100
AcDbEntity
  8
ALL_ASSEMBLY_MEMBERS
100
AcDbEllipse
 62
7
  6
CONTINUOUS
 10
5.8088174171
 20
4.5901203416
 30
0.0
 11
-0.0
 21
0.48475
 31
0.0
 40
0.2652664142
 41
0.0763914046
 42
0.0906260353
  0
ELLIPSE
  5
5A5
100
AcDbEntity
  8
ALL_ASSEMBLY_MEMBERS
100
AcDbEllipse
 62
7
  6
CONTINUOUS
 10
5.8317155124
 20
4.5901203416
 30
0.0
 11
0.0
 21
0.48475
 31
0.0
 40
0.8842220554
 41
0.0678582568
 42
0.0763914046
  0
ELLIPSE
  5
5A6
100
AcDbEntity
  8
ALL_ASSEMBLY_MEMBERS
100
AcDbEllipse
 62
7
  6
CONTINUOUS
 10
5.868045007
 20
4.5901203416
 30
0.0
 11
0.9644109754
 21
-0.0
 31
0.0
 40
0.5026384108
 41
1.6272846492
 42
1.6386545836
  0
ELLIPSE
  5
5A7
100
AcDbEntity
  8
ALL_ASSEMBLY_MEMBERS
100
AcDbEllipse
 62
7
  6
CONTINUOUS
 10
5.868045007
 20
4.5901203416
 30
0.0
 11
0.9595037988
 21
0.0
 31
0.0
 40
0.5026384108
 41
1.6275738566
 42
1.6336193552
  0
ELLIPSE
  5
5A8
100
AcDbEntity
  8
ALL_ASSEMBLY_MEMBERS
100
AcDbEllipse
 62
7
  6
CONTINUOUS
 10
6.0313913798
 20
4.5901203416
 30
0.0
 11
3.857633315
 21
-0.0
 31
0.0
 40
0.1256599475
 41
1.6244433569
 42
1.6272846492
  0
ELLIPSE
  5
5A9
100
AcDbEntity
  8
ALL_ASSEMBLY_MEMBERS
100
AcDbEllipse
 62
7
  6
CONTINUOUS
 10
6.0313913798
 20
4.5901203416
 30
0.0
 11
3.8380046625
 21
-0.0
 31
0.0
 40
0.1256599475
 41
1.6247179887
 42
1.6275738566
  0
ELLIPSE
  5
5AA
100
AcDbEntity
  8
ALL_ASSEMBLY_MEMBERS
100
AcDbEllipse
 62
7
  6
CONTINUOUS
 10
5.8750696711
 20
4.5901203416
 30
0.0
 11
1.9288180083
 21
-0.0
 31
0.0
 40
0.2513197191
 41
1.5818631691
 42
1.5847003756
  0
ELLIPSE
  5
5AB
100
AcDbEntity
  8
ALL_ASSEMBLY_MEMBERS
100
AcDbEllipse
 62
7
  6
CONTINUOUS
 10
5.8679545355
 20
4.5901203416
 30
0.0
 11
1.2858811504
 21
0.0
 31
0.0
 40
0.3769788521
 41
1.5761890168
 42
1.5818631691
  0
ELLIPSE
  5
5AC
100
AcDbEntity
  8
ALL_ASSEMBLY_MEMBERS
100
AcDbEllipse
 62
7
  6
CONTINUOUS
 10
5.9285189738
 20
4.5901203416
 30
0.0
 11
0.57167825
 21
-0.4744956005
 31
0.0
 40
0.1734875667
 41
1.8341227539
 42
1.8564219592
  0
ELLIPSE
  5
5AD
100
AcDbEntity
  8
ALL_ASSEMBLY_MEMBERS
100
AcDbEllipse
 62
7
  6
CONTINUOUS
 10
5.9285189738
 20
4.5901203416
 30
0.0
 11
0.5687694008
 21
-0.4720812421
 31
0.0
 40
0.1734875667
 41
8.1199044316
 42
8.140341655
  0
ELLIPSE
  5
5AE
100
AcDbEntity
  8
ALL_ASSEMBLY_MEMBERS
100
AcDbEllipse
 62
7
  6
CONTINUOUS
 10
5.8644873697
 20
4.5901203416
 30
0.0
 11
0.642939962
 21
0.0
 31
0.0
 40
0.7539584232
 41
7.8508633559
 42
7.859374324
  0
ELLIPSE
  5
5AF
100
AcDbEntity
  8
ALL_ASSEMBLY_MEMBERS
100
AcDbEllipse
 62
7
  6
CONTINUOUS
 10
5.8859587814
 20
4.5901203416
 30
0.0
 11
0.5716781103
 21
-0.4744956046
 31
0.0
 40
0.1734875743
 41
1.7601615672
 42
1.7823048532
  0
ELLIPSE
  5
5B0
100
AcDbEntity
  8
ALL_ASSEMBLY_MEMBERS
100
AcDbEllipse
 62
7
  6
CONTINUOUS
 10
5.8859587814
 20
4.5901203416
 30
0.0
 11
0.5687692618
 21
-0.4720812463
 31
0.0
 40
0.1734875743
 41
8.0454832217
 42
8.0658410218
  0
ELLIPSE
  5
5B1
100
AcDbEntity
  8
ALL_ASSEMBLY_MEMBERS
100
AcDbEllipse
 62
7
  6
CONTINUOUS
 10
5.8148404658
 20
4.5901203416
 30
0.0
 11
-0.3622025764
 21
0.4808294012
 31
0.0
 40
0.1698707729
 41
-1.3947898515
 42
-1.3800412872
  0
ELLIPSE
  5
5B2
100
AcDbEntity
  8
ALL_ASSEMBLY_MEMBERS
100
AcDbEllipse
 62
7
  6
CONTINUOUS
 10
5.8148404658
 20
4.5901203416
 30
0.0
 11
-0.3603595945
 21
0.4783828148
 31
0.0
 40
0.1698707729
 41
-1.3950241974
 42
-1.3802000911
  0
ELLIPSE
  5
5B3
100
AcDbEntity
  8
ALL_ASSEMBLY_MEMBERS
100
AcDbEllipse
 62
7
  6
CONTINUOUS
 10
5.8261708866
 20
4.5901203416
 30
0.0
 11
-0.1171229363
 21
0.4846535963
 31
0.0
 40
0.082538636
 41
-1.3022224851
 42
-1.2874639355
  0
ELLIPSE
  5
5B4
100
AcDbEntity
  8
ALL_ASSEMBLY_MEMBERS
100
AcDbEllipse
 62
7
  6
CONTINUOUS
 10
5.8261708866
 20
4.5901203416
 30
0.0
 11
-0.116526984
 21
0.4821875514
 31
0.0
 40
0.082538636
 41
4.9806527798
 42
4.9954870257
  0
ELLIPSE
  5
5B5
100
AcDbEntity
  8
ALL_ASSEMBLY_MEMBERS
100
AcDbEllipse
 62
7
  6
CONTINUOUS
 10
5.7783620177
 20
4.5901203416
 30
0.0
 11
-0.0
 21
0.48475
 31
0.0
 40
0.2210555332
 41
-0.10773218
 42
-0.0906260353
  0
ELLIPSE
  5
5B6
100
AcDbEntity
  8
ALL_ASSEMBLY_MEMBERS
100
AcDbEllipse
 62
7
  6
CONTINUOUS
 10
5.7783620177
 20
4.5901203416
 30
0.0
 11
-0.0
 21
0.4822834646
 31
0.0
 40
0.2210555332
 41
-0.1082853113
 42
-0.0910908057
  0
ELLIPSE
  5
5B7
100
AcDbEntity
  8
ALL_ASSEMBLY_MEMBERS
100
AcDbEllipse
 62
7
  6
CONTINUOUS
 10
5.7484050521
 20
4.5901203416
 30
0.0
 11
0.0
 21
0.48475
 31
0.0
 40
0.7958002231
 41
-0.1220112966
 42
-0.10773218
  0
ELLIPSE
  5
5B8
100
AcDbEntity
  8
ALL_ASSEMBLY_MEMBERS
100
AcDbEllipse
 62
7
  6
CONTINUOUS
 10
5.7484050521
 20
4.5901203416
 30
0.0
 11
-0.0
 21
0.4822834646
 31
0.0
 40
0.7958002231
 41
-0.1226384364
 42
-0.1082853113
  0
ELLIPSE
  5
5B9
100
AcDbEntity
  8
ALL_ASSEMBLY_MEMBERS
100
AcDbEllipse
 62
7
  6
CONTINUOUS
 10
5.7171044854
 20
4.5901203416
 30
0.0
 11
0.6429400371
 21
0.0
 31
0.0
 40
0.7539583352
 41
1.4402057299
 42
1.4487850302
  0
ELLIPSE
  5
5BA
100
AcDbEntity
  8
ALL_ASSEMBLY_MEMBERS
100
AcDbEllipse
 62
7
  6
CONTINUOUS
 10
5.7171044854
 20
4.5901203416
 30
0.0
 11
0.6396685892
 21
0.0
 31
0.0
 40
0.7539583352
 41
1.4395339999
 42
1.4481578904
  0
ELLIPSE
  5
5BB
100
AcDbEntity
  8
ALL_ASSEMBLY_MEMBERS
100
AcDbEllipse
 62
7
  6
CONTINUOUS
 10
5.8046691628
 20
4.5901203416
 30
0.0
 11
0.1171229363
 21
0.4846535963
 31
0.0
 40
0.082538636
 41
1.2874639355
 42
1.3022224851
  0
ELLIPSE
  5
5BC
100
AcDbEntity
  8
ALL_ASSEMBLY_MEMBERS
100
AcDbEllipse
 62
7
  6
CONTINUOUS
 10
5.8046691628
 20
4.5901203416
 30
0.0
 11
0.116526984
 21
0.4821875514
 31
0.0
 40
0.082538636
 41
1.2876982814
 42
1.3025325273
  0
ELLIPSE
  5
5BD
100
AcDbEntity
  8
ALL_ASSEMBLY_MEMBERS
100
AcDbEllipse
 62
7
  6
CONTINUOUS
 10
5.7855424721
 20
4.5901203416
 30
0.0
 11
-0.1211290532
 21
0.4821725657
 31
0.0
 40
0.0853800458
 41
-4.2918879649
 42
-4.2793511418
  0
ELLIPSE
  5
5BE
100
AcDbEntity
  8
ALL_ASSEMBLY_MEMBERS
100
AcDbEllipse
 62
7
  6
CONTINUOUS
 10
5.8141111772
 20
4.5901203416
 30
0.0
 11
0.3205164298
 21
0.4819141273
 31
0.0
 40
0.1633544133
 41
1.364678812
 42
1.3757409965
  0
ELLIPSE
  5
5BF
100
AcDbEntity
  8
ALL_ASSEMBLY_MEMBERS
100
AcDbEllipse
 62
7
  6
CONTINUOUS
 10
5.8141111772
 20
4.5901203416
 30
0.0
 11
0.318885558
 21
0.4794620215
 31
0.0
 40
0.1633544133
 41
1.3648564897
 42
1.3759753424
  0
ELLIPSE
  5
5C0
100
AcDbEntity
  8
ALL_ASSEMBLY_MEMBERS
100
AcDbEllipse
 62
7
  6
CONTINUOUS
 10
5.8370295759
 20
4.5901203416
 30
0.0
 11
0.9880542361
 21
0.465285186
 31
0.0
 40
0.1376303424
 41
1.533430284
 42
1.5408026323
  0
ELLIPSE
  5
5C1
100
AcDbEntity
  8
ALL_ASSEMBLY_MEMBERS
100
AcDbEllipse
 62
7
  6
CONTINUOUS
 10
5.8370295759
 20
4.5901203416
 30
0.0
 11
0.9830267564
 21
0.4629176926
 31
0.0
 40
0.1376303424
 41
1.5335702205
 42
1.5409803099
  0
ELLIPSE
  5
5C2
100
AcDbEntity
  8
ALL_ASSEMBLY_MEMBERS
100
AcDbEllipse
 62
7
  6
CONTINUOUS
 10
5.7855424721
 20
4.5901203416
 30
0.0
 11
-0.1217485418
 21
0.484638534
 31
0.0
 40
0.0853800458
 41
-4.2941425674
 42
-4.2798895141
  0
ELLIPSE
  5
5C3
100
AcDbEntity
  8
ALL_ASSEMBLY_MEMBERS
100
AcDbEllipse
 62
7
  6
CONTINUOUS
 10
5.6333813148
 20
4.5901203416
 30
0.0
 11
1.2858776966
 21
0.0
 31
0.0
 40
0.3769798646
 41
7.7176661569
 42
7.7233910371
  0
ELLIPSE
  5
5C4
100
AcDbEntity
  8
ALL_ASSEMBLY_MEMBERS
100
AcDbEllipse
 62
7
  6
CONTINUOUS
 10
5.6333813148
 20
4.5901203416
 30
0.0
 11
1.2793348128
 21
-0.0
 31
0.0
 40
0.3769798646
 41
1.4337793091
 42
1.4395339999
  0
ELLIPSE
  5
5C5
100
AcDbEntity
  8
ALL_ASSEMBLY_MEMBERS
100
AcDbEllipse
 62
7
  6
CONTINUOUS
 10
5.7541323544
 20
4.5901203416
 30
0.0
 11
-0.4182142408
 21
0.4767033111
 31
0.0
 40
0.1749164141
 41
-4.4101729241
 42
-4.4015666817
  0
ELLIPSE
  5
5C6
100
AcDbEntity
  8
ALL_ASSEMBLY_MEMBERS
100
AcDbEllipse
 62
7
  6
CONTINUOUS
 10
5.7541323544
 20
4.5901203416
 30
0.0
 11
-0.4203531079
 21
0.479141308
 31
0.0
 40
0.1749164141
 41
-4.4107112963
 42
-4.4021493725
  0
ELLIPSE
  5
5C7
100
AcDbEntity
  8
ALL_ASSEMBLY_MEMBERS
100
AcDbEllipse
 62
7
  6
CONTINUOUS
 10
5.5460085205
 20
4.5901203416
 30
0.0
 11
1.928827244
 21
0.0
 31
0.0
 40
0.2513185157
 41
1.4316167513
 42
1.4344808497
  0
ELLIPSE
  5
5C8
100
AcDbEntity
  8
ALL_ASSEMBLY_MEMBERS
100
AcDbEllipse
 62
7
  6
CONTINUOUS
 10
5.6934828708
 20
4.5901203416
 30
0.0
 11
0.9573098206
 21
-0.463307535
 31
0.0
 40
0.1399267287
 41
-1.3891557708
 42
-1.3776674525
  0
ELLIPSE
  5
5C9
100
AcDbEntity
  8
ALL_ASSEMBLY_MEMBERS
100
AcDbEllipse
 62
7
  6
CONTINUOUS
 10
5.6934828708
 20
4.5901203416
 30
0.0
 11
0.9622057766
 21
-0.4656770221
 31
0.0
 40
0.1399267287
 41
-1.3897384615
 42
-1.3783094395
  0
ELLIPSE
  5
5CA
100
AcDbEntity
  8
ALL_ASSEMBLY_MEMBERS
100
AcDbEllipse
 62
7
  6
CONTINUOUS
 10
5.5460085205
 20
4.5901203416
 30
0.0
 11
1.9190128639
 21
0.0
 31
0.0
 40
0.2513185157
 41
1.4309002792
 42
1.4337793091
  0
ELLIPSE
  5
5CB
100
AcDbEntity
  8
ALL_ASSEMBLY_MEMBERS
100
AcDbEllipse
 62
7
  6
CONTINUOUS
 10
5.3331413144
 20
4.5901203416
 30
0.0
 11
3.8379783783
 21
-0.4540195858
 31
0.0
 40
0.0423859163
 41
-1.4402702398
 42
-1.4373956289
  0
ELLIPSE
  5
5CC
100
AcDbEntity
  8
ALL_ASSEMBLY_MEMBERS
100
AcDbEllipse
 62
7
  6
CONTINUOUS
 10
5.3331413144
 20
4.5901203416
 30
0.0
 11
3.8576068963
 21
-0.4563415717
 31
0.0
 40
0.0423859163
 41
-1.4409122269
 42
-1.4380524792
  0
ELLIPSE
  5
5CD
100
AcDbEntity
  8
ALL_ASSEMBLY_MEMBERS
100
AcDbEllipse
 62
7
  6
CONTINUOUS
 10
5.7798797297
 20
4.5901203416
 30
0.0
 11
-0.0934736487
 21
0.4847090994
 31
0.0
 40
0.0673659664
 41
-1.3359330152
 42
-1.3174326445
  0
ELLIPSE
  5
5CE
100
AcDbEntity
  8
ALL_ASSEMBLY_MEMBERS
100
AcDbEllipse
 62
7
  6
CONTINUOUS
 10
5.7798797297
 20
4.5901203416
 30
0.0
 11
-0.0929980302
 21
0.4822427721
 31
0.0
 40
0.0673659664
 41
-1.3364524313
 42
-1.3178566306
  0
ELLIPSE
  5
5CF
100
AcDbEntity
  8
ALL_ASSEMBLY_MEMBERS
100
AcDbEllipse
 62
7
  6
CONTINUOUS
 10
5.3676167313
 20
4.5901203416
 30
0.0
 11
3.2147129739
 21
0.0
 31
0.0
 40
0.1507910672
 41
1.4287515033
 42
1.4316167513
  0
ELLIPSE
  5
5D0
100
AcDbEntity
  8
ALL_ASSEMBLY_MEMBERS
100
AcDbEllipse
 62
7
  6
CONTINUOUS
 10
5.7598713461
 20
4.5901203416
 30
0.0
 11
-0.2873264341
 21
0.4826711449
 31
0.0
 40
0.1560789432
 41
-1.4341230973
 42
-1.4155878961
  0
ELLIPSE
  5
5D1
100
AcDbEntity
  8
ALL_ASSEMBLY_MEMBERS
100
AcDbEllipse
 62
7
  6
CONTINUOUS
 10
5.7598713461
 20
4.5901203416
 30
0.0
 11
-0.2858644416
 21
0.4802151872
 31
0.0
 40
0.1560789432
 41
-1.4347384861
 42
-1.4161073122
  0
ELLIPSE
  5
5D2
100
AcDbEntity
  8
ALL_ASSEMBLY_MEMBERS
100
AcDbEllipse
 62
7
  6
CONTINUOUS
 10
5.7165013127
 20
4.5901203416
 30
0.0
 11
0.6553159276
 21
-0.4721187462
 31
0.0
 40
0.1677639688
 41
1.5601896397
 42
1.5713302259
  0
ELLIPSE
  5
5D3
100
AcDbEntity
  8
ALL_ASSEMBLY_MEMBERS
100
AcDbEllipse
 62
7
  6
CONTINUOUS
 10
5.7165013127
 20
4.5901203416
 30
0.0
 11
0.6519815079
 21
-0.4697164819
 31
0.0
 40
0.1677639688
 41
1.5595163628
 42
1.5707148371
  0
ELLIPSE
  5
5D4
100
AcDbEntity
  8
ALL_ASSEMBLY_MEMBERS
100
AcDbEllipse
 62
7
  6
CONTINUOUS
 10
5.6411197849
 20
4.5901203416
 30
0.0
 11
1.2364591409
 21
-0.462368365
 31
0.0
 40
0.1177519922
 41
1.4764767822
 42
1.4839128544
  0
ELLIPSE
  5
5D5
100
AcDbEntity
  8
ALL_ASSEMBLY_MEMBERS
100
AcDbEllipse
 62
7
  6
CONTINUOUS
 10
5.6411197849
 20
4.5901203416
 30
0.0
 11
1.2301677117
 21
-0.4600157132
 31
0.0
 40
0.1177519922
 41
1.475764772
 42
1.4832395775
  0
ELLIPSE
  5
5D6
100
AcDbEntity
  8
ALL_ASSEMBLY_MEMBERS
100
AcDbEllipse
 62
7
  6
CONTINUOUS
 10
5.9897202872
 20
4.5901203416
 30
0.0
 11
1.2364593147
 21
0.4623683634
 31
0.0
 40
0.1177519797
 41
1.6576798102
 42
1.6651158823
  0
ELLIPSE
  5
5D7
100
AcDbEntity
  8
ALL_ASSEMBLY_MEMBERS
100
AcDbEllipse
 62
7
  6
CONTINUOUS
 10
5.9897202872
 20
4.5901203416
 30
0.0
 11
1.2301678846
 21
0.4600157117
 31
0.0
 40
0.1177519797
 41
1.6583530871
 42
1.6658278925
  0
ELLIPSE
  5
5D8
100
AcDbEntity
  8
ALL_ASSEMBLY_MEMBERS
100
AcDbEllipse
 62
7
  6
CONTINUOUS
 10
5.9143387291
 20
4.5901203416
 30
0.0
 11
0.6553158691
 21
0.4721187478
 31
0.0
 40
0.1677639734
 41
1.5702624133
 42
1.5814029995
  0
ELLIPSE
  5
5D9
100
AcDbEntity
  8
ALL_ASSEMBLY_MEMBERS
100
AcDbEllipse
 62
7
  6
CONTINUOUS
 10
5.9143387291
 20
4.5901203416
 30
0.0
 11
0.6519814497
 21
0.4697164835
 31
0.0
 40
0.1677639734
 41
1.5708778021
 42
1.5820762764
  0
ELLIPSE
  5
5DA
100
AcDbEntity
  8
ALL_ASSEMBLY_MEMBERS
100
AcDbEllipse
 62
7
  6
CONTINUOUS
 10
5.8709686996
 20
4.5901203416
 30
0.0
 11
0.287326408
 21
0.4826711454
 31
0.0
 40
0.1560789367
 41
1.4155878838
 42
1.434123085
  0
ELLIPSE
  5
5DB
100
AcDbEntity
  8
ALL_ASSEMBLY_MEMBERS
100
AcDbEllipse
 62
7
  6
CONTINUOUS
 10
5.8709686996
 20
4.5901203416
 30
0.0
 11
0.2858644157
 21
0.4802151878
 31
0.0
 40
0.1560789367
 41
1.4161072999
 42
1.4347384738
  0
ELLIPSE
  5
5DC
100
AcDbEntity
  8
ALL_ASSEMBLY_MEMBERS
100
AcDbEllipse
 62
7
  6
CONTINUOUS
 10
5.8509603177
 20
4.5901203416
 30
0.0
 11
0.0934736405
 21
0.4847090994
 31
0.0
 40
0.0673659609
 41
1.3174326423
 42
1.335933013
  0
ELLIPSE
  5
5DD
100
AcDbEntity
  8
ALL_ASSEMBLY_MEMBERS
100
AcDbEllipse
 62
7
  6
CONTINUOUS
 10
5.8509603177
 20
4.5901203416
 30
0.0
 11
0.092998022
 21
0.4822427721
 31
0.0
 40
0.0673659609
 41
1.3178566284
 42
1.3364524291
  0
ELLIPSE
  5
5DE
100
AcDbEntity
  8
ALL_ASSEMBLY_MEMBERS
100
AcDbEllipse
 62
7
  6
CONTINUOUS
 10
5.3676167313
 20
4.5901203416
 30
0.0
 11
3.1983556692
 21
0.0
 31
0.0
 40
0.1507910672
 41
1.4280200816
 42
1.4309002792
  0
ELLIPSE
  5
5DF
100
AcDbEntity
  8
ALL_ASSEMBLY_MEMBERS
100
AcDbEllipse
 62
7
  6
CONTINUOUS
 10
6.3287067458
 20
4.5901203416
 30
0.0
 11
3.8379774823
 21
0.4540195862
 31
0.0
 40
0.0423859259
 41
-1.704197027
 42
-1.7013224161
  0
ELLIPSE
  5
5E0
100
AcDbEntity
  8
ALL_ASSEMBLY_MEMBERS
100
AcDbEllipse
 62
7
  6
CONTINUOUS
 10
6.3287067458
 20
4.5901203416
 30
0.0
 11
3.8576059957
 21
0.4563415721
 31
0.0
 40
0.0423859259
 41
-1.7035401767
 42
-1.700680429
  0
ELLIPSE
  5
5E1
100
AcDbEntity
  8
ALL_ASSEMBLY_MEMBERS
100
AcDbEllipse
 62
7
  6
CONTINUOUS
 10
5.9683653436
 20
4.5901203416
 30
0.0
 11
0.9573101584
 21
0.4633075297
 31
0.0
 40
0.1399266983
 41
-1.7639251619
 42
-1.7524368436
  0
ELLIPSE
  5
5E2
100
AcDbEntity
  8
ALL_ASSEMBLY_MEMBERS
100
AcDbEllipse
 62
7
  6
CONTINUOUS
 10
5.9683653436
 20
4.5901203416
 30
0.0
 11
0.9622061161
 21
0.4656770168
 31
0.0
 40
0.1399266983
 41
-1.7632831748
 42
-1.7518541529
  0
ELLIPSE
  5
5E3
100
AcDbEntity
  8
ALL_ASSEMBLY_MEMBERS
100
AcDbEllipse
 62
7
  6
CONTINUOUS
 10
6.2942313161
 20
4.5901203416
 30
0.0
 11
3.2147120734
 21
-0.0
 31
0.0
 40
0.1507911094
 41
1.7099759023
 42
1.7128411503
  0
ELLIPSE
  5
5E4
100
AcDbEntity
  8
ALL_ASSEMBLY_MEMBERS
100
AcDbEllipse
 62
7
  6
CONTINUOUS
 10
6.2942313161
 20
4.5901203416
 30
0.0
 11
3.1983547732
 21
-0.0
 31
0.0
 40
0.1507911094
 41
1.7106923744
 42
1.713572572
  0
ELLIPSE
  5
5E5
100
AcDbEntity
  8
ALL_ASSEMBLY_MEMBERS
100
AcDbEllipse
 62
7
  6
CONTINUOUS
 10
6.1158399017
 20
4.5901203416
 30
0.0
 11
1.9288290452
 21
-0.0
 31
0.0
 40
0.251318281
 41
1.7071118038
 42
1.7099759023
  0
ELLIPSE
  5
5E6
100
AcDbEntity
  8
ALL_ASSEMBLY_MEMBERS
100
AcDbEllipse
 62
7
  6
CONTINUOUS
 10
5.9077158218
 20
4.5901203416
 30
0.0
 11
0.4182142408
 21
0.4767033111
 31
0.0
 40
0.1749164141
 41
-1.8816186254
 42
-1.8730123831
  0
ELLIPSE
  5
5E7
100
AcDbEntity
  8
ALL_ASSEMBLY_MEMBERS
100
AcDbEllipse
 62
7
  6
CONTINUOUS
 10
5.9077158218
 20
4.5901203416
 30
0.0
 11
0.4203531079
 21
0.479141308
 31
0.0
 40
0.1749164141
 41
-1.8810359347
 42
-1.8724740109
  0
ELLIPSE
  5
5E8
100
AcDbEntity
  8
ALL_ASSEMBLY_MEMBERS
100
AcDbEllipse
 62
7
  6
CONTINUOUS
 10
6.1158399017
 20
4.5901203416
 30
0.0
 11
1.9190146559
 21
-0.0
 31
0.0
 40
0.251318281
 41
1.7078133445
 42
1.7106923744
  0
ELLIPSE
  5
5E9
100
AcDbEntity
  8
ALL_ASSEMBLY_MEMBERS
100
AcDbEllipse
 62
7
  6
CONTINUOUS
 10
5.8763057041
 20
4.5901203416
 30
0.0
 11
0.1211290532
 21
0.4821725657
 31
0.0
 40
0.0853800458
 41
-2.0038341653
 42
-1.9912973423
  0
ELLIPSE
  5
5EA
100
AcDbEntity
  8
ALL_ASSEMBLY_MEMBERS
100
AcDbEllipse
 62
7
  6
CONTINUOUS
 10
5.8763057041
 20
4.5901203416
 30
0.0
 11
0.1217485418
 21
0.484638534
 31
0.0
 40
0.0853800458
 41
-2.0032957931
 42
-1.9890427398
  0
ELLIPSE
  5
5EB
100
AcDbEntity
  8
ALL_ASSEMBLY_MEMBERS
100
AcDbEllipse
 62
7
  6
CONTINUOUS
 10
6.0284668321
 20
4.5901203416
 30
0.0
 11
1.2858774715
 21
0.0
 31
0.0
 40
0.3769799306
 41
1.7013869237
 42
1.7071118038
  0
ELLIPSE
  5
5EC
100
AcDbEntity
  8
ALL_ASSEMBLY_MEMBERS
100
AcDbEllipse
 62
7
  6
CONTINUOUS
 10
6.0284668321
 20
4.5901203416
 30
0.0
 11
1.2793345889
 21
0.0
 31
0.0
 40
0.3769799306
 41
1.7020586537
 42
1.7078133445
  0
ELLIPSE
  5
5ED
100
AcDbEntity
  8
ALL_ASSEMBLY_MEMBERS
100
AcDbEllipse
 62
7
  6
CONTINUOUS
 10
5.944743681
 20
4.5901203416
 30
0.0
 11
0.642939962
 21
-0.0
 31
0.0
 40
0.7539584232
 41
1.6928076234
 42
1.7013869237
  0
ELLIPSE
  5
5EE
100
AcDbEntity
  8
ALL_ASSEMBLY_MEMBERS
100
AcDbEllipse
 62
7
  6
CONTINUOUS
 10
5.944743681
 20
4.5901203416
 30
0.0
 11
0.6396685145
 21
0.0
 31
0.0
 40
0.7539584232
 41
1.6934347632
 42
1.7020586537
  0
ELLIPSE
  5
5EF
100
AcDbEntity
  8
ALL_ASSEMBLY_MEMBERS
100
AcDbEllipse
 62
7
  6
CONTINUOUS
 10
5.9676316297
 20
4.5901203416
 30
0.0
 11
0.7463249724
 21
-0.4698307965
 31
0.0
 40
0.1599010046
 41
-1.6130856485
 42
-1.5959095311
  0
ELLIPSE
  5
5F0
100
AcDbEntity
  8
ALL_ASSEMBLY_MEMBERS
100
AcDbEllipse
 62
7
  6
CONTINUOUS
 10
5.9676316297
 20
4.5901203416
 30
0.0
 11
0.7425274748
 21
-0.4674401739
 31
0.0
 40
0.1599010046
 41
-1.6138200371
 42
-1.5965544644
  0
ELLIPSE
  5
5F1
100
AcDbEntity
  8
ALL_ASSEMBLY_MEMBERS
100
AcDbEllipse
 62
7
  6
CONTINUOUS
 10
5.9134431193
 20
4.5901203416
 30
0.0
 11
0.0
 21
0.48475
 31
0.0
 40
0.7958001534
 41
0.10773218
 42
0.1220112966
  0
ELLIPSE
  5
5F2
100
AcDbEntity
  8
ALL_ASSEMBLY_MEMBERS
100
AcDbEllipse
 62
7
  6
CONTINUOUS
 10
5.9134431193
 20
4.5901203416
 30
0.0
 11
0.0
 21
0.4822834646
 31
0.0
 40
0.7958001534
 41
0.1082853113
 42
0.1226384364
  0
ELLIPSE
  5
5F3
100
AcDbEntity
  8
ALL_ASSEMBLY_MEMBERS
100
AcDbEllipse
 62
7
  6
CONTINUOUS
 10
5.7123554111
 20
4.5901203416
 30
0.0
 11
3.1982722808
 21
-0.4543712279
 31
0.0
 40
0.0505558762
 41
-1.5239656048
 42
-1.5211117194
  0
ELLIPSE
  5
5F4
100
AcDbEntity
  8
ALL_ASSEMBLY_MEMBERS
100
AcDbEllipse
 62
7
  6
CONTINUOUS
 10
5.7123554111
 20
4.5901203416
 30
0.0
 11
3.2146291591
 21
-0.4566950122
 31
0.0
 40
0.0505558762
 41
-1.5241674517
 42
-1.521328112
  0
ELLIPSE
  5
5F5
100
AcDbEntity
  8
ALL_ASSEMBLY_MEMBERS
100
AcDbEllipse
 62
7
  6
CONTINUOUS
 10
5.8834861563
 20
4.5901203416
 30
0.0
 11
0.0
 21
0.48475
 31
0.0
 40
0.2210555139
 41
0.0906260353
 42
0.10773218
  0
ELLIPSE
  5
5F6
100
AcDbEntity
  8
ALL_ASSEMBLY_MEMBERS
100
AcDbEllipse
 62
7
  6
CONTINUOUS
 10
5.8834861563
 20
4.5901203416
 30
0.0
 11
-0.0
 21
0.4822834646
 31
0.0
 40
0.2210555139
 41
0.0910908057
 42
0.1082853113
  0
ELLIPSE
  5
5F7
100
AcDbEntity
  8
ALL_ASSEMBLY_MEMBERS
100
AcDbEllipse
 62
7
  6
CONTINUOUS
 10
5.7667144993
 20
4.5901203416
 30
0.0
 11
1.9186443081
 21
-0.4563054692
 31
0.0
 40
0.0813853176
 41
-1.5089407422
 42
-1.5060864941
  0
ELLIPSE
  5
5F8
100
AcDbEntity
  8
ALL_ASSEMBLY_MEMBERS
100
AcDbEllipse
 62
7
  6
CONTINUOUS
 10
5.7667144993
 20
4.5901203416
 30
0.0
 11
1.9284568033
 21
-0.4586391457
 31
0.0
 40
0.0813853176
 41
-1.5091571348
 42
-1.5063174377
  0
ELLIPSE
  5
5F9
100
AcDbEntity
  8
ALL_ASSEMBLY_MEMBERS
100
AcDbEllipse
 62
7
  6
CONTINUOUS
 10
5.795717615
 20
4.5901203416
 30
0.0
 11
1.2782580077
 21
-0.4595926617
 31
0.0
 40
0.114367678
 41
-1.484342408
 42
-1.4786327952
  0
ELLIPSE
  5
5FA
100
AcDbEntity
  8
ALL_ASSEMBLY_MEMBERS
100
AcDbEllipse
 62
7
  6
CONTINUOUS
 10
5.795717615
 20
4.5901203416
 30
0.0
 11
1.2847953844
 21
-0.4619431499
 31
0.0
 40
0.114367678
 41
-1.4845733516
 42
-1.478892858
  0
ELLIPSE
  5
5FB
100
AcDbEntity
  8
ALL_ASSEMBLY_MEMBERS
100
AcDbEllipse
 62
7
  6
CONTINUOUS
 10
5.8283689439
 20
4.5901203416
 30
0.0
 11
0.6347072598
 21
-0.4701874538
 31
0.0
 40
0.1691116311
 41
-1.3951024531
 42
-1.386534842
  0
ELLIPSE
  5
5FC
100
AcDbEntity
  8
ALL_ASSEMBLY_MEMBERS
100
AcDbEllipse
 62
7
  6
CONTINUOUS
 10
5.8283689439
 20
4.5901203416
 30
0.0
 11
0.6379533341
 21
-0.4725921268
 31
0.0
 40
0.1691116311
 41
-1.3953625159
 42
-1.3868386321
  0
ELLIPSE
  5
5FD
100
AcDbEntity
  8
ALL_ASSEMBLY_MEMBERS
100
AcDbEllipse
 62
7
  6
CONTINUOUS
 10
5.8436182766
 20
4.5901203416
 30
0.0
 11
-0.3749396591
 21
0.4779751482
 31
0.0
 40
0.1715483401
 41
-4.4374539601
 42
-4.4231645383
  0
ELLIPSE
  5
5FE
100
AcDbEntity
  8
ALL_ASSEMBLY_MEMBERS
100
AcDbEllipse
 62
7
  6
CONTINUOUS
 10
5.8436182766
 20
4.5901203416
 30
0.0
 11
-0.3768572076
 21
0.4804196496
 31
0.0
 40
0.1715483401
 41
-4.4377577502
 42
-4.4235413607
  0
ELLIPSE
  5
5FF
100
AcDbEntity
  8
ALL_ASSEMBLY_MEMBERS
100
AcDbEllipse
 62
7
  6
CONTINUOUS
 10
5.864090365
 20
4.5901203416
 30
0.0
 11
-0.1007222974
 21
0.4822282366
 31
0.0
 40
0.0724615456
 41
-4.3045336433
 42
-4.2873661045
  0
ELLIPSE
  5
600
100
AcDbEntity
  8
ALL_ASSEMBLY_MEMBERS
100
AcDbEllipse
 62
7
  6
CONTINUOUS
 10
5.864090365
 20
4.5901203416
 30
0.0
 11
-0.10123742
 21
0.4846944896
 31
0.0
 40
0.0724615456
 41
-4.3049104657
 42
-4.2878308749
  0
ELLIPSE
  5
601
100
AcDbEntity
  8
ALL_ASSEMBLY_MEMBERS
100
AcDbEllipse
 62
7
  6
CONTINUOUS
 10
5.797360806
 20
4.5901203416
 30
0.0
 11
0.6429400371
 21
0.0
 31
0.0
 40
0.7539583352
 41
7.8485889439
 42
7.857099912
  0
ELLIPSE
  5
602
100
AcDbEntity
  8
ALL_ASSEMBLY_MEMBERS
100
AcDbEllipse
 62
7
  6
CONTINUOUS
 10
5.6304568434
 20
4.5901203416
 30
0.0
 11
3.8576324144
 21
0.0
 31
0.0
 40
0.1256599769
 41
1.5143080044
 42
1.5171492967
  0
ELLIPSE
  5
603
100
AcDbEntity
  8
ALL_ASSEMBLY_MEMBERS
100
AcDbEllipse
 62
7
  6
CONTINUOUS
 10
5.6304568434
 20
4.5901203416
 30
0.0
 11
3.8380037666
 21
0.0
 31
0.0
 40
0.1256599769
 41
7.7972041041
 42
7.8000599721
  0
ELLIPSE
  5
604
100
AcDbEntity
  8
ALL_ASSEMBLY_MEMBERS
100
AcDbEllipse
 62
7
  6
CONTINUOUS
 10
5.8772015402
 20
4.5901203416
 30
0.0
 11
-0.0866566919
 21
0.4847194462
 31
0.0
 40
0.0628055002
 41
-4.4316026612
 42
-4.4117214252
  0
ELLIPSE
  5
605
100
AcDbEntity
  8
ALL_ASSEMBLY_MEMBERS
100
AcDbEllipse
 62
7
  6
CONTINUOUS
 10
5.8772015402
 20
4.5901203416
 30
0.0
 11
-0.0862157599
 21
0.4822530662
 31
0.0
 40
0.0628055002
 41
-4.4318947599
 42
-4.4119116145
  0
ELLIPSE
  5
606
100
AcDbEntity
  8
ALL_ASSEMBLY_MEMBERS
100
AcDbEllipse
 62
7
  6
CONTINUOUS
 10
5.8902947587
 20
4.5901203416
 30
0.0
 11
-0.3118799231
 21
0.4821211713
 31
0.0
 40
0.1616508637
 41
-4.5359371337
 42
-4.5245667903
  0
ELLIPSE
  5
607
100
AcDbEntity
  8
ALL_ASSEMBLY_MEMBERS
100
AcDbEllipse
 62
7
  6
CONTINUOUS
 10
5.8902947587
 20
4.5901203416
 30
0.0
 11
-0.310292996
 21
0.4796680121
 31
0.0
 40
0.1616508637
 41
-4.5362876155
 42
-4.524858889
  0
ELLIPSE
  5
608
100
AcDbEntity
  8
ALL_ASSEMBLY_MEMBERS
100
AcDbEllipse
 62
7
  6
CONTINUOUS
 10
5.9122732626
 20
4.5901203416
 30
0.0
 11
0.6379532564
 21
-0.4725921289
 31
0.0
 40
0.169111637
 41
-1.525970049
 42
-1.5145908343
  0
ELLIPSE
  5
609
100
AcDbEntity
  8
ALL_ASSEMBLY_MEMBERS
100
AcDbEllipse
 62
7
  6
CONTINUOUS
 10
5.9122732626
 20
4.5901203416
 30
0.0
 11
0.6347071826
 21
-0.470187456
 31
0.0
 40
0.169111637
 41
-1.5263790513
 42
-1.5149413162
  0
ELLIPSE
  5
60A
100
AcDbEntity
  8
ALL_ASSEMBLY_MEMBERS
100
AcDbEllipse
 62
7
  6
CONTINUOUS
 10
6.0660323452
 20
4.5901203416
 30
0.0
 11
2.5715997839
 21
-0.4573305014
 31
0.0
 40
0.0624986133
 41
-1.6423298464
 42
-1.639483481
  0
ELLIPSE
  5
60B
100
AcDbEntity
  8
ALL_ASSEMBLY_MEMBERS
100
AcDbEllipse
 62
7
  6
CONTINUOUS
 10
6.0660323452
 20
4.5901203416
 30
0.0
 11
2.5585148082
 21
-0.4550034836
 31
0.0
 40
0.0624986133
 41
-1.6427535031
 42
-1.6398924833
  0
ELLIPSE
  5
60C
100
AcDbEntity
  8
ALL_ASSEMBLY_MEMBERS
100
AcDbEllipse
 62
7
  6
CONTINUOUS
 10
5.7938031462
 20
4.5901203416
 30
0.0
 11
0.9644113131
 21
0.0
 31
0.0
 40
0.5026382348
 41
7.7861233771
 42
7.7974933116
  0
ELLIPSE
  5
60D
100
AcDbEntity
  8
ALL_ASSEMBLY_MEMBERS
100
AcDbEllipse
 62
7
  6
CONTINUOUS
 10
5.7938031462
 20
4.5901203416
 30
0.0
 11
0.9595041348
 21
0.0
 31
0.0
 40
0.5026382348
 41
7.7911586055
 42
7.7972041041
  0
ELLIPSE
  5
60E
100
AcDbEntity
  8
ALL_ASSEMBLY_MEMBERS
100
AcDbEllipse
 62
7
  6
CONTINUOUS
 10
5.8301326637
 20
4.5901203416
 30
0.0
 11
-0.0
 21
0.48475
 31
0.0
 40
0.8842220554
 41
6.2067939025
 42
6.2153270503
  0
ELLIPSE
  5
60F
100
AcDbEntity
  8
ALL_ASSEMBLY_MEMBERS
100
AcDbEllipse
 62
7
  6
CONTINUOUS
 10
5.853030759
 20
4.5901203416
 30
0.0
 11
0.0
 21
0.48475
 31
0.0
 40
0.2652664142
 41
6.1925592719
 42
6.2067939025
  0
ELLIPSE
  5
610
100
AcDbEntity
  8
ALL_ASSEMBLY_MEMBERS
100
AcDbEllipse
 62
7
  6
CONTINUOUS
 10
5.7938936395
 20
4.5901203416
 30
0.0
 11
1.2858813755
 21
0.0
 31
0.0
 40
0.3769787861
 41
7.8429147916
 42
7.8485889439
  0
ELLIPSE
  5
611
100
AcDbEntity
  8
ALL_ASSEMBLY_MEMBERS
100
AcDbEllipse
 62
7
  6
CONTINUOUS
 10
5.7977578107
 20
4.5901203416
 30
0.0
 11
0.1007223063
 21
0.4822282366
 31
0.0
 40
0.0724615514
 41
-1.9958192001
 42
-1.9786516613
  0
ELLIPSE
  5
612
100
AcDbEntity
  8
ALL_ASSEMBLY_MEMBERS
100
AcDbEllipse
 62
7
  6
CONTINUOUS
 10
5.7977578107
 20
4.5901203416
 30
0.0
 11
0.101237429
 21
0.4846944896
 31
0.0
 40
0.0724615514
 41
-1.9953544298
 42
-1.9782748389
  0
ELLIPSE
  5
613
100
AcDbEntity
  8
ALL_ASSEMBLY_MEMBERS
100
AcDbEllipse
 62
7
  6
CONTINUOUS
 10
5.8609840392
 20
4.5901203416
 30
0.0
 11
0.1217484712
 21
0.4846385342
 31
0.0
 40
0.0853800028
 41
-1.8839500288
 42
-1.8697617145
  0
ELLIPSE
  5
614
100
AcDbEntity
  8
ALL_ASSEMBLY_MEMBERS
100
AcDbEllipse
 62
7
  6
CONTINUOUS
 10
5.8609840392
 20
4.5901203416
 30
0.0
 11
0.121128983
 21
0.482172566
 31
0.0
 40
0.0853800028
 41
-1.8838760368
 42
-1.8713258838
  0
ELLIPSE
  5
615
100
AcDbEntity
  8
ALL_ASSEMBLY_MEMBERS
100
AcDbEllipse
 62
7
  6
CONTINUOUS
 10
5.8566436215
 20
4.5901203416
 30
0.0
 11
0.4203531079
 21
0.479141308
 31
0.0
 40
0.1749164141
 41
-1.7616396296
 42
-1.7531282233
  0
ELLIPSE
  5
616
100
AcDbEntity
  8
ALL_ASSEMBLY_MEMBERS
100
AcDbEllipse
 62
7
  6
CONTINUOUS
 10
5.8566436215
 20
4.5901203416
 30
0.0
 11
0.4182142408
 21
0.4767033111
 31
0.0
 40
0.1749164141
 41
-1.7616091722
 42
-1.7530542313
  0
ELLIPSE
  5
617
100
AcDbEntity
  8
ALL_ASSEMBLY_MEMBERS
100
AcDbEllipse
 62
7
  6
CONTINUOUS
 10
5.8534528885
 20
4.5901203416
 30
0.0
 11
0.9622070503
 21
0.4656770023
 31
0.0
 40
0.1399266146
 41
-1.6381317277
 42
-1.6324577399
  0
ELLIPSE
  5
618
100
AcDbEntity
  8
ALL_ASSEMBLY_MEMBERS
100
AcDbEllipse
 62
7
  6
CONTINUOUS
 10
5.8534528885
 20
4.5901203416
 30
0.0
 11
0.9573110879
 21
0.4633075153
 31
0.0
 40
0.1399266146
 41
-1.638130289
 42
-1.6324272825
  0
ELLIPSE
  5
619
100
AcDbEntity
  8
ALL_ASSEMBLY_MEMBERS
100
AcDbEllipse
 62
7
  6
CONTINUOUS
 10
5.8504378872
 20
4.5901203416
 30
0.0
 11
1.2847953844
 21
-0.4619431499
 31
0.0
 40
0.114367678
 41
-1.5356543218
 42
-1.5299803341
  0
ELLIPSE
  5
61A
100
AcDbEntity
  8
ALL_ASSEMBLY_MEMBERS
100
AcDbEllipse
 62
7
  6
CONTINUOUS
 10
5.8504378872
 20
4.5901203416
 30
0.0
 11
1.2782580077
 21
-0.4595926617
 31
0.0
 40
0.114367678
 41
-1.5356847793
 42
-1.5299817728
  0
ELLIPSE
  5
61B
100
AcDbEntity
  8
ALL_ASSEMBLY_MEMBERS
100
AcDbEllipse
 62
7
  6
CONTINUOUS
 10
5.8461987707
 20
4.5901203416
 30
0.0
 11
0.5681047491
 21
-0.4746020763
 31
0.0
 40
0.1736797508
 41
-1.5122023158
 42
-1.4326628245
  0
ELLIPSE
  5
61C
100
AcDbEntity
  8
ALL_ASSEMBLY_MEMBERS
100
AcDbEllipse
 62
7
  6
CONTINUOUS
 10
5.8461987707
 20
4.5901203416
 30
0.0
 11
0.5652140828
 21
-0.4721871761
 31
0.0
 40
0.1736797508
 41
-1.5126406373
 42
-1.4326932819
  0
ELLIPSE
  5
61D
100
AcDbEntity
  8
ALL_ASSEMBLY_MEMBERS
100
AcDbEllipse
 62
7
  6
CONTINUOUS
 10
5.9494927993
 20
4.5901203416
 30
0.0
 11
3.2146300597
 21
0.4566950116
 31
0.0
 40
0.0505558626
 41
-1.6202645376
 42
-1.6174251979
  0
ELLIPSE
  5
61E
100
AcDbEntity
  8
ALL_ASSEMBLY_MEMBERS
100
AcDbEllipse
 62
7
  6
CONTINUOUS
 10
5.9494927993
 20
4.5901203416
 30
0.0
 11
3.1982731769
 21
0.4543712273
 31
0.0
 40
0.0505558626
 41
-1.6204809302
 42
-1.6176270448
  0
ELLIPSE
  5
61F
100
AcDbEntity
  8
ALL_ASSEMBLY_MEMBERS
100
AcDbEllipse
 62
7
  6
CONTINUOUS
 10
5.8951335969
 20
4.5901203416
 30
0.0
 11
1.9284550012
 21
0.4586391511
 31
0.0
 40
0.0813853855
 41
-1.6352752504
 42
-1.6324355533
  0
ELLIPSE
  5
620
100
AcDbEntity
  8
ALL_ASSEMBLY_MEMBERS
100
AcDbEllipse
 62
7
  6
CONTINUOUS
 10
5.8951335969
 20
4.5901203416
 30
0.0
 11
1.9186425152
 21
0.4563054746
 31
0.0
 40
0.0813853855
 41
-1.635506194
 42
-1.6326519458
  0
ELLIPSE
  5
621
100
AcDbEntity
  8
ALL_ASSEMBLY_MEMBERS
100
AcDbEllipse
 62
7
  6
CONTINUOUS
 10
5.8661305725
 20
4.5901203416
 30
0.0
 11
1.28479561
 21
0.461943148
 31
0.0
 40
0.1143676625
 41
-1.6626997827
 42
-1.6570192891
  0
ELLIPSE
  5
622
100
AcDbEntity
  8
ALL_ASSEMBLY_MEMBERS
100
AcDbEllipse
 62
7
  6
CONTINUOUS
 10
5.8661305725
 20
4.5901203416
 30
0.0
 11
1.2782582322
 21
0.4595926598
 31
0.0
 40
0.1143676625
 41
-1.6629598455
 42
-1.6572502327
  0
ELLIPSE
  5
623
100
AcDbEntity
  8
ALL_ASSEMBLY_MEMBERS
100
AcDbEllipse
 62
7
  6
CONTINUOUS
 10
5.833479236
 20
4.5901203416
 30
0.0
 11
0.6379534101
 21
0.4725921247
 31
0.0
 40
0.1691116253
 41
-1.754754002
 42
-1.7462301183
  0
ELLIPSE
  5
624
100
AcDbEntity
  8
ALL_ASSEMBLY_MEMBERS
100
AcDbEllipse
 62
7
  6
CONTINUOUS
 10
5.833479236
 20
4.5901203416
 30
0.0
 11
0.6347073354
 21
0.4701874517
 31
0.0
 40
0.1691116253
 41
-1.7550577922
 42
-1.7464901811
  0
ELLIPSE
  5
625
100
AcDbEntity
  8
ALL_ASSEMBLY_MEMBERS
100
AcDbEllipse
 62
7
  6
CONTINUOUS
 10
5.8182299009
 20
4.5901203416
 30
0.0
 11
0.3768572419
 21
0.4804196487
 31
0.0
 40
0.1715483437
 41
-1.8596439314
 42
-1.8454275419
  0
ELLIPSE
  5
626
100
AcDbEntity
  8
ALL_ASSEMBLY_MEMBERS
100
AcDbEllipse
 62
7
  6
CONTINUOUS
 10
5.8182299009
 20
4.5901203416
 30
0.0
 11
0.3749396931
 21
0.4779751472
 31
0.0
 40
0.1715483437
 41
-1.8600207538
 42
-1.8457313321
  0
ENDSEC
  0
SECTION
  2
OBJECTS
  0
DICTIONARY
  5
C
100
AcDbDictionary
280
0
281
1
  3
ACAD_GROUP
350
D
  3
ACAD_MLINESTYLE
350
17
  3
ACAD_LAYOUT
350
1A
  3
ACAD_PLOTSETTINGS
350
19
  3
ACAD_PLOTSTYLENAME
350
E
  0
DICTIONARY
  5
D
102
{ACAD_REACTORS
330
C
102
}
100
AcDbDictionary
280
0
281
1
  0
ACDBDICTIONARYWDFLT
  5
E
102
{ACAD_REACTORS
330
C
102
}
100
AcDbDictionary
281
1
  3
Normal
350
F
100
AcDbDictionaryWithDefault
340
F
  0
DICTIONARY
  5
17
102
{ACAD_REACTORS
330
C
102
}
100
AcDbDictionary
280
0
281
1
  3
Standard
350
18
  0
DICTIONARY
  5
19
102
{ACAD_REACTORS
330
C
102
}
100
AcDbDictionary
281
1
  0
DICTIONARY
  5
1A
102
{ACAD_REACTORS
330
C
102
}
100
AcDbDictionary
281
1
  3
Model
350
627
  3
Layout1
350
628
  0
ACDBPLACEHOLDER
  5
F
102
{ACAD_REACTORS
330
E
102
}
  0
MLINESTYLE
  5
18
102
{ACAD_REACTORS
330
17
102
}
100
AcDbMlineStyle
  2
STANDARD
 70
0
  3

 62
256
 51
90.0
 52
90.0
 71
2
 49
0.5
 62
256
  6
BYLAYER
 49
-0.5
 62
256
  6
BYLAYER
  0
LAYOUT
  5
627
102
{ACAD_REACTORS
330
1A
102
}
100
AcDbPlotSettings
  1

  2
none_device
  4
ANSI_A_(11.00_x_8.50_Inches)
  6

 40
0.0
 41
0.0
 42
0.0
 43
0.0
 44
279.4
 45
215.9
 46
0.0
 47
0.0
 48
0.0
 49
0.0
140
0.0
141
0.0
142
1.0
143
1.0
 70
1024
 72
0
 73
0
 74
0
  7

 75
0
147
1.0
148
0.0
149
0.0
100
AcDbLayout
  1
Model
 70
0
 71
0
 10
0.0
 20
0.0
 11
11.0
 21
8.5
 12
0.0
 22
0.0
 32
0.0
 14
0.0
 24
0.0
 34
0.0
 15
0.0
 25
0.0
 35
0.0
146
0.0
 13
0.0
 23
0.0
 33
0.0
 16
1.0
 26
0.0
 36
0.0
 17
0.0
 27
1.0
 37
0.0
 76
0
330
227
345
0
346
0
  0
LAYOUT
  5
628
102
{ACAD_REACTORS
330
1A
102
}
100
AcDbPlotSettings
  1

  2
none_device
  4
ANSI_A_(11.00_x_8.50_Inches)
  6

 40
0.0
 41
0.0
 42
0.0
 43
0.0
 44
279.4
 45
215.9
 46
0.0
 47
0.0
 48
0.0
 49
0.0
140
0.0
141
0.0
142
1.0
143
1.0
 70
0
 72
0
 73
0
 74
0
  7

 75
0
147
1.0
148
0.0
149
0.0
100
AcDbLayout
  1
Layout1
 70
0
 71
1
 10
0.0
 20
0.0
 11
11.0
 21
8.5
 12
0.0
 22
0.0
 32
0.0
 14
0.0
 24
0.0
 34
0.0
 15
0.0
 25
0.0
 35
0.0
146
0.0
 13
0.0
 23
0.0
 33
0.0
 16
1.0
 26
0.0
 36
0.0
 17
0.0
 27
1.0
 37
0.0
 76
0
330
228
345
0
346
0
  0
ENDSEC
  0
EOF
