999
DXF file: E:\BT Custom\CADOUTPUT\_FRONT.dxf
999
Pro/ENGINEER 2018400 by Parametric Technology Corporation
  0
SECTION
  2
HEADER
  9
$ACADVER
  1
AC1018
  9
$DWGCODEPAGE
  3
ANSI_1252
  9
$EXTMAX
 10
22.0
 20
17.0
 30
0.0
  9
$EXTMIN
 10
0.0
 20
0.0
 30
0.0
  9
$LIMMIN
 10
0.0
 20
0.0
  9
$LIMMAX
 10
22.0
 20
17.0
  9
$VIEWCTR
 10
11.0
 20
8.5
  9
$VIEWSIZE
 40
17.0
  9
$CLAYER
  8
0
  9
$LTSCALE
 40
1.21
  9
$CELTYPE
  6
BYLAYER
  9
$DIMSCALE
 40
1.0
  9
$DIMASZ
 40
0.1
  9
$DIMEXO
 40
0.0625
  9
$DIMDLI
 40
0.836
  9
$DIMEXE
 40
0.125
  9
$DIMCEN
 40
0.198
  9
$DIMLFAC
 40
1.0
  9
$DIMBLK
  1
_FILLED
  9
$DIMALT
 70
1
  9
$DIMALTD
 70
2
  9
$DIMALTTD
 70
2
  9
$DIMALTF
 40
25.4
  9
$DIMTXT
 40
0.08
  9
$DIMTOL
 70
1
  9
$DIMLIM
 70
0
  9
$DIMTFAC
 40
1.0
  9
$DIMTP
 40
0.001
  9
$DIMTM
 40
0.001
  9
$DIMGAP
 40
0.09
  9
$DIMDSEP
 70
46
  9
$AUNITS
 70
0
  9
$PDMODE
 70
3
  9
$PDSIZE
 40
0.06
  9
$HANDSEED
  5
3CB
  9
$TILEMODE
 70
1
  9
$MEASUREMENT
 70
0
  9
$INSUNITS
 70
1
  0
ENDSEC
  0
SECTION
  2
CLASSES
  0
CLASS
  1
ACDBDICTIONARYWDFLT
  2
AcDbDictionaryWithDefault
  3
AutoCAD 2000
 90
0
 91
1
280
0
281
0
  0
CLASS
  1
ACDBPLACEHOLDER
  2
AcDbPlaceHolder
  3
AutoCAD 2000
 90
0
 91
1
280
0
281
0
  0
CLASS
  1
LAYOUT
  2
AcDbLayout
  3
AutoCAD 2000
 90
0
 91
0
280
0
281
0
  0
ENDSEC
  0
SECTION
  2
TABLES
  0
TABLE
  2
VPORT
  5
8
100
AcDbSymbolTable
 70
2
  0
VPORT
  5
1F4
100
AcDbSymbolTableRecord
100
AcDbViewportTableRecord
  2
*ACTIVE
 70
0
 10
0.0
 20
0.0
 11
1.0
 21
1.0
 12
11.0
 22
8.5
 13
0.0
 23
0.0
 14
1.0
 24
1.0
 15
0.0
 25
0.0
 16
0.0
 26
0.0
 36
1.0
 17
0.0
 27
0.0
 37
0.0
 40
17.0
 41
1.2941176471
 42
50.0
 43
0.0
 44
0.0
 50
0.0
 51
0.0
 71
0
 72
100
 73
1
 74
1
 75
0
 76
0
 77
0
 78
0
  0
ENDTAB
  0
TABLE
  2
LTYPE
  5
5
100
AcDbSymbolTable
 70
6
  0
LTYPE
  5
14
100
AcDbSymbolTableRecord
100
AcDbLinetypeTableRecord
  2
BYBLOCK
 70
0
  3

 72
65
 73
0
 40
0.0
  0
LTYPE
  5
15
100
AcDbSymbolTableRecord
100
AcDbLinetypeTableRecord
  2
BYLAYER
 70
0
  3

 72
65
 73
0
 40
0.0
  0
LTYPE
  5
16
100
AcDbSymbolTableRecord
100
AcDbLinetypeTableRecord
  2
CONTINUOUS
 70
64
  3
Solid line
 72
65
 73
0
 40
0.0
  0
LTYPE
  5
1F5
100
AcDbSymbolTableRecord
100
AcDbLinetypeTableRecord
  2
CENTER
 70
64
  3
____ _ ____ _ ____ _ ____ _ ____ _ ____ _ ____
 72
65
 73
4
 40
0.6
 49
0.375
 74
0
 49
-0.075
 74
0
 49
0.075
 74
0
 49
-0.075
 74
0
  0
LTYPE
  5
1F6
100
AcDbSymbolTableRecord
100
AcDbLinetypeTableRecord
  2
HIDDEN
 70
64
  3
- - - - - - - - - - - - - - - - - - - -
 72
65
 73
2
 40
0.2
 49
0.1
 74
0
 49
-0.1
 74
0
  0
LTYPE
  5
1F7
100
AcDbSymbolTableRecord
100
AcDbLinetypeTableRecord
  2
PHANTOM
 70
64
  3
_____ _ _ _____ _ _ _____ _ _ _____
 72
65
 73
6
 40
0.8
 49
0.45
 74
0
 49
-0.05
 74
0
 49
0.1
 74
0
 49
-0.05
 74
0
 49
0.1
 74
0
 49
-0.05
 74
0
  0
LTYPE
  5
1F8
100
AcDbSymbolTableRecord
100
AcDbLinetypeTableRecord
  2
DOT
 70
64
  3
. . . . . . . . . . . . . . . . . . . .
 72
65
 73
2
 40
0.2
 49
0.1
 74
0
 49
-0.1
 74
0
  0
LTYPE
  5
1F9
100
AcDbSymbolTableRecord
100
AcDbLinetypeTableRecord
  2
DASHED
 70
64
  3
- - - - - - - - - - - - - - - - - - - -
 72
65
 73
2
 40
0.2
 49
0.1
 74
0
 49
-0.1
 74
0
  0
ENDTAB
  0
TABLE
  2
LAYER
  5
2
100
AcDbSymbolTable
 70
36
  0
LAYER
  5
10
100
AcDbSymbolTableRecord
100
AcDbLayerTableRecord
  2
0
 70
0
 62
7
  6
CONTINUOUS
370
-3
390
F
  0
LAYER
  5
1FA
100
AcDbSymbolTableRecord
100
AcDbLayerTableRecord
  2
DEFAULT_1
 70
0
 62
7
  6
CENTER
370
-3
390
F
  0
LAYER
  5
1FB
100
AcDbSymbolTableRecord
100
AcDbLayerTableRecord
  2
DEFAULT_2
 70
0
 62
8
  6
HIDDEN
370
-3
390
F
  0
LAYER
  5
1FC
100
AcDbSymbolTableRecord
100
AcDbLayerTableRecord
  2
DEFAULT_3
 70
0
 62
7
  6
PHANTOM
370
-3
390
F
  0
LAYER
  5
1FD
100
AcDbSymbolTableRecord
100
AcDbLayerTableRecord
  2
ALL_FEATURES
 70
0
 62
7
  6
CONTINUOUS
370
-3
390
F
  0
LAYER
  5
1FE
100
AcDbSymbolTableRecord
100
AcDbLayerTableRecord
  2
AXES_FEATURES
 70
0
 62
7
  6
CONTINUOUS
370
-3
390
F
  0
LAYER
  5
1FF
100
AcDbSymbolTableRecord
100
AcDbLayerTableRecord
  2
DIMENSIONS
 70
0
 62
7
  6
CONTINUOUS
370
-3
390
F
  0
ENDTAB
  0
TABLE
  2
STYLE
  5
3
100
AcDbSymbolTable
 70
1
  0
STYLE
  5
11
100
AcDbSymbolTableRecord
100
AcDbTextStyleTableRecord
  2
STANDARD
 70
0
 40
0.0
 41
0.8
 50
0.0
 71
0
 42
0.2
  3
txt
  4

  0
STYLE
  5
200
100
AcDbSymbolTableRecord
100
AcDbTextStyleTableRecord
  2
TEXTSTYLE_1
 70
0
 40
0.0
 41
0.8
 50
0.0
 71
0
 42
0.2
  3
gdt
  4

  0
ENDTAB
  0
TABLE
  2
VIEW
  5
6
100
AcDbSymbolTable
 70
0
  0
ENDTAB
  0
TABLE
  2
UCS
  5
7
100
AcDbSymbolTable
 70
0
  0
ENDTAB
  0
TABLE
  2
APPID
  5
9
100
AcDbSymbolTable
 70
1
  0
APPID
  5
201
100
AcDbSymbolTableRecord
100
AcDbRegAppTableRecord
  2
ACAD
 70
0
  0
ENDTAB
  0
TABLE
  2
BLOCK_RECORD
  5
1
100
AcDbSymbolTable
 70
0
  0
BLOCK_RECORD
  5
202
100
AcDbSymbolTableRecord
100
AcDbBlockTableRecord
  2
*Model_Space
  0
BLOCK_RECORD
  5
203
100
AcDbSymbolTableRecord
100
AcDbBlockTableRecord
  2
*Paper_Space
  0
BLOCK_RECORD
  5
204
100
AcDbSymbolTableRecord
100
AcDbBlockTableRecord
  2
_FILLED
  0
ENDTAB
  0
TABLE
  2
DIMSTYLE
  5
A
100
AcDbSymbolTable
 70
1
100
AcDbDimStyleTable
 71
0
  0
DIMSTYLE
105
205
100
AcDbSymbolTableRecord
100
AcDbDimStyleTableRecord
  2
STANDARD
 70
0
  3

  4

 40
1.0
 41
0.1
 42
0.0625
 43
0.38
 44
0.125
 45
0.0
 46
0.0
 47
0.001
 48
0.001
140
0.08
141
0.09
142
0.0
143
25.4
144
1.0
145
0.0
146
1.0
147
0.09
 71
1.0
 72
0.0
 73
1
 74
1
 75
0
 76
0
 77
0
 78
4
 79
1
170
1
171
2
172
0
173
0
174
0
175
0
176
0
177
0
178
0
270
2
179
3
271
3
272
3
273
2
274
2
275
0
280
0
281
0
282
0
283
1
284
4
285
0
286
0
287
3
288
0
340
11
278
46
341
204
342
204
343
204
344
204
  0
ENDTAB
  0
ENDSEC
  0
SECTION
  2
BLOCKS
  0
BLOCK
  5
20
100
AcDbEntity
  8
0
100
AcDbBlockBegin
  2
*Model_Space
 70
0
 10
0.0
 20
0.0
 30
0.0
  3
*Model_Space
  1

  0
ENDBLK
  5
21
100
AcDbEntity
  8
0
100
AcDbBlockEnd
  0
BLOCK
  5
1C
100
AcDbEntity
  8
0
100
AcDbBlockBegin
  2
*Paper_Space
 70
0
 10
0.0
 20
0.0
 30
0.0
  3
*Paper_Space
  1

  0
ENDBLK
  5
1D
100
AcDbEntity
  8
0
100
AcDbBlockEnd
  0
BLOCK
  5
206
100
AcDbEntity
  8
0
100
AcDbBlockBegin
  2
_FILLED
 70
64
 10
0.0
 20
0.0
  3
_FILLED
  1

  0
SOLID
  5
207
100
AcDbEntity
  8
0
  6
BYBLOCK
 62
0
100
AcDbTrace
 10
0.0
 20
0.0
 11
-1.0
 21
0.2
 12
-1.0
 22
-0.2
 13
-1.0
 23
-0.2
  0
ENDBLK
  5
208
100
AcDbEntity
  8
0
  6
BYBLOCK
 62
0
100
AcDbBlockEnd
  0
ENDSEC
  0
SECTION
  2
ENTITIES
  0
LINE
  5
209
100
AcDbEntity
  8
0
100
AcDbLine
 62
9
  6
CONTINUOUS
 10
5.9129258627
 20
8.0061862881
 11
5.9129258627
 21
7.5556526637
  0
LINE
  5
20A
100
AcDbEntity
  8
0
100
AcDbLine
 62
9
  6
CONTINUOUS
 10
5.9950151198
 20
7.6131321803
 11
5.9950151198
 21
7.9487067715
  0
LINE
  5
20B
100
AcDbEntity
  8
0
100
AcDbLine
 62
7
  6
CONTINUOUS
 10
6.0201923427
 20
7.9700103656
 11
6.0201923427
 21
7.5918285862
  0
LINE
  5
20C
100
AcDbEntity
  8
0
100
AcDbLine
 62
9
  6
CONTINUOUS
 10
6.0450555013
 20
7.5900021826
 11
6.0450555013
 21
7.9718367691
  0
LINE
  5
20D
100
AcDbEntity
  8
0
100
AcDbLine
 62
7
  6
CONTINUOUS
 10
6.1796320909
 20
6.0556130193
 11
6.1796314393
 21
5.8056694759
  0
LINE
  5
20E
100
AcDbEntity
  8
0
100
AcDbLine
 62
7
  6
CONTINUOUS
 10
6.1966923427
 20
5.8056694759
 11
6.1966923427
 21
5.7436694759
  0
LINE
  5
20F
100
AcDbEntity
  8
0
100
AcDbLine
 62
9
  6
CONTINUOUS
 10
6.4065263329
 20
7.6263007044
 11
6.4065263329
 21
7.9357324055
  0
LINE
  5
210
100
AcDbEntity
  8
0
100
AcDbLine
 62
7
  6
CONTINUOUS
 10
6.4101923427
 20
8.168203573
 11
6.4101923427
 21
8.0969194759
  0
LINE
  5
211
100
AcDbEntity
  8
0
100
AcDbLine
 62
9
  6
CONTINUOUS
 10
6.4286863666
 20
7.8767456342
 11
6.4286863666
 21
7.6851576027
  0
LINE
  5
212
100
AcDbEntity
  8
0
100
AcDbLine
 62
7
  6
CONTINUOUS
 10
7.5788557824
 20
6.1721694759
 11
7.6957488268
 21
6.0556131546
  0
LINE
  5
213
100
AcDbEntity
  8
0
100
AcDbLine
 62
7
  6
CONTINUOUS
 10
6.5586611396
 20
6.0556146946
 11
6.558661891
 21
5.8056694759
  0
LINE
  5
214
100
AcDbEntity
  8
0
100
AcDbLine
 62
7
  6
CONTINUOUS
 10
6.5941923427
 20
7.4459194759
 11
6.5941923427
 21
7.0869194759
  0
LINE
  5
215
100
AcDbEntity
  8
0
100
AcDbLine
 62
7
  6
CONTINUOUS
 10
6.7376923427
 20
7.0869194759
 11
6.7376923427
 21
7.0556694759
  0
LINE
  5
216
100
AcDbEntity
  8
0
100
AcDbLine
 62
7
  6
CONTINUOUS
 10
6.8526923427
 20
8.2734260243
 11
6.8526923427
 21
8.2651437234
  0
LINE
  5
217
100
AcDbEntity
  8
0
100
AcDbLine
 62
7
  6
CONTINUOUS
 10
6.8766923427
 20
8.2735568897
 11
6.8766923427
 21
8.2745616604
  0
LINE
  5
218
100
AcDbEntity
  8
0
100
AcDbLine
 62
7
  6
CONTINUOUS
 10
6.877192336
 20
8.2807378576
 11
6.877192336
 21
8.2797370945
  0
LINE
  5
219
100
AcDbEntity
  8
0
100
AcDbLine
 62
9
  6
CONTINUOUS
 10
6.9081526352
 20
8.2737191385
 11
6.9081526352
 21
8.2727138187
  0
LINE
  5
21A
100
AcDbEntity
  8
0
100
AcDbLine
 62
9
  6
CONTINUOUS
 10
6.9376923427
 20
8.2813693947
 11
6.9376923427
 21
8.2803690396
  0
LINE
  5
21B
100
AcDbEntity
  8
0
100
AcDbLine
 62
7
  6
CONTINUOUS
 10
7.4781923427
 20
6.7212859147
 11
7.5523263369
 21
6.6153682874
  0
LINE
  5
21C
100
AcDbEntity
  8
0
100
AcDbLine
 62
7
  6
CONTINUOUS
 10
6.9981923494
 20
8.2797370945
 11
6.9981923494
 21
8.2807378576
  0
LINE
  5
21D
100
AcDbEntity
  8
0
100
AcDbLine
 62
7
  6
CONTINUOUS
 10
7.0001776241
 20
8.278043924
 11
7.0001776241
 21
8.2770414169
  0
LINE
  5
21E
100
AcDbEntity
  8
0
100
AcDbLine
 62
9
  6
CONTINUOUS
 10
7.0007923427
 20
8.2717050291
 11
7.0007923427
 21
8.2727110068
  0
LINE
  5
21F
100
AcDbEntity
  8
0
100
AcDbLine
 62
7
  6
CONTINUOUS
 10
7.0037923427
 20
8.268125555
 11
7.0037923427
 21
8.2646227037
  0
LINE
  5
220
100
AcDbEntity
  8
0
100
AcDbLine
 62
7
  6
CONTINUOUS
 10
7.0037923427
 20
8.2752383659
 11
7.0037923427
 21
8.2718810705
  0
LINE
  5
221
100
AcDbEntity
  8
0
100
AcDbLine
 62
7
  6
CONTINUOUS
 10
7.0216923427
 20
8.2593272233
 11
7.0216923427
 21
8.2764745358
  0
LINE
  5
222
100
AcDbEntity
  8
0
100
AcDbLine
 62
7
  6
CONTINUOUS
 10
7.1376923427
 20
7.0869194759
 11
7.1376923427
 21
7.0556694759
  0
LINE
  5
223
100
AcDbEntity
  8
0
100
AcDbLine
 62
7
  6
CONTINUOUS
 10
7.2811923427
 20
7.4459194759
 11
7.2811923427
 21
7.0869194759
  0
LINE
  5
224
100
AcDbEntity
  8
0
100
AcDbLine
 62
7
  6
CONTINUOUS
 10
7.3167216946
 20
6.0556146946
 11
7.3167227945
 21
5.8056694759
  0
LINE
  5
225
100
AcDbEntity
  8
0
100
AcDbLine
 62
7
  6
CONTINUOUS
 10
5.7577076339
 20
5.3686694759
 11
8.1176770516
 21
5.3686694759
  0
LINE
  5
226
100
AcDbEntity
  8
0
100
AcDbLine
 62
7
  6
CONTINUOUS
 10
9.5126923427
 20
5.3686694759
 11
12.3626923427
 21
5.3686694759
  0
LINE
  5
227
100
AcDbEntity
  8
0
100
AcDbLine
 62
7
  6
CONTINUOUS
 10
13.7576923427
 20
5.3686694759
 11
16.1176923427
 21
5.3686694759
  0
LINE
  5
228
100
AcDbEntity
  8
0
100
AcDbLine
 62
9
  6
CONTINUOUS
 10
12.3626923427
 20
5.5016694759
 11
9.5126923427
 21
5.5016694759
  0
LINE
  5
229
100
AcDbEntity
  8
0
100
AcDbLine
 62
7
  6
CONTINUOUS
 10
5.9376923427
 20
5.5556694759
 11
7.9376923427
 21
5.5556694759
  0
LINE
  5
22A
100
AcDbEntity
  8
0
100
AcDbLine
 62
7
  6
CONTINUOUS
 10
13.9376923427
 20
5.5556694759
 11
15.9376923427
 21
5.5556694759
  0
LINE
  5
22B
100
AcDbEntity
  8
0
100
AcDbLine
 62
9
  6
CONTINUOUS
 10
9.6445246781
 20
5.7255408475
 11
12.2308600074
 21
5.7255408475
  0
LINE
  5
22C
100
AcDbEntity
  8
0
100
AcDbLine
 62
7
  6
CONTINUOUS
 10
15.7506950166
 20
5.7436694759
 11
14.1246896689
 21
5.7436694759
  0
LINE
  5
22D
100
AcDbEntity
  8
0
100
AcDbLine
 62
7
  6
CONTINUOUS
 10
7.7506815603
 20
5.7436694759
 11
6.1247031251
 21
5.7436694759
  0
LINE
  5
22E
100
AcDbEntity
  8
0
100
AcDbLine
 62
7
  6
CONTINUOUS
 10
5.9950151198
 20
7.9487067715
 11
5.9129258627
 21
8.0061862881
  0
LINE
  5
22F
100
AcDbEntity
  8
0
100
AcDbLine
 62
9
  6
CONTINUOUS
 10
7.4466983189
 20
7.6850932974
 11
7.4466983189
 21
7.8766813535
  0
LINE
  5
230
100
AcDbEntity
  8
0
100
AcDbLine
 62
7
  6
CONTINUOUS
 10
7.4651923427
 20
8.168203573
 11
7.4651923427
 21
8.0969194759
  0
LINE
  5
231
100
AcDbEntity
  8
0
100
AcDbLine
 62
9
  6
CONTINUOUS
 10
7.4688583526
 20
7.9355382473
 11
7.4688583526
 21
7.6261065546
  0
LINE
  5
232
100
AcDbEntity
  8
0
100
AcDbLine
 62
7
  6
CONTINUOUS
 10
7.6786923427
 20
5.8056694759
 11
7.6786923427
 21
5.7436694759
  0
LINE
  5
233
100
AcDbEntity
  8
0
100
AcDbLine
 62
7
  6
CONTINUOUS
 10
7.6957524105
 20
6.0556142346
 11
7.6957532462
 21
5.8056694759
  0
LINE
  5
234
100
AcDbEntity
  8
0
100
AcDbLine
 62
9
  6
CONTINUOUS
 10
7.8303291842
 20
7.9718367691
 11
7.8303291842
 21
7.5900021826
  0
LINE
  5
235
100
AcDbEntity
  8
0
100
AcDbLine
 62
7
  6
CONTINUOUS
 10
7.8551923427
 20
7.5918285862
 11
7.8551923427
 21
7.9700103656
  0
LINE
  5
236
100
AcDbEntity
  8
0
100
AcDbLine
 62
9
  6
CONTINUOUS
 10
9.6846923427
 20
5.7937516561
 11
12.1906923427
 21
5.7937516561
  0
LINE
  5
237
100
AcDbEntity
  8
0
100
AcDbLine
 62
9
  6
CONTINUOUS
 10
12.1906923427
 20
5.7956694759
 11
9.6846923427
 21
5.7956694759
  0
LINE
  5
238
100
AcDbEntity
  8
0
100
AcDbLine
 62
7
  6
CONTINUOUS
 10
6.1796314393
 20
5.8056694759
 11
7.6957532462
 21
5.8056694759
  0
LINE
  5
239
100
AcDbEntity
  8
0
100
AcDbLine
 62
7
  6
CONTINUOUS
 10
14.1796314393
 20
5.8056694759
 11
15.6957532462
 21
5.8056694759
  0
LINE
  5
23A
100
AcDbEntity
  8
0
100
AcDbLine
 62
7
  6
CONTINUOUS
 10
9.8126944931
 20
5.9436694759
 11
12.0626901922
 21
5.9436694759
  0
LINE
  5
23B
100
AcDbEntity
  8
0
100
AcDbLine
 62
9
  6
CONTINUOUS
 10
15.5788557824
 20
6.1721694759
 11
14.2965289031
 21
6.1721694759
  0
LINE
  5
23C
100
AcDbEntity
  8
0
100
AcDbLine
 62
9
  6
CONTINUOUS
 10
7.5788557824
 20
6.1721694759
 11
6.2965289031
 21
6.1721694759
  0
LINE
  5
23D
100
AcDbEntity
  8
0
100
AcDbLine
 62
7
  6
CONTINUOUS
 10
6.4101923427
 20
7.4969194759
 11
6.5671923427
 21
7.4459194759
  0
LINE
  5
23E
100
AcDbEntity
  8
0
100
AcDbLine
 62
7
  6
CONTINUOUS
 10
6.4101923427
 20
8.0969194759
 11
6.4370391303
 21
8.0814194759
  0
LINE
  5
23F
100
AcDbEntity
  8
0
100
AcDbLine
 62
7
  6
CONTINUOUS
 10
7.8803695657
 20
7.6131321803
 11
7.9624588227
 21
7.5556526637
  0
LINE
  5
240
100
AcDbEntity
  8
0
100
AcDbLine
 62
7
  6
CONTINUOUS
 10
7.4651923427
 20
8.168203573
 11
7.450926495
 21
8.1878388279
  0
LINE
  5
241
100
AcDbEntity
  8
0
100
AcDbLine
 62
9
  6
CONTINUOUS
 10
7.8803695657
 20
7.9487067715
 11
7.8803695657
 21
7.6131321803
  0
LINE
  5
242
100
AcDbEntity
  8
0
100
AcDbLine
 62
9
  6
CONTINUOUS
 10
7.9624588227
 20
7.5556526637
 11
7.9624588227
 21
8.0061862881
  0
LINE
  5
243
100
AcDbEntity
  8
0
100
AcDbLine
 62
7
  6
CONTINUOUS
 10
6.4101923427
 20
8.168203573
 11
6.4244581905
 21
8.1878388279
  0
LINE
  5
244
100
AcDbEntity
  8
0
100
AcDbLine
 62
9
  6
CONTINUOUS
 10
6.3191923427
 20
6.3871694759
 11
7.5561923427
 21
6.3871694759
  0
LINE
  5
245
100
AcDbEntity
  8
0
100
AcDbLine
 62
9
  6
CONTINUOUS
 10
14.3191923427
 20
6.3871694759
 11
15.5561923427
 21
6.3871694759
  0
LINE
  5
246
100
AcDbEntity
  8
0
100
AcDbLine
 62
9
  6
CONTINUOUS
 10
6.3230583485
 20
6.6153682874
 11
7.5523263369
 21
6.6153682874
  0
LINE
  5
247
100
AcDbEntity
  8
0
100
AcDbLine
 62
9
  6
CONTINUOUS
 10
14.3230583485
 20
6.6153682874
 11
15.5523263369
 21
6.6153682874
  0
LINE
  5
248
100
AcDbEntity
  8
0
100
AcDbLine
 62
7
  6
CONTINUOUS
 10
7.4383455552
 20
8.0814194759
 11
7.4651923427
 21
8.0659194759
  0
LINE
  5
249
100
AcDbEntity
  8
0
100
AcDbLine
 62
7
  6
CONTINUOUS
 10
6.3971923427
 20
6.7212859147
 11
6.3230583485
 21
6.6153682874
  0
LINE
  5
24A
100
AcDbEntity
  8
0
100
AcDbLine
 62
9
  6
CONTINUOUS
 10
15.4781923427
 20
6.7212859147
 11
14.3971923427
 21
6.7212859147
  0
LINE
  5
24B
100
AcDbEntity
  8
0
100
AcDbLine
 62
9
  6
CONTINUOUS
 10
7.4781923427
 20
6.7212859147
 11
6.3971923427
 21
6.7212859147
  0
LINE
  5
24C
100
AcDbEntity
  8
0
100
AcDbLine
 62
9
  6
CONTINUOUS
 10
15.3674320703
 20
7.0272687185
 11
14.5079526152
 21
7.0272687185
  0
LINE
  5
24D
100
AcDbEntity
  8
0
100
AcDbLine
 62
9
  6
CONTINUOUS
 10
7.3674320703
 20
7.0272687185
 11
6.5079526152
 21
7.0272687185
  0
LINE
  5
24E
100
AcDbEntity
  8
0
100
AcDbLine
 62
7
  6
CONTINUOUS
 10
15.3365412312
 20
7.0556694759
 11
14.5388434542
 21
7.0556694759
  0
LINE
  5
24F
100
AcDbEntity
  8
0
100
AcDbLine
 62
7
  6
CONTINUOUS
 10
7.3365412312
 20
7.0556694759
 11
6.5388434542
 21
7.0556694759
  0
LINE
  5
250
100
AcDbEntity
  8
0
100
AcDbLine
 62
7
  6
CONTINUOUS
 10
6.5941923427
 20
7.0869194759
 11
7.2811923427
 21
7.0869194759
  0
LINE
  5
251
100
AcDbEntity
  8
0
100
AcDbLine
 62
7
  6
CONTINUOUS
 10
14.5941929818
 20
7.0869194759
 11
15.2811917037
 21
7.0869194759
  0
LINE
  5
252
100
AcDbEntity
  8
0
100
AcDbLine
 62
7
  6
CONTINUOUS
 10
6.5671923427
 20
7.4459194759
 11
7.3081923427
 21
7.4459194759
  0
LINE
  5
253
100
AcDbEntity
  8
0
100
AcDbLine
 62
7
  6
CONTINUOUS
 10
14.5671930415
 20
7.4459194759
 11
15.308191644
 21
7.4459194759
  0
LINE
  5
254
100
AcDbEntity
  8
0
100
AcDbLine
 62
7
  6
CONTINUOUS
 10
15.4651923427
 20
7.4969194759
 11
14.4101923427
 21
7.4969194759
  0
LINE
  5
255
100
AcDbEntity
  8
0
100
AcDbLine
 62
7
  6
CONTINUOUS
 10
7.4651923427
 20
7.4969194759
 11
6.4101923427
 21
7.4969194759
  0
LINE
  5
256
100
AcDbEntity
  8
0
100
AcDbLine
 62
7
  6
CONTINUOUS
 10
7.3922022989
 20
8.2069194759
 11
7.450926495
 21
8.1878388279
  0
LINE
  5
257
100
AcDbEntity
  8
0
100
AcDbLine
 62
7
  6
CONTINUOUS
 10
9.5126923427
 20
5.5016694759
 11
9.5126923427
 21
5.3686694759
  0
LINE
  5
258
100
AcDbEntity
  8
0
100
AcDbLine
 62
7
  6
CONTINUOUS
 10
5.9950151198
 20
7.6131321803
 11
5.9129258627
 21
7.5556526637
  0
LINE
  5
259
100
AcDbEntity
  8
0
100
AcDbLine
 62
7
  6
CONTINUOUS
 10
14.7376923427
 20
8.2679593084
 11
14.7014104624
 21
8.2628003182
  0
LINE
  5
25A
100
AcDbEntity
  8
0
100
AcDbLine
 62
7
  6
CONTINUOUS
 10
6.3801923427
 20
7.5759194759
 11
6.7545556666
 21
7.5759194759
  0
LINE
  5
25B
100
AcDbEntity
  8
0
100
AcDbLine
 62
7
  6
CONTINUOUS
 10
7.1208290189
 20
7.5759194759
 11
7.4951923427
 21
7.5759194759
  0
LINE
  5
25C
100
AcDbEntity
  8
0
100
AcDbLine
 62
7
  6
CONTINUOUS
 10
14.3801923427
 20
7.5759194759
 11
14.7566382543
 21
7.5759194759
  0
LINE
  5
25D
100
AcDbEntity
  8
0
100
AcDbLine
 62
7
  6
CONTINUOUS
 10
15.1187464312
 20
7.5759194759
 11
15.4951923427
 21
7.5759194759
  0
LINE
  5
25E
100
AcDbEntity
  8
0
100
AcDbLine
 62
7
  6
CONTINUOUS
 10
15.4951923427
 20
7.9859194759
 11
15.1187464312
 21
7.9859194759
  0
LINE
  5
25F
100
AcDbEntity
  8
0
100
AcDbLine
 62
7
  6
CONTINUOUS
 10
14.7566382543
 20
7.9859194759
 11
14.3801923427
 21
7.9859194759
  0
LINE
  5
260
100
AcDbEntity
  8
0
100
AcDbLine
 62
7
  6
CONTINUOUS
 10
7.4951923427
 20
7.9859194759
 11
7.1208290189
 21
7.9859194759
  0
LINE
  5
261
100
AcDbEntity
  8
0
100
AcDbLine
 62
7
  6
CONTINUOUS
 10
6.7545556666
 20
7.9859194759
 11
6.3801923427
 21
7.9859194759
  0
LINE
  5
262
100
AcDbEntity
  8
0
100
AcDbLine
 62
7
  6
CONTINUOUS
 10
9.6846923427
 20
5.7956694759
 11
9.6846923427
 21
5.7937516561
  0
LWPOLYLINE
  5
263
100
AcDbEntity
  8
0
100
AcDbPolyline
 62
7
  6
CONTINUOUS
 90
4
 70
0
 10
9.8141503845
 20
6.8756694633
 10
9.810778052
 20
6.5610434927
 10
9.810319409
 20
6.2351676
 10
9.8126923427
 20
5.9436694759
  0
LWPOLYLINE
  5
264
100
AcDbEntity
  8
0
100
AcDbPolyline
 62
7
  6
CONTINUOUS
 90
11
 70
0
 10
10.2445462292
 20
12.3648382307
 10
10.1976344449
 20
12.0720430121
 10
10.1463077985
 20
11.6988143886
 10
10.0932243491
 20
11.2575392434
 10
10.0399002982
 20
10.753966402
 10
9.9879101856
 20
10.1940615737
 10
9.9389489023
 20
9.5844173102
 10
9.89497775
 20
8.9343918301
 10
9.8580625762
 20
8.2548011221
 10
9.830302043
 20
7.5570471413
 10
9.8141503843
 20
6.875669463
  0
LINE
  5
265
100
AcDbEntity
  8
0
100
AcDbLine
 62
7
  6
CONTINUOUS
 10
6.2965289031
 20
6.1721694759
 11
6.179634882
 21
6.0556121806
  0
LINE
  5
266
100
AcDbEntity
  8
0
100
AcDbLine
 62
7
  6
CONTINUOUS
 10
6.4370391303
 20
8.0814194759
 11
6.4101923427
 21
8.0659194759
  0
LINE
  5
267
100
AcDbEntity
  8
0
100
AcDbLine
 62
7
  6
CONTINUOUS
 10
14.9061923427
 20
8.280599294
 11
14.8701923427
 21
8.2794487069
  0
LINE
  5
268
100
AcDbEntity
  8
0
100
AcDbLine
 62
7
  6
CONTINUOUS
 10
6.9376923427
 20
8.2819194759
 11
6.8772380639
 21
8.2807405978
  0
LINE
  5
269
100
AcDbEntity
  8
0
100
AcDbLine
 62
7
  6
CONTINUOUS
 10
6.4101923427
 20
8.0659194759
 11
7.4651923427
 21
8.0659194759
  0
LINE
  5
26A
100
AcDbEntity
  8
0
100
AcDbLine
 62
7
  6
CONTINUOUS
 10
14.4101923427
 20
8.0659194759
 11
15.4651923427
 21
8.0659194759
  0
LINE
  5
26B
100
AcDbEntity
  8
0
100
AcDbLine
 62
7
  6
CONTINUOUS
 10
7.4383455552
 20
8.0814194759
 11
6.4370391303
 21
8.0814194759
  0
LINE
  5
26C
100
AcDbEntity
  8
0
100
AcDbLine
 62
7
  6
CONTINUOUS
 10
14.4370391303
 20
8.0814194759
 11
15.4383455552
 21
8.0814194759
  0
LINE
  5
26D
100
AcDbEntity
  8
0
100
AcDbLine
 62
7
  6
CONTINUOUS
 10
6.4101923427
 20
8.0969194759
 11
7.4651923427
 21
8.0969194759
  0
LINE
  5
26E
100
AcDbEntity
  8
0
100
AcDbLine
 62
7
  6
CONTINUOUS
 10
14.4101923427
 20
8.0969194759
 11
15.4651923427
 21
8.0969194759
  0
LINE
  5
26F
100
AcDbEntity
  8
0
100
AcDbLine
 62
7
  6
CONTINUOUS
 10
15.4651923427
 20
8.168203573
 11
14.4101923427
 21
8.168203573
  0
LINE
  5
270
100
AcDbEntity
  8
0
100
AcDbLine
 62
7
  6
CONTINUOUS
 10
7.4651923427
 20
8.168203573
 11
6.4101923427
 21
8.168203573
  0
LINE
  5
271
100
AcDbEntity
  8
0
100
AcDbLine
 62
7
  6
CONTINUOUS
 10
7.450926495
 20
8.1878388279
 11
6.4244581905
 21
8.1878388279
  0
LINE
  5
272
100
AcDbEntity
  8
0
100
AcDbLine
 62
7
  6
CONTINUOUS
 10
14.4244581905
 20
8.1878388279
 11
15.450926495
 21
8.1878388279
  0
LINE
  5
273
100
AcDbEntity
  8
0
100
AcDbLine
 62
7
  6
CONTINUOUS
 10
15.3921903797
 20
8.2069194759
 11
14.4831943057
 21
8.2069194759
  0
LINE
  5
274
100
AcDbEntity
  8
0
100
AcDbLine
 62
7
  6
CONTINUOUS
 10
7.3922022989
 20
8.2069194759
 11
6.4831823866
 21
8.2069194759
  0
LINE
  5
275
100
AcDbEntity
  8
0
100
AcDbLine
 62
9
  6
CONTINUOUS
 10
15.3328369993
 20
8.2307287691
 11
14.5425476862
 21
8.2307287691
  0
LINE
  5
276
100
AcDbEntity
  8
0
100
AcDbLine
 62
9
  6
CONTINUOUS
 10
7.3328328856
 20
8.2307299684
 11
6.5425477032
 21
8.2307288889
  0
LINE
  5
277
100
AcDbEntity
  8
0
100
AcDbLine
 62
7
  6
CONTINUOUS
 10
6.9981886204
 20
8.2807380032
 11
6.9981454046
 21
8.2807406453
  0
LWPOLYLINE
  5
278
100
AcDbEntity
  8
0
100
AcDbPolyline
 62
7
  6
CONTINUOUS
 90
25
 70
0
 10
10.3293203031
 20
12.437736887
 10
10.3293654391
 20
12.4370336559
 10
10.3297164093
 20
12.429160839
 10
10.3300754457
 20
12.4133774066
 10
10.3301736995
 20
12.3902401117
 10
10.3298348229
 20
12.3601841788
 10
10.3289376283
 20
12.3235385849
 10
10.3273920778
 20
12.2805019921
 10
10.3251210128
 20
12.2311111138
 10
10.3220530905
 20
12.1753373051
 10
10.3181192427
 20
12.1131142058
 10
10.313250625
 20
12.0443515791
 10
10.3073779804
 20
11.9689583264
 10
10.3004303792
 20
11.8868614217
 10
10.2923340135
 20
11.797985975
 10
10.2830123406
 20
11.7022599257
 10
10.2723861229
 20
11.599619462
 10
10.260375421
 20
11.4900298121
 10
10.246897667
 20
11.3734666524
 10
10.2318681249
 20
11.249936296
 10
10.2151990345
 20
11.1194857033
 10
10.1967997809
 20
10.9821821379
 10
10.1765771424
 20
10.8381126292
 10
10.1544352832
 20
10.6873841893
 10
10.1329857742
 20
10.5474219216
  0
LINE
  5
279
100
AcDbEntity
  8
0
100
AcDbLine
 62
7
  6
CONTINUOUS
 10
7.8803695657
 20
7.9487067715
 11
7.9624588227
 21
8.0061862881
  0
LINE
  5
27A
100
AcDbEntity
  8
0
100
AcDbLine
 62
7
  6
CONTINUOUS
 10
7.4651923427
 20
8.0969194759
 11
7.4383455552
 21
8.0814194759
  0
LINE
  5
27B
100
AcDbEntity
  8
0
100
AcDbLine
 62
7
  6
CONTINUOUS
 10
6.8772401354
 20
8.2807406787
 11
6.8771964672
 21
8.2807380189
  0
LINE
  5
27C
100
AcDbEntity
  8
0
100
AcDbLine
 62
7
  6
CONTINUOUS
 10
14.9763923427
 20
8.2814364836
 11
15.0613923427
 21
8.2769777052
  0
LINE
  5
27D
100
AcDbEntity
  8
0
100
AcDbLine
 62
7
  6
CONTINUOUS
 10
14.5671923427
 20
7.4459194759
 11
14.4101923427
 21
7.4969194759
  0
LINE
  5
27E
100
AcDbEntity
  8
0
100
AcDbLine
 62
9
  6
CONTINUOUS
 10
10.9376923442
 20
6.8756694759
 11
10.9376923442
 21
5.9436697912
  0
LINE
  5
27F
100
AcDbEntity
  8
0
100
AcDbLine
 62
7
  6
CONTINUOUS
 10
10.93769258
 20
13.1666695284
 11
10.9376921979
 21
13.1696621068
  0
LINE
  5
280
100
AcDbEntity
  8
0
100
AcDbLine
 62
7
  6
CONTINUOUS
 10
6.4831823866
 20
8.2069194759
 11
6.4244581905
 21
8.1878388279
  0
LINE
  5
281
100
AcDbEntity
  8
0
100
AcDbLine
 62
7
  6
CONTINUOUS
 10
15.3922022989
 20
8.2069194759
 11
15.450926495
 21
8.1878388279
  0
LINE
  5
282
100
AcDbEntity
  8
0
100
AcDbLine
 62
7
  6
CONTINUOUS
 10
7.4651923427
 20
7.4969194759
 11
7.3081923427
 21
7.4459194759
  0
LINE
  5
283
100
AcDbEntity
  8
0
100
AcDbLine
 62
7
  6
CONTINUOUS
 10
14.4370391303
 20
8.0814194759
 11
14.4101923427
 21
8.0969194759
  0
LINE
  5
284
100
AcDbEntity
  8
0
100
AcDbLine
 62
7
  6
CONTINUOUS
 10
13.9950151198
 20
7.9487067715
 11
13.9129258627
 21
8.0061862881
  0
LWPOLYLINE
  5
285
100
AcDbEntity
  8
0
100
AcDbPolyline
 62
7
  6
CONTINUOUS
 90
11
 70
0
 10
12.0612343012
 20
6.875669463
 10
12.0450826425
 20
7.5570471424
 10
12.0173221093
 20
8.2548011231
 10
11.9804069354
 20
8.9343918309
 10
11.9364357832
 20
9.5844173108
 10
11.8874744998
 20
10.1940615742
 10
11.8354843872
 20
10.7539664023
 10
11.7821603364
 20
11.2575392436
 10
11.729076887
 20
11.6988143887
 10
11.6777502406
 20
12.0720430122
 10
11.6308384563
 20
12.3648382307
  0
LINE
  5
286
100
AcDbEntity
  8
0
100
AcDbLine
 62
7
  6
CONTINUOUS
 10
12.1906923427
 20
5.7956694759
 11
12.1906923427
 21
5.7937516561
  0
LWPOLYLINE
  5
287
100
AcDbEntity
  8
0
100
AcDbPolyline
 62
7
  6
CONTINUOUS
 90
4
 70
0
 10
12.0626923427
 20
5.9436694759
 10
12.0650652765
 20
6.235167601
 10
12.0646066335
 20
6.5610434943
 10
12.0612343009
 20
6.8756694634
  0
LINE
  5
288
100
AcDbEntity
  8
0
100
AcDbLine
 62
7
  6
CONTINUOUS
 10
15.4383455552
 20
8.0814194759
 11
15.4651923427
 21
8.0659194759
  0
LINE
  5
289
100
AcDbEntity
  8
0
100
AcDbLine
 62
7
  6
CONTINUOUS
 10
15.5788557824
 20
6.1721694759
 11
15.6957488268
 21
6.0556131546
  0
LWPOLYLINE
  5
28A
100
AcDbEntity
  8
0
100
AcDbPolyline
 62
7
  6
CONTINUOUS
 90
20
 70
0
 10
11.6308482377
 20
12.3647825026
 10
11.6242537722
 20
12.4016983389
 10
11.616054963
 20
12.4456916288
 10
11.6077846339
 20
12.4878286541
 10
11.5994294114
 20
12.5279966849
 10
11.590926762
 20
12.5662789502
 10
11.5821371592
 20
12.6030035538
 10
11.5727961221
 20
12.638811563
 10
11.5624536004
 20
12.6746745563
 10
11.5503020856
 20
12.7121142539
 10
11.5349216599
 20
12.7532610527
 10
11.5140184719
 20
12.8004556913
 10
11.4840803543
 20
12.8557938062
 10
11.4418282507
 20
12.9179530431
 10
11.3857602466
 20
12.982019793
 10
11.3165945481
 20
13.0419480175
 10
11.2353953145
 20
13.0937134668
 10
11.1415977755
 20
13.1346908237
 10
11.0346106577
 20
13.1614693385
 10
10.9376923427
 20
13.1696621055
  0
LWPOLYLINE
  5
28B
100
AcDbEntity
  8
0
100
AcDbPolyline
 62
7
  6
CONTINUOUS
 90
29
 70
0
 10
11.7423989175
 20
10.5474218821
 10
11.7247023875
 20
10.6624884039
 10
11.7057594022
 20
10.7900496662
 10
11.6882119022
 20
10.9127722146
 10
11.6719943963
 20
11.0306288716
 10
11.6570438886
 20
11.1436004594
 10
11.6432997922
 20
11.2516754708
 10
11.6307038459
 20
11.3548497113
 10
11.6192001161
 20
11.4531257864
 10
11.6087352496
 20
11.5465212777
 10
11.5992576312
 20
11.6350727295
 10
11.5907178514
 20
11.7188181965
 10
11.5830681334
 20
11.7978006727
 10
11.5762616359
 20
11.8720747749
 10
11.5702535366
 20
11.9416947367
 10
11.5650009095
 20
12.0067130189
 10
11.5604626028
 20
12.0671783562
 10
11.5565994004
 20
12.1231363197
 10
11.5533727835
 20
12.1746416282
 10
11.550744856
 20
12.2217402841
 10
11.5486779324
 20
12.2644626265
 10
11.5471336804
 20
12.3028174006
 10
11.5460717451
 20
12.3367831013
 10
11.5454474162
 20
12.3662965703
 10
11.5452077379
 20
12.3912154523
 10
11.5452831718
 20
12.4112982653
 10
11.5455733863
 20
12.4261627829
 10
11.5459211517
 20
12.4352496738
 10
11.5460044128
 20
12.4367841498
  0
LINE
  5
28C
100
AcDbEntity
  8
0
100
AcDbLine
 62
7
  6
CONTINUOUS
 10
12.3626923427
 20
5.5016694759
 11
12.3626923427
 21
5.3686694759
  0
LINE
  5
28D
100
AcDbEntity
  8
0
100
AcDbLine
 62
7
  6
CONTINUOUS
 10
15.8803695657
 20
7.6131321803
 11
15.9624588227
 21
7.5556526637
  0
LINE
  5
28E
100
AcDbEntity
  8
0
100
AcDbLine
 62
7
  6
CONTINUOUS
 10
14.4831823866
 20
8.2069194759
 11
14.4244581905
 21
8.1878388279
  0
LINE
  5
28F
100
AcDbEntity
  8
0
100
AcDbLine
 62
7
  6
CONTINUOUS
 10
15.4781923427
 20
6.7212859147
 11
15.5523263369
 21
6.6153682874
  0
LINE
  5
290
100
AcDbEntity
  8
0
100
AcDbLine
 62
7
  6
CONTINUOUS
 10
14.3801923427
 20
7.5759194759
 11
14.4101923427
 21
7.4969194759
  0
LINE
  5
291
100
AcDbEntity
  8
0
100
AcDbLine
 62
9
  6
CONTINUOUS
 10
13.9129258627
 20
8.0061862881
 11
13.9129258627
 21
7.5556526637
  0
LINE
  5
292
100
AcDbEntity
  8
0
100
AcDbLine
 62
9
  6
CONTINUOUS
 10
13.9950151198
 20
7.6131321803
 11
13.9950151198
 21
7.9487067715
  0
LINE
  5
293
100
AcDbEntity
  8
0
100
AcDbLine
 62
7
  6
CONTINUOUS
 10
14.0201923427
 20
7.9699969054
 11
14.0201923427
 21
7.5918420464
  0
LINE
  5
294
100
AcDbEntity
  8
0
100
AcDbLine
 62
9
  6
CONTINUOUS
 10
14.0450555013
 20
7.5900021826
 11
14.0450555013
 21
7.9718367691
  0
LINE
  5
295
100
AcDbEntity
  8
0
100
AcDbLine
 62
7
  6
CONTINUOUS
 10
13.9950151198
 20
7.6131321803
 11
13.9129258627
 21
7.5556526637
  0
LINE
  5
296
100
AcDbEntity
  8
0
100
AcDbLine
 62
7
  6
CONTINUOUS
 10
14.4370391303
 20
8.0814194759
 11
14.4101923427
 21
8.0659194759
  0
LINE
  5
297
100
AcDbEntity
  8
0
100
AcDbLine
 62
7
  6
CONTINUOUS
 10
15.3081923427
 20
7.4459194759
 11
15.4651923427
 21
7.4969194759
  0
LINE
  5
298
100
AcDbEntity
  8
0
100
AcDbLine
 62
7
  6
CONTINUOUS
 10
15.450926495
 20
8.1878388279
 11
15.4651923427
 21
8.168203573
  0
LINE
  5
299
100
AcDbEntity
  8
0
100
AcDbLine
 62
7
  6
CONTINUOUS
 10
14.1796320909
 20
6.0556130193
 11
14.1796314393
 21
5.8056694759
  0
LINE
  5
29A
100
AcDbEntity
  8
0
100
AcDbLine
 62
7
  6
CONTINUOUS
 10
14.1966923427
 20
5.8056694759
 11
14.1966923427
 21
5.7436694759
  0
LINE
  5
29B
100
AcDbEntity
  8
0
100
AcDbLine
 62
9
  6
CONTINUOUS
 10
14.4065263329
 20
7.626300795
 11
14.4065263329
 21
7.9355467312
  0
LINE
  5
29C
100
AcDbEntity
  8
0
100
AcDbLine
 62
7
  6
CONTINUOUS
 10
14.4101923427
 20
8.168203573
 11
14.4101923427
 21
8.0969194759
  0
LINE
  5
29D
100
AcDbEntity
  8
0
100
AcDbLine
 62
9
  6
CONTINUOUS
 10
14.4286863666
 20
7.8766598431
 11
14.4286863666
 21
7.6851575611
  0
LINE
  5
29E
100
AcDbEntity
  8
0
100
AcDbLine
 62
7
  6
CONTINUOUS
 10
14.5586611396
 20
6.0556146946
 11
14.558661891
 21
5.8056694759
  0
LINE
  5
29F
100
AcDbEntity
  8
0
100
AcDbLine
 62
7
  6
CONTINUOUS
 10
14.4244581905
 20
8.1878388279
 11
14.4101923427
 21
8.168203573
  0
LINE
  5
2A0
100
AcDbEntity
  8
0
100
AcDbLine
 62
7
  6
CONTINUOUS
 10
15.4383455552
 20
8.0814194759
 11
15.4651923427
 21
8.0969194759
  0
LINE
  5
2A1
100
AcDbEntity
  8
0
100
AcDbLine
 62
7
  6
CONTINUOUS
 10
14.5941923427
 20
7.4459194759
 11
14.5941923427
 21
7.0869194759
  0
LINE
  5
2A2
100
AcDbEntity
  8
0
100
AcDbLine
 62
7
  6
CONTINUOUS
 10
14.6170314228
 20
8.2473785714
 11
14.6170314228
 21
8.2484006794
  0
LINE
  5
2A3
100
AcDbEntity
  8
0
100
AcDbLine
 62
9
  6
CONTINUOUS
 10
14.6220123368
 20
8.2490842846
 11
14.6220123368
 21
8.2480626281
  0
LINE
  5
2A4
100
AcDbEntity
  8
0
100
AcDbLine
 62
9
  6
CONTINUOUS
 10
14.6675475546
 20
8.2567799551
 11
14.6675475546
 21
8.255763465
  0
LINE
  5
2A5
100
AcDbEntity
  8
0
100
AcDbLine
 62
9
  6
CONTINUOUS
 10
14.6954104624
 20
8.2604389998
 11
14.6954104624
 21
8.261452384
  0
LINE
  5
2A6
100
AcDbEntity
  8
0
100
AcDbLine
 62
7
  6
CONTINUOUS
 10
14.7014104624
 20
8.2616245876
 11
14.7014104624
 21
8.2636815758
  0
LINE
  5
2A7
100
AcDbEntity
  8
0
100
AcDbLine
 62
7
  6
CONTINUOUS
 10
14.7376923427
 20
7.0869194759
 11
14.7376923427
 21
7.0556694759
  0
LINE
  5
2A8
100
AcDbEntity
  8
0
100
AcDbLine
 62
7
  6
CONTINUOUS
 10
14.7376923427
 20
8.2688775262
 11
14.7376923427
 21
8.2689677366
  0
LINE
  5
2A9
100
AcDbEntity
  8
0
100
AcDbLine
 62
7
  6
CONTINUOUS
 10
14.7376923427
 20
8.2671497153
 11
14.7376923427
 21
8.2681586747
  0
LINE
  5
2AA
100
AcDbEntity
  8
0
100
AcDbLine
 62
7
  6
CONTINUOUS
 10
14.7476923427
 20
8.2679411982
 11
14.7476923427
 21
8.2688194578
  0
LINE
  5
2AB
100
AcDbEntity
  8
0
100
AcDbLine
 62
7
  6
CONTINUOUS
 10
14.8486923427
 20
8.2779557987
 11
14.8486923427
 21
8.2770827298
  0
LINE
  5
2AC
100
AcDbEntity
  8
0
100
AcDbLine
 62
7
  6
CONTINUOUS
 10
14.8701923427
 20
8.280002256
 11
14.8701923427
 21
8.2790010173
  0
LINE
  5
2AD
100
AcDbEntity
  8
0
100
AcDbLine
 62
7
  6
CONTINUOUS
 10
14.9061923427
 20
8.280151937
 11
14.9061923427
 21
8.2811524322
  0
LINE
  5
2AE
100
AcDbEntity
  8
0
100
AcDbLine
 62
7
  6
CONTINUOUS
 10
14.9276923427
 20
8.2796103669
 11
14.9276923427
 21
8.2804820113
  0
LINE
  5
2AF
100
AcDbEntity
  8
0
100
AcDbLine
 62
7
  6
CONTINUOUS
 10
14.9763923427
 20
8.2814364836
 11
14.9763923427
 21
8.2804361718
  0
LINE
  5
2B0
100
AcDbEntity
  8
0
100
AcDbLine
 62
7
  6
CONTINUOUS
 10
14.4101923427
 20
8.0659194759
 11
14.3801923427
 21
7.9859194759
  0
LINE
  5
2B1
100
AcDbEntity
  8
0
100
AcDbLine
 62
7
  6
CONTINUOUS
 10
15.8803695657
 20
7.9487067715
 11
15.9624588227
 21
8.0061862881
  0
LWPOLYLINE
  5
2B2
100
AcDbEntity
  8
0
100
AcDbPolyline
 62
7
  6
CONTINUOUS
 90
19
 70
0
 10
10.9376923427
 20
13.1696621054
 10
10.8347203419
 20
13.1604645245
 10
10.7224715542
 20
13.1306808166
 10
10.6243965933
 20
13.0850654847
 10
10.5400070421
 20
13.0273391495
 10
10.4698342807
 20
12.9613093917
 10
10.4150867268
 20
12.892608797
 10
10.3763752816
 20
12.829680722
 10
10.3502015373
 20
12.7763308701
 10
10.3320600438
 20
12.7315668353
 10
10.3185763304
 20
12.6926645777
 10
10.3075754465
 20
12.6565874609
 10
10.2978386336
 20
12.6210169271
 10
10.2887368216
 20
12.5845232225
 10
10.2798873253
 20
12.5460321119
 10
10.2710426121
 20
12.5046779655
 10
10.2620256222
 20
12.4596798132
 10
10.2527153108
 20
12.4103670973
 10
10.2445368282
 20
12.3647846708
  0
LINE
  5
2B3
100
AcDbEntity
  8
0
100
AcDbLine
 62
7
  6
CONTINUOUS
 10
15.4651923427
 20
8.0659194759
 11
15.4951923427
 21
7.9859194759
  0
LINE
  5
2B4
100
AcDbEntity
  8
0
100
AcDbLine
 62
7
  6
CONTINUOUS
 10
15.0613923427
 20
8.2769777052
 11
15.0613923427
 21
8.2759745061
  0
LINE
  5
2B5
100
AcDbEntity
  8
0
100
AcDbLine
 62
7
  6
CONTINUOUS
 10
15.136001169
 20
8.2680063593
 11
15.136001169
 21
8.2690147566
  0
LINE
  5
2B6
100
AcDbEntity
  8
0
100
AcDbLine
 62
7
  6
CONTINUOUS
 10
15.1376923427
 20
7.0869194759
 11
15.1376923427
 21
7.0556694759
  0
LINE
  5
2B7
100
AcDbEntity
  8
0
100
AcDbLine
 62
9
  6
CONTINUOUS
 10
15.1434486591
 20
8.2676862207
 11
15.1434486591
 21
8.2666769034
  0
LINE
  5
2B8
100
AcDbEntity
  8
0
100
AcDbLine
 62
9
  6
CONTINUOUS
 10
15.2397233252
 20
8.2518863184
 11
15.2397233252
 21
8.2508665548
  0
LINE
  5
2B9
100
AcDbEntity
  8
0
100
AcDbLine
 62
7
  6
CONTINUOUS
 10
15.2456923427
 20
8.250003244
 11
15.2456923427
 21
8.2510234935
  0
LINE
  5
2BA
100
AcDbEntity
  8
0
100
AcDbLine
 62
7
  6
CONTINUOUS
 10
15.2811923427
 20
7.4459194759
 11
15.2811923427
 21
7.0869194759
  0
LINE
  5
2BB
100
AcDbEntity
  8
0
100
AcDbLine
 62
7
  6
CONTINUOUS
 10
15.3167216946
 20
6.0556146946
 11
15.3167227945
 21
5.8056694759
  0
LINE
  5
2BC
100
AcDbEntity
  8
0
100
AcDbLine
 62
9
  6
CONTINUOUS
 10
15.4466983189
 20
7.6850909585
 11
15.4466983189
 21
7.8766936309
  0
LINE
  5
2BD
100
AcDbEntity
  8
0
100
AcDbLine
 62
7
  6
CONTINUOUS
 10
15.4651923427
 20
8.168203573
 11
15.4651923427
 21
8.0969194759
  0
LINE
  5
2BE
100
AcDbEntity
  8
0
100
AcDbLine
 62
9
  6
CONTINUOUS
 10
15.4688583526
 20
7.9355336105
 11
15.4688583526
 21
7.6261084992
  0
LINE
  5
2BF
100
AcDbEntity
  8
0
100
AcDbLine
 62
7
  6
CONTINUOUS
 10
14.3971923427
 20
6.7212859147
 11
14.3230583485
 21
6.6153682874
  0
LINE
  5
2C0
100
AcDbEntity
  8
0
100
AcDbLine
 62
7
  6
CONTINUOUS
 10
15.6786923427
 20
5.8056694759
 11
15.6786923427
 21
5.7436694759
  0
LINE
  5
2C1
100
AcDbEntity
  8
0
100
AcDbLine
 62
7
  6
CONTINUOUS
 10
15.6957524105
 20
6.0556142346
 11
15.6957532462
 21
5.8056694759
  0
LINE
  5
2C2
100
AcDbEntity
  8
0
100
AcDbLine
 62
9
  6
CONTINUOUS
 10
15.8303291842
 20
7.5900021826
 11
15.8303291842
 21
7.9718367691
  0
LINE
  5
2C3
100
AcDbEntity
  8
0
100
AcDbLine
 62
7
  6
CONTINUOUS
 10
15.8551923427
 20
7.5918420464
 11
15.8551923427
 21
7.9699969054
  0
LINE
  5
2C4
100
AcDbEntity
  8
0
100
AcDbLine
 62
9
  6
CONTINUOUS
 10
15.8803695657
 20
7.9487067715
 11
15.8803695657
 21
7.6131321803
  0
LINE
  5
2C5
100
AcDbEntity
  8
0
100
AcDbLine
 62
7
  6
CONTINUOUS
 10
15.4951923427
 20
7.5759194759
 11
15.4651923427
 21
7.4969194759
  0
LINE
  5
2C6
100
AcDbEntity
  8
0
100
AcDbLine
 62
7
  6
CONTINUOUS
 10
14.2965289031
 20
6.1721694759
 11
14.179634882
 21
6.0556121806
  0
LINE
  5
2C7
100
AcDbEntity
  8
0
100
AcDbLine
 62
9
  6
CONTINUOUS
 10
15.9624588227
 20
7.5556526637
 11
15.9624588227
 21
8.0061862881
  0
ARC
  5
2C8
100
AcDbEntity
  8
0
100
AcDbCircle
 62
7
  6
CONTINUOUS
 10
6.9324716288
 20
0.9645679218
 40
7.315440487
100
AcDbArc
 50
89.5695653552
 51
89.9591104732
  0
ARC
  5
2C9
100
AcDbEntity
  8
0
100
AcDbCircle
 62
7
  6
CONTINUOUS
 10
6.9428005587
 20
1.0080587694
 40
7.2719495707
100
AcDbArc
 50
90.0402476992
 51
90.429126646
  0
ARC
  5
2CA
100
AcDbEntity
  8
0
100
AcDbCircle
 62
7
  6
CONTINUOUS
 10
6.9210979889
 20
3.8984532779
 40
4.3829734611
100
AcDbArc
 50
89.1414680617
 51
89.6476968562
  0
ARC
  5
2CB
100
AcDbEntity
  8
0
100
AcDbCircle
 62
7
  6
CONTINUOUS
 10
6.4901674638
 20
6.4984050727
 40
0.2039751211
100
AcDbArc
 50
145.0110095297
 51
213.0478355063
  0
ARC
  5
2CC
100
AcDbEntity
  8
0
100
AcDbCircle
 62
7
  6
CONTINUOUS
 10
5.9446922968
 20
5.3688005361
 40
0.187
100
AcDbArc
 50
92.1452489224
 51
180.0401561489
  0
ARC
  5
2CD
100
AcDbEntity
  8
0
100
AcDbCircle
 62
7
  6
CONTINUOUS
 10
6.1246896689
 20
5.5566694759
 40
0.187
100
AcDbArc
 50
90.0
 51
180.3063960032
  0
ARC
  5
2CE
100
AcDbEntity
  8
0
100
AcDbCircle
 62
7
  6
CONTINUOUS
 10
6.1754178091
 20
6.2936304513
 40
0.1715245336
100
AcDbArc
 50
314.9173576842
 51
33.0478355064
  0
ARC
  5
2CF
100
AcDbEntity
  8
0
100
AcDbCircle
 62
7
  6
CONTINUOUS
 10
6.2093935619
 20
8.0190012914
 40
1.3600000001
100
AcDbArc
 50
337.4255442892
 51
340.9862257998
  0
ARC
  5
2D0
100
AcDbEntity
  8
0
100
AcDbCircle
 62
7
  6
CONTINUOUS
 10
6.207413052
 20
7.5486272418
 40
1.3599999998
100
AcDbArc
 50
18.7559867834
 51
22.3561036558
  0
ARC
  5
2D1
100
AcDbEntity
  8
0
100
AcDbCircle
 62
7
  6
CONTINUOUS
 10
5.8851534407
 20
7.0796728044
 40
0.625
100
AcDbArc
 50
325.0110095299
 51
355.1903004544
  0
ARC
  5
2D2
100
AcDbEntity
  8
0
100
AcDbCircle
 62
7
  6
CONTINUOUS
 10
5.7551923427
 20
7.7809194759
 40
0.275
100
AcDbArc
 50
54.9999999999
 51
305.0000000001
  0
ARC
  5
2D3
100
AcDbEntity
  8
0
100
AcDbCircle
 62
7
  6
CONTINUOUS
 10
6.2278163838
 20
7.4194194759
 40
0.25
100
AcDbArc
 50
47.6935827955
 51
136.9739483152
  0
ARC
  5
2D4
100
AcDbEntity
  8
0
100
AcDbCircle
 62
7
  6
CONTINUOUS
 10
6.2278163838
 20
8.1424194759
 40
0.25
100
AcDbArc
 50
223.0260516848
 51
312.3002423859
  0
ARC
  5
2D5
100
AcDbEntity
  8
0
100
AcDbCircle
 62
7
  6
CONTINUOUS
 10
6.5388434542
 20
7.0246694759
 40
0.031
100
AcDbArc
 50
90.0
 51
175.1903004544
  0
ARC
  5
2D6
100
AcDbEntity
  8
0
100
AcDbCircle
 62
7
  6
CONTINUOUS
 10
6.5501923427
 20
8.2017192442
 40
0.03
100
AcDbArc
 50
104.7629977427
 51
169.9869811551
  0
ARC
  5
2D7
100
AcDbEntity
  8
0
100
AcDbCircle
 62
7
  6
CONTINUOUS
 10
6.0041923427
 20
7.6000257476
 40
0.016
100
AcDbArc
 50
0.0
 51
125.000000001
  0
ARC
  5
2D8
100
AcDbEntity
  8
0
100
AcDbCircle
 62
7
  6
CONTINUOUS
 10
6.0041923427
 20
7.9618132042
 40
0.016
100
AcDbArc
 50
234.999999999
 51
360.0
  0
ARC
  5
2D9
100
AcDbEntity
  8
0
100
AcDbCircle
 62
7
  6
CONTINUOUS
 10
6.0333588048
 20
7.9609194759
 40
0.016
100
AcDbArc
 50
43.0260516836
 51
145.3765488995
  0
ARC
  5
2DA
100
AcDbEntity
  8
0
100
AcDbCircle
 62
7
  6
CONTINUOUS
 10
6.0333588048
 20
7.6009194759
 40
0.016
100
AcDbArc
 50
214.6234511004
 51
316.9739483164
  0
ARC
  5
2DB
100
AcDbEntity
  8
0
100
AcDbCircle
 62
7
  6
CONTINUOUS
 10
6.9380016355
 20
6.0520487609
 40
2.2283203001
100
AcDbArc
 50
90.007952703
 51
90.3134977359
  0
ARC
  5
2DC
100
AcDbEntity
  8
0
100
AcDbCircle
 62
7
  6
CONTINUOUS
 10
6.9374644581
 20
6.0870691901
 40
2.1943002164
100
AcDbArc
 50
89.7236484174
 51
89.9940496621
  0
ARC
  5
2DD
100
AcDbEntity
  8
0
100
AcDbCircle
 62
7
  6
CONTINUOUS
 10
6.9375914255
 20
6.1268270887
 40
2.1535419532
100
AcDbArc
 50
89.682652428
 51
89.9973150592
  0
ARC
  5
2DE
100
AcDbEntity
  8
0
100
AcDbCircle
 62
7
  6
CONTINUOUS
 10
6.9377676316
 20
6.1489988262
 40
2.1323705698
100
AcDbArc
 50
90.0020229757
 51
90.2803138769
  0
ARC
  5
2DF
100
AcDbEntity
  8
0
100
AcDbCircle
 62
7
  6
CONTINUOUS
 10
6.9583303889
 20
6.1914580387
 40
2.0896702103
100
AcDbArc
 50
89.0009602561
 51
89.2201770345
  0
ARC
  5
2E0
100
AcDbEntity
  8
0
100
AcDbCircle
 62
7
  6
CONTINUOUS
 10
6.9376921441
 20
6.7312446941
 40
1.5506747895
100
AcDbArc
 50
75.2370087513
 51
86.8769336445
  0
ARC
  5
2E1
100
AcDbEntity
  8
0
100
AcDbCircle
 62
7
  6
CONTINUOUS
 10
6.9376923427
 20
6.7312460839
 40
1.550673392
100
AcDbArc
 50
88.0020743187
 51
90.0
  0
ARC
  5
2E2
100
AcDbEntity
  8
0
100
AcDbCircle
 62
7
  6
CONTINUOUS
 10
6.9376923427
 20
6.7312460839
 40
1.550673392
100
AcDbArc
 50
93.1230469238
 51
104.7629977426
  0
ARC
  5
2E3
100
AcDbEntity
  8
0
100
AcDbCircle
 62
7
  6
CONTINUOUS
 10
6.9376923427
 20
6.7312460839
 40
1.5445206275
100
AcDbArc
 50
92.2634542576
 51
93.1547671566
  0
ARC
  5
2E4
100
AcDbEntity
  8
0
100
AcDbCircle
 62
7
  6
CONTINUOUS
 10
6.9376923427
 20
6.7312460839
 40
1.5435166413
100
AcDbArc
 50
92.264927297
 51
93.156821265
  0
ARC
  5
2E5
100
AcDbEntity
  8
0
100
AcDbCircle
 62
7
  6
CONTINUOUS
 10
6.9376923427
 20
6.7312460839
 40
1.5427558844
100
AcDbArc
 50
87.6559010444
 51
91.0971301576
  0
ARC
  5
2E6
100
AcDbEntity
  8
0
100
AcDbCircle
 62
7
  6
CONTINUOUS
 10
6.9376923427
 20
6.7312460839
 40
1.541750749
100
AcDbArc
 50
87.6543719687
 51
91.0978455127
  0
ARC
  5
2E7
100
AcDbEntity
  8
0
100
AcDbCircle
 62
7
  6
CONTINUOUS
 10
6.9376923427
 20
6.7312460839
 40
1.5386785625
100
AcDbArc
 50
87.649685969
 51
91.1000377836
  0
ARC
  5
2E8
100
AcDbEntity
  8
0
100
AcDbCircle
 62
7
  6
CONTINUOUS
 10
6.9376923427
 20
6.7312460839
 40
1.5362509459
100
AcDbArc
 50
92.2756448885
 51
93.1717666779
  0
ARC
  5
2E9
100
AcDbEntity
  8
0
100
AcDbCircle
 62
7
  6
CONTINUOUS
 10
7.3852172217
 20
6.4984050727
 40
0.2039751211
100
AcDbArc
 50
326.9521644937
 51
34.9889904703
  0
ARC
  5
2EA
100
AcDbEntity
  8
0
100
AcDbCircle
 62
7
  6
CONTINUOUS
 10
7.7506950166
 20
5.5566694759
 40
0.187
100
AcDbArc
 50
359.6936039968
 51
90.0
  0
ARC
  5
2EB
100
AcDbEntity
  8
0
100
AcDbCircle
 62
7
  6
CONTINUOUS
 10
7.6999668764
 20
6.2936304513
 40
0.1715245336
100
AcDbArc
 50
146.9521644936
 51
225.0826423158
  0
ARC
  5
2EC
100
AcDbEntity
  8
0
100
AcDbCircle
 62
7
  6
CONTINUOUS
 10
7.6659911236
 20
8.0190012914
 40
1.3600000001
100
AcDbArc
 50
199.0137742002
 51
202.5744557108
  0
ARC
  5
2ED
100
AcDbEntity
  8
0
100
AcDbCircle
 62
7
  6
CONTINUOUS
 10
7.6679716335
 20
7.5486272418
 40
1.3599999998
100
AcDbArc
 50
157.6438963442
 51
161.2440132166
  0
ARC
  5
2EE
100
AcDbEntity
  8
0
100
AcDbCircle
 62
7
  6
CONTINUOUS
 10
6.9148761049
 20
6.9603926744
 40
1.3204094723
100
AcDbArc
 50
85.3599131919
 51
86.1312940598
  0
ARC
  5
2EF
100
AcDbEntity
  8
0
100
AcDbCircle
 62
7
  6
CONTINUOUS
 10
6.9148751233
 20
6.9602303953
 40
1.3195710638
100
AcDbArc
 50
85.3569158188
 51
86.1317143217
  0
ARC
  5
2F0
100
AcDbEntity
  8
0
100
AcDbCircle
 62
7
  6
CONTINUOUS
 10
6.8363077643
 20
7.4802212264
 40
0.7956951529
100
AcDbArc
 50
78.3242808727
 51
78.7388288959
  0
CIRCLE
  5
2F1
100
AcDbEntity
  8
0
100
AcDbCircle
 62
7
  6
CONTINUOUS
 10
6.9376923427
 20
7.7809194759
 40
0.275
  0
ARC
  5
2F2
100
AcDbEntity
  8
0
100
AcDbCircle
 62
7
  6
CONTINUOUS
 10
7.6475683017
 20
8.1424194759
 40
0.25
100
AcDbArc
 50
227.6935829148
 51
316.9739483152
  0
ARC
  5
2F3
100
AcDbEntity
  8
0
100
AcDbCircle
 62
7
  6
CONTINUOUS
 10
7.6475683017
 20
7.4194194759
 40
0.25
100
AcDbArc
 50
43.0260516848
 51
132.3002422131
  0
ARC
  5
2F4
100
AcDbEntity
  8
0
100
AcDbCircle
 62
7
  6
CONTINUOUS
 10
7.3365412312
 20
7.0246694759
 40
0.031
100
AcDbArc
 50
4.8096995456
 51
90.0
  0
ARC
  5
2F5
100
AcDbEntity
  8
0
100
AcDbCircle
 62
7
  6
CONTINUOUS
 10
7.3251923427
 20
8.2017192442
 40
0.03
100
AcDbArc
 50
10.0130188449
 51
75.2370022573
  0
ARC
  5
2F6
100
AcDbEntity
  8
0
100
AcDbCircle
 62
7
  6
CONTINUOUS
 10
7.9902312448
 20
7.0796728044
 40
0.625
100
AcDbArc
 50
184.8096995456
 51
214.9889904701
  0
ARC
  5
2F7
100
AcDbEntity
  8
0
100
AcDbCircle
 62
7
  6
CONTINUOUS
 10
8.1201923427
 20
7.7809194759
 40
0.275
100
AcDbArc
 50
234.9999999999
 51
125.0000000001
  0
ARC
  5
2F8
100
AcDbEntity
  8
0
100
AcDbCircle
 62
7
  6
CONTINUOUS
 10
9.7686923427
 20
5.5016694759
 40
0.256
100
AcDbArc
 50
119.0144340225
 51
180.0
  0
ARC
  5
2F9
100
AcDbEntity
  8
0
100
AcDbCircle
 62
7
  6
CONTINUOUS
 10
7.9306923887
 20
5.3688005361
 40
0.187
100
AcDbArc
 50
359.9598438511
 51
87.8547510776
  0
ARC
  5
2FA
100
AcDbEntity
  8
0
100
AcDbCircle
 62
7
  6
CONTINUOUS
 10
9.8326923427
 20
5.7956694759
 40
0.148
100
AcDbArc
 50
97.6788869771
 51
180.0
  0
ARC
  5
2FB
100
AcDbEntity
  8
0
100
AcDbCircle
 62
7
  6
CONTINUOUS
 10
9.6066923427
 20
5.7937516561
 40
0.078
100
AcDbArc
 50
299.0144340222
 51
360.0
  0
ARC
  5
2FC
100
AcDbEntity
  8
0
100
AcDbCircle
 62
7
  6
CONTINUOUS
 10
7.8711923427
 20
7.9618132042
 40
0.016
100
AcDbArc
 50
180.0
 51
305.000000001
  0
ARC
  5
2FD
100
AcDbEntity
  8
0
100
AcDbCircle
 62
7
  6
CONTINUOUS
 10
7.8711923427
 20
7.6000257476
 40
0.016
100
AcDbArc
 50
54.999999999
 51
180.0
  0
ARC
  5
2FE
100
AcDbEntity
  8
0
100
AcDbCircle
 62
7
  6
CONTINUOUS
 10
7.8420258806
 20
7.6009194759
 40
0.016
100
AcDbArc
 50
223.0260516836
 51
325.3765488995
  0
ARC
  5
2FF
100
AcDbEntity
  8
0
100
AcDbCircle
 62
7
  6
CONTINUOUS
 10
7.8420258806
 20
7.9609194759
 40
0.016
100
AcDbArc
 50
34.6234511005
 51
136.9739483164
  0
ARC
  5
300
100
AcDbEntity
  8
0
100
AcDbCircle
 62
7
  6
CONTINUOUS
 10
6.8451267999
 20
13.9792230938
 40
5.6995782204
100
AcDbArc
 50
270.2100193383
 51
270.3480389988
  0
ARC
  5
301
100
AcDbEntity
  8
0
100
AcDbCircle
 62
7
  6
CONTINUOUS
 10
10.3323054295
 20
10.3614536294
 40
0.2624107458
100
AcDbArc
 50
125.0216669149
 51
130.1655458547
  0
ARC
  5
302
100
AcDbEntity
  8
0
100
AcDbCircle
 62
7
  6
CONTINUOUS
 10
10.2687995003
 20
10.4062622253
 40
0.2048550212
100
AcDbArc
 50
117.0584836228
 51
118.3226317247
  0
ARC
  5
303
100
AcDbEntity
  8
0
100
AcDbCircle
 62
7
  6
CONTINUOUS
 10
12.1066923427
 20
5.5016694759
 40
0.256
100
AcDbArc
 50
0.0
 51
60.9855659775
  0
ARC
  5
304
100
AcDbEntity
  8
0
100
AcDbCircle
 62
7
  6
CONTINUOUS
 10
13.9446922968
 20
5.3688005361
 40
0.187
100
AcDbArc
 50
92.1452489224
 51
180.0401561489
  0
ARC
  5
305
100
AcDbEntity
  8
0
100
AcDbCircle
 62
7
  6
CONTINUOUS
 10
12.0426923427
 20
5.7956694759
 40
0.148
100
AcDbArc
 50
0.0
 51
82.3219387281
  0
ARC
  5
306
100
AcDbEntity
  8
0
100
AcDbCircle
 62
7
  6
CONTINUOUS
 10
12.2686923427
 20
5.7937516561
 40
0.078
100
AcDbArc
 50
180.0
 51
240.9855659778
  0
ARC
  5
307
100
AcDbEntity
  8
0
100
AcDbCircle
 62
7
  6
CONTINUOUS
 10
13.8851534407
 20
7.0796728044
 40
0.625
100
AcDbArc
 50
325.0110095299
 51
355.1903004544
  0
ARC
  5
308
100
AcDbEntity
  8
0
100
AcDbCircle
 62
7
  6
CONTINUOUS
 10
13.7551923427
 20
7.7809194759
 40
0.275
100
AcDbArc
 50
55.0
 51
305.0
  0
ARC
  5
309
100
AcDbEntity
  8
0
100
AcDbCircle
 62
7
  6
CONTINUOUS
 10
14.0041923427
 20
7.6000257476
 40
0.016
100
AcDbArc
 50
0.0
 51
125.0
  0
ARC
  5
30A
100
AcDbEntity
  8
0
100
AcDbCircle
 62
7
  6
CONTINUOUS
 10
14.0041923427
 20
7.9618132042
 40
0.016
100
AcDbArc
 50
235.0
 51
360.0
  0
ARC
  5
30B
100
AcDbEntity
  8
0
100
AcDbCircle
 62
7
  6
CONTINUOUS
 10
14.0333588048
 20
7.9609194759
 40
0.016
100
AcDbArc
 50
43.0260516848
 51
145.3765488982
  0
ARC
  5
30C
100
AcDbEntity
  8
0
100
AcDbCircle
 62
7
  6
CONTINUOUS
 10
14.0333588048
 20
7.6009194759
 40
0.016
100
AcDbArc
 50
214.6234511018
 51
316.9739483152
  0
ARC
  5
30D
100
AcDbEntity
  8
0
100
AcDbCircle
 62
7
  6
CONTINUOUS
 10
14.4134954924
 20
3.6482481873
 40
4.6756412254
100
AcDbArc
 50
80.0664458544
 51
80.8065519341
  0
ARC
  5
30E
100
AcDbEntity
  8
0
100
AcDbCircle
 62
7
  6
CONTINUOUS
 10
14.1246896689
 20
5.5566694759
 40
0.187
100
AcDbArc
 50
90.0
 51
180.3063960032
  0
ARC
  5
30F
100
AcDbEntity
  8
0
100
AcDbCircle
 62
7
  6
CONTINUOUS
 10
15.7506950166
 20
5.5566694759
 40
0.187
100
AcDbArc
 50
359.6936039968
 51
90.0
  0
ARC
  5
310
100
AcDbEntity
  8
0
100
AcDbCircle
 62
7
  6
CONTINUOUS
 10
15.9306923887
 20
5.3688005361
 40
0.187
100
AcDbArc
 50
359.9598438511
 51
87.8547510776
  0
ARC
  5
311
100
AcDbEntity
  8
0
100
AcDbCircle
 62
7
  6
CONTINUOUS
 10
14.9376923427
 20
6.7312494604
 40
1.5506700155
100
AcDbArc
 50
75.2369687319
 51
76.9554333656
  0
ARC
  5
312
100
AcDbEntity
  8
0
100
AcDbCircle
 62
7
  6
CONTINUOUS
 10
14.9376923427
 20
6.7312494604
 40
1.5506700155
100
AcDbArc
 50
83.2958321948
 51
84.0776117821
  0
ARC
  5
313
100
AcDbEntity
  8
0
100
AcDbCircle
 62
7
  6
CONTINUOUS
 10
14.9376923427
 20
6.7312494604
 40
1.5506700155
100
AcDbArc
 50
78.7661748814
 51
82.2329380216
  0
ARC
  5
314
100
AcDbEntity
  8
0
100
AcDbCircle
 62
7
  6
CONTINUOUS
 10
14.9376923427
 20
6.7312494604
 40
1.5506700155
100
AcDbArc
 50
89.8891527894
 51
91.163975047
  0
ARC
  5
315
100
AcDbEntity
  8
0
100
AcDbCircle
 62
7
  6
CONTINUOUS
 10
14.9376923427
 20
6.7312494604
 40
1.5506700155
100
AcDbArc
 50
92.494848989
 51
97.410452506
  0
ARC
  5
316
100
AcDbEntity
  8
0
100
AcDbCircle
 62
7
  6
CONTINUOUS
 10
14.9376923427
 20
6.7312494604
 40
1.5506700155
100
AcDbArc
 50
103.3879603199
 51
104.7630312681
  0
ARC
  5
317
100
AcDbEntity
  8
0
100
AcDbCircle
 62
7
  6
CONTINUOUS
 10
14.9376923427
 20
6.7312494604
 40
1.5506700155
100
AcDbArc
 50
98.7645317507
 51
101.7554117609
  0
ARC
  5
318
100
AcDbEntity
  8
0
100
AcDbCircle
 62
7
  6
CONTINUOUS
 10
14.9376923427
 20
6.7312494604
 40
1.5496700155
100
AcDbArc
 50
77.8938778721
 51
78.5360971636
  0
ARC
  5
319
100
AcDbEntity
  8
0
100
AcDbCircle
 62
7
  6
CONTINUOUS
 10
14.9376923427
 20
6.7312494604
 40
1.5496700155
100
AcDbArc
 50
84.7862994819
 51
85.4215825475
  0
ARC
  5
31A
100
AcDbEntity
  8
0
100
AcDbCircle
 62
7
  6
CONTINUOUS
 10
14.9376923427
 20
6.7312494604
 40
1.5492648246
100
AcDbArc
 50
98.997134317
 51
100.0419785903
  0
ARC
  5
31B
100
AcDbEntity
  8
0
100
AcDbCircle
 62
7
  6
CONTINUOUS
 10
14.9376923427
 20
6.7312494604
 40
1.5483931984
100
AcDbArc
 50
97.0484061868
 51
100.2113995119
  0
ARC
  5
31C
100
AcDbEntity
  8
0
100
AcDbCircle
 62
7
  6
CONTINUOUS
 10
14.9376923427
 20
6.7312494604
 40
1.5483931984
100
AcDbArc
 50
90.3700363569
 51
93.2951168004
  0
ARC
  5
31D
100
AcDbEntity
  8
0
100
AcDbCircle
 62
7
  6
CONTINUOUS
 10
14.9376923427
 20
6.7312494604
 40
1.5483931984
100
AcDbArc
 50
82.0184844139
 51
82.6905233299
  0
ARC
  5
31E
100
AcDbEntity
  8
0
100
AcDbCircle
 62
7
  6
CONTINUOUS
 10
14.958493084
 20
6.845421079
 40
1.4346177467
100
AcDbArc
 50
82.8924652469
 51
83.1280928928
  0
ARC
  5
31F
100
AcDbEntity
  8
0
100
AcDbCircle
 62
7
  6
CONTINUOUS
 10
14.9585341308
 20
6.8457629942
 40
1.4342733766
100
AcDbArc
 50
83.1280865713
 51
83.5886925395
  0
ARC
  5
320
100
AcDbEntity
  8
0
100
AcDbCircle
 62
7
  6
CONTINUOUS
 10
14.9585061291
 20
6.8454533716
 40
1.4335834443
100
AcDbArc
 50
82.8878362202
 51
83.1200551035
  0
ARC
  5
321
100
AcDbEntity
  8
0
100
AcDbCircle
 62
7
  6
CONTINUOUS
 10
14.4901674638
 20
6.4984050727
 40
0.2039751211
100
AcDbArc
 50
145.0110095297
 51
213.0478355063
  0
ARC
  5
322
100
AcDbEntity
  8
0
100
AcDbCircle
 62
7
  6
CONTINUOUS
 10
14.1754178091
 20
6.2936304513
 40
0.1715245336
100
AcDbArc
 50
314.9173576842
 51
33.0478355064
  0
ARC
  5
323
100
AcDbEntity
  8
0
100
AcDbCircle
 62
7
  6
CONTINUOUS
 10
14.5388434542
 20
7.0246694759
 40
0.031
100
AcDbArc
 50
90.0
 51
175.1903004544
  0
CIRCLE
  5
324
100
AcDbEntity
  8
0
100
AcDbCircle
 62
7
  6
CONTINUOUS
 10
14.9376923427
 20
7.7809194759
 40
0.275
  0
ARC
  5
325
100
AcDbEntity
  8
0
100
AcDbCircle
 62
7
  6
CONTINUOUS
 10
14.2278163838
 20
7.4194194759
 40
0.25
100
AcDbArc
 50
47.6927168052
 51
136.9739483152
  0
ARC
  5
326
100
AcDbEntity
  8
0
100
AcDbCircle
 62
7
  6
CONTINUOUS
 10
14.2278163838
 20
8.1424194759
 40
0.25
100
AcDbArc
 50
223.0260516848
 51
312.3080201008
  0
ARC
  5
327
100
AcDbEntity
  8
0
100
AcDbCircle
 62
7
  6
CONTINUOUS
 10
15.0950233322
 20
8.143136145
 40
0.1301177538
100
AcDbArc
 50
72.2496519725
 51
74.7316867494
  0
ARC
  5
328
100
AcDbEntity
  8
0
100
AcDbCircle
 62
7
  6
CONTINUOUS
 10
15.0961058242
 20
8.1471555621
 40
0.1259551471
100
AcDbArc
 50
74.7252327383
 51
77.2262339695
  0
ARC
  5
329
100
AcDbEntity
  8
0
100
AcDbCircle
 62
7
  6
CONTINUOUS
 10
15.0968308846
 20
8.150394379
 40
0.1226361767
100
AcDbArc
 50
77.2220323283
 51
79.7314156435
  0
ARC
  5
32A
100
AcDbEntity
  8
0
100
AcDbCircle
 62
7
  6
CONTINUOUS
 10
14.5501923427
 20
8.2017191289
 40
0.03
100
AcDbArc
 50
104.7630312683
 51
169.8874063134
  0
ARC
  5
32B
100
AcDbEntity
  8
0
100
AcDbCircle
 62
7
  6
CONTINUOUS
 10
15.9902312448
 20
7.0796728044
 40
0.625
100
AcDbArc
 50
184.8096995456
 51
214.9889904701
  0
ARC
  5
32C
100
AcDbEntity
  8
0
100
AcDbCircle
 62
7
  6
CONTINUOUS
 10
15.3852172217
 20
6.4984050727
 40
0.2039751211
100
AcDbArc
 50
326.9521644937
 51
34.9889904703
  0
ARC
  5
32D
100
AcDbEntity
  8
0
100
AcDbCircle
 62
7
  6
CONTINUOUS
 10
15.6999668764
 20
6.2936304513
 40
0.1715245336
100
AcDbArc
 50
146.9521644936
 51
225.0826423158
  0
ARC
  5
32E
100
AcDbEntity
  8
0
100
AcDbCircle
 62
7
  6
CONTINUOUS
 10
15.3365412312
 20
7.0246694759
 40
0.031
100
AcDbArc
 50
4.8096995456
 51
90.0
  0
ARC
  5
32F
100
AcDbEntity
  8
0
100
AcDbCircle
 62
7
  6
CONTINUOUS
 10
16.1201923427
 20
7.7809194759
 40
0.275
100
AcDbArc
 50
235.0
 51
125.0
  0
ARC
  5
330
100
AcDbEntity
  8
0
100
AcDbCircle
 62
7
  6
CONTINUOUS
 10
15.6475683017
 20
7.4194194759
 40
0.25
100
AcDbArc
 50
43.0260516848
 51
132.3011640072
  0
ARC
  5
331
100
AcDbEntity
  8
0
100
AcDbCircle
 62
7
  6
CONTINUOUS
 10
15.6475683017
 20
8.1424194759
 40
0.25
100
AcDbArc
 50
227.6931024471
 51
316.9739483152
  0
ARC
  5
332
100
AcDbEntity
  8
0
100
AcDbCircle
 62
7
  6
CONTINUOUS
 10
15.3251923427
 20
8.2017191289
 40
0.03
100
AcDbArc
 50
10.1125936866
 51
75.2369687317
  0
ARC
  5
333
100
AcDbEntity
  8
0
100
AcDbCircle
 62
7
  6
CONTINUOUS
 10
15.8711923427
 20
7.6000257476
 40
0.016
100
AcDbArc
 50
55.0
 51
180.0
  0
ARC
  5
334
100
AcDbEntity
  8
0
100
AcDbCircle
 62
7
  6
CONTINUOUS
 10
15.8711923427
 20
7.9618132042
 40
0.016
100
AcDbArc
 50
180.0
 51
305.0
  0
ARC
  5
335
100
AcDbEntity
  8
0
100
AcDbCircle
 62
7
  6
CONTINUOUS
 10
15.8420258806
 20
7.9609194759
 40
0.016
100
AcDbArc
 50
34.6234511018
 51
136.9739483152
  0
ARC
  5
336
100
AcDbEntity
  8
0
100
AcDbCircle
 62
7
  6
CONTINUOUS
 10
15.8420258806
 20
7.6009194759
 40
0.016
100
AcDbArc
 50
223.0260516848
 51
325.3765488982
  0
ARC
  5
337
100
AcDbEntity
  8
0
100
AcDbCircle
 62
7
  6
CONTINUOUS
 10
16.4098525609
 20
15.6676235092
 40
7.5075579994
100
AcDbArc
 50
260.4711976793
 51
260.8650100881
  0
ARC
  5
338
100
AcDbEntity
  8
0
100
AcDbCircle
 62
7
  6
CONTINUOUS
 10
16.0904831922
 20
13.6904444849
 40
5.5057567064
100
AcDbArc
 50
260.7858683646
 51
260.9043195811
  0
ARC
  5
339
100
AcDbEntity
  8
0
100
AcDbCircle
 62
7
  6
CONTINUOUS
 10
15.9418505489
 20
12.8782930677
 40
4.6792386884
100
AcDbArc
 50
260.2962857727
 51
260.4686208075
  0
ARC
  5
33A
100
AcDbEntity
  8
0
100
AcDbCircle
 62
7
  6
CONTINUOUS
 10
13.9039369824
 20
12.5673795329
 40
4.3777126807
100
AcDbArc
 50
279.8471860387
 51
279.9850480845
  0
ARC
  5
33B
100
AcDbEntity
  8
0
100
AcDbCircle
 62
7
  6
CONTINUOUS
 10
15.6793045348
 20
11.1238022183
 40
2.9053832616
100
AcDbArc
 50
260.8630521529
 51
261.1269373497
  0
ARC
  5
33C
100
AcDbEntity
  8
0
100
AcDbCircle
 62
7
  6
CONTINUOUS
 10
15.525190231
 20
10.4291282429
 40
2.1948936746
100
AcDbArc
 50
259.7865554323
 51
259.9840349402
  0
ARC
  5
33D
100
AcDbEntity
  8
0
100
AcDbCircle
 62
7
  6
CONTINUOUS
 10
15.5000646269
 20
10.2934367082
 40
2.0569005926
100
AcDbArc
 50
260.0158695873
 51
260.2901318825
  0
ARC
  5
33E
100
AcDbEntity
  8
0
100
AcDbCircle
 62
7
  6
CONTINUOUS
 10
15.0780899821
 20
10.2806359152
 40
2.0034594962
100
AcDbArc
 50
266.3647364241
 51
266.9399447457
  0
ARC
  5
33F
100
AcDbEntity
  8
0
100
AcDbCircle
 62
7
  6
CONTINUOUS
 10
15.1649263926
 20
10.1430732522
 40
1.8706693886
100
AcDbArc
 50
267.0918249207
 51
267.6912247064
  0
ARC
  5
340
100
AcDbEntity
  8
0
100
AcDbCircle
 62
7
  6
CONTINUOUS
 10
15.4254131596
 20
9.8622967518
 40
1.6203415002
100
AcDbArc
 50
259.9786298932
 51
260.2763317791
  0
ARC
  5
341
100
AcDbEntity
  8
0
100
AcDbCircle
 62
7
  6
CONTINUOUS
 10
15.0167940565
 20
9.3206437474
 40
1.0415125256
100
AcDbArc
 50
265.90450061
 51
266.3814887076
  0
ARC
  5
342
100
AcDbEntity
  8
0
100
AcDbCircle
 62
7
  6
CONTINUOUS
 10
14.4773708931
 20
9.2619604492
 40
1.0231516368
100
AcDbArc
 50
277.9711089432
 51
278.1270449621
  0
ARC
  5
343
100
AcDbEntity
  8
0
100
AcDbCircle
 62
7
  6
CONTINUOUS
 10
14.9333542698
 20
9.2244635766
 40
0.9439985577
100
AcDbArc
 50
269.131111549
 51
269.656348554
  0
ARC
  5
344
100
AcDbEntity
  8
0
100
AcDbCircle
 62
7
  6
CONTINUOUS
 10
14.7853072952
 20
9.1864597764
 40
0.9107124258
100
AcDbArc
 50
273.9909789839
 51
274.4844195381
  0
ARC
  5
345
100
AcDbEntity
  8
0
100
AcDbCircle
 62
7
  6
CONTINUOUS
 10
15.1250639912
 20
9.1794954635
 40
0.9062685124
100
AcDbArc
 50
267.7552352702
 51
268.1528518874
  0
ARC
  5
346
100
AcDbEntity
  8
0
100
AcDbCircle
 62
7
  6
CONTINUOUS
 10
15.2917711954
 20
9.1267207859
 40
0.872728363
100
AcDbArc
 50
259.7183985436
 51
259.8503535306
  0
ARC
  5
347
100
AcDbEntity
  8
0
100
AcDbCircle
 62
7
  6
CONTINUOUS
 10
11.5748784011
 20
10.3945673288
 40
0.2164965898
100
AcDbArc
 50
37.8464562183
 51
42.4142006689
  0
ARC
  5
348
100
AcDbEntity
  8
0
100
AcDbCircle
 62
7
  6
CONTINUOUS
 10
11.6039626788
 20
10.4012387144
 40
0.2105216682
100
AcDbArc
 50
61.925161588
 51
62.9487282575
  0
SPLINE
  5
349
100
AcDbEntity
  8
0
100
AcDbSpline
 62
7
  6
CONTINUOUS
 70
0
 71
3
 72
13
 73
9
 74
0
 42
0.0000001
 43
0.0000001
 44
0.0000000001
 40
0.0
 40
0.0
 40
0.0
 40
0.0
 40
0.0839262552
 40
0.1833454238
 40
0.2966370451
 40
0.4219537797
 40
0.7004745044
 40
1.0
 40
1.0
 40
1.0
 40
1.0
 10
6.8766923427
 20
8.2662854868
 30
0.0
 10
6.8775448844
 20
8.2665300357
 30
0.0
 10
6.87942917
 20
8.2669879989
 30
0.0
 10
6.8825092844
 20
8.2675751186
 30
0.0
 10
6.8860423405
 20
8.2681079709
 30
0.0
 10
6.8914693483
 20
8.2687563236
 30
0.0
 10
6.8988819769
 20
8.2693450155
 30
0.0
 10
6.9049878696
 20
8.2695802984
 30
0.0
 10
6.9081526352
 20
8.2696410671
 30
0.0
  0
SPLINE
  5
34A
100
AcDbEntity
  8
0
100
AcDbSpline
 62
7
  6
CONTINUOUS
 70
0
 71
3
 72
15
 73
11
 74
0
 42
0.0000001
 43
0.0000001
 44
0.0000000001
 40
0.0
 40
0.0
 40
0.0
 40
0.0
 40
0.3741288635
 40
0.5440566593
 40
0.692698959
 40
0.8154097907
 40
0.9081067415
 40
0.9425071842
 40
0.9689148013
 40
1.0
 40
1.0
 40
1.0
 40
1.0
 10
7.0007923427
 20
8.2686302612
 30
0.0
 10
7.0011765793
 20
8.2686144907
 30
0.0
 10
7.0017349413
 20
8.2685782382
 30
0.0
 10
7.0024430653
 20
8.2685024865
 30
0.0
 10
7.0028920823
 20
8.2684385287
 30
0.0
 10
7.0032602587
 20
8.2683681523
 30
0.0
 10
7.0035080176
 20
8.2683036188
 30
0.0
 10
7.0036570386
 20
8.2682454725
 30
0.0
 10
7.0037373815
 20
8.2682040823
 30
0.0
 10
7.0037923427
 20
8.2681575069
 30
0.0
 10
7.0037923427
 20
8.268125555
 30
0.0
  0
LINE
  5
34B
100
AcDbEntity
  8
0
100
AcDbLine
 62
7
  6
CONTINUOUS
 10
6.9973344233
 20
8.2594523804
 11
7.0001776241
 21
8.2588594375
  0
LINE
  5
34C
100
AcDbEntity
  8
0
100
AcDbLine
 62
7
  6
CONTINUOUS
 10
7.0001776241
 20
8.2588594375
 11
7.0073449731
 21
8.2591328832
  0
LINE
  5
34D
100
AcDbEntity
  8
0
100
AcDbLine
 62
7
  6
CONTINUOUS
 10
7.0073449731
 20
8.2591328832
 11
7.0216923427
 21
8.2593272233
  0
SPLINE
  5
34E
100
AcDbEntity
  8
0
100
AcDbSpline
 62
7
  6
CONTINUOUS
 70
0
 71
3
 72
12
 73
8
 74
0
 42
0.0000001
 43
0.0000001
 44
0.0000000001
 40
0.0
 40
0.0
 40
0.0
 40
0.0
 40
0.3295160844
 40
0.6091243243
 40
0.8335448026
 40
0.924138145
 40
1.0
 40
1.0
 40
1.0
 40
1.0
 10
6.9916923427
 20
8.2778464277
 30
0.0
 10
6.9928726288
 20
8.2777300587
 30
0.0
 10
6.995052532
 20
8.2774937169
 30
0.0
 10
6.9980254981
 20
8.2770887377
 30
0.0
 10
7.0001346161
 20
8.2767182364
 30
0.0
 10
7.0015059352
 20
8.2764028108
 30
0.0
 10
7.0020833725
 20
8.2762415794
 30
0.0
 10
7.002343411
 20
8.2761583103
 30
0.0
  0
SPLINE
  5
34F
100
AcDbEntity
  8
0
100
AcDbSpline
 62
7
  6
CONTINUOUS
 70
0
 71
3
 72
12
 73
8
 74
0
 42
0.0000001
 43
0.0000001
 44
0.0000000001
 40
0.0
 40
0.0
 40
0.0
 40
0.0
 40
0.3766703193
 40
0.6616827659
 40
0.7717980437
 40
0.8624527
 40
1.0
 40
1.0
 40
1.0
 40
1.0
 10
7.002343411
 20
8.2761583103
 30
0.0
 10
7.0025568026
 20
8.2760899784
 30
0.0
 10
7.0029279722
 20
8.2759580889
 30
0.0
 10
7.0033439725
 20
8.2757593532
 30
0.0
 10
7.0035810546
 20
8.2755915235
 30
0.0
 10
7.0037259249
 20
8.2754533039
 30
0.0
 10
7.0037923427
 20
8.2753201926
 30
0.0
 10
7.0037923427
 20
8.2752383715
 30
0.0
  0
LINE
  5
350
100
AcDbEntity
  8
0
100
AcDbLine
 62
7
  6
CONTINUOUS
 10
6.9874283714
 20
8.2798019765
 11
6.9960556431
 21
8.2797475464
  0
LINE
  5
351
100
AcDbEntity
  8
0
100
AcDbLine
 62
7
  6
CONTINUOUS
 10
6.9960556431
 20
8.2797475464
 11
6.9982950503
 21
8.2797345845
  0
LINE
  5
352
100
AcDbEntity
  8
0
100
AcDbLine
 62
7
  6
CONTINUOUS
 10
6.9982950503
 20
8.2797345845
 11
7.0034234393
 21
8.2797079259
  0
LINE
  5
353
100
AcDbEntity
  8
0
100
AcDbLine
 62
7
  6
CONTINUOUS
 10
7.0034234393
 20
8.2797079259
 11
7.0038463324
 21
8.2797059494
  0
LINE
  5
354
100
AcDbEntity
  8
0
100
AcDbLine
 62
7
  6
CONTINUOUS
 10
7.0038463324
 20
8.2797059494
 11
7.0097463243
 21
8.2796816738
  0
LINE
  5
355
100
AcDbEntity
  8
0
100
AcDbLine
 62
7
  6
CONTINUOUS
 10
7.0097463243
 20
8.2796816738
 11
7.0150229121
 21
8.2796623272
  0
LINE
  5
356
100
AcDbEntity
  8
0
100
AcDbLine
 62
7
  6
CONTINUOUS
 10
7.0150229121
 20
8.2796623272
 11
7.0218666256
 21
8.2796233904
  0
LINE
  5
357
100
AcDbEntity
  8
0
100
AcDbLine
 62
7
  6
CONTINUOUS
 10
7.0218666256
 20
8.2796233904
 11
7.0221737111
 21
8.2796164716
  0
LINE
  5
358
100
AcDbEntity
  8
0
100
AcDbLine
 62
7
  6
CONTINUOUS
 10
7.0221921329
 20
8.2796145202
 11
7.018454796
 21
8.279593572
  0
LINE
  5
359
100
AcDbEntity
  8
0
100
AcDbLine
 62
7
  6
CONTINUOUS
 10
6.8532108904
 20
8.279616469
 11
6.8607296941
 21
8.2796637923
  0
LINE
  5
35A
100
AcDbEntity
  8
0
100
AcDbLine
 62
7
  6
CONTINUOUS
 10
6.8607296941
 20
8.2796637923
 11
6.8660187221
 21
8.2796831634
  0
LINE
  5
35B
100
AcDbEntity
  8
0
100
AcDbLine
 62
7
  6
CONTINUOUS
 10
6.8797482557
 20
8.2797500265
 11
6.8883365444
 21
8.2798043802
  0
SPLINE
  5
35C
100
AcDbEntity
  8
0
100
AcDbSpline
 62
7
  6
CONTINUOUS
 70
0
 71
3
 72
16
 73
12
 74
0
 42
0.0000001
 43
0.0000001
 44
0.0000000001
 40
0.0
 40
0.0
 40
0.0
 40
0.0
 40
0.0750882774
 40
0.1499145327
 40
0.2240323441
 40
0.2970825136
 40
0.438878255
 40
0.5732970969
 40
0.6985009056
 40
0.8127113245
 40
1.0
 40
1.0
 40
1.0
 40
1.0
 10
6.4435267025
 20
7.7809194759
 30
0.0
 10
6.4435267025
 20
7.7761733126
 30
0.0
 10
6.4433087431
 20
7.7666962348
 30
0.0
 10
6.4423560946
 20
7.7525634263
 30
0.0
 10
6.4407978571
 20
7.738613728
 30
0.0
 10
6.4379935772
 20
7.72056101
 30
0.0
 10
6.4333009659
 20
7.6989646948
 30
0.0
 10
6.4261385281
 20
7.6746050827
 30
0.0
 10
6.4180956941
 20
7.6523730903
 30
0.0
 10
6.4076258061
 20
7.6275084017
 30
0.0
 10
6.3992068807
 20
7.6103909868
 30
0.0
 10
6.3936563691
 20
7.5999347703
 30
0.0
  0
SPLINE
  5
35D
100
AcDbEntity
  8
0
100
AcDbSpline
 62
7
  6
CONTINUOUS
 70
0
 71
3
 72
25
 73
21
 74
0
 42
0.0000001
 43
0.0000001
 44
0.0000000001
 40
0.0
 40
0.0
 40
0.0
 40
0.0
 40
0.225072088
 40
0.4243773208
 40
0.5963731594
 40
0.6716729507
 40
0.7395962112
 40
0.7999590327
 40
0.852577864
 40
0.8973111556
 40
0.9340791798
 40
0.9494528212
 40
0.9628070606
 40
0.9741325274
 40
0.9834198466
 40
0.990659639
 40
0.9958425211
 40
0.9976596873
 40
0.9989591054
 40
1.0
 40
1.0
 40
1.0
 40
1.0
 10
6.3936563691
 20
7.5999347703
 30
0.0
 10
6.3926878106
 20
7.5981101715
 30
0.0
 10
6.3908426767
 20
7.5946798569
 30
0.0
 10
6.3882030922
 20
7.5898847174
 30
0.0
 10
6.38619676
 20
7.5863103066
 30
0.0
 10
6.3847661735
 20
7.5837956383
 30
0.0
 10
6.38383687
 20
7.5821745825
 30
0.0
 10
6.3830069484
 20
7.5807365094
 30
0.0
 10
6.3822806307
 20
7.5794843999
 30
0.0
 10
6.3816612294
 20
7.5784206011
 30
0.0
 10
6.3812125736
 20
7.5776530139
 30
0.0
 10
6.3809085079
 20
7.5771343846
 30
0.0
 10
6.3807224115
 20
7.5768175273
 30
0.0
 10
6.3805640289
 20
7.5765484955
 30
0.0
 10
6.3804349363
 20
7.5763292597
 30
0.0
 10
6.3803316942
 20
7.5761551926
 30
0.0
 10
6.3802690924
 20
7.5760479194
 30
0.0
 10
6.3802249295
 20
7.5759753811
 30
0.0
 10
6.3802148226
 20
7.5759548754
 30
0.0
 10
6.3801857414
 20
7.5759125759
 30
0.0
 10
6.3801923489
 20
7.5759194759
 30
0.0
  0
SPLINE
  5
35E
100
AcDbEntity
  8
0
100
AcDbSpline
 62
7
  6
CONTINUOUS
 70
0
 71
3
 72
16
 73
12
 74
0
 42
0.0000001
 43
0.0000001
 44
0.0000000001
 40
0.0
 40
0.0
 40
0.0
 40
0.0
 40
0.0750882775
 40
0.1499145328
 40
0.2240323438
 40
0.2970825127
 40
0.4388782525
 40
0.5732970947
 40
0.6985009041
 40
0.8127113233
 40
1.0
 40
1.0
 40
1.0
 40
1.0
 10
7.431857983
 20
7.7809194759
 30
0.0
 10
7.431857983
 20
7.7856656392
 30
0.0
 10
7.4320759424
 20
7.795142717
 30
0.0
 10
7.4330285909
 20
7.8092755255
 30
0.0
 10
7.4345868284
 20
7.8232252238
 30
0.0
 10
7.4373911082
 20
7.8412779417
 30
0.0
 10
7.4420837197
 20
7.8628742566
 30
0.0
 10
7.4492461572
 20
7.8872338689
 30
0.0
 10
7.4572889914
 20
7.9094658613
 30
0.0
 10
7.4677588792
 20
7.9343305502
 30
0.0
 10
7.4761778053
 20
7.9514479649
 30
0.0
 10
7.4817283171
 20
7.9619041814
 30
0.0
  0
SPLINE
  5
35F
100
AcDbEntity
  8
0
100
AcDbSpline
 62
7
  6
CONTINUOUS
 70
0
 71
3
 72
31
 73
27
 74
0
 42
0.0000001
 43
0.0000001
 44
0.0000000001
 40
0.0
 40
0.0
 40
0.0
 40
0.0
 40
0.2250717039
 40
0.4243766121
 40
0.513879716
 40
0.5963725339
 40
0.671672238
 40
0.7395954412
 40
0.799958239
 40
0.852577084
 40
0.8973104262
 40
0.916694815
 40
0.9340785385
 40
0.9494522346
 40
0.9628065366
 40
0.9741320734
 40
0.9834194699
 40
0.9872959347
 40
0.9906593467
 40
0.9935085329
 40
0.9958423199
 40
0.9976595342
 40
0.9989590017
 40
0.9994142136
 40
0.9997395484
 40
1.0
 40
1.0
 40
1.0
 40
1.0
 10
7.4817283171
 20
7.9619041814
 30
0.0
 10
7.4826968746
 20
7.9637287784
 30
0.0
 10
7.4845419979
 20
7.9671590924
 30
0.0
 10
7.4868164914
 20
7.9712909371
 30
0.0
 10
7.4884790141
 20
7.9742657412
 30
0.0
 10
7.489594122
 20
7.9762426414
 30
0.0
 10
7.4906185008
 20
7.978043302
 30
0.0
 10
7.4915478063
 20
7.9796643569
 30
0.0
 10
7.4923777267
 20
7.9811024292
 30
0.0
 10
7.4931040503
 20
7.982354543
 30
0.0
 10
7.4936431611
 20
7.9832804509
 30
0.0
 10
7.4940204109
 20
7.9839263853
 30
0.0
 10
7.4942621074
 20
7.98433943
 30
0.0
 10
7.4944761563
 20
7.984704529
 30
0.0
 10
7.494662346
 20
7.9850215064
 30
0.0
 10
7.4948204634
 20
7.98529019
 30
0.0
 10
7.4949346226
 20
7.9854838045
 30
0.0
 10
7.4950117446
 20
7.98561443
 30
0.0
 10
7.4950588681
 20
7.9856941304
 30
0.0
 10
7.4950987783
 20
7.9857616898
 30
0.0
 10
7.4951315885
 20
7.9858168407
 30
0.0
 10
7.495156899
 20
7.9858602175
 30
0.0
 10
7.4951740282
 20
7.9858877035
 30
0.0
 10
7.4951832305
 20
7.9859050741
 30
0.0
 10
7.4951890624
 20
7.9859116134
 30
0.0
 10
7.4951899658
 20
7.9859194759
 30
0.0
 10
7.4951923562
 20
7.9859194759
 30
0.0
  0
SPLINE
  5
360
100
AcDbEntity
  8
0
100
AcDbSpline
 62
7
  6
CONTINUOUS
 70
0
 71
3
 72
15
 73
11
 74
0
 42
0.0000001
 43
0.0000001
 44
0.0000000001
 40
0.0
 40
0.0
 40
0.0
 40
0.0
 40
0.075025552
 40
0.1498172041
 40
0.2239326719
 40
0.2969683782
 40
0.4387393885
 40
0.5731125664
 40
0.8125009889
 40
1.0
 40
1.0
 40
1.0
 40
1.0
 10
7.431857983
 20
7.7809194759
 30
0.0
 10
7.431857983
 20
7.7761818734
 30
0.0
 10
7.4320763904
 20
7.7667201137
 30
0.0
 10
7.4330287344
 20
7.7526074542
 30
0.0
 10
7.4345781561
 20
7.7386737422
 30
0.0
 10
7.4373767912
 20
7.7206406913
 30
0.0
 10
7.4420593308
 20
7.6990693875
 30
0.0
 10
7.4512340632
 20
7.6678128091
 30
0.0
 10
7.4642019961
 20
7.6347526696
 30
0.0
 10
7.476101186
 20
7.6105432956
 30
0.0
 10
7.4816498047
 20
7.6000840271
 30
0.0
  0
SPLINE
  5
361
100
AcDbEntity
  8
0
100
AcDbSpline
 62
7
  6
CONTINUOUS
 70
0
 71
3
 72
25
 73
21
 74
0
 42
0.0000001
 43
0.0000001
 44
0.0000000001
 40
0.0
 40
0.0
 40
0.0
 40
0.0
 40
0.2249565235
 40
0.4242479982
 40
0.5963112022
 40
0.6716407508
 40
0.7395719441
 40
0.7999066104
 40
0.8524805734
 40
0.8972001447
 40
0.9339802122
 40
0.9493663108
 40
0.9627355742
 40
0.9740773376
 40
0.9833809307
 40
0.9906356774
 40
0.9958308966
 40
0.997652844
 40
0.9989559015
 40
1.0
 40
1.0
 40
1.0
 40
1.0
 10
7.4816498047
 20
7.6000840271
 30
0.0
 10
7.4826233147
 20
7.5982489392
 30
0.0
 10
7.4844776185
 20
7.5947978263
 30
0.0
 10
7.4871311481
 20
7.5899727362
 30
0.0
 10
7.4891504921
 20
7.586375949
 30
0.0
 10
7.4905906097
 20
7.5838451988
 30
0.0
 10
7.4915257081
 20
7.5822141702
 30
0.0
 10
7.4923600433
 20
7.5807675984
 30
0.0
 10
7.4930896907
 20
7.57950809
 30
0.0
 10
7.4937123854
 20
7.5784379987
 30
0.0
 10
7.4941638372
 20
7.5776655776
 30
0.0
 10
7.4944699832
 20
7.5771435494
 30
0.0
 10
7.4946576139
 20
7.5768243423
 30
0.0
 10
7.4948169836
 20
7.5765536667
 30
0.0
 10
7.4949480551
 20
7.5763318795
 30
0.0
 10
7.4950500362
 20
7.5761587628
 30
0.0
 10
7.4951178301
 20
7.5760458433
 30
0.0
 10
7.4951562507
 20
7.5759791669
 30
0.0
 10
7.4951773326
 20
7.5759471468
 30
0.0
 10
7.4951856812
 20
7.5759264394
 30
0.0
 10
7.4951923496
 20
7.5759194759
 30
0.0
  0
SPLINE
  5
362
100
AcDbEntity
  8
0
100
AcDbSpline
 62
7
  6
CONTINUOUS
 70
0
 71
3
 72
15
 73
11
 74
0
 42
0.0000001
 43
0.0000001
 44
0.0000000001
 40
0.0
 40
0.0
 40
0.0
 40
0.0
 40
0.0750255503
 40
0.1498172003
 40
0.2239326657
 40
0.2969683693
 40
0.4387393745
 40
0.5731125504
 40
0.8125009774
 40
1.0
 40
1.0
 40
1.0
 40
1.0
 10
6.4435267025
 20
7.7809194759
 30
0.0
 10
6.4435267025
 20
7.785657078
 30
0.0
 10
6.4433082951
 20
7.7951188371
 30
0.0
 10
6.4423559513
 20
7.8092314956
 30
0.0
 10
6.4408065298
 20
7.8231652065
 30
0.0
 10
6.4380078951
 20
7.841198256
 30
0.0
 10
6.4333253564
 20
7.8627695584
 30
0.0
 10
6.4241506246
 20
7.8940261354
 30
0.0
 10
6.411182693
 20
7.9270862747
 30
0.0
 10
6.3992835029
 20
7.9512956485
 30
0.0
 10
6.3937348845
 20
7.9617549174
 30
0.0
  0
SPLINE
  5
363
100
AcDbEntity
  8
0
100
AcDbSpline
 62
7
  6
CONTINUOUS
 70
0
 71
3
 72
31
 73
27
 74
0
 42
0.0000001
 43
0.0000001
 44
0.0000000001
 40
0.0
 40
0.0
 40
0.0
 40
0.0
 40
0.224956685
 40
0.4242482748
 40
0.5137817808
 40
0.5963118957
 40
0.6716414575
 40
0.7395726506
 40
0.7999073029
 40
0.8524812371
 40
0.8972007621
 40
0.9165885283
 40
0.9339807663
 40
0.949366822
 40
0.9627360359
 40
0.9740777427
 40
0.9833812716
 40
0.9872653833
 40
0.9906359464
 40
0.9934916256
 40
0.9958310851
 40
0.9976529888
 40
0.9989560005
 40
0.999412504
 40
0.9997387832
 40
1.0
 40
1.0
 40
1.0
 40
1.0
 10
6.3937348845
 20
7.9617549174
 30
0.0
 10
6.3927613733
 20
7.9635900076
 30
0.0
 10
6.3909070714
 20
7.9670411247
 30
0.0
 10
6.3886207763
 20
7.9711984248
 30
0.0
 10
6.3869478427
 20
7.9741918996
 30
0.0
 10
6.3858252798
 20
7.976181591
 30
0.0
 10
6.3847940711
 20
7.9779937634
 30
0.0
 10
6.3838589715
 20
7.9796247922
 30
0.0
 10
6.383024636
 20
7.9810713645
 30
0.0
 10
6.3822949883
 20
7.9823308727
 30
0.0
 10
6.3817530708
 20
7.9832621492
 30
0.0
 10
6.3813735772
 20
7.9839120587
 30
0.0
 10
6.3811302745
 20
7.9843278192
 30
0.0
 10
6.3809146935
 20
7.9846954083
 30
0.0
 10
6.3807270785
 20
7.9850146244
 30
0.0
 10
6.3805676666
 20
7.9852852702
 30
0.0
 10
6.3804525366
 20
7.9854803328
 30
0.0
 10
6.3803747055
 20
7.9856119601
 30
0.0
 10
6.3803271817
 20
7.9856922883
 30
0.0
 10
6.3802867774
 20
7.9857603878
 30
0.0
 10
6.3802539587
 20
7.9858159862
 30
0.0
 10
6.3802275916
 20
7.9858597198
 30
0.0
 10
6.3802119544
 20
7.9858874344
 30
0.0
 10
6.380200414
 20
7.9859049511
 30
0.0
 10
6.3801984572
 20
7.9859115459
 30
0.0
 10
6.3801899306
 20
7.9859194759
 30
0.0
 10
6.3801923427
 20
7.9859194759
 30
0.0
  0
LINE
  5
364
100
AcDbEntity
  8
0
100
AcDbLine
 62
7
  6
CONTINUOUS
 10
7.0038974024
 20
8.2767951777
 11
7.0001776241
 21
8.2770414169
  0
SPLINE
  5
365
100
AcDbEntity
  8
0
100
AcDbSpline
 62
7
  6
CONTINUOUS
 70
0
 71
3
 72
15
 73
11
 74
0
 42
0.0000001
 43
0.0000001
 44
0.0000000001
 40
0.0
 40
0.0
 40
0.0
 40
0.0
 40
0.0607737198
 40
0.1321431182
 40
0.2209798643
 40
0.3307696286
 40
0.4631830281
 40
0.6188314599
 40
0.7978179407
 40
1.0
 40
1.0
 40
1.0
 40
1.0
 10
7.0037923427
 20
8.2646227037
 30
0.0
 10
7.0037923427
 20
8.2644896747
 30
0.0
 10
7.0037187955
 20
8.2641985827
 30
0.0
 10
7.0034247602
 20
8.2638051576
 30
0.0
 10
7.0029652287
 20
8.2634281349
 30
0.0
 10
7.0023379881
 20
8.2630613294
 30
0.0
 10
7.0015425772
 20
8.2627040322
 30
0.0
 10
7.0005802441
 20
8.2623568322
 30
0.0
 10
6.9994536849
 20
8.2620211309
 30
0.0
 10
6.9986441164
 20
8.2618182652
 30
0.0
 10
6.9982130858
 20
8.2617179005
 30
0.0
  0
LINE
  5
366
100
AcDbEntity
  8
0
100
AcDbLine
 62
7
  6
CONTINUOUS
 10
6.9982130858
 20
8.2617179005
 11
6.9916923427
 21
8.2605970392
  0
LINE
  5
367
100
AcDbEntity
  8
0
100
AcDbLine
 62
7
  6
CONTINUOUS
 10
7.0039646086
 20
8.2777933018
 11
7.0001776241
 21
8.278043924
  0
LINE
  5
368
100
AcDbEntity
  8
0
100
AcDbLine
 62
7
  6
CONTINUOUS
 10
7.0001776241
 20
8.278043924
 11
6.9916923427
 21
8.2778464259
  0
LINE
  5
369
100
AcDbEntity
  8
0
100
AcDbLine
 62
7
  6
CONTINUOUS
 10
7.0037923427
 20
8.2728869333
 11
7.0023040487
 21
8.272689826
  0
LINE
  5
36A
100
AcDbEntity
  8
0
100
AcDbLine
 62
7
  6
CONTINUOUS
 10
7.0023040487
 20
8.272689826
 11
7.0007923427
 21
8.2727110068
  0
LINE
  5
36B
100
AcDbEntity
  8
0
100
AcDbLine
 62
7
  6
CONTINUOUS
 10
6.9273352632
 20
8.2813438763
 11
6.8772394632
 21
8.280740651
  0
SPLINE
  5
36C
100
AcDbEntity
  8
0
100
AcDbSpline
 62
7
  6
CONTINUOUS
 70
0
 71
3
 72
12
 73
8
 74
0
 42
0.0000001
 43
0.0000001
 44
0.0000000001
 40
0.0
 40
0.0
 40
0.0
 40
0.0
 40
0.3002739967
 40
0.5797835929
 40
0.8184709341
 40
0.9173486678
 40
1.0
 40
1.0
 40
1.0
 40
1.0
 10
6.9081526352
 20
8.2737190197
 30
0.0
 10
6.9050013809
 20
8.2736586704
 30
0.0
 10
6.8989153471
 20
8.2736040334
 30
0.0
 10
6.8903243837
 20
8.2737111987
 30
0.0
 10
6.8838505775
 20
8.2739611687
 30
0.0
 10
6.8794504182
 20
8.2742716283
 30
0.0
 10
6.877553589
 20
8.274457332
 30
0.0
 10
6.8766923427
 20
8.2745617366
 30
0.0
  0
LINE
  5
36D
100
AcDbEntity
  8
0
100
AcDbLine
 62
7
  6
CONTINUOUS
 10
6.9981458094
 20
8.2807406289
 11
6.9947651459
 21
8.280810593
  0
LINE
  5
36E
100
AcDbEntity
  8
0
100
AcDbLine
 62
7
  6
CONTINUOUS
 10
7.0007923427
 20
8.2717050291
 11
7.0033786223
 21
8.2717465408
  0
LINE
  5
36F
100
AcDbEntity
  8
0
100
AcDbLine
 62
7
  6
CONTINUOUS
 10
7.0033786223
 20
8.2717465408
 11
7.0037923427
 21
8.2718810705
  0
SPLINE
  5
370
100
AcDbEntity
  8
0
100
AcDbSpline
 62
7
  6
CONTINUOUS
 70
0
 71
3
 72
11
 73
7
 74
0
 42
0.0000001
 43
0.0000001
 44
0.0000000001
 40
0.0
 40
0.0
 40
0.0
 40
0.0
 40
0.3187658677
 40
0.5927814258
 40
0.8199832938
 40
1.0
 40
1.0
 40
1.0
 40
1.0
 10
6.9946754148
 20
8.2600163045
 30
0.0
 10
6.9955121907
 20
8.260153453
 30
0.0
 10
6.9970641729
 20
8.2604347719
 30
0.0
 10
6.9991910587
 20
8.2609244829
 30
0.0
 10
7.0009277
 20
8.2614456899
 30
0.0
 10
7.0019345465
 20
8.2618556213
 30
0.0
 10
7.0023595821
 20
8.2620761875
 30
0.0
  0
SPLINE
  5
371
100
AcDbEntity
  8
0
100
AcDbSpline
 62
7
  6
CONTINUOUS
 70
0
 71
3
 72
11
 73
7
 74
0
 42
0.0000001
 43
0.0000001
 44
0.0000000001
 40
0.0
 40
0.0
 40
0.0
 40
0.0
 40
0.3323270462
 40
0.6010317886
 40
0.8166422929
 40
1.0
 40
1.0
 40
1.0
 40
1.0
 10
7.0023595821
 20
8.2620761875
 30
0.0
 10
7.0025749989
 20
8.262187975
 30
0.0
 10
7.0029556953
 20
8.26240929
 30
0.0
 10
7.0034203238
 20
8.2627885079
 30
0.0
 10
7.0037178249
 20
8.2631843075
 30
0.0
 10
7.0037923427
 20
8.263477512
 30
0.0
 10
7.0037923427
 20
8.2636114162
 30
0.0
  0
SPLINE
  5
372
100
AcDbEntity
  8
0
100
AcDbSpline
 62
7
  6
CONTINUOUS
 70
0
 71
3
 72
12
 73
8
 74
0
 42
0.0000001
 43
0.0000001
 44
0.0000000001
 40
0.0
 40
0.0
 40
0.0
 40
0.0
 40
0.0826516186
 40
0.1815293526
 40
0.4202163826
 40
0.6997259844
 40
1.0
 40
1.0
 40
1.0
 40
1.0
 10
6.8766923427
 20
8.2735570098
 30
0.0
 10
6.877553585
 20
8.2734525377
 30
0.0
 10
6.8794504074
 20
8.2732667032
 30
0.0
 10
6.8838505561
 20
8.2729560082
 30
0.0
 10
6.8903243631
 20
8.2727058551
 30
0.0
 10
6.8989153353
 20
8.2725986498
 30
0.0
 10
6.9050013773
 20
8.2726533504
 30
0.0
 10
6.9081526352
 20
8.2727137391
 30
0.0
  0
SPLINE
  5
373
100
AcDbEntity
  8
0
100
AcDbSpline
 62
7
  6
CONTINUOUS
 70
0
 71
3
 72
25
 73
21
 74
0
 42
0.0000001
 43
0.0000001
 44
0.0000000001
 40
0.0
 40
0.0
 40
0.0
 40
0.0
 40
0.0699584705
 40
0.1378535292
 40
0.2035048267
 40
0.2667884618
 40
0.3277280361
 40
0.3865425848
 40
0.415306355
 40
0.4437422979
 40
0.4999991229
 40
0.5562559621
 40
0.5846919149
 40
0.6134557003
 40
0.6722702978
 40
0.7332098685
 40
0.7964934794
 40
0.8621451066
 40
0.9300409971
 40
1.0
 40
1.0
 40
1.0
 40
1.0
 10
6.5586611396
 20
6.0556146946
 30
0.0
 10
6.5513822997
 20
6.0628725632
 30
0.0
 10
6.5367302569
 20
6.0768704284
 30
0.0
 10
6.5140293083
 20
6.0963570591
 30
0.0
 10
6.4908963821
 20
6.1137537998
 30
0.0
 10
6.4673189313
 20
6.1287343942
 30
0.0
 10
6.443296657
 20
6.1409302963
 30
0.0
 10
6.4227819392
 20
6.1485490656
 30
0.0
 10
6.4062747848
 20
6.1528518468
 30
0.0
 10
6.3898779084
 20
6.1559208346
 30
0.0
 10
6.3691464554
 20
6.1575123081
 30
0.0
 10
6.3484150048
 20
6.1559207897
 30
0.0
 10
6.3320181284
 20
6.1528517688
 30
0.0
 10
6.3155109806
 20
6.1485489159
 30
0.0
 10
6.294996287
 20
6.1409300636
 30
0.0
 10
6.270974001
 20
6.1287341923
 30
0.0
 10
6.2473964335
 20
6.1137536905
 30
0.0
 10
6.2242635465
 20
6.0963565942
 30
0.0
 10
6.2015629473
 20
6.0768691699
 30
0.0
 10
6.1869109843
 20
6.0628709451
 30
0.0
 10
6.1796320909
 20
6.0556130193
 30
0.0
  0
SPLINE
  5
374
100
AcDbEntity
  8
0
100
AcDbSpline
 62
7
  6
CONTINUOUS
 70
0
 71
3
 72
25
 73
21
 74
0
 42
0.0000001
 43
0.0000001
 44
0.0000000001
 40
0.0
 40
0.0
 40
0.0
 40
0.0
 40
0.0699587339
 40
0.1378541491
 40
0.2035056208
 40
0.2667893059
 40
0.3277289415
 40
0.3865435728
 40
0.4153073815
 40
0.4437433605
 40
0.5000002522
 40
0.5562571444
 40
0.5846931225
 40
0.6134569297
 40
0.672271558
 40
0.7332112077
 40
0.7964949266
 40
0.8621463057
 40
0.9300414477
 40
1.0
 40
1.0
 40
1.0
 40
1.0
 10
7.6957524105
 20
6.0556142346
 30
0.0
 10
7.6884735607
 20
6.0628721169
 30
0.0
 10
7.6738215619
 20
6.0768700927
 30
0.0
 10
7.6511207567
 20
6.0963569731
 30
0.0
 10
7.6279878648
 20
6.1137538074
 30
0.0
 10
7.6044103947
 20
6.1287343411
 30
0.0
 10
7.580388141
 20
6.1409302142
 30
0.0
 10
7.5598734542
 20
6.1485490064
 30
0.0
 10
7.5433663198
 20
6.1528518124
 30
0.0
 10
7.526969461
 20
6.1559208137
 30
0.0
 10
7.5062380311
 20
6.1575123082
 30
0.0
 10
7.4855066021
 20
6.1559208102
 30
0.0
 10
7.4691097425
 20
6.1528518153
 30
0.0
 10
7.4526026077
 20
6.1485490147
 30
0.0
 10
7.4320879113
 20
6.1409302433
 30
0.0
 10
7.4080656618
 20
6.1287343411
 30
0.0
 10
7.3844882369
 20
6.1137537517
 30
0.0
 10
7.3613553321
 20
6.0963570247
 30
0.0
 10
7.338654407
 20
6.0768704092
 30
0.0
 10
7.3240023789
 20
6.0628725562
 30
0.0
 10
7.316723546
 20
6.0556146946
 30
0.0
  0
SPLINE
  5
375
100
AcDbEntity
  8
0
100
AcDbSpline
 62
7
  6
CONTINUOUS
 70
0
 71
3
 72
19
 73
15
 74
0
 42
0.0000001
 43
0.0000001
 44
0.0000000001
 40
0.0
 40
0.0
 40
0.0
 40
0.0
 40
0.1249812597
 40
0.1874945218
 40
0.2500015004
 40
0.3749635268
 40
0.4374820417
 40
0.5000000001
 40
0.5625179586
 40
0.6250364734
 40
0.7499984997
 40
0.8125054783
 40
0.8750187403
 40
1.0
 40
1.0
 40
1.0
 40
1.0
 10
7.3167216946
 20
6.0556146946
 30
0.0
 10
7.2872073032
 20
6.0703293885
 30
0.0
 10
7.2421247729
 20
6.090879786
 30
0.0
 10
7.1803327895
 20
6.1140524336
 30
0.0
 10
7.1174258105
 20
6.1339665221
 30
0.0
 10
7.052801889
 20
6.1482738895
 30
0.0
 10
6.9871949964
 20
6.1556232825
 30
0.0
 10
6.9376923427
 20
6.1575040028
 30
0.0
 10
6.8881896888
 20
6.1556232833
 30
0.0
 10
6.8225827963
 20
6.1482738907
 30
0.0
 10
6.7579588751
 20
6.1339665219
 30
0.0
 10
6.6950518961
 20
6.1140524335
 30
0.0
 10
6.6332599127
 20
6.0908797861
 30
0.0
 10
6.5881773826
 20
6.0703293884
 30
0.0
 10
6.5586629911
 20
6.0556146946
 30
0.0
  0
LINE
  5
376
100
AcDbEntity
  8
0
100
AcDbLine
 62
7
  6
CONTINUOUS
 10
15.2200715671
 20
8.253794389
 11
15.2396020367
 21
8.2503697804
  0
LINE
  5
377
100
AcDbEntity
  8
0
100
AcDbLine
 62
7
  6
CONTINUOUS
 10
15.2396020367
 20
8.2503697804
 11
15.2420837047
 21
8.2499340834
  0
LINE
  5
378
100
AcDbEntity
  8
0
100
AcDbLine
 62
7
  6
CONTINUOUS
 10
15.2420837047
 20
8.2499340834
 11
15.2456196871
 21
8.2493130587
  0
LINE
  5
379
100
AcDbEntity
  8
0
100
AcDbLine
 62
7
  6
CONTINUOUS
 10
15.2456196871
 20
8.2493130587
 11
15.2609786081
 21
8.2466125619
  0
LINE
  5
37A
100
AcDbEntity
  8
0
100
AcDbLine
 62
7
  6
CONTINUOUS
 10
15.2609786081
 20
8.2466125619
 11
15.2754859458
 21
8.2440573976
  0
LINE
  5
37B
100
AcDbEntity
  8
0
100
AcDbLine
 62
7
  6
CONTINUOUS
 10
15.2754859458
 20
8.2440573976
 11
15.2845963348
 21
8.242450617
  0
LINE
  5
37C
100
AcDbEntity
  8
0
100
AcDbLine
 62
7
  6
CONTINUOUS
 10
15.2845963348
 20
8.242450617
 11
15.2876923427
 21
8.2419041188
  0
LINE
  5
37D
100
AcDbEntity
  8
0
100
AcDbLine
 62
7
  6
CONTINUOUS
 10
14.5786927131
 20
8.2397848072
 11
14.5899957147
 21
8.2418599904
  0
LINE
  5
37E
100
AcDbEntity
  8
0
100
AcDbLine
 62
7
  6
CONTINUOUS
 10
14.5899957147
 20
8.2418599904
 11
14.6170880241
 21
8.2467844955
  0
LINE
  5
37F
100
AcDbEntity
  8
0
100
AcDbLine
 62
7
  6
CONTINUOUS
 10
14.6170880241
 20
8.2467844955
 11
14.6205122837
 21
8.2474052643
  0
LINE
  5
380
100
AcDbEntity
  8
0
100
AcDbLine
 62
7
  6
CONTINUOUS
 10
14.6205122837
 20
8.2474052643
 11
14.621982157
 21
8.2476716326
  0
LINE
  5
381
100
AcDbEntity
  8
0
100
AcDbLine
 62
7
  6
CONTINUOUS
 10
14.621982157
 20
8.2476716326
 11
14.6631923427
 21
8.2551166616
  0
LINE
  5
382
100
AcDbEntity
  8
0
100
AcDbLine
 62
7
  6
CONTINUOUS
 10
14.9406923427
 20
8.2819165739
 11
14.9409275822
 21
8.281898996
  0
LINE
  5
383
100
AcDbEntity
  8
0
100
AcDbLine
 62
7
  6
CONTINUOUS
 10
14.9409275822
 20
8.281898996
 11
14.9424101749
 21
8.2817908324
  0
LINE
  5
384
100
AcDbEntity
  8
0
100
AcDbLine
 62
7
  6
CONTINUOUS
 10
14.9711399996
 20
8.2800330925
 11
14.980161238
 21
8.2795450207
  0
LINE
  5
385
100
AcDbEntity
  8
0
100
AcDbLine
 62
7
  6
CONTINUOUS
 10
14.980161238
 20
8.2795450207
 11
15.0505936262
 21
8.2758176509
  0
LINE
  5
386
100
AcDbEntity
  8
0
100
AcDbLine
 62
7
  6
CONTINUOUS
 10
15.0505936262
 20
8.2758176509
 11
15.0613156834
 21
8.2752581623
  0
LINE
  5
387
100
AcDbEntity
  8
0
100
AcDbLine
 62
7
  6
CONTINUOUS
 10
15.0613156834
 20
8.2752581623
 11
15.0700171601
 21
8.2748130458
  0
LINE
  5
388
100
AcDbEntity
  8
0
100
AcDbLine
 62
7
  6
CONTINUOUS
 10
15.0958520279
 20
8.2736978715
 11
15.0976923469
 21
8.2736428913
  0
SPLINE
  5
389
100
AcDbEntity
  8
0
100
AcDbSpline
 62
7
  6
CONTINUOUS
 70
0
 71
3
 72
19
 73
15
 74
0
 42
0.0000001
 43
0.0000001
 44
0.0000000001
 40
0.0
 40
0.0
 40
0.0
 40
0.0
 40
0.0067334055
 40
0.022764548
 40
0.0488071998
 40
0.0847477517
 40
0.1302609768
 40
0.1845997071
 40
0.2469094066
 40
0.3163293041
 40
0.4727024572
 40
0.6452178363
 40
0.8246175262
 40
1.0
 40
1.0
 40
1.0
 40
1.0
 10
15.1526923427
 20
8.2646432444
 30
0.0
 10
15.1526923427
 20
8.2646609548
 30
0.0
 10
15.1527667501
 20
8.2646893377
 30
0.0
 10
15.1528801165
 20
8.264697925
 30
0.0
 10
15.1530931973
 20
8.2647064801
 30
0.0
 10
15.1533725362
 20
8.2646983746
 30
0.0
 10
15.153730516
 20
8.2646798808
 30
0.0
 10
15.154155463
 20
8.2646484913
 30
0.0
 10
15.1546431409
 20
8.2646056432
 30
0.0
 10
15.1553971277
 20
8.2645304041
 30
0.0
 10
15.1564380334
 20
8.264411046
 30
0.0
 10
15.1577639786
 20
8.264239968
 30
0.0
 10
15.1591371229
 20
8.2640447801
 30
0.0
 10
15.1600593828
 20
8.2639024004
 30
0.0
 10
15.1605147649
 20
8.2638287778
 30
0.0
  0
SPLINE
  5
38A
100
AcDbEntity
  8
0
100
AcDbSpline
 62
7
  6
CONTINUOUS
 70
0
 71
3
 72
15
 73
11
 74
0
 42
0.0000001
 43
0.0000001
 44
0.0000000001
 40
0.0
 40
0.0
 40
0.0
 40
0.0
 40
0.0750260545
 40
0.1498182603
 40
0.2239343135
 40
0.2969705175
 40
0.4387422232
 40
0.5731157777
 40
0.8125037421
 40
1.0
 40
1.0
 40
1.0
 40
1.0
 10
15.4318583068
 20
7.7809194759
 30
0.0
 10
15.4318583068
 20
7.7761817879
 30
0.0
 10
15.4320766845
 20
7.7667198542
 30
0.0
 10
15.4330289428
 20
7.7526069245
 30
0.0
 10
15.4345782732
 20
7.7386729378
 30
0.0
 10
15.4373768804
 20
7.720639558
 30
0.0
 10
15.4420595446
 20
7.6990679187
 30
0.0
 10
15.4512346241
 20
7.6678110138
 30
0.0
 10
15.4642028901
 20
7.634750771
 30
0.0
 10
15.4761021558
 20
7.6105413201
 30
0.0
 10
15.4816508034
 20
7.6000821115
 30
0.0
  0
SPLINE
  5
38B
100
AcDbEntity
  8
0
100
AcDbSpline
 62
7
  6
CONTINUOUS
 70
0
 71
3
 72
25
 73
21
 74
0
 42
0.0000001
 43
0.0000001
 44
0.0000000001
 40
0.0
 40
0.0
 40
0.0
 40
0.0
 40
0.2249571364
 40
0.4242486324
 40
0.5963116174
 40
0.671641086
 40
0.739572283
 40
0.7999070749
 40
0.8524810755
 40
0.8972005434
 40
0.9339804299
 40
0.9493664289
 40
0.9627355973
 40
0.9740772783
 40
0.9833808096
 40
0.9906355234
 40
0.9958307464
 40
0.997652712
 40
0.9989557999
 40
1.0
 40
1.0
 40
1.0
 40
1.0
 10
15.4816508034
 20
7.6000821115
 30
0.0
 10
15.4826242487
 20
7.5982471658
 30
0.0
 10
15.4844784301
 20
7.5947963264
 30
0.0
 10
15.4871317746
 20
7.589971619
 30
0.0
 10
15.4891509719
 20
7.5863751203
 30
0.0
 10
15.4905909838
 20
7.5838445737
 30
0.0
 10
15.4915260144
 20
7.5822136743
 30
0.0
 10
15.4923602909
 20
7.5807672167
 30
0.0
 10
15.4930898842
 20
7.5795078073
 30
0.0
 10
15.4937125287
 20
7.5784378008
 30
0.0
 10
15.4941639413
 20
7.5776654415
 30
0.0
 10
15.4944700595
 20
7.5771434556
 30
0.0
 10
15.4946576725
 20
7.5768242745
 30
0.0
 10
15.494817027
 20
7.5765536208
 30
0.0
 10
15.494948086
 20
7.5763318514
 30
0.0
 10
15.4950500575
 20
7.5761587481
 30
0.0
 10
15.4951178451
 20
7.576045837
 30
0.0
 10
15.4951562628
 20
7.5759791652
 30
0.0
 10
15.4951773434
 20
7.5759471462
 30
0.0
 10
15.4951856923
 20
7.5759264396
 30
0.0
 10
15.4951923609
 20
7.5759194759
 30
0.0
  0
SPLINE
  5
38C
100
AcDbEntity
  8
0
100
AcDbSpline
 62
7
  6
CONTINUOUS
 70
0
 71
3
 72
15
 73
11
 74
0
 42
0.0000001
 43
0.0000001
 44
0.0000000001
 40
0.0
 40
0.0
 40
0.0
 40
0.0
 40
0.075094699
 40
0.1499264685
 40
0.2240490556
 40
0.2971047833
 40
0.4389117826
 40
0.5733423645
 40
0.812696972
 40
1.0
 40
1.0
 40
1.0
 40
1.0
 10
15.4318583068
 20
7.7809194759
 30
0.0
 10
15.4318583068
 20
7.7856657208
 30
0.0
 10
15.4320762147
 20
7.7951429059
 30
0.0
 10
15.4330287801
 20
7.8092758103
 30
0.0
 10
15.43458724
 20
7.8232255373
 30
0.0
 10
15.4373915245
 20
7.8412783235
 30
0.0
 10
15.4420845533
 20
7.8628752105
 30
0.0
 10
15.4512811504
 20
7.8941599423
 30
0.0
 10
15.4642677129
 20
7.9272353597
 30
0.0
 10
15.4761789146
 20
7.9514497083
 30
0.0
 10
15.4817295448
 20
7.9619059734
 30
0.0
  0
SPLINE
  5
38D
100
AcDbEntity
  8
0
100
AcDbSpline
 62
7
  6
CONTINUOUS
 70
0
 71
3
 72
31
 73
27
 74
0
 42
0.0000001
 43
0.0000001
 44
0.0000000001
 40
0.0
 40
0.0
 40
0.0
 40
0.0
 40
0.2250702624
 40
0.4243742932
 40
0.5138781567
 40
0.596372111
 40
0.6716728546
 40
0.7395965241
 40
0.7999587371
 40
0.8525756999
 40
0.8973079059
 40
0.9166921403
 40
0.9340759237
 40
0.9494498472
 40
0.962804498
 40
0.9741304586
 40
0.9834183072
 40
0.9872949942
 40
0.9906586182
 40
0.9935080001
 40
0.9958419609
 40
0.9976593211
 40
0.998958901
 40
0.9994141547
 40
0.9997395207
 40
1.0
 40
1.0
 40
1.0
 40
1.0
 10
15.4817295448
 20
7.9619059734
 30
0.0
 10
15.4826980326
 20
7.9637304085
 30
0.0
 10
15.4845430227
 20
7.9671604221
 30
0.0
 10
15.486817278
 20
7.9712919583
 30
0.0
 10
15.4884796653
 20
7.974266542
 30
0.0
 10
15.4895946958
 20
7.976243312
 30
0.0
 10
15.4906190028
 20
7.9780438539
 30
0.0
 10
15.4915482295
 20
7.9796647944
 30
0.0
 10
15.4923780568
 20
7.9811027486
 30
0.0
 10
15.4931042648
 20
7.9823547597
 30
0.0
 10
15.493643292
 20
7.983280585
 30
0.0
 10
15.4940204918
 20
7.9839264675
 30
0.0
 10
15.4942621618
 20
7.9843394855
 30
0.0
 10
15.4944761909
 20
7.9847045644
 30
0.0
 10
15.4946623665
 20
7.9850215271
 30
0.0
 10
15.4948204746
 20
7.9852902008
 30
0.0
 10
15.4949346287
 20
7.9854838095
 30
0.0
 10
15.4950117483
 20
7.9856144321
 30
0.0
 10
15.4950588709
 20
7.9856941312
 30
0.0
 10
15.4950987806
 20
7.9857616899
 30
0.0
 10
15.4951315908
 20
7.9858168405
 30
0.0
 10
15.4951569015
 20
7.9858602172
 30
0.0
 10
15.4951740309
 20
7.9858877033
 30
0.0
 10
15.4951832335
 20
7.9859050739
 30
0.0
 10
15.4951890656
 20
7.9859116134
 30
0.0
 10
15.4951899692
 20
7.9859194759
 30
0.0
 10
15.4951923597
 20
7.9859194759
 30
0.0
  0
SPLINE
  5
38E
100
AcDbEntity
  8
0
100
AcDbSpline
 62
7
  6
CONTINUOUS
 70
0
 71
3
 72
16
 73
12
 74
0
 42
0.0000001
 43
0.0000001
 44
0.0000000001
 40
0.0
 40
0.0
 40
0.0
 40
0.0
 40
0.0750868784
 40
0.1499133316
 40
0.2240326508
 40
0.2970829301
 40
0.4388783828
 40
0.5732943957
 40
0.6984986824
 40
0.8127087075
 40
1.0
 40
1.0
 40
1.0
 40
1.0
 10
14.4435263787
 20
7.7809194759
 30
0.0
 10
14.4435263787
 20
7.7856654155
 30
0.0
 10
14.4433084009
 20
7.795142148
 30
0.0
 10
14.4423557759
 20
7.8092745673
 30
0.0
 10
14.4407979486
 20
7.8232240266
 30
0.0
 10
14.437993561
 20
7.8412762901
 30
0.0
 10
14.4333015262
 20
7.8628718684
 30
0.0
 10
14.4261400185
 20
7.8872308398
 30
0.0
 10
14.4180972283
 20
7.9094619636
 30
0.0
 10
14.4076272175
 20
7.9343259335
 30
0.0
 10
14.3992091468
 20
7.9514433136
 30
0.0
 10
14.393658776
 20
7.9618994103
 30
0.0
  0
SPLINE
  5
38F
100
AcDbEntity
  8
0
100
AcDbSpline
 62
7
  6
CONTINUOUS
 70
0
 71
3
 72
31
 73
27
 74
0
 42
0.0000001
 43
0.0000001
 44
0.0000000001
 40
0.0
 40
0.0
 40
0.0
 40
0.0
 40
0.2250780304
 40
0.4243871491
 40
0.5138891946
 40
0.5963797027
 40
0.6716769074
 40
0.7395984909
 40
0.7999616246
 40
0.8525834709
 40
0.8973184115
 40
0.916702732
 40
0.9340859475
 40
0.9494587995
 40
0.9628120255
 40
0.9741363586
 40
0.9834225278
 40
0.9872984026
 40
0.990661258
 40
0.9935099337
 40
0.9958432697
 40
0.9976601052
 40
0.9989592795
 40
0.9994143809
 40
0.9997396315
 40
1.0
 40
1.0
 40
1.0
 40
1.0
 10
14.393658776
 20
7.9618994103
 30
0.0
 10
14.3926900144
 20
7.9637244172
 30
0.0
 10
14.390844501
 20
7.9671554877
 30
0.0
 10
14.3885694185
 20
7.9712881493
 30
0.0
 10
14.3869065966
 20
7.9742635504
 30
0.0
 10
14.385791342
 20
7.9762408103
 30
0.0
 10
14.3847668477
 20
7.9780417985
 30
0.0
 10
14.3838374262
 20
7.9796631636
 30
0.0
 10
14.3830073688
 20
7.9811015462
 30
0.0
 10
14.3822808638
 20
7.982353931
 30
0.0
 10
14.3817416255
 20
7.9832800527
 30
0.0
 10
14.3813643069
 20
7.9839261255
 30
0.0
 10
14.38112258
 20
7.9843392444
 30
0.0
 10
14.3809085125
 20
7.984704402
 30
0.0
 10
14.3807223161
 20
7.9850214239
 30
0.0
 10
14.3805641944
 20
7.9852901399
 30
0.0
 10
14.3804500493
 20
7.9854837751
 30
0.0
 10
14.3803729163
 20
7.9856144127
 30
0.0
 10
14.3803258357
 20
7.9856941189
 30
0.0
 10
14.3802858187
 20
7.9857616827
 30
0.0
 10
14.3802533231
 20
7.9858168367
 30
0.0
 10
14.3802272216
 20
7.9858602155
 30
0.0
 10
14.380211747
 20
7.9858877025
 30
0.0
 10
14.3802003262
 20
7.9859050738
 30
0.0
 10
14.3801983935
 20
7.985911613
 30
0.0
 10
14.3801899526
 20
7.9859194759
 30
0.0
 10
14.3801923427
 20
7.9859194759
 30
0.0
  0
SPLINE
  5
390
100
AcDbEntity
  8
0
100
AcDbSpline
 62
7
  6
CONTINUOUS
 70
0
 71
3
 72
16
 73
12
 74
0
 42
0.0000001
 43
0.0000001
 44
0.0000000001
 40
0.0
 40
0.0
 40
0.0
 40
0.0
 40
0.075088267
 40
0.1499145093
 40
0.2240323137
 40
0.297082485
 40
0.4388782152
 40
0.5732969888
 40
0.6985007394
 40
0.8127111559
 40
1.0
 40
1.0
 40
1.0
 40
1.0
 10
14.4435263787
 20
7.7809194759
 30
0.0
 10
14.4435263787
 20
7.7761733156
 30
0.0
 10
14.4433084271
 20
7.7666962442
 30
0.0
 10
14.442355808
 20
7.752563443
 30
0.0
 10
14.4407976116
 20
7.7386137486
 30
0.0
 10
14.4379933967
 20
7.7205610311
 30
0.0
 10
14.4333008764
 20
7.6989647129
 30
0.0
 10
14.4261385254
 20
7.6746050963
 30
0.0
 10
14.4180957024
 20
7.6523731201
 30
0.0
 10
14.4076257958
 20
7.6275084469
 30
0.0
 10
14.3992068491
 20
7.6103910409
 30
0.0
 10
14.3936563141
 20
7.5999348315
 30
0.0
  0
SPLINE
  5
391
100
AcDbEntity
  8
0
100
AcDbSpline
 62
7
  6
CONTINUOUS
 70
0
 71
3
 72
11
 73
7
 74
0
 42
0.0000001
 43
0.0000001
 44
0.0000000001
 40
0.0
 40
0.0
 40
0.0
 40
0.0
 40
0.422168294
 40
0.7365465006
 40
0.9317441203
 40
1.0
 40
1.0
 40
1.0
 40
1.0
 10
14.3936563141
 20
7.5999348315
 30
0.0
 10
14.391839661
 20
7.5965125839
 30
0.0
 10
14.3886095312
 20
7.5905738713
 30
0.0
 10
14.3844000905
 20
7.5831301221
 30
0.0
 10
14.3817361009
 20
7.5785445868
 30
0.0
 10
14.3805129337
 20
7.5764588789
 30
0.0
 10
14.3801928813
 20
7.5759203779
 30
0.0
  0
LINE
  5
392
100
AcDbEntity
  8
0
100
AcDbLine
 62
7
  6
CONTINUOUS
 10
15.0613923427
 20
8.2769777052
 11
15.0580441322
 21
8.2769546793
  0
SPLINE
  5
393
100
AcDbEntity
  8
0
100
AcDbSpline
 62
7
  6
CONTINUOUS
 70
0
 71
3
 72
19
 73
15
 74
0
 42
0.0000001
 43
0.0000001
 44
0.0000000001
 40
0.0
 40
0.0
 40
0.0
 40
0.0
 40
0.0362966923
 40
0.0889241273
 40
0.157746526
 40
0.2392642893
 40
0.4278129811
 40
0.6248887686
 40
0.7956487277
 40
0.9169074115
 40
0.9547411458
 40
0.9794142762
 40
0.9936443215
 40
1.0
 40
1.0
 40
1.0
 40
1.0
 10
15.0580441322
 20
8.2769546793
 30
0.0
 10
15.0570556633
 20
8.2769683867
 30
0.0
 10
15.0546342887
 20
8.2770227209
 30
0.0
 10
15.0503402187
 20
8.2771632962
 30
0.0
 10
15.0448165958
 20
8.2773828141
 30
0.0
 10
15.0355953822
 20
8.2777821937
 30
0.0
 10
15.0228864374
 20
8.2783806386
 30
0.0
 10
15.0077558772
 20
8.2792173552
 30
0.0
 10
14.9944600121
 20
8.2800312747
 30
0.0
 10
14.9854957674
 20
8.2806269316
 30
0.0
 10
14.9805066308
 20
8.281025602
 30
0.0
 10
14.978425029
 20
8.281213136
 30
0.0
 10
14.9771987851
 20
8.2813388954
 30
0.0
 10
14.9766418276
 20
8.2814035756
 30
0.0
 10
14.9764701817
 20
8.2814259726
 30
0.0
  0
LINE
  5
394
100
AcDbEntity
  8
0
100
AcDbLine
 62
7
  6
CONTINUOUS
 10
14.9763923427
 20
8.2804361718
 11
14.9810324746
 21
8.279985335
  0
LINE
  5
395
100
AcDbEntity
  8
0
100
AcDbLine
 62
7
  6
CONTINUOUS
 10
15.050963516
 20
8.2761435898
 11
15.0613923427
 21
8.2759745061
  0
SPLINE
  5
396
100
AcDbEntity
  8
0
100
AcDbSpline
 62
7
  6
CONTINUOUS
 70
0
 71
3
 72
21
 73
17
 74
0
 42
0.0000001
 43
0.0000001
 44
0.0000000001
 40
0.0
 40
0.0
 40
0.0
 40
0.0
 40
0.0019974738
 40
0.005658018
 40
0.0189372994
 40
0.0404221129
 40
0.0701310578
 40
0.1079972457
 40
0.1538613884
 40
0.2075449002
 40
0.2688656858
 40
0.3376003923
 40
0.413450399
 40
0.585265806
 40
0.7817400154
 40
1.0
 40
1.0
 40
1.0
 40
1.0
 10
14.8701923427
 20
8.2800023454
 30
0.0
 10
14.8701923427
 20
8.2799931701
 30
0.0
 10
14.8701721556
 20
8.2799711296
 30
0.0
 10
14.8700953931
 20
8.2799349609
 30
0.0
 10
14.8699228218
 20
8.2798857584
 30
0.0
 10
14.8696340802
 20
8.2798264467
 30
0.0
 10
14.8692299649
 20
8.2797585059
 30
0.0
 10
14.8687144536
 20
8.2796840721
 30
0.0
 10
14.8680883612
 20
8.2796031128
 30
0.0
 10
14.8673545653
 20
8.2795162488
 30
0.0
 10
14.8665156335
 20
8.2794238052
 30
0.0
 10
14.8655748689
 20
8.2793261905
 30
0.0
 10
14.8641285076
 20
8.279183637
 30
0.0
 10
14.8620969234
 20
8.2789969173
 30
0.0
 10
14.8594124591
 20
8.2787670408
 30
0.0
 10
14.8575135589
 20
8.278613941
 30
0.0
 10
14.8565140791
 20
8.2785353762
 30
0.0
  0
SPLINE
  5
397
100
AcDbEntity
  8
0
100
AcDbSpline
 62
7
  6
CONTINUOUS
 70
0
 71
3
 72
16
 73
12
 74
0
 42
0.0000001
 43
0.0000001
 44
0.0000000001
 40
0.0
 40
0.0
 40
0.0
 40
0.0
 40
0.0066312942
 40
0.0196247506
 40
0.0687239329
 40
0.1493148953
 40
0.2611049493
 40
0.4034509194
 40
0.5750419861
 40
0.7743909341
 40
1.0
 40
1.0
 40
1.0
 40
1.0
 10
14.7376923427
 20
8.2671497153
 30
0.0
 10
14.7376923427
 20
8.2671392779
 30
0.0
 10
14.7377209782
 20
8.2671154377
 30
0.0
 10
14.7378231181
 20
8.2670927024
 30
0.0
 10
14.7380509932
 20
8.2670718084
 30
0.0
 10
14.7384290599
 20
8.2670695138
 30
0.0
 10
14.7389567273
 20
8.2670819171
 30
0.0
 10
14.7396257472
 20
8.2671135308
 30
0.0
 10
14.7404322716
 20
8.267162796
 30
0.0
 10
14.7413687767
 20
8.2672299931
 30
0.0
 10
14.7420355389
 20
8.267283197
 30
0.0
 10
14.7423894228
 20
8.2673125401
 30
0.0
  0
LINE
  5
398
100
AcDbEntity
  8
0
100
AcDbLine
 62
7
  6
CONTINUOUS
 10
15.1302341424
 20
8.268714058
 11
15.1280305018
 21
8.2689782146
  0
LINE
  5
399
100
AcDbEntity
  8
0
100
AcDbLine
 62
7
  6
CONTINUOUS
 10
14.9061923427
 20
8.2801519443
 11
14.9077232275
 21
8.2799259943
  0
LINE
  5
39A
100
AcDbEntity
  8
0
100
AcDbLine
 62
7
  6
CONTINUOUS
 10
14.9077232275
 20
8.2799259943
 11
14.9224104529
 21
8.2795270803
  0
SPLINE
  5
39B
100
AcDbEntity
  8
0
100
AcDbSpline
 62
7
  6
CONTINUOUS
 70
0
 71
3
 72
22
 73
18
 74
0
 42
0.0000001
 43
0.0000001
 44
0.0000000001
 40
0.0
 40
0.0
 40
0.0
 40
0.0
 40
0.2152623306
 40
0.4106547021
 40
0.5825870496
 40
0.6587936963
 40
0.7279913913
 40
0.7898827371
 40
0.8442069458
 40
0.8907048322
 40
0.9291200532
 40
0.9592504204
 40
0.981024968
 40
0.9887750917
 40
0.9944473752
 40
0.998096815
 40
1.0
 40
1.0
 40
1.0
 40
1.0
 10
14.8538346894
 20
8.2773270748
 30
0.0
 10
14.85501297
 20
8.2774158558
 30
0.0
 10
14.857260447
 20
8.2775895622
 30
0.0
 10
14.8604476623
 20
8.2778514494
 30
0.0
 10
14.8628729264
 20
8.2780651441
 30
0.0
 10
14.8646071632
 20
8.2782287112
 30
0.0
 10
14.8657395031
 20
8.2783410279
 30
0.0
 10
14.8667517005
 20
8.2784474427
 30
0.0
 10
14.8676392778
 20
8.2785474306
 30
0.0
 10
14.868397881
 20
8.2786404328
 30
0.0
 10
14.8690237013
 20
8.278725897
 30
0.0
 10
14.8695132193
 20
8.2788031278
 30
0.0
 10
14.8698353969
 20
8.2788653073
 30
0.0
 10
14.8700221921
 20
8.2789122466
 30
0.0
 10
14.8701122645
 20
8.2789426004
 30
0.0
 10
14.8701666611
 20
8.2789660304
 30
0.0
 10
14.8701923427
 20
8.278990716
 30
0.0
 10
14.8701923427
 20
8.279001163
 30
0.0
  0
LINE
  5
39C
100
AcDbEntity
  8
0
100
AcDbLine
 62
7
  6
CONTINUOUS
 10
14.6220123368
 20
8.2480626281
 11
14.6170720088
 21
8.247381896
  0
LINE
  5
39D
100
AcDbEntity
  8
0
100
AcDbLine
 62
7
  6
CONTINUOUS
 10
15.1379792418
 20
8.2676498746
 11
15.1404700328
 21
8.2672053397
  0
LINE
  5
39E
100
AcDbEntity
  8
0
100
AcDbLine
 62
7
  6
CONTINUOUS
 10
15.1404700328
 20
8.2672053397
 11
15.1434486591
 21
8.2666769034
  0
LINE
  5
39F
100
AcDbEntity
  8
0
100
AcDbLine
 62
7
  6
CONTINUOUS
 10
15.1517430739
 20
8.2652334275
 11
15.1526612189
 21
8.2650757383
  0
LINE
  5
3A0
100
AcDbEntity
  8
0
100
AcDbLine
 62
7
  6
CONTINUOUS
 10
14.7476923427
 20
8.2688194578
 11
14.7389069376
 21
8.2680915698
  0
LINE
  5
3A1
100
AcDbEntity
  8
0
100
AcDbLine
 62
7
  6
CONTINUOUS
 10
14.7389069376
 20
8.2680915698
 11
14.7376923427
 21
8.2681586747
  0
LINE
  5
3A2
100
AcDbEntity
  8
0
100
AcDbLine
 62
7
  6
CONTINUOUS
 10
14.7014104624
 20
8.2626371872
 11
14.6954104624
 21
8.261452384
  0
SPLINE
  5
3A3
100
AcDbEntity
  8
0
100
AcDbSpline
 62
7
  6
CONTINUOUS
 70
0
 71
3
 72
25
 73
21
 74
0
 42
0.0000001
 43
0.0000001
 44
0.0000000001
 40
0.0
 40
0.0
 40
0.0
 40
0.0
 40
0.0699584705
 40
0.1378535292
 40
0.2035048267
 40
0.2667884618
 40
0.3277280361
 40
0.3865425848
 40
0.415306355
 40
0.4437422979
 40
0.4999991229
 40
0.5562559621
 40
0.5846919149
 40
0.6134557003
 40
0.6722702978
 40
0.7332098685
 40
0.7964934794
 40
0.8621451066
 40
0.9300409971
 40
1.0
 40
1.0
 40
1.0
 40
1.0
 10
14.5586611396
 20
6.0556146946
 30
0.0
 10
14.5513822997
 20
6.0628725632
 30
0.0
 10
14.5367302569
 20
6.0768704284
 30
0.0
 10
14.5140293083
 20
6.0963570591
 30
0.0
 10
14.4908963821
 20
6.1137537998
 30
0.0
 10
14.4673189313
 20
6.1287343942
 30
0.0
 10
14.443296657
 20
6.1409302963
 30
0.0
 10
14.4227819392
 20
6.1485490656
 30
0.0
 10
14.4062747848
 20
6.1528518468
 30
0.0
 10
14.3898779084
 20
6.1559208346
 30
0.0
 10
14.3691464554
 20
6.1575123081
 30
0.0
 10
14.3484150048
 20
6.1559207897
 30
0.0
 10
14.3320181284
 20
6.1528517688
 30
0.0
 10
14.3155109806
 20
6.1485489159
 30
0.0
 10
14.294996287
 20
6.1409300636
 30
0.0
 10
14.270974001
 20
6.1287341923
 30
0.0
 10
14.2473964335
 20
6.1137536905
 30
0.0
 10
14.2242635465
 20
6.0963565942
 30
0.0
 10
14.2015629473
 20
6.0768691699
 30
0.0
 10
14.1869109843
 20
6.0628709451
 30
0.0
 10
14.1796320909
 20
6.0556130193
 30
0.0
  0
LINE
  5
3A4
100
AcDbEntity
  8
0
100
AcDbLine
 62
7
  6
CONTINUOUS
 10
14.6675475546
 20
8.2567799551
 11
14.662993733
 21
8.2559759141
  0
LINE
  5
3A5
100
AcDbEntity
  8
0
100
AcDbLine
 62
7
  6
CONTINUOUS
 10
14.6526176765
 20
8.2541619945
 11
14.6220123368
 21
8.2490842586
  0
SPLINE
  5
3A6
100
AcDbEntity
  8
0
100
AcDbSpline
 62
7
  6
CONTINUOUS
 70
0
 71
3
 72
25
 73
21
 74
0
 42
0.0000001
 43
0.0000001
 44
0.0000000001
 40
0.0
 40
0.0
 40
0.0
 40
0.0
 40
0.0699587339
 40
0.1378541491
 40
0.2035056208
 40
0.2667893059
 40
0.3277289415
 40
0.3865435728
 40
0.4153073815
 40
0.4437433605
 40
0.5000002522
 40
0.5562571444
 40
0.5846931225
 40
0.6134569297
 40
0.672271558
 40
0.7332112077
 40
0.7964949266
 40
0.8621463057
 40
0.9300414477
 40
1.0
 40
1.0
 40
1.0
 40
1.0
 10
15.6957524105
 20
6.0556142346
 30
0.0
 10
15.6884735607
 20
6.0628721169
 30
0.0
 10
15.6738215619
 20
6.0768700927
 30
0.0
 10
15.6511207567
 20
6.0963569731
 30
0.0
 10
15.6279878648
 20
6.1137538074
 30
0.0
 10
15.6044103947
 20
6.1287343411
 30
0.0
 10
15.580388141
 20
6.1409302142
 30
0.0
 10
15.5598734542
 20
6.1485490064
 30
0.0
 10
15.5433663198
 20
6.1528518124
 30
0.0
 10
15.526969461
 20
6.1559208137
 30
0.0
 10
15.5062380311
 20
6.1575123082
 30
0.0
 10
15.4855066021
 20
6.1559208102
 30
0.0
 10
15.4691097425
 20
6.1528518153
 30
0.0
 10
15.4526026077
 20
6.1485490147
 30
0.0
 10
15.4320879113
 20
6.1409302433
 30
0.0
 10
15.4080656618
 20
6.1287343411
 30
0.0
 10
15.3844882369
 20
6.1137537517
 30
0.0
 10
15.3613553321
 20
6.0963570247
 30
0.0
 10
15.338654407
 20
6.0768704092
 30
0.0
 10
15.3240023789
 20
6.0628725562
 30
0.0
 10
15.316723546
 20
6.0556146946
 30
0.0
  0
SPLINE
  5
3A7
100
AcDbEntity
  8
0
100
AcDbSpline
 62
7
  6
CONTINUOUS
 70
0
 71
3
 72
19
 73
15
 74
0
 42
0.0000001
 43
0.0000001
 44
0.0000000001
 40
0.0
 40
0.0
 40
0.0
 40
0.0
 40
0.1249812597
 40
0.1874945218
 40
0.2500015004
 40
0.3749635268
 40
0.4374820417
 40
0.5000000001
 40
0.5625179586
 40
0.6250364734
 40
0.7499984997
 40
0.8125054783
 40
0.8750187403
 40
1.0
 40
1.0
 40
1.0
 40
1.0
 10
15.3167216946
 20
6.0556146946
 30
0.0
 10
15.2872073032
 20
6.0703293885
 30
0.0
 10
15.2421247729
 20
6.090879786
 30
0.0
 10
15.1803327895
 20
6.1140524336
 30
0.0
 10
15.1174258105
 20
6.1339665221
 30
0.0
 10
15.052801889
 20
6.1482738895
 30
0.0
 10
14.9871949964
 20
6.1556232825
 30
0.0
 10
14.9376923427
 20
6.1575040028
 30
0.0
 10
14.8881896888
 20
6.1556232833
 30
0.0
 10
14.8225827963
 20
6.1482738907
 30
0.0
 10
14.7579588751
 20
6.1339665219
 30
0.0
 10
14.6950518961
 20
6.1140524335
 30
0.0
 10
14.6332599127
 20
6.0908797861
 30
0.0
 10
14.5881773826
 20
6.0703293884
 30
0.0
 10
14.5586629911
 20
6.0556146946
 30
0.0
  0
LINE
  5
3A8
100
AcDbEntity
  8
0
100
AcDbLine
 62
7
  6
CONTINUOUS
 10
15.2456923427
 20
8.251023467
 11
15.2430200106
 21
8.251406869
  0
LINE
  5
3A9
100
AcDbEntity
  8
0
100
AcDbLine
 62
7
  6
CONTINUOUS
 10
15.2430200106
 20
8.251406869
 11
15.2397233252
 21
8.2518863451
  0
LINE
  5
3AA
100
AcDbEntity
  8
0
100
AcDbLine
 62
7
  6
CONTINUOUS
 10
15.2397233252
 20
8.2518863184
 11
15.2311611242
 21
8.2531891513
  0
LINE
  5
3AB
100
AcDbEntity
  8
0
100
AcDbLine
 62
7
  6
CONTINUOUS
 10
14.6170314228
 20
8.2484007381
 11
14.6192551638
 21
8.2486943806
  0
LINE
  5
3AC
100
AcDbEntity
  8
0
100
AcDbLine
 62
7
  6
CONTINUOUS
 10
15.2456923427
 20
8.250003244
 11
15.2430230273
 21
8.2503862717
  0
LINE
  5
3AD
100
AcDbEntity
  8
0
100
AcDbLine
 62
7
  6
CONTINUOUS
 10
15.2430230273
 20
8.2503862717
 11
15.2397233252
 21
8.2508666047
  0
SPLINE
  5
3AE
100
AcDbEntity
  8
0
100
AcDbSpline
 62
7
  6
CONTINUOUS
 70
0
 71
3
 72
21
 73
17
 74
0
 42
0.0000001
 43
0.0000001
 44
0.0000000001
 40
0.0
 40
0.0
 40
0.0
 40
0.0
 40
0.219726617
 40
0.4169033687
 40
0.5888123594
 40
0.664510237
 40
0.7330370741
 40
0.7941532062
 40
0.8476200319
 40
0.8932020522
 40
0.9307297208
 40
0.9601313876
 40
0.9813603251
 40
0.9944328806
 40
0.9980186541
 40
1.0
 40
1.0
 40
1.0
 40
1.0
 10
14.9190391141
 20
8.2805735654
 30
0.0
 10
14.9180955778
 20
8.2805884445
 30
0.0
 10
14.916305391
 20
8.2806203311
 30
0.0
 10
14.9137772873
 20
8.2806782379
 30
0.0
 10
14.9118678858
 20
8.2807341644
 30
0.0
 10
14.9105110772
 20
8.2807832586
 30
0.0
 10
14.9096299635
 20
8.2808198717
 30
0.0
 10
14.9088444627
 20
8.2808577015
 30
0.0
 10
14.9081577182
 20
8.2808965529
 30
0.0
 10
14.9075724292
 20
8.2809363144
 30
0.0
 10
14.9070910788
 20
8.2809765685
 30
0.0
 10
14.9067140991
 20
8.2810173426
 30
0.0
 10
14.9064444476
 20
8.2810566074
 30
0.0
 10
14.9062834722
 20
8.2810935666
 30
0.0
 10
14.9062109836
 20
8.2811235369
 30
0.0
 10
14.9061923427
 20
8.2811439233
 30
0.0
 10
14.9061923427
 20
8.2811524325
 30
0.0
  0
SPLINE
  5
3AF
100
AcDbEntity
  8
0
100
AcDbSpline
 62
7
  6
CONTINUOUS
 70
0
 71
3
 72
39
 73
35
 74
0
 42
0.0000001
 43
0.0000001
 44
0.0000000001
 40
0.0
 40
0.0
 40
0.0
 40
0.0
 40
0.0065052218
 40
0.0137074757
 40
0.0216216289
 40
0.0302557464
 40
0.0496855324
 40
0.0719523167
 40
0.0969632124
 40
0.1245907095
 40
0.1546705832
 40
0.1870254804
 40
0.2214479106
 40
0.2577167976
 40
0.2955980622
 40
0.3348389083
 40
0.4163564197
 40
0.5001036373
 40
0.5838466067
 40
0.6653516493
 40
0.7045834872
 40
0.7424539835
 40
0.7787104155
 40
0.8131192807
 40
0.8454589638
 40
0.8755226998
 40
0.9031330418
 40
0.9281254686
 40
0.9503733361
 40
0.9697833277
 40
0.9784074455
 40
0.986311729
 40
0.9935042692
 40
1.0
 40
1.0
 40
1.0
 40
1.0
 10
11.6942668345
 20
10.2256276845
 30
0.0
 10
11.6915370302
 20
10.2237083826
 30
0.0
 10
11.6856065275
 20
10.2199155952
 30
0.0
 10
11.6758776254
 20
10.214577174
 30
0.0
 10
11.6648848619
 20
10.2093117787
 30
0.0
 10
11.6478842147
 20
10.2021155887
 30
0.0
 10
11.6235237948
 20
10.1934949381
 30
0.0
 10
11.5906567622
 20
10.1839266711
 30
0.0
 10
11.5533093915
 20
10.1748475484
 30
0.0
 10
11.5117342348
 20
10.1663254768
 30
0.0
 10
11.4662107744
 20
10.158416157
 30
0.0
 10
11.4170499743
 20
10.1511844311
 30
0.0
 10
11.3645883327
 20
10.1446758623
 30
0.0
 10
11.3091863889
 20
10.1389393357
 30
0.0
 10
11.2512254514
 20
10.1340174733
 30
0.0
 10
11.1700309142
 20
10.1285127534
 30
0.0
 10
11.0652062184
 20
10.1239547197
 30
0.0
 10
10.9374680824
 20
10.1221377945
 30
0.0
 10
10.8097365241
 20
10.1239674586
 30
0.0
 10
10.7049254846
 20
10.1285359689
 30
0.0
 10
10.6237480798
 20
10.134048863
 30
0.0
 10
10.5658042095
 20
10.1389763483
 30
0.0
 10
10.5104218273
 20
10.1447185797
 30
0.0
 10
10.4579821054
 20
10.1512320613
 30
0.0
 10
10.4088453293
 20
10.1584688407
 30
0.0
 10
10.3633479075
 20
10.166382693
 30
0.0
 10
10.321800655
 20
10.1749087567
 30
0.0
 10
10.2844830575
 20
10.1839920013
 30
0.0
 10
10.2516474389
 20
10.1935633188
 30
0.0
 10
10.2273144401
 20
10.2021867898
 30
0.0
 10
10.21033682
 20
10.2093852221
 30
0.0
 10
10.1993614402
 20
10.2146518199
 30
0.0
 10
10.1896501351
 20
10.2199913496
 30
0.0
 10
10.1837318727
 20
10.2237850566
 30
0.0
 10
10.1810083392
 20
10.2257048087
 30
0.0
  0
SPLINE
  5
3B0
100
AcDbEntity
  8
0
100
AcDbSpline
 62
7
  6
CONTINUOUS
 70
0
 71
3
 72
9
 73
5
 74
0
 42
0.0000001
 43
0.0000001
 44
0.0000000001
 40
0.0
 40
0.0
 40
0.0
 40
0.0
 40
0.2410097542
 40
1.0
 40
1.0
 40
1.0
 40
1.0
 10
11.6941778082
 20
10.2255260392
 30
0.0
 10
11.69673509
 20
10.2273276935
 30
0.0
 10
11.7072135415
 20
10.2349881907
 30
0.0
 10
11.7171284929
 20
10.243426977
 30
0.0
 10
11.7242314912
 20
10.2502531616
 30
0.0
  0
SPLINE
  5
3B1
100
AcDbEntity
  8
0
100
AcDbSpline
 62
7
  6
CONTINUOUS
 70
0
 71
3
 72
14
 73
10
 74
0
 42
0.0000001
 43
0.0000001
 44
0.0000000001
 40
0.0
 40
0.0
 40
0.0
 40
0.0
 40
0.2298913969
 40
0.3517384962
 40
0.4773193915
 40
0.605405749
 40
0.7351405562
 40
0.8665431663
 40
1.0
 40
1.0
 40
1.0
 40
1.0
 10
11.7242314912
 20
10.2502531616
 30
0.0
 10
11.7335583358
 20
10.2592165261
 30
0.0
 10
11.7467659241
 20
10.2741318268
 30
0.0
 10
11.7615920779
 20
10.2965666269
 30
0.0
 10
11.7714917893
 20
10.3152742433
 30
0.0
 10
11.7796339906
 20
10.3352941488
 30
0.0
 10
11.7856525196
 20
10.3563990589
 30
0.0
 10
11.7893576913
 20
10.3783347887
 30
0.0
 10
11.7901923427
 20
10.3932517403
 30
0.0
 10
11.7901923427
 20
10.4007611796
 30
0.0
  0
SPLINE
  5
3B2
100
AcDbEntity
  8
0
100
AcDbSpline
 62
7
  6
CONTINUOUS
 70
0
 71
3
 72
15
 73
11
 74
0
 42
0.0000001
 43
0.0000001
 44
0.0000000001
 40
0.0
 40
0.0
 40
0.0
 40
0.0
 40
0.1342118796
 40
0.2656021118
 40
0.3950030766
 40
0.5228696391
 40
0.6484787855
 40
0.7705527801
 40
0.8877408973
 40
1.0
 40
1.0
 40
1.0
 40
1.0
 10
10.0851923427
 20
10.4007611796
 30
0.0
 10
10.0851923427
 20
10.3931488833
 30
0.0
 10
10.0860338212
 20
10.3780697806
 30
0.0
 10
10.089806634
 20
10.3559399852
 30
0.0
 10
10.0959361091
 20
10.3347164468
 30
0.0
 10
10.1042373879
 20
10.3146054354
 30
0.0
 10
10.1143210268
 20
10.2958051324
 30
0.0
 10
10.1258033496
 20
10.2785503597
 30
0.0
 10
10.1383770912
 20
10.2630417609
 30
0.0
 10
10.1474570977
 20
10.2536935061
 30
0.0
 10
10.1520757952
 20
10.2493107604
 30
0.0
  0
SPLINE
  5
3B3
100
AcDbEntity
  8
0
100
AcDbSpline
 62
7
  6
CONTINUOUS
 70
0
 71
3
 72
9
 73
5
 74
0
 42
0.0000001
 43
0.0000001
 44
0.0000000001
 40
0.0
 40
0.0
 40
0.0
 40
0.0
 40
0.2581523041
 40
1.0
 40
1.0
 40
1.0
 40
1.0
 10
10.1520757952
 20
10.2493107604
 30
0.0
 10
10.1544081843
 20
10.2470975242
 30
0.0
 10
10.1636191541
 20
10.2387100729
 30
0.0
 10
10.1734666571
 20
10.2310335544
 30
0.0
 10
10.1810125754
 20
10.2257011458
 30
0.0
  0
SPLINE
  5
3B4
100
AcDbEntity
  8
0
100
AcDbSpline
 62
7
  6
CONTINUOUS
 70
0
 71
3
 72
9
 73
5
 74
0
 42
0.0000001
 43
0.0000001
 44
0.0000000001
 40
0.0
 40
0.0
 40
0.0
 40
0.0
 40
0.4840663318
 40
1.0
 40
1.0
 40
1.0
 40
1.0
 10
10.163050952
 20
10.5619837304
 30
0.0
 10
10.1555905775
 20
10.5556817435
 30
0.0
 10
10.1409025915
 20
10.5417760877
 30
0.0
 10
10.128155965
 20
10.5260337931
 30
0.0
 10
10.1222277432
 20
10.5174781547
 30
0.0
  0
SPLINE
  5
3B5
100
AcDbEntity
  8
0
100
AcDbSpline
 62
7
  6
CONTINUOUS
 70
0
 71
3
 72
11
 73
7
 74
0
 42
0.0000001
 43
0.0000001
 44
0.0000000001
 40
0.0
 40
0.0
 40
0.0
 40
0.0
 40
0.240413447
 40
0.4887564704
 40
0.7417654375
 40
1.0
 40
1.0
 40
1.0
 40
1.0
 10
10.1222277432
 20
10.5174781547
 30
0.0
 10
10.1165571664
 20
10.5092943509
 30
0.0
 10
10.1061913355
 20
10.4918211181
 30
0.0
 10
10.0943457527
 20
10.4633577478
 30
0.0
 10
10.0868836474
 20
10.4326671561
 30
0.0
 10
10.0851923427
 20
10.4114556272
 30
0.0
 10
10.0851923427
 20
10.4007611796
 30
0.0
  0
SPLINE
  5
3B6
100
AcDbEntity
  8
0
100
AcDbSpline
 62
7
  6
CONTINUOUS
 70
0
 71
3
 72
10
 73
6
 74
0
 42
0.0000001
 43
0.0000001
 44
0.0000000001
 40
0.0
 40
0.0
 40
0.0
 40
0.0
 40
0.5097103681
 40
0.7547821871
 40
1.0
 40
1.0
 40
1.0
 40
1.0
 10
10.1351456146
 20
10.5328103059
 30
0.0
 10
10.1340998838
 20
10.5351257784
 30
0.0
 10
10.1329606604
 20
10.5387798881
 30
0.0
 10
10.1325984417
 20
10.543766304
 30
0.0
 10
10.132796943
 20
10.5462137437
 30
0.0
 10
10.132985689
 20
10.5474213764
 30
0.0
  0
SPLINE
  5
3B7
100
AcDbEntity
  8
0
100
AcDbSpline
 62
7
  6
CONTINUOUS
 70
0
 71
3
 72
13
 73
9
 74
0
 42
0.0000001
 43
0.0000001
 44
0.0000000001
 40
0.0
 40
0.0
 40
0.0
 40
0.0
 40
0.2603130536
 40
0.3876590211
 40
0.5136842569
 40
0.6385520213
 40
0.7617656397
 40
1.0
 40
1.0
 40
1.0
 40
1.0
 10
11.7901923427
 20
10.4007611796
 30
0.0
 10
11.7901923427
 20
10.4126130108
 30
0.0
 10
11.7886461264
 20
10.4303175334
 30
0.0
 10
11.7835189875
 20
10.4531575316
 30
0.0
 10
11.7782846026
 20
10.4695881149
 30
0.0
 10
11.7717358283
 20
10.4853338423
 30
0.0
 10
11.7616279246
 20
10.5050503842
 30
0.0
 10
11.7524907047
 20
10.5188325251
 30
0.0
 10
11.7458366218
 20
10.5273982748
 30
0.0
  0
SPLINE
  5
3B8
100
AcDbEntity
  8
0
100
AcDbSpline
 62
7
  6
CONTINUOUS
 70
0
 71
3
 72
9
 73
5
 74
0
 42
0.0000001
 43
0.0000001
 44
0.0000000001
 40
0.0
 40
0.0
 40
0.0
 40
0.0
 40
0.5152002489
 40
1.0
 40
1.0
 40
1.0
 40
1.0
 10
11.7347152773
 20
10.5405911161
 30
0.0
 10
11.7284329477
 20
10.5474725107
 30
0.0
 10
11.7153784532
 20
10.5600646836
 30
0.0
 10
11.7010372113
 20
10.5711330159
 30
0.0
 10
11.6938660646
 20
10.5761780194
 30
0.0
  0
SPLINE
  5
3B9
100
AcDbEntity
  8
0
100
AcDbSpline
 62
7
  6
CONTINUOUS
 70
0
 71
3
 72
9
 73
5
 74
0
 42
0.0000001
 43
0.0000001
 44
0.0000000001
 40
0.0
 40
0.0
 40
0.0
 40
0.0
 40
0.4909452521
 40
1.0
 40
1.0
 40
1.0
 40
1.0
 10
11.742399001
 20
10.5474213473
 30
0.0
 10
11.7427578204
 20
10.5451255289
 30
0.0
 10
11.7428136487
 20
10.5403147157
 30
0.0
 10
11.7414750493
 20
10.5357066702
 30
0.0
 10
11.740535568
 20
10.5334879768
 30
0.0
  0
SPLINE
  5
3BA
100
AcDbEntity
  8
0
100
AcDbSpline
 62
7
  6
CONTINUOUS
 70
0
 71
3
 72
20
 73
16
 74
0
 42
0.0000001
 43
0.0000001
 44
0.0000000001
 40
0.0
 40
0.0
 40
0.0
 40
0.0
 40
0.1613075448
 40
0.3188621343
 40
0.4689574973
 40
0.5401216463
 40
0.6081698452
 40
0.6727147816
 40
0.7333736308
 40
0.7897855439
 40
0.8416837518
 40
0.8888426346
 40
0.9310547227
 40
0.968143075
 40
1.0
 40
1.0
 40
1.0
 40
1.0
 10
10.9376923442
 20
10.6834556724
 30
0.0
 10
10.9792059315
 20
10.6834556706
 30
0.0
 10
11.0612717254
 20
10.6823467906
 30
0.0
 10
11.1818757373
 20
10.6774465411
 30
0.0
 10
11.2791460549
 20
10.6706351374
 30
0.0
 10
11.3532659642
 20
10.6635411594
 30
0.0
 10
11.405370403
 20
10.6576050372
 30
0.0
 10
11.4546676483
 20
10.6509959181
 30
0.0
 10
11.5008475645
 20
10.6437526811
 30
0.0
 10
11.5436246478
 20
10.6359057705
 30
0.0
 10
11.5827527595
 20
10.627513351
 30
0.0
 10
11.6180179788
 20
10.6186362941
 30
0.0
 10
11.6492190282
 20
10.6093324957
 30
0.0
 10
11.6761591469
 20
10.599664337
 30
0.0
 10
11.6924039084
 20
10.5924583904
 30
0.0
 10
11.6997053325
 20
10.588729293
 30
0.0
  0
SPLINE
  5
3BB
100
AcDbEntity
  8
0
100
AcDbSpline
 62
7
  6
CONTINUOUS
 70
0
 71
3
 72
14
 73
10
 74
0
 42
0.0000001
 43
0.0000001
 44
0.0000000001
 40
0.0
 40
0.0
 40
0.0
 40
0.0
 40
0.3240085829
 40
0.4649871613
 40
0.592793934
 40
0.7084589387
 40
0.8134339947
 40
0.9097262019
 40
1.0
 40
1.0
 40
1.0
 40
1.0
 10
11.7030393226
 20
10.5869890615
 30
0.0
 10
11.7085267311
 20
10.5840607415
 30
0.0
 10
11.716233308
 20
10.579496683
 30
0.0
 10
11.7253320124
 20
10.5726450497
 30
0.0
 10
11.7308287494
 20
10.5677032966
 30
0.0
 10
11.7353135453
 20
10.5627204119
 30
0.0
 10
11.7387771058
 20
10.5576929216
 30
0.0
 10
11.7412031547
 20
10.5526210458
 30
0.0
 10
11.7421314024
 20
10.5491335119
 30
0.0
 10
11.742399001
 20
10.5474213473
 30
0.0
  0
LINE
  5
3BC
100
AcDbEntity
  8
0
100
AcDbLine
 62
7
  6
CONTINUOUS
 10
10.9376925271
 20
6.8756694758
 11
10.9376924922
 21
10.1289491451
  0
SPLINE
  5
3BD
100
AcDbEntity
  8
0
100
AcDbSpline
 62
7
  6
CONTINUOUS
 70
0
 71
3
 72
13
 73
9
 74
0
 42
0.0000001
 43
0.0000001
 44
0.0000000001
 40
0.0
 40
0.0
 40
0.0
 40
0.0
 40
0.310147812
 40
0.4469249555
 40
0.5727653133
 40
0.7970455057
 40
0.9000008047
 40
1.0
 40
1.0
 40
1.0
 40
1.0
 10
10.1810083392
 20
10.2257048087
 30
0.0
 10
10.1775481692
 20
10.2281437979
 30
0.0
 10
10.1727383045
 20
10.2319425142
 30
0.0
 10
10.1672816533
 20
10.2375584862
 30
0.0
 10
10.1631457517
 20
10.2427662576
 30
0.0
 10
10.1601332707
 20
10.2482749325
 30
0.0
 10
10.1586317571
 20
10.2539341874
 30
0.0
 10
10.158385393
 20
10.2567102852
 30
0.0
 10
10.158385393
 20
10.2580752275
 30
0.0
  0
SPLINE
  5
3BE
100
AcDbEntity
  8
0
100
AcDbSpline
 62
9
  6
CONTINUOUS
 70
0
 71
3
 72
12
 73
8
 74
0
 42
0.0000001
 43
0.0000001
 44
0.0000000001
 40
0.0
 40
0.0
 40
0.0
 40
0.0
 40
0.2479502092
 40
0.4958785393
 40
0.7459005036
 40
0.8723650858
 40
1.0
 40
1.0
 40
1.0
 40
1.0
 10
10.2445368282
 20
12.3647846708
 30
0.0
 10
10.2390532828
 20
12.333534765
 30
0.0
 10
10.2333681799
 20
12.2699599717
 30
0.0
 10
10.2415844925
 20
12.1744220535
 30
0.0
 10
10.2619043037
 20
12.0967240029
 30
0.0
 10
10.285837726
 20
12.0367618174
 30
0.0
 10
10.3003528937
 20
12.0076174678
 30
0.0
 10
10.3082087619
 20
11.9932989772
 30
0.0
  0
SPLINE
  5
3BF
100
AcDbEntity
  8
0
100
AcDbSpline
 62
7
  6
CONTINUOUS
 70
0
 71
3
 72
39
 73
35
 74
0
 42
0.0000001
 43
0.0000001
 44
0.0000000001
 40
0.0
 40
0.0
 40
0.0
 40
0.0
 40
0.0065101944
 40
0.0137167158
 40
0.0216343075
 40
0.0302709593
 40
0.0497028779
 40
0.0719677248
 40
0.0969727285
 40
0.1245905427
 40
0.1546572599
 40
0.186995901
 40
0.2213994167
 40
0.2576472137
 40
0.2955057592
 40
0.3347228189
 40
0.4161919335
 40
0.4998937583
 40
0.5835992648
 40
0.6650794453
 40
0.7043048891
 40
0.7421736596
 40
0.7784334694
 40
0.8128510477
 40
0.8452051961
 40
0.8752891671
 40
0.9029256351
 40
0.9279501154
 40
0.950235483
 40
0.969688179
 40
0.978335217
 40
0.9862631743
 40
0.9934799087
 40
1.0
 40
1.0
 40
1.0
 40
1.0
 10
11.6938723909
 20
10.5761719748
 30
0.0
 10
11.6911404689
 20
10.5780885106
 30
0.0
 10
11.6852069418
 20
10.5818758441
 30
0.0
 10
11.6754758014
 20
10.5872069953
 30
0.0
 10
11.6644835385
 20
10.5924651808
 30
0.0
 10
11.6474884706
 20
10.5996510028
 30
0.0
 10
11.62314213
 20
10.6082595091
 30
0.0
 10
11.5903000987
 20
10.6178147883
 30
0.0
 10
11.5529875371
 20
10.6268816588
 30
0.0
 10
11.5114563601
 20
10.6353924839
 30
0.0
 10
11.4659853109
 20
10.6432917125
 30
0.0
 10
11.4168844825
 20
10.6505146966
 30
0.0
 10
11.3644894122
 20
10.6570160094
 30
0.0
 10
11.3091595862
 20
10.6627469159
 30
0.0
 10
11.2512751848
 20
10.6676648808
 30
0.0
 10
11.1701880286
 20
10.6731668257
 30
0.0
 10
11.0654994682
 20
10.6777262784
 30
0.0
 10
10.9379208932
 20
10.679552364
 30
0.0
 10
10.8103364622
 20
10.677739201
 30
0.0
 10
10.705635576
 20
10.6731904843
 30
0.0
 10
10.624532597
 20
10.6676970936
 30
0.0
 10
10.5666319281
 20
10.6627851997
 30
0.0
 10
10.5112828251
 20
10.6570598438
 30
0.0
 10
10.458865587
 20
10.6505641295
 30
0.0
 10
10.4097397862
 20
10.6433460242
 30
0.0
 10
10.3642412066
 20
10.6354513716
 30
0.0
 10
10.3226801924
 20
10.6269447823
 30
0.0
 10
10.2853359086
 20
10.6178812498
 30
0.0
 10
10.2524605264
 20
10.6083292048
 30
0.0
 10
10.2280852747
 20
10.5997231982
 30
0.0
 10
10.2110663317
 20
10.5925392367
 30
0.0
 10
10.2000560226
 20
10.5872820492
 30
0.0
 10
10.1903066276
 20
10.5819517631
 30
0.0
 10
10.1843604722
 20
10.5781651272
 30
0.0
 10
10.1816221352
 20
10.5762489061
 30
0.0
  0
SPLINE
  5
3C0
100
AcDbEntity
  8
0
100
AcDbSpline
 62
7
  6
CONTINUOUS
 70
0
 71
3
 72
47
 73
43
 74
0
 42
0.0000001
 43
0.0000001
 44
0.0000000001
 40
0.0
 40
0.0
 40
0.0
 40
0.0
 40
0.0041327031
 40
0.0085727964
 40
0.0135624507
 40
0.0192708576
 40
0.0258081994
 40
0.0332399369
 40
0.0416022405
 40
0.0509143271
 40
0.0611844985
 40
0.0724093506
 40
0.0845753434
 40
0.0976651587
 40
0.1265310041
 40
0.158791464
 40
0.1941799712
 40
0.2323898332
 40
0.273076713
 40
0.3158728993
 40
0.4061890211
 40
0.4999976413
 40
0.5938059588
 40
0.6841213973
 40
0.7269173886
 40
0.7676041594
 40
0.8058144528
 40
0.8412033504
 40
0.8734648266
 40
0.9023314375
 40
0.9154217707
 40
0.9275883128
 40
0.9388136051
 40
0.9490840492
 40
0.9583964818
 40
0.9667591612
 40
0.9741912235
 40
0.9807287768
 40
0.9864373434
 40
0.9914271191
 40
0.9958672803
 40
1.0
 40
1.0
 40
1.0
 40
1.0
 10
10.158385393
 20
10.2580752275
 30
0.0
 10
10.158385393
 20
10.2603081483
 30
0.0
 10
10.1590727286
 20
10.2649616484
 30
0.0
 10
10.162052997
 20
10.2717301134
 30
0.0
 10
10.1668978706
 20
10.2783803808
 30
0.0
 10
10.173563752
 20
10.2849277205
 30
0.0
 10
10.1820378143
 20
10.2913832357
 30
0.0
 10
10.1923042926
 20
10.2977489642
 30
0.0
 10
10.2043443082
 20
10.3040192753
 30
0.0
 10
10.2181358201
 20
10.310182168
 30
0.0
 10
10.233652279
 20
10.3162225213
 30
0.0
 10
10.2508590279
 20
10.3221263026
 30
0.0
 10
10.2697143907
 20
10.3278810991
 30
0.0
 10
10.2979261594
 20
10.3355886415
 30
0.0
 10
10.3370105608
 20
10.3446237844
 30
0.0
 10
10.3882537664
 20
10.3543467693
 30
0.0
 10
10.4447743008
 20
10.3631689521
 30
0.0
 10
10.5060310601
 20
10.3710020695
 30
0.0
 10
10.5714391143
 20
10.3777688175
 30
0.0
 10
10.6650383187
 20
10.3854090884
 30
0.0
 10
10.7875130642
 20
10.3917277782
 30
0.0
 10
10.9376883016
 20
10.3942510651
 30
0.0
 10
11.0878631783
 20
10.3917280687
 30
0.0
 10
11.2103372879
 20
10.3854095575
 30
0.0
 10
11.3039359993
 20
10.3777697745
 30
0.0
 10
11.3693441166
 20
10.3710029942
 30
0.0
 10
11.4306013267
 20
10.3631703481
 30
0.0
 10
11.4871228308
 20
10.3543479542
 30
0.0
 10
11.5383672968
 20
10.3446253084
 30
0.0
 10
11.5774529055
 20
10.3355898655
 30
0.0
 10
11.605665691
 20
10.3278822949
 30
0.0
 10
11.6245219003
 20
10.322127484
 30
0.0
 10
11.6417293657
 20
10.3162236827
 30
0.0
 10
11.6572463678
 20
10.3101831464
 30
0.0
 10
11.6710384205
 20
10.3040201495
 30
0.0
 10
11.6830790072
 20
10.2977497136
 30
0.0
 10
11.693345991
 20
10.2913838578
 30
0.0
 10
11.7018203444
 20
10.2849280976
 30
0.0
 10
11.708486424
 20
10.2783805847
 30
0.0
 10
11.7133314833
 20
10.271730223
 30
0.0
 10
11.7163119041
 20
10.2649617028
 30
0.0
 10
11.7169992925
 20
10.2603081573
 30
0.0
 10
11.7169992925
 20
10.2580752275
 30
0.0
  0
SPLINE
  5
3C1
100
AcDbEntity
  8
0
100
AcDbSpline
 62
7
  6
CONTINUOUS
 70
0
 71
3
 72
13
 73
9
 74
0
 42
0.0000001
 43
0.0000001
 44
0.0000000001
 40
0.0
 40
0.0
 40
0.0
 40
0.0
 40
0.0999192213
 40
0.2028054234
 40
0.4270124817
 40
0.5528602787
 40
0.6896768907
 40
1.0
 40
1.0
 40
1.0
 40
1.0
 10
11.7169992925
 20
10.2580752275
 30
0.0
 10
11.7169992925
 20
10.2567069227
 30
0.0
 10
11.716751699
 20
10.2539237794
 30
0.0
 10
11.7152425659
 20
10.2482498101
 30
0.0
 10
11.7122150129
 20
10.242727825
 30
0.0
 10
11.7080595389
 20
10.2375083604
 30
0.0
 10
11.7025758786
 20
10.2318787052
 30
0.0
 10
11.6977431851
 20
10.2280718768
 30
0.0
 10
11.6942668345
 20
10.2256276845
 30
0.0
  0
LINE
  5
3C2
100
AcDbEntity
  8
0
100
AcDbLine
 62
9
  6
CONTINUOUS
 10
9.8141503905
 20
6.8756694616
 11
10.9376923442
 21
6.8756694759
  0
LINE
  5
3C3
100
AcDbEntity
  8
0
100
AcDbLine
 62
7
  6
CONTINUOUS
 10
10.9376911667
 20
13.1666695284
 11
10.9376910915
 21
11.9300321081
  0
LINE
  5
3C4
100
AcDbEntity
  8
0
100
AcDbLine
 62
7
  6
CONTINUOUS
 10
10.9376910915
 20
11.9300321081
 11
10.9376908321
 21
10.683456259
  0
SPLINE
  5
3C5
100
AcDbEntity
  8
0
100
AcDbSpline
 62
9
  6
CONTINUOUS
 70
0
 71
3
 72
12
 73
8
 74
0
 42
0.0000001
 43
0.0000001
 44
0.0000000001
 40
0.0
 40
0.0
 40
0.0
 40
0.0
 40
0.2479494314
 40
0.4958772655
 40
0.7458993788
 40
0.8723643918
 40
1.0
 40
1.0
 40
1.0
 40
1.0
 10
11.6308482377
 20
12.3647825026
 30
0.0
 10
11.6363322234
 20
12.333529371
 30
0.0
 10
11.6420171035
 20
12.2699478704
 30
0.0
 10
11.6337969718
 20
12.1744001656
 30
0.0
 10
11.6134713198
 20
12.0966947771
 30
0.0
 10
11.5895317486
 20
12.0367275118
 30
0.0
 10
11.57501303
 20
12.0075809179
 30
0.0
 10
11.567155295
 20
11.9932613816
 30
0.0
  0
LINE
  5
3C6
100
AcDbEntity
  8
0
100
AcDbLine
 62
9
  6
CONTINUOUS
 10
12.0612342949
 20
6.8756694617
 11
10.9376925271
 21
6.8756694758
  0
SPLINE
  5
3C7
100
AcDbEntity
  8
0
100
AcDbSpline
 62
7
  6
CONTINUOUS
 70
0
 71
3
 72
14
 73
10
 74
0
 42
0.0000001
 43
0.0000001
 44
0.0000000001
 40
0.0
 40
0.0
 40
0.0
 40
0.0
 40
0.0906348233
 40
0.1872211819
 40
0.2923902654
 40
0.408131886
 40
0.5358913095
 40
0.6766980323
 40
1.0
 40
1.0
 40
1.0
 40
1.0
 10
10.132985689
 20
10.5474213764
 30
0.0
 10
10.1332504655
 20
10.5491154673
 30
0.0
 10
10.1341644563
 20
10.5525650257
 30
0.0
 10
10.1365480549
 20
10.5575842935
 30
0.0
 10
10.1399483334
 20
10.5625606089
 30
0.0
 10
10.1443494639
 20
10.567493545
 30
0.0
 10
10.1497423159
 20
10.5723863949
 30
0.0
 10
10.1586643459
 20
10.5791688312
 30
0.0
 10
10.1662250598
 20
10.5836917147
 30
0.0
 10
10.1716089119
 20
10.5865940561
 30
0.0
  0
SPLINE
  5
3C8
100
AcDbEntity
  8
0
100
AcDbSpline
 62
7
  6
CONTINUOUS
 70
0
 71
3
 72
20
 73
16
 74
0
 42
0.0000001
 43
0.0000001
 44
0.0000000001
 40
0.0
 40
0.0
 40
0.0
 40
0.0
 40
0.0318433185
 40
0.0689198516
 40
0.1111222483
 40
0.1582735869
 40
0.2101663484
 40
0.2665748275
 40
0.3272323008
 40
0.3917778519
 40
0.4598284603
 40
0.5309966111
 40
0.6811039564
 40
0.8386744947
 40
1.0
 40
1.0
 40
1.0
 40
1.0
 10
10.175611004
 20
10.5886943602
 30
0.0
 10
10.182908723
 20
10.5924248024
 30
0.0
 10
10.1991471786
 20
10.5996333277
 30
0.0
 10
10.2260796481
 20
10.6093045362
 30
0.0
 10
10.2572753769
 20
10.618611402
 30
0.0
 10
10.2925375425
 20
10.6274915192
 30
0.0
 10
10.3316647597
 20
10.6358869465
 30
0.0
 10
10.3744430192
 20
10.6437367914
 30
0.0
 10
10.4206261141
 20
10.6509827929
 30
0.0
 10
10.4699284324
 20
10.6575944754
 30
0.0
 10
10.5220396699
 20
10.6635329455
 30
0.0
 10
10.5961714897
 20
10.6706298378
 30
0.0
 10
10.6934595713
 20
10.6774440655
 30
0.0
 10
10.8140873328
 20
10.68234632
 30
0.0
 10
10.8961700098
 20
10.6834556593
 30
0.0
 10
10.9376923442
 20
10.6834556611
 30
0.0
  0
ENDSEC
  0
SECTION
  2
OBJECTS
  0
DICTIONARY
  5
C
100
AcDbDictionary
280
0
281
1
  3
ACAD_GROUP
350
D
  3
ACAD_MLINESTYLE
350
17
  3
ACAD_LAYOUT
350
1A
  3
ACAD_PLOTSETTINGS
350
19
  3
ACAD_PLOTSTYLENAME
350
E
  0
DICTIONARY
  5
D
102
{ACAD_REACTORS
330
C
102
}
100
AcDbDictionary
280
0
281
1
  0
ACDBDICTIONARYWDFLT
  5
E
102
{ACAD_REACTORS
330
C
102
}
100
AcDbDictionary
281
1
  3
Normal
350
F
100
AcDbDictionaryWithDefault
340
F
  0
DICTIONARY
  5
17
102
{ACAD_REACTORS
330
C
102
}
100
AcDbDictionary
280
0
281
1
  3
Standard
350
18
  0
DICTIONARY
  5
19
102
{ACAD_REACTORS
330
C
102
}
100
AcDbDictionary
281
1
  0
DICTIONARY
  5
1A
102
{ACAD_REACTORS
330
C
102
}
100
AcDbDictionary
281
1
  3
Model
350
3C9
  3
Layout1
350
3CA
  0
ACDBPLACEHOLDER
  5
F
102
{ACAD_REACTORS
330
E
102
}
  0
MLINESTYLE
  5
18
102
{ACAD_REACTORS
330
17
102
}
100
AcDbMlineStyle
  2
STANDARD
 70
0
  3

 62
256
 51
90.0
 52
90.0
 71
2
 49
0.5
 62
256
  6
BYLAYER
 49
-0.5
 62
256
  6
BYLAYER
  0
LAYOUT
  5
3C9
102
{ACAD_REACTORS
330
1A
102
}
100
AcDbPlotSettings
  1

  2
none_device
  4
ANSI_C_(22.00_x_17.00_Inches)
  6

 40
0.0
 41
0.0
 42
0.0
 43
0.0
 44
558.8
 45
431.8
 46
0.0
 47
0.0
 48
0.0
 49
0.0
140
0.0
141
0.0
142
1.0
143
1.0
 70
1024
 72
0
 73
0
 74
0
  7

 75
0
147
1.0
148
0.0
149
0.0
100
AcDbLayout
  1
Model
 70
0
 71
0
 10
0.0
 20
0.0
 11
22.0
 21
17.0
 12
0.0
 22
0.0
 32
0.0
 14
0.0
 24
0.0
 34
0.0
 15
0.0
 25
0.0
 35
0.0
146
0.0
 13
0.0
 23
0.0
 33
0.0
 16
1.0
 26
0.0
 36
0.0
 17
0.0
 27
1.0
 37
0.0
 76
0
330
202
345
0
346
0
  0
LAYOUT
  5
3CA
102
{ACAD_REACTORS
330
1A
102
}
100
AcDbPlotSettings
  1

  2
none_device
  4
ANSI_C_(22.00_x_17.00_Inches)
  6

 40
0.0
 41
0.0
 42
0.0
 43
0.0
 44
558.8
 45
431.8
 46
0.0
 47
0.0
 48
0.0
 49
0.0
140
0.0
141
0.0
142
1.0
143
1.0
 70
0
 72
0
 73
0
 74
0
  7

 75
0
147
1.0
148
0.0
149
0.0
100
AcDbLayout
  1
Layout1
 70
0
 71
1
 10
0.0
 20
0.0
 11
22.0
 21
17.0
 12
0.0
 22
0.0
 32
0.0
 14
0.0
 24
0.0
 34
0.0
 15
0.0
 25
0.0
 35
0.0
146
0.0
 13
0.0
 23
0.0
 33
0.0
 16
1.0
 26
0.0
 36
0.0
 17
0.0
 27
1.0
 37
0.0
 76
0
330
203
345
0
346
0
  0
ENDSEC
  0
EOF
