999
DXF file: E:\BT Custom\CADOUTPUT\_TOP.dxf
999
Pro/ENGINEER 2018400 by Parametric Technology Corporation
  0
SECTION
  2
HEADER
  9
$ACADVER
  1
AC1018
  9
$DWGCODEPAGE
  3
ANSI_1252
  9
$EXTMAX
 10
22.0
 20
17.0
 30
0.0
  9
$EXTMIN
 10
0.0
 20
0.0
 30
0.0
  9
$LIMMIN
 10
0.0
 20
0.0
  9
$LIMMAX
 10
22.0
 20
17.0
  9
$VIEWCTR
 10
11.0
 20
8.5
  9
$VIEWSIZE
 40
17.0
  9
$CLAYER
  8
0
  9
$LTSCALE
 40
1.21
  9
$CELTYPE
  6
BYLAYER
  9
$DIMSCALE
 40
1.0
  9
$DIMASZ
 40
0.1
  9
$DIMEXO
 40
0.0625
  9
$DIMDLI
 40
0.836
  9
$DIMEXE
 40
0.125
  9
$DIMCEN
 40
0.198
  9
$DIMLFAC
 40
1.0
  9
$DIMBLK
  1
_FILLED
  9
$DIMALT
 70
1
  9
$DIMALTD
 70
2
  9
$DIMALTTD
 70
2
  9
$DIMALTF
 40
25.4
  9
$DIMTXT
 40
0.08
  9
$DIMTOL
 70
1
  9
$DIMLIM
 70
0
  9
$DIMTFAC
 40
1.0
  9
$DIMTP
 40
0.001
  9
$DIMTM
 40
0.001
  9
$DIMGAP
 40
0.09
  9
$DIMDSEP
 70
46
  9
$AUNITS
 70
0
  9
$PDMODE
 70
3
  9
$PDSIZE
 40
0.06
  9
$HANDSEED
  5
369
  9
$TILEMODE
 70
1
  9
$MEASUREMENT
 70
0
  9
$INSUNITS
 70
1
  0
ENDSEC
  0
SECTION
  2
CLASSES
  0
CLASS
  1
ACDBDICTIONARYWDFLT
  2
AcDbDictionaryWithDefault
  3
AutoCAD 2000
 90
0
 91
1
280
0
281
0
  0
CLASS
  1
ACDBPLACEHOLDER
  2
AcDbPlaceHolder
  3
AutoCAD 2000
 90
0
 91
1
280
0
281
0
  0
CLASS
  1
LAYOUT
  2
AcDbLayout
  3
AutoCAD 2000
 90
0
 91
0
280
0
281
0
  0
ENDSEC
  0
SECTION
  2
TABLES
  0
TABLE
  2
VPORT
  5
8
100
AcDbSymbolTable
 70
2
  0
VPORT
  5
1F4
100
AcDbSymbolTableRecord
100
AcDbViewportTableRecord
  2
*ACTIVE
 70
0
 10
0.0
 20
0.0
 11
1.0
 21
1.0
 12
11.0
 22
8.5
 13
0.0
 23
0.0
 14
1.0
 24
1.0
 15
0.0
 25
0.0
 16
0.0
 26
0.0
 36
1.0
 17
0.0
 27
0.0
 37
0.0
 40
17.0
 41
1.2941176471
 42
50.0
 43
0.0
 44
0.0
 50
0.0
 51
0.0
 71
0
 72
100
 73
1
 74
1
 75
0
 76
0
 77
0
 78
0
  0
ENDTAB
  0
TABLE
  2
LTYPE
  5
5
100
AcDbSymbolTable
 70
6
  0
LTYPE
  5
14
100
AcDbSymbolTableRecord
100
AcDbLinetypeTableRecord
  2
BYBLOCK
 70
0
  3

 72
65
 73
0
 40
0.0
  0
LTYPE
  5
15
100
AcDbSymbolTableRecord
100
AcDbLinetypeTableRecord
  2
BYLAYER
 70
0
  3

 72
65
 73
0
 40
0.0
  0
LTYPE
  5
16
100
AcDbSymbolTableRecord
100
AcDbLinetypeTableRecord
  2
CONTINUOUS
 70
64
  3
Solid line
 72
65
 73
0
 40
0.0
  0
LTYPE
  5
1F5
100
AcDbSymbolTableRecord
100
AcDbLinetypeTableRecord
  2
CENTER
 70
64
  3
____ _ ____ _ ____ _ ____ _ ____ _ ____ _ ____
 72
65
 73
4
 40
0.6
 49
0.375
 74
0
 49
-0.075
 74
0
 49
0.075
 74
0
 49
-0.075
 74
0
  0
LTYPE
  5
1F6
100
AcDbSymbolTableRecord
100
AcDbLinetypeTableRecord
  2
HIDDEN
 70
64
  3
- - - - - - - - - - - - - - - - - - - -
 72
65
 73
2
 40
0.2
 49
0.1
 74
0
 49
-0.1
 74
0
  0
LTYPE
  5
1F7
100
AcDbSymbolTableRecord
100
AcDbLinetypeTableRecord
  2
PHANTOM
 70
64
  3
_____ _ _ _____ _ _ _____ _ _ _____
 72
65
 73
6
 40
0.8
 49
0.45
 74
0
 49
-0.05
 74
0
 49
0.1
 74
0
 49
-0.05
 74
0
 49
0.1
 74
0
 49
-0.05
 74
0
  0
LTYPE
  5
1F8
100
AcDbSymbolTableRecord
100
AcDbLinetypeTableRecord
  2
DOT
 70
64
  3
. . . . . . . . . . . . . . . . . . . .
 72
65
 73
2
 40
0.2
 49
0.1
 74
0
 49
-0.1
 74
0
  0
LTYPE
  5
1F9
100
AcDbSymbolTableRecord
100
AcDbLinetypeTableRecord
  2
DASHED
 70
64
  3
- - - - - - - - - - - - - - - - - - - -
 72
65
 73
2
 40
0.2
 49
0.1
 74
0
 49
-0.1
 74
0
  0
ENDTAB
  0
TABLE
  2
LAYER
  5
2
100
AcDbSymbolTable
 70
36
  0
LAYER
  5
10
100
AcDbSymbolTableRecord
100
AcDbLayerTableRecord
  2
0
 70
0
 62
7
  6
CONTINUOUS
370
-3
390
F
  0
LAYER
  5
1FA
100
AcDbSymbolTableRecord
100
AcDbLayerTableRecord
  2
DEFAULT_1
 70
0
 62
7
  6
CENTER
370
-3
390
F
  0
LAYER
  5
1FB
100
AcDbSymbolTableRecord
100
AcDbLayerTableRecord
  2
DEFAULT_2
 70
0
 62
8
  6
HIDDEN
370
-3
390
F
  0
LAYER
  5
1FC
100
AcDbSymbolTableRecord
100
AcDbLayerTableRecord
  2
DEFAULT_3
 70
0
 62
7
  6
PHANTOM
370
-3
390
F
  0
LAYER
  5
1FD
100
AcDbSymbolTableRecord
100
AcDbLayerTableRecord
  2
ALL_FEATURES
 70
0
 62
7
  6
CONTINUOUS
370
-3
390
F
  0
LAYER
  5
1FE
100
AcDbSymbolTableRecord
100
AcDbLayerTableRecord
  2
AXES_FEATURES
 70
0
 62
7
  6
CONTINUOUS
370
-3
390
F
  0
LAYER
  5
1FF
100
AcDbSymbolTableRecord
100
AcDbLayerTableRecord
  2
DIMENSIONS
 70
0
 62
7
  6
CONTINUOUS
370
-3
390
F
  0
ENDTAB
  0
TABLE
  2
STYLE
  5
3
100
AcDbSymbolTable
 70
1
  0
STYLE
  5
11
100
AcDbSymbolTableRecord
100
AcDbTextStyleTableRecord
  2
STANDARD
 70
0
 40
0.0
 41
0.8
 50
0.0
 71
0
 42
0.2
  3
txt
  4

  0
STYLE
  5
200
100
AcDbSymbolTableRecord
100
AcDbTextStyleTableRecord
  2
TEXTSTYLE_1
 70
0
 40
0.0
 41
0.8
 50
0.0
 71
0
 42
0.2
  3
gdt
  4

  0
ENDTAB
  0
TABLE
  2
VIEW
  5
6
100
AcDbSymbolTable
 70
0
  0
ENDTAB
  0
TABLE
  2
UCS
  5
7
100
AcDbSymbolTable
 70
0
  0
ENDTAB
  0
TABLE
  2
APPID
  5
9
100
AcDbSymbolTable
 70
1
  0
APPID
  5
201
100
AcDbSymbolTableRecord
100
AcDbRegAppTableRecord
  2
ACAD
 70
0
  0
ENDTAB
  0
TABLE
  2
BLOCK_RECORD
  5
1
100
AcDbSymbolTable
 70
0
  0
BLOCK_RECORD
  5
202
100
AcDbSymbolTableRecord
100
AcDbBlockTableRecord
  2
*Model_Space
  0
BLOCK_RECORD
  5
203
100
AcDbSymbolTableRecord
100
AcDbBlockTableRecord
  2
*Paper_Space
  0
BLOCK_RECORD
  5
204
100
AcDbSymbolTableRecord
100
AcDbBlockTableRecord
  2
_FILLED
  0
ENDTAB
  0
TABLE
  2
DIMSTYLE
  5
A
100
AcDbSymbolTable
 70
1
100
AcDbDimStyleTable
 71
0
  0
DIMSTYLE
105
205
100
AcDbSymbolTableRecord
100
AcDbDimStyleTableRecord
  2
STANDARD
 70
0
  3

  4

 40
1.0
 41
0.1
 42
0.0625
 43
0.38
 44
0.125
 45
0.0
 46
0.0
 47
0.001
 48
0.001
140
0.08
141
0.09
142
0.0
143
25.4
144
1.0
145
0.0
146
1.0
147
0.09
 71
1.0
 72
0.0
 73
1
 74
1
 75
0
 76
0
 77
0
 78
4
 79
1
170
1
171
2
172
0
173
0
174
0
175
0
176
0
177
0
178
0
270
2
179
3
271
3
272
3
273
2
274
2
275
0
280
0
281
0
282
0
283
1
284
4
285
0
286
0
287
3
288
0
340
11
278
46
341
204
342
204
343
204
344
204
  0
ENDTAB
  0
ENDSEC
  0
SECTION
  2
BLOCKS
  0
BLOCK
  5
20
100
AcDbEntity
  8
0
100
AcDbBlockBegin
  2
*Model_Space
 70
0
 10
0.0
 20
0.0
 30
0.0
  3
*Model_Space
  1

  0
ENDBLK
  5
21
100
AcDbEntity
  8
0
100
AcDbBlockEnd
  0
BLOCK
  5
1C
100
AcDbEntity
  8
0
100
AcDbBlockBegin
  2
*Paper_Space
 70
0
 10
0.0
 20
0.0
 30
0.0
  3
*Paper_Space
  1

  0
ENDBLK
  5
1D
100
AcDbEntity
  8
0
100
AcDbBlockEnd
  0
BLOCK
  5
206
100
AcDbEntity
  8
0
100
AcDbBlockBegin
  2
_FILLED
 70
64
 10
0.0
 20
0.0
  3
_FILLED
  1

  0
SOLID
  5
207
100
AcDbEntity
  8
0
  6
BYBLOCK
 62
0
100
AcDbTrace
 10
0.0
 20
0.0
 11
-1.0
 21
0.2
 12
-1.0
 22
-0.2
 13
-1.0
 23
-0.2
  0
ENDBLK
  5
208
100
AcDbEntity
  8
0
  6
BYBLOCK
 62
0
100
AcDbBlockEnd
  0
ENDSEC
  0
SECTION
  2
ENTITIES
  0
LINE
  5
209
100
AcDbEntity
  8
0
100
AcDbLine
 62
7
  6
CONTINUOUS
 10
6.3546846698
 20
11.994514107
 11
6.6682871351
 21
12.5376895103
  0
LINE
  5
20A
100
AcDbEntity
  8
0
100
AcDbLine
 62
7
  6
CONTINUOUS
 10
7.2151056339
 20
12.8238680349
 11
7.2725851505
 21
12.9059572919
  0
LINE
  5
20B
100
AcDbEntity
  8
0
100
AcDbLine
 62
7
  6
CONTINUOUS
 10
7.1098036197
 20
11.7911908119
 11
7.1013183383
 21
11.7827055306
  0
LINE
  5
20C
100
AcDbEntity
  8
0
100
AcDbLine
 62
7
  6
CONTINUOUS
 10
6.1046411153
 20
11.7134035163
 11
6.0225518583
 21
11.6559239997
  0
LINE
  5
20D
100
AcDbEntity
  8
0
100
AcDbLine
 62
7
  6
CONTINUOUS
 10
6.8795310427
 20
10.9385135889
 11
6.8220515261
 21
10.8564243319
  0
LINE
  5
20E
100
AcDbEntity
  8
0
100
AcDbLine
 62
7
  6
CONTINUOUS
 10
7.9899955613
 20
12.0489781075
 11
8.0720848183
 21
12.1064576241
  0
LINE
  5
20F
100
AcDbEntity
  8
0
100
AcDbLine
 62
7
  6
CONTINUOUS
 10
7.1098036197
 20
11.6221908119
 11
7.1313183383
 21
11.6311908119
  0
LINE
  5
210
100
AcDbEntity
  8
0
100
AcDbLine
 62
9
  6
CONTINUOUS
 10
6.0225518583
 20
12.1064576241
 11
6.0225518583
 21
11.6559239997
  0
LINE
  5
211
100
AcDbEntity
  8
0
100
AcDbLine
 62
9
  6
CONTINUOUS
 10
6.1046411153
 20
11.7134035163
 11
6.1046411153
 21
12.0489781075
  0
LINE
  5
212
100
AcDbEntity
  8
0
100
AcDbLine
 62
7
  6
CONTINUOUS
 10
6.1298183383
 20
12.0702682414
 11
6.1298183383
 21
11.6921133824
  0
LINE
  5
213
100
AcDbEntity
  8
0
100
AcDbLine
 62
9
  6
CONTINUOUS
 10
6.1546814969
 20
11.6902735187
 11
6.1546814969
 21
12.0721081052
  0
LINE
  5
214
100
AcDbEntity
  8
0
100
AcDbLine
 62
7
  6
CONTINUOUS
 10
7.7399520068
 20
11.7678675168
 11
7.4263495415
 21
11.2246921136
  0
LINE
  5
215
100
AcDbEntity
  8
0
100
AcDbLine
 62
9
  6
CONTINUOUS
 10
6.5161523284
 20
11.694512876
 11
6.5161523284
 21
11.7185357021
  0
LINE
  5
216
100
AcDbEntity
  8
0
100
AcDbLine
 62
9
  6
CONTINUOUS
 10
6.5161523284
 20
12.0494530144
 11
6.5161523284
 21
12.0678687479
  0
LINE
  5
217
100
AcDbEntity
  8
0
100
AcDbLine
 62
7
  6
CONTINUOUS
 10
6.9623183383
 20
12.1461908119
 11
6.9623183383
 21
12.0731908119
  0
LINE
  5
218
100
AcDbEntity
  8
0
100
AcDbLine
 62
7
  6
CONTINUOUS
 10
6.9623183383
 20
12.0561908119
 11
6.9623183383
 21
11.9831908119
  0
LINE
  5
219
100
AcDbEntity
  8
0
100
AcDbLine
 62
7
  6
CONTINUOUS
 10
6.9623183383
 20
11.7431908119
 11
6.9623183383
 21
11.6701908119
  0
LINE
  5
21A
100
AcDbEntity
  8
0
100
AcDbLine
 62
7
  6
CONTINUOUS
 10
7.0433183383
 20
12.0836908119
 11
7.0433183383
 21
12.0456908119
  0
LINE
  5
21B
100
AcDbEntity
  8
0
100
AcDbLine
 62
7
  6
CONTINUOUS
 10
7.0608739626
 20
12.0466908119
 11
7.0608739626
 21
12.0826908119
  0
LINE
  5
21C
100
AcDbEntity
  8
0
100
AcDbLine
 62
7
  6
CONTINUOUS
 10
7.1134183383
 20
11.7534935464
 11
7.1134183383
 21
11.7276908119
  0
LINE
  5
21D
100
AcDbEntity
  8
0
100
AcDbLine
 62
7
  6
CONTINUOUS
 10
7.1134183383
 20
11.6856908119
 11
7.1134183383
 21
11.6598880774
  0
LINE
  5
21E
100
AcDbEntity
  8
0
100
AcDbLine
 62
7
  6
CONTINUOUS
 10
7.1313183383
 20
11.6311908119
 11
7.1313183383
 21
11.7821908119
  0
LINE
  5
21F
100
AcDbEntity
  8
0
100
AcDbLine
 62
7
  6
CONTINUOUS
 10
7.1313183383
 20
11.9831908119
 11
7.1313183383
 21
12.0561908119
  0
LINE
  5
220
100
AcDbEntity
  8
0
100
AcDbLine
 62
7
  6
CONTINUOUS
 10
7.1313183383
 20
12.0731908119
 11
7.1313183383
 21
12.1461908119
  0
LINE
  5
221
100
AcDbEntity
  8
0
100
AcDbLine
 62
9
  6
CONTINUOUS
 10
7.5784843481
 20
12.0678687479
 11
7.5784843481
 21
12.0438459333
  0
LINE
  5
222
100
AcDbEntity
  8
0
100
AcDbLine
 62
9
  6
CONTINUOUS
 10
7.5784843481
 20
11.7129286115
 11
7.5784843481
 21
11.694512876
  0
LINE
  5
223
100
AcDbEntity
  8
0
100
AcDbLine
 62
9
  6
CONTINUOUS
 10
7.9399551797
 20
11.6902735187
 11
7.9399551797
 21
12.0721081052
  0
LINE
  5
224
100
AcDbEntity
  8
0
100
AcDbLine
 62
7
  6
CONTINUOUS
 10
7.9648183383
 20
11.6921133824
 11
7.9648183383
 21
12.0702682414
  0
LINE
  5
225
100
AcDbEntity
  8
0
100
AcDbLine
 62
9
  6
CONTINUOUS
 10
7.9899955613
 20
12.0489781075
 11
7.9899955613
 21
11.7134035163
  0
LINE
  5
226
100
AcDbEntity
  8
0
100
AcDbLine
 62
9
  6
CONTINUOUS
 10
8.0720848183
 20
11.6559239997
 11
8.0720848183
 21
12.1064576241
  0
LINE
  5
227
100
AcDbEntity
  8
0
100
AcDbLine
 62
7
  6
CONTINUOUS
 10
15.2456271646
 20
11.8581908119
 11
15.2283183383
 21
11.8532507176
  0
LINE
  5
228
100
AcDbEntity
  8
0
100
AcDbLine
 62
7
  6
CONTINUOUS
 10
14.1046411153
 20
11.7134035163
 11
14.0225518583
 21
11.6559239997
  0
LINE
  5
229
100
AcDbEntity
  8
0
100
AcDbLine
 62
7
  6
CONTINUOUS
 10
6.6682871352
 20
11.2246921134
 11
6.3546846698
 21
11.7678675168
  0
LINE
  5
22A
100
AcDbEntity
  8
0
100
AcDbLine
 62
7
  6
CONTINUOUS
 10
7.2151056339
 20
10.9385135889
 11
7.2725851505
 21
10.8564243319
  0
LWPOLYLINE
  5
22B
100
AcDbEntity
  8
0
100
AcDbPolyline
 62
7
  6
CONTINUOUS
 90
11
 70
0
 10
10.3461567464
 20
8.0512778446
 10
10.3805129337
 20
7.4476815115
 10
10.4091493357
 20
6.8005047803
 10
10.4291261294
 20
6.1462163699
 10
10.4389848476
 20
5.5002461117
 10
10.4374788334
 20
4.8778296494
 10
10.4236976133
 20
4.2950028996
 10
10.3973896302
 20
3.7685646528
 10
10.3593660321
 20
3.3131897063
 10
10.3117552853
 20
2.9389520297
 10
10.2606672043
 20
2.6615159238
  0
LINE
  5
22C
100
AcDbEntity
  8
0
100
AcDbLine
 62
7
  6
CONTINUOUS
 10
15.9899955613
 20
12.0489781075
 11
16.0720848183
 21
12.1064576241
  0
LINE
  5
22D
100
AcDbEntity
  8
0
100
AcDbLine
 62
7
  6
CONTINUOUS
 10
7.4263494697
 20
12.5376896346
 11
7.7399520068
 21
11.994514107
  0
LWPOLYLINE
  5
22E
100
AcDbEntity
  8
0
100
AcDbPolyline
 62
7
  6
CONTINUOUS
 90
11
 70
0
 10
12.1093235189
 20
11.5161981999
 10
12.1542279517
 20
11.6669504375
 10
12.1748835454
 20
11.8861560222
 10
12.1522899916
 20
12.1051872447
 10
12.0874735858
 20
12.3159439235
 10
11.9824471606
 20
12.5102494529
 10
11.8414782567
 20
12.6804833319
 10
11.6699234423
 20
12.819712274
 10
11.4748225022
 20
12.9227501033
 10
11.2638582368
 20
12.9855116484
 10
11.0473183388
 20
13.0061908119
  0
LINE
  5
22F
100
AcDbEntity
  8
0
100
AcDbLine
 62
7
  6
CONTINUOUS
 10
6.8795310427
 20
12.8238680349
 11
6.8220515261
 21
12.9059572919
  0
LWPOLYLINE
  5
230
100
AcDbEntity
  8
0
100
AcDbPolyline
 62
7
  6
CONTINUOUS
 90
33
 70
0
 10
9.9774364724
 20
11.5533253213
 10
9.9775701293
 20
11.5527655366
 10
9.9792484026
 20
11.5453676393
 10
9.9824536263
 20
11.5303438871
 10
9.9868878646
 20
11.5083603704
 10
9.9923712508
 20
11.4797632906
 10
9.998786026
 20
11.4447208061
 10
10.0060530516
 20
11.4032741752
 10
10.0141211955
 20
11.3553634855
 10
10.0229403711
 20
11.3009575998
 10
10.0324679681
 20
11.2399980922
 10
10.0426660424
 20
11.1724057424
 10
10.0535006145
 20
11.0980781498
 10
10.0649417998
 20
11.016899778
 10
10.0769522402
 20
10.928816217
 10
10.0894932714
 20
10.8337793496
 10
10.1025249572
 20
10.7317450107
 10
10.1160098593
 20
10.6226466859
 10
10.1299200937
 20
10.5063495045
 10
10.1442278783
 20
10.3826976927
 10
10.1589036386
 20
10.2515189704
 10
10.1739157855
 20
10.112623499
 10
10.189230582
 20
9.9658229056
 10
10.2048083058
 20
9.8109579687
 10
10.2206044986
 20
9.6478672099
 10
10.236569488
 20
9.4763871299
 10
10.252647937
 20
9.2963701205
 10
10.268777303
 20
9.1076969769
 10
10.284887149
 20
8.9102612883
 10
10.3008982307
 20
8.7039733802
 10
10.3167214034
 20
8.4887806655
 10
10.3322561029
 20
8.2646747287
 10
10.3461570657
 20
8.0512727829
  0
LWPOLYLINE
  5
231
100
AcDbEntity
  8
0
100
AcDbPolyline
 62
7
  6
CONTINUOUS
 90
11
 70
0
 10
11.8339694723
 20
2.6615159238
 10
11.7828813901
 20
2.9389520369
 10
11.7352706436
 20
3.3131897145
 10
11.6972470458
 20
3.7685646613
 10
11.670939063
 20
4.2950029078
 10
11.6571578431
 20
4.8778296568
 10
11.655651829
 20
5.5002461179
 10
11.6655105473
 20
6.1462163747
 10
11.685487341
 20
6.8005047835
 10
11.7141237429
 20
7.447681513
 10
11.7484799302
 20
8.0512778446
  0
LINE
  5
232
100
AcDbEntity
  8
0
100
AcDbLine
 62
7
  6
CONTINUOUS
 10
15.2151056339
 20
12.8238680349
 11
15.2725851505
 21
12.9059572919
  0
LINE
  5
233
100
AcDbEntity
  8
0
100
AcDbLine
 62
7
  6
CONTINUOUS
 10
7.1013183383
 20
11.6306760933
 11
7.1098036197
 21
11.6221908119
  0
LINE
  5
234
100
AcDbEntity
  8
0
100
AcDbLine
 62
7
  6
CONTINUOUS
 10
9.9404087247
 20
11.6669504387
 11
9.9852938244
 21
11.5162631049
  0
LWPOLYLINE
  5
235
100
AcDbEntity
  8
0
100
AcDbPolyline
 62
7
  6
CONTINUOUS
 90
33
 70
0
 10
11.7484796131
 20
8.0512728186
 10
11.7619030658
 20
8.2575594181
 10
11.776939206
 20
8.4750970109
 10
11.792252439
 20
8.6842690497
 10
11.8077504489
 20
8.8850802086
 10
11.8233510776
 20
9.0775731326
 10
11.8389810539
 20
9.2618262148
 10
11.8545749874
 20
9.4379338157
 10
11.8700745686
 20
9.6060013444
 10
11.8854280468
 20
9.7661555907
 10
11.9005889277
 20
9.918544447
 10
11.9155154059
 20
10.0633154091
 10
11.9301698788
 20
10.2006127128
 10
11.944519752
 20
10.3305947597
 10
11.9585359254
 20
10.4534405886
 10
11.972190606
 20
10.5693126479
 10
11.9854578656
 20
10.6783596222
 10
11.9983130615
 20
10.7807158574
 10
12.010727297
 20
10.8764778813
 10
12.0226642125
 20
10.9656886428
 10
12.0340881075
 20
11.0483906028
 10
12.0449641964
 20
11.1246288168
 10
12.0552603728
 20
11.1944663195
 10
12.064950058
 20
11.2580182952
 10
12.0740007248
 20
11.3153677621
 10
12.0823770136
 20
11.3665825554
 10
12.0900387042
 20
11.4117095828
 10
12.0969393832
 20
11.4507765999
 10
12.1030305533
 20
11.4838346401
 10
12.1082348104
 20
11.5108249446
 10
12.1124400959
 20
11.5315798779
 10
12.1154773172
 20
11.5457708412
 10
12.1161856301
 20
11.548941659
  0
LINE
  5
236
100
AcDbEntity
  8
0
100
AcDbLine
 62
7
  6
CONTINUOUS
 10
14.3546227012
 20
11.9944067744
 11
14.6682871351
 21
12.5376895103
  0
LINE
  5
237
100
AcDbEntity
  8
0
100
AcDbLine
 62
7
  6
CONTINUOUS
 10
14.8868734016
 20
11.9070128884
 11
14.9001531483
 21
11.9289539376
  0
LINE
  5
238
100
AcDbEntity
  8
0
100
AcDbLine
 62
7
  6
CONTINUOUS
 10
6.1046411153
 20
12.0489781075
 11
6.0225518583
 21
12.1064576241
  0
LINE
  5
239
100
AcDbEntity
  8
0
100
AcDbLine
 62
7
  6
CONTINUOUS
 10
14.8795310427
 20
10.9385135889
 11
14.8220515261
 21
10.8564243319
  0
LINE
  5
23A
100
AcDbEntity
  8
0
100
AcDbLine
 62
7
  6
CONTINUOUS
 10
15.7400139753
 20
11.7679748495
 11
15.4263495415
 21
11.2246921136
  0
LINE
  5
23B
100
AcDbEntity
  8
0
100
AcDbLine
 62
7
  6
CONTINUOUS
 10
7.9899955613
 20
11.7134035163
 11
8.0720848183
 21
11.6559239997
  0
LINE
  5
23C
100
AcDbEntity
  8
0
100
AcDbLine
 62
7
  6
CONTINUOUS
 10
7.1313183383
 20
11.7821908119
 11
7.1098036197
 21
11.7911908119
  0
LINE
  5
23D
100
AcDbEntity
  8
0
100
AcDbLine
 62
9
  6
CONTINUOUS
 10
14.0225518583
 20
12.1064576241
 11
14.0225518583
 21
11.6559239997
  0
LINE
  5
23E
100
AcDbEntity
  8
0
100
AcDbLine
 62
9
  6
CONTINUOUS
 10
14.1046411153
 20
11.7134035163
 11
14.1046411153
 21
12.0489781075
  0
LINE
  5
23F
100
AcDbEntity
  8
0
100
AcDbLine
 62
7
  6
CONTINUOUS
 10
14.1298183383
 20
12.0702817016
 11
14.1298183383
 21
11.6920999222
  0
LINE
  5
240
100
AcDbEntity
  8
0
100
AcDbLine
 62
9
  6
CONTINUOUS
 10
14.1546814969
 20
12.0721081052
 11
14.1546814969
 21
11.6902735187
  0
LINE
  5
241
100
AcDbEntity
  8
0
100
AcDbLine
 62
7
  6
CONTINUOUS
 10
14.8878399952
 20
11.9661908119
 11
14.8783183383
 21
11.9121908119
  0
LINE
  5
242
100
AcDbEntity
  8
0
100
AcDbLine
 62
9
  6
CONTINUOUS
 10
14.5161523284
 20
11.6945237414
 11
14.5161523284
 21
11.7146089132
  0
LINE
  5
243
100
AcDbEntity
  8
0
100
AcDbLine
 62
9
  6
CONTINUOUS
 10
14.5161523284
 20
12.0466161366
 11
14.5161523284
 21
12.0678687479
  0
LINE
  5
244
100
AcDbEntity
  8
0
100
AcDbLine
 62
7
  6
CONTINUOUS
 10
14.811036458
 20
11.8211908119
 11
14.811036458
 21
11.9361908119
  0
LINE
  5
245
100
AcDbEntity
  8
0
100
AcDbLine
 62
7
  6
CONTINUOUS
 10
14.8473183383
 20
11.8313153274
 11
14.8473183383
 21
11.9260662964
  0
LINE
  5
246
100
AcDbEntity
  8
0
100
AcDbLine
 62
9
  6
CONTINUOUS
 10
6.8220515261
 20
10.8564243319
 11
7.2725851505
 21
10.8564243319
  0
LINE
  5
247
100
AcDbEntity
  8
0
100
AcDbLine
 62
9
  6
CONTINUOUS
 10
14.8220515261
 20
10.8564243319
 11
15.2725851505
 21
10.8564243319
  0
LINE
  5
248
100
AcDbEntity
  8
0
100
AcDbLine
 62
9
  6
CONTINUOUS
 10
15.2151056339
 20
10.9385135889
 11
14.8795310427
 21
10.9385135889
  0
LINE
  5
249
100
AcDbEntity
  8
0
100
AcDbLine
 62
9
  6
CONTINUOUS
 10
7.2151056339
 20
10.9385135889
 11
6.8795310427
 21
10.9385135889
  0
LINE
  5
24A
100
AcDbEntity
  8
0
100
AcDbLine
 62
7
  6
CONTINUOUS
 10
6.8582274486
 20
10.9636908119
 11
7.236409228
 21
10.9636908119
  0
LINE
  5
24B
100
AcDbEntity
  8
0
100
AcDbLine
 62
7
  6
CONTINUOUS
 10
14.8582409088
 20
10.9636908119
 11
15.2363957678
 21
10.9636908119
  0
LINE
  5
24C
100
AcDbEntity
  8
0
100
AcDbLine
 62
9
  6
CONTINUOUS
 10
6.856401045
 20
10.9885539705
 11
7.2382356315
 21
10.9885539705
  0
LINE
  5
24D
100
AcDbEntity
  8
0
100
AcDbLine
 62
9
  6
CONTINUOUS
 10
14.856401045
 20
10.9885539705
 11
15.2382356315
 21
10.9885539705
  0
LINE
  5
24E
100
AcDbEntity
  8
0
100
AcDbLine
 62
7
  6
CONTINUOUS
 10
15.4263476902
 20
11.2246908119
 11
15.1651567315
 21
11.2246908119
  0
LINE
  5
24F
100
AcDbEntity
  8
0
100
AcDbLine
 62
7
  6
CONTINUOUS
 10
14.9294799451
 20
11.2246908119
 11
14.6682889866
 21
11.2246908119
  0
LINE
  5
250
100
AcDbEntity
  8
0
100
AcDbLine
 62
7
  6
CONTINUOUS
 10
7.4263476902
 20
11.2246908119
 11
7.1649667395
 21
11.2246908119
  0
LINE
  5
251
100
AcDbEntity
  8
0
100
AcDbLine
 62
7
  6
CONTINUOUS
 10
6.9296699371
 20
11.2246908119
 11
6.6682889866
 21
11.2246908119
  0
LINE
  5
252
100
AcDbEntity
  8
0
100
AcDbLine
 62
7
  6
CONTINUOUS
 10
14.8573183383
 20
11.7971908119
 11
14.8573183383
 21
11.8151908119
  0
LINE
  5
253
100
AcDbEntity
  8
0
100
AcDbLine
 62
7
  6
CONTINUOUS
 10
14.8573183383
 20
11.9421908119
 11
14.8573183383
 21
11.9661908119
  0
LINE
  5
254
100
AcDbEntity
  8
0
100
AcDbLine
 62
7
  6
CONTINUOUS
 10
14.9583183383
 20
11.8151908119
 11
14.9583183383
 21
11.7971908119
  0
LINE
  5
255
100
AcDbEntity
  8
0
100
AcDbLine
 62
7
  6
CONTINUOUS
 10
14.9798183383
 20
11.9134201672
 11
14.9798183383
 21
11.8439614567
  0
LINE
  5
256
100
AcDbEntity
  8
0
100
AcDbLine
 62
7
  6
CONTINUOUS
 10
15.0158183383
 20
11.8439614567
 11
15.0158183383
 21
11.9134201672
  0
LINE
  5
257
100
AcDbEntity
  8
0
100
AcDbLine
 62
7
  6
CONTINUOUS
 10
15.0373183383
 20
11.7971908119
 11
15.0373183383
 21
11.8151908119
  0
LINE
  5
258
100
AcDbEntity
  8
0
100
AcDbLine
 62
7
  6
CONTINUOUS
 10
15.0373183383
 20
11.9421908119
 11
15.0373183383
 21
11.9661908119
  0
LINE
  5
259
100
AcDbEntity
  8
0
100
AcDbLine
 62
9
  6
CONTINUOUS
 10
15.2339962742
 20
11.3500248021
 11
15.2099734596
 21
11.3500248021
  0
LINE
  5
25A
100
AcDbEntity
  8
0
100
AcDbLine
 62
9
  6
CONTINUOUS
 10
14.8790561379
 20
11.3500248021
 11
14.8606404023
 21
11.3500248021
  0
LINE
  5
25B
100
AcDbEntity
  8
0
100
AcDbLine
 62
9
  6
CONTINUOUS
 10
7.2339962742
 20
11.3500248021
 11
7.213900237
 21
11.3500248021
  0
LINE
  5
25C
100
AcDbEntity
  8
0
100
AcDbLine
 62
9
  6
CONTINUOUS
 10
6.8818930136
 20
11.3500248021
 11
6.8606404023
 21
11.3500248021
  0
LINE
  5
25D
100
AcDbEntity
  8
0
100
AcDbLine
 62
7
  6
CONTINUOUS
 10
6.9623183383
 20
11.6701908119
 11
6.9863183383
 21
11.6701908119
  0
LINE
  5
25E
100
AcDbEntity
  8
0
100
AcDbLine
 62
7
  6
CONTINUOUS
 10
7.0177786307
 20
11.6886908119
 11
7.1104183383
 21
11.6886908119
  0
LINE
  5
25F
100
AcDbEntity
  8
0
100
AcDbLine
 62
7
  6
CONTINUOUS
 10
7.1104183383
 20
11.7246908119
 11
7.0177786307
 21
11.7246908119
  0
LINE
  5
260
100
AcDbEntity
  8
0
100
AcDbLine
 62
7
  6
CONTINUOUS
 10
6.9863183383
 20
11.7431908119
 11
6.9623183383
 21
11.7431908119
  0
LINE
  5
261
100
AcDbEntity
  8
0
100
AcDbLine
 62
7
  6
CONTINUOUS
 10
14.7728183383
 20
11.7971908119
 11
14.8573183383
 21
11.7971908119
  0
LINE
  5
262
100
AcDbEntity
  8
0
100
AcDbLine
 62
7
  6
CONTINUOUS
 10
14.9583183383
 20
11.7971908119
 11
15.0373183383
 21
11.7971908119
  0
LINE
  5
263
100
AcDbEntity
  8
0
100
AcDbLine
 62
7
  6
CONTINUOUS
 10
15.2443183383
 20
11.7971908119
 11
15.2623183383
 21
11.7971908119
  0
LINE
  5
264
100
AcDbEntity
  8
0
100
AcDbLine
 62
7
  6
CONTINUOUS
 10
14.805036458
 20
11.8151908119
 11
14.7771735501
 21
11.8151908119
  0
LINE
  5
265
100
AcDbEntity
  8
0
100
AcDbLine
 62
9
  6
CONTINUOUS
 10
15.5784843481
 20
12.0678687479
 11
15.5784843481
 21
12.047772704
  0
LINE
  5
266
100
AcDbEntity
  8
0
100
AcDbLine
 62
9
  6
CONTINUOUS
 10
15.5784843481
 20
11.7157655342
 11
15.5784843481
 21
11.694512876
  0
LINE
  5
267
100
AcDbEntity
  8
0
100
AcDbLine
 62
7
  6
CONTINUOUS
 10
14.7771735501
 20
11.9421908119
 11
14.805036458
 21
11.9421908119
  0
LINE
  5
268
100
AcDbEntity
  8
0
100
AcDbLine
 62
7
  6
CONTINUOUS
 10
14.9258183383
 20
11.9434201672
 11
14.9498183383
 21
11.9434201672
  0
LINE
  5
269
100
AcDbEntity
  8
0
100
AcDbLine
 62
7
  6
CONTINUOUS
 10
15.0373183383
 20
11.9661908119
 11
14.8878399952
 21
11.9661908119
  0
LINE
  5
26A
100
AcDbEntity
  8
0
100
AcDbLine
 62
7
  6
CONTINUOUS
 10
14.8573183383
 20
11.9661908119
 11
14.7728183383
 21
11.9661908119
  0
LINE
  5
26B
100
AcDbEntity
  8
0
100
AcDbLine
 62
7
  6
CONTINUOUS
 10
6.9623183383
 20
11.9831908119
 11
6.9863183383
 21
11.9831908119
  0
LINE
  5
26C
100
AcDbEntity
  8
0
100
AcDbLine
 62
7
  6
CONTINUOUS
 10
7.1133183383
 20
11.9831908119
 11
7.1313183383
 21
11.9831908119
  0
LINE
  5
26D
100
AcDbEntity
  8
0
100
AcDbLine
 62
7
  6
CONTINUOUS
 10
7.0091163645
 20
11.9996908119
 11
7.0905203121
 21
11.9996908119
  0
LINE
  5
26E
100
AcDbEntity
  8
0
100
AcDbLine
 62
7
  6
CONTINUOUS
 10
7.0373183383
 20
12.0396908119
 11
7.0091163645
 21
12.0396908119
  0
LINE
  5
26F
100
AcDbEntity
  8
0
100
AcDbLine
 62
7
  6
CONTINUOUS
 10
7.0908739626
 20
12.0406908119
 11
7.0668739626
 21
12.0406908119
  0
LINE
  5
270
100
AcDbEntity
  8
0
100
AcDbLine
 62
7
  6
CONTINUOUS
 10
7.1313183383
 20
12.0561908119
 11
7.1133183383
 21
12.0561908119
  0
LINE
  5
271
100
AcDbEntity
  8
0
100
AcDbLine
 62
7
  6
CONTINUOUS
 10
6.9863183383
 20
12.0561908119
 11
6.9623183383
 21
12.0561908119
  0
LINE
  5
272
100
AcDbEntity
  8
0
100
AcDbLine
 62
7
  6
CONTINUOUS
 10
6.9623183383
 20
12.0731908119
 11
6.9863183383
 21
12.0731908119
  0
LINE
  5
273
100
AcDbEntity
  8
0
100
AcDbLine
 62
7
  6
CONTINUOUS
 10
7.1133183383
 20
12.0731908119
 11
7.1313183383
 21
12.0731908119
  0
LINE
  5
274
100
AcDbEntity
  8
0
100
AcDbLine
 62
7
  6
CONTINUOUS
 10
7.0668739626
 20
12.0886908119
 11
7.0908739626
 21
12.0886908119
  0
LINE
  5
275
100
AcDbEntity
  8
0
100
AcDbLine
 62
7
  6
CONTINUOUS
 10
7.0091163645
 20
12.0896908119
 11
7.0373183383
 21
12.0896908119
  0
LINE
  5
276
100
AcDbEntity
  8
0
100
AcDbLine
 62
7
  6
CONTINUOUS
 10
7.0905203121
 20
12.1296908119
 11
7.0091163645
 21
12.1296908119
  0
LINE
  5
277
100
AcDbEntity
  8
0
100
AcDbLine
 62
7
  6
CONTINUOUS
 10
7.1313183383
 20
12.1461908119
 11
7.1133183383
 21
12.1461908119
  0
LINE
  5
278
100
AcDbEntity
  8
0
100
AcDbLine
 62
7
  6
CONTINUOUS
 10
6.9863183383
 20
12.1461908119
 11
6.9623183383
 21
12.1461908119
  0
LINE
  5
279
100
AcDbEntity
  8
0
100
AcDbLine
 62
9
  6
CONTINUOUS
 10
15.9399551797
 20
11.6902735187
 11
15.9399551797
 21
12.0721081052
  0
LINE
  5
27A
100
AcDbEntity
  8
0
100
AcDbLine
 62
7
  6
CONTINUOUS
 10
15.9648183383
 20
11.6920999222
 11
15.9648183383
 21
12.0702817016
  0
LINE
  5
27B
100
AcDbEntity
  8
0
100
AcDbLine
 62
9
  6
CONTINUOUS
 10
15.9899955613
 20
12.0489781075
 11
15.9899955613
 21
11.7134035163
  0
LINE
  5
27C
100
AcDbEntity
  8
0
100
AcDbLine
 62
9
  6
CONTINUOUS
 10
16.0720848183
 20
11.6559239997
 11
16.0720848183
 21
12.1064576241
  0
LINE
  5
27D
100
AcDbEntity
  8
0
100
AcDbLine
 62
9
  6
CONTINUOUS
 10
6.8606404023
 20
12.4123568218
 11
6.8807364463
 21
12.4123568218
  0
LINE
  5
27E
100
AcDbEntity
  8
0
100
AcDbLine
 62
9
  6
CONTINUOUS
 10
7.212743616
 20
12.4123568218
 11
7.2339962742
 21
12.4123568218
  0
LINE
  5
27F
100
AcDbEntity
  8
0
100
AcDbLine
 62
9
  6
CONTINUOUS
 10
14.8606404023
 20
12.4123568218
 11
14.8846632284
 21
12.4123568218
  0
LINE
  5
280
100
AcDbEntity
  8
0
100
AcDbLine
 62
9
  6
CONTINUOUS
 10
15.2155805408
 20
12.4123568218
 11
15.2339962742
 21
12.4123568218
  0
LINE
  5
281
100
AcDbEntity
  8
0
100
AcDbLine
 62
7
  6
CONTINUOUS
 10
6.6682889864
 20
12.5376908119
 11
6.9296699371
 21
12.5376908119
  0
LINE
  5
282
100
AcDbEntity
  8
0
100
AcDbLine
 62
7
  6
CONTINUOUS
 10
7.1649667395
 20
12.5376908119
 11
7.4263474303
 21
12.5376908119
  0
LINE
  5
283
100
AcDbEntity
  8
0
100
AcDbLine
 62
7
  6
CONTINUOUS
 10
14.6682889864
 20
12.5376908119
 11
14.9294799451
 21
12.5376908119
  0
LINE
  5
284
100
AcDbEntity
  8
0
100
AcDbLine
 62
7
  6
CONTINUOUS
 10
15.1651567315
 20
12.5376908119
 11
15.4263474303
 21
12.5376908119
  0
LINE
  5
285
100
AcDbEntity
  8
0
100
AcDbLine
 62
9
  6
CONTINUOUS
 10
7.2382356315
 20
12.7738276533
 11
6.856401045
 21
12.7738276533
  0
LINE
  5
286
100
AcDbEntity
  8
0
100
AcDbLine
 62
9
  6
CONTINUOUS
 10
14.856401045
 20
12.7738276533
 11
15.2382356315
 21
12.7738276533
  0
LINE
  5
287
100
AcDbEntity
  8
0
100
AcDbLine
 62
7
  6
CONTINUOUS
 10
15.2363957678
 20
12.7986908119
 11
14.8582409088
 21
12.7986908119
  0
LINE
  5
288
100
AcDbEntity
  8
0
100
AcDbLine
 62
7
  6
CONTINUOUS
 10
7.236409228
 20
12.7986908119
 11
6.8582274486
 21
12.7986908119
  0
LINE
  5
289
100
AcDbEntity
  8
0
100
AcDbLine
 62
9
  6
CONTINUOUS
 10
6.8795310427
 20
12.8238680349
 11
7.2151056339
 21
12.8238680349
  0
LINE
  5
28A
100
AcDbEntity
  8
0
100
AcDbLine
 62
9
  6
CONTINUOUS
 10
14.8795310427
 20
12.8238680349
 11
15.2151056339
 21
12.8238680349
  0
LINE
  5
28B
100
AcDbEntity
  8
0
100
AcDbLine
 62
7
  6
CONTINUOUS
 10
15.2151056339
 20
10.9385135889
 11
15.2725851505
 21
10.8564243319
  0
LINE
  5
28C
100
AcDbEntity
  8
0
100
AcDbLine
 62
7
  6
CONTINUOUS
 10
14.6682871352
 20
11.2246921134
 11
14.3546227012
 21
11.7679748495
  0
LINE
  5
28D
100
AcDbEntity
  8
0
100
AcDbLine
 62
7
  6
CONTINUOUS
 10
15.2283183383
 20
11.8532507176
 11
15.2443183383
 21
11.7971908119
  0
LWPOLYLINE
  5
28E
100
AcDbEntity
  8
0
100
AcDbPolyline
 62
7
  6
CONTINUOUS
 90
10
 70
0
 10
11.0473183388
 20
13.0061908119
 10
10.8307784415
 20
12.9855116488
 10
10.6198141768
 20
12.9227501043
 10
10.4247132368
 20
12.8197122757
 10
10.253158422
 20
12.680483334
 10
10.1121895175
 20
12.5102494551
 10
10.0071630916
 20
12.3159439255
 10
9.9423466854
 20
12.1051872464
 10
9.9197531312
 20
11.8861560236
 10
9.9404087247
 20
11.6669504387
  0
LINE
  5
28F
100
AcDbEntity
  8
0
100
AcDbLine
 62
7
  6
CONTINUOUS
 10
11.0473183383
 20
13.0061908119
 11
11.0473608678
 21
13.0061908806
  0
LINE
  5
290
100
AcDbEntity
  8
0
100
AcDbLine
 62
9
  6
CONTINUOUS
 10
15.2725851505
 20
12.9059572919
 11
14.8220515261
 21
12.9059572919
  0
LINE
  5
291
100
AcDbEntity
  8
0
100
AcDbLine
 62
9
  6
CONTINUOUS
 10
7.2725851505
 20
12.9059572919
 11
6.8220515261
 21
12.9059572919
  0
LINE
  5
292
100
AcDbEntity
  8
0
100
AcDbLine
 62
7
  6
CONTINUOUS
 10
15.2283183383
 20
11.9122685098
 11
15.2448684499
 21
11.9051908119
  0
LINE
  5
293
100
AcDbEntity
  8
0
100
AcDbLine
 62
7
  6
CONTINUOUS
 10
14.8783183383
 20
11.9121908119
 11
14.8868734016
 21
11.9070128884
  0
LINE
  5
294
100
AcDbEntity
  8
0
100
AcDbLine
 62
7
  6
CONTINUOUS
 10
14.1046411153
 20
12.0489781075
 11
14.0225518583
 21
12.1064576241
  0
LINE
  5
295
100
AcDbEntity
  8
0
100
AcDbLine
 62
7
  6
CONTINUOUS
 10
15.9899955613
 20
11.7134035163
 11
16.0720848183
 21
11.6559239997
  0
LINE
  5
296
100
AcDbEntity
  8
0
100
AcDbLine
 62
7
  6
CONTINUOUS
 10
14.8795310427
 20
12.8238680349
 11
14.8220515261
 21
12.9059572919
  0
LINE
  5
297
100
AcDbEntity
  8
0
100
AcDbLine
 62
7
  6
CONTINUOUS
 10
15.4263494697
 20
12.5376896346
 11
15.7400139753
 21
11.9944067744
  0
ARC
  5
298
100
AcDbEntity
  8
0
100
AcDbCircle
 62
7
  6
CONTINUOUS
 10
11.0305942868
 20
2.4674201574
 40
0.8358828909
100
AcDbArc
 50
151.8490401611
 51
165.6621770446
  0
ARC
  5
299
100
AcDbEntity
  8
0
100
AcDbCircle
 62
7
  6
CONTINUOUS
 10
11.028834492
 20
2.4680733629
 40
0.8340161737
100
AcDbArc
 50
165.6757152495
 51
179.9874446465
  0
ARC
  5
29A
100
AcDbEntity
  8
0
100
AcDbCircle
 62
7
  6
CONTINUOUS
 10
7.0473183383
 20
10.6986908119
 40
0.275
100
AcDbArc
 50
144.9999999999
 51
35.0000000001
  0
ARC
  5
29B
100
AcDbEntity
  8
0
100
AcDbCircle
 62
7
  6
CONTINUOUS
 10
7.7571942973
 20
11.5196908119
 40
0.25
100
AcDbArc
 50
43.0260516848
 51
135.6300714453
  0
ARC
  5
29C
100
AcDbEntity
  8
0
100
AcDbCircle
 62
7
  6
CONTINUOUS
 10
6.3374423793
 20
11.5196908119
 40
0.25
100
AcDbArc
 50
44.3699285547
 51
136.9739483152
  0
ARC
  5
29D
100
AcDbEntity
  8
0
100
AcDbCircle
 62
7
  6
CONTINUOUS
 10
6.6858183383
 20
11.171314853
 40
0.25
100
AcDbArc
 50
313.0260516848
 51
45.6300714454
  0
ARC
  5
29E
100
AcDbEntity
  8
0
100
AcDbCircle
 62
7
  6
CONTINUOUS
 10
7.4088183383
 20
11.171314853
 40
0.25
100
AcDbArc
 50
134.3699285546
 51
226.9739483152
  0
ARC
  5
29F
100
AcDbEntity
  8
0
100
AcDbCircle
 62
7
  6
CONTINUOUS
 10
7.0721063542
 20
11.6598880774
 40
0.0413119841
100
AcDbArc
 50
315.0000000002
 51
360.0
  0
ARC
  5
2A0
100
AcDbEntity
  8
0
100
AcDbCircle
 62
7
  6
CONTINUOUS
 10
7.0721063542
 20
11.7534935464
 40
0.0413119841
100
AcDbArc
 50
0.0
 51
44.9999999998
  0
ARC
  5
2A1
100
AcDbEntity
  8
0
100
AcDbCircle
 62
7
  6
CONTINUOUS
 10
7.0177786307
 20
11.7606908119
 40
0.036
100
AcDbArc
 50
209.0852950611
 51
270.0
  0
ARC
  5
2A2
100
AcDbEntity
  8
0
100
AcDbCircle
 62
7
  6
CONTINUOUS
 10
7.0177786307
 20
11.6526908119
 40
0.036
100
AcDbArc
 50
90.0
 51
150.9147049389
  0
ARC
  5
2A3
100
AcDbEntity
  8
0
100
AcDbCircle
 62
7
  6
CONTINUOUS
 10
7.5563243144
 20
11.7161908119
 40
0.031
100
AcDbArc
 50
294.3172689536
 51
315.6300714454
  0
ARC
  5
2A4
100
AcDbEntity
  8
0
100
AcDbCircle
 62
7
  6
CONTINUOUS
 10
6.5383123621
 20
11.7161908119
 40
0.031
100
AcDbArc
 50
224.3699285546
 51
243.0698651446
  0
ARC
  5
2A5
100
AcDbEntity
  8
0
100
AcDbCircle
 62
7
  6
CONTINUOUS
 10
6.8823183383
 20
11.3721848358
 40
0.031
100
AcDbArc
 50
205.3001518964
 51
225.6300714453
  0
ARC
  5
2A6
100
AcDbEntity
  8
0
100
AcDbCircle
 62
7
  6
CONTINUOUS
 10
7.2123183383
 20
11.3721848358
 40
0.031
100
AcDbArc
 50
314.3699285547
 51
335.1384469932
  0
ARC
  5
2A7
100
AcDbEntity
  8
0
100
AcDbCircle
 62
7
  6
CONTINUOUS
 10
7.9808183383
 20
11.7002970836
 40
0.016
100
AcDbArc
 50
55.0
 51
180.0
  0
ARC
  5
2A8
100
AcDbEntity
  8
0
100
AcDbCircle
 62
7
  6
CONTINUOUS
 10
7.9516518762
 20
11.7011908119
 40
0.016
100
AcDbArc
 50
223.0260516848
 51
325.3765488982
  0
ARC
  5
2A9
100
AcDbEntity
  8
0
100
AcDbCircle
 62
7
  6
CONTINUOUS
 10
6.1138183383
 20
11.7002970836
 40
0.016
100
AcDbArc
 50
0.0
 51
125.0
  0
ARC
  5
2AA
100
AcDbEntity
  8
0
100
AcDbCircle
 62
7
  6
CONTINUOUS
 10
6.1429848004
 20
11.7011908119
 40
0.016
100
AcDbArc
 50
214.6234511018
 51
316.9739483152
  0
ARC
  5
2AB
100
AcDbEntity
  8
0
100
AcDbCircle
 62
7
  6
CONTINUOUS
 10
6.86642461
 20
10.9476908119
 40
0.016
100
AcDbArc
 50
325.0000000002
 51
90.0
  0
ARC
  5
2AC
100
AcDbEntity
  8
0
100
AcDbCircle
 62
7
  6
CONTINUOUS
 10
7.2282120666
 20
10.9476908119
 40
0.016
100
AcDbArc
 50
90.0
 51
214.9999999998
  0
ARC
  5
2AD
100
AcDbEntity
  8
0
100
AcDbCircle
 62
7
  6
CONTINUOUS
 10
7.2273183383
 20
10.976857274
 40
0.016
100
AcDbArc
 50
304.6234510998
 51
46.9739483152
  0
ARC
  5
2AE
100
AcDbEntity
  8
0
100
AcDbCircle
 62
7
  6
CONTINUOUS
 10
6.8673183383
 20
10.976857274
 40
0.016
100
AcDbArc
 50
133.0260516848
 51
235.3765489002
  0
ARC
  5
2AF
100
AcDbEntity
  8
0
100
AcDbCircle
 62
7
  6
CONTINUOUS
 10
7.1104183383
 20
11.6856908119
 40
0.003
100
AcDbArc
 50
0.0000000001
 51
90.0
  0
ARC
  5
2B0
100
AcDbEntity
  8
0
100
AcDbCircle
 62
7
  6
CONTINUOUS
 10
7.1104183383
 20
11.7276908119
 40
0.003
100
AcDbArc
 50
270.0
 51
360.0
  0
ARC
  5
2B1
100
AcDbEntity
  8
0
100
AcDbCircle
 62
7
  6
CONTINUOUS
 10
5.8648183383
 20
11.8811908119
 40
0.275
100
AcDbArc
 50
55.0
 51
305.0
  0
ARC
  5
2B2
100
AcDbEntity
  8
0
100
AcDbCircle
 62
7
  6
CONTINUOUS
 10
6.3374423793
 20
12.2426908119
 40
0.25
100
AcDbArc
 50
223.0260516848
 51
315.6300714453
  0
ARC
  5
2B3
100
AcDbEntity
  8
0
100
AcDbCircle
 62
7
  6
CONTINUOUS
 10
6.5383123621
 20
12.0461908119
 40
0.031
100
AcDbArc
 50
114.3172684478
 51
135.6300714454
  0
ARC
  5
2B4
100
AcDbEntity
  8
0
100
AcDbCircle
 62
7
  6
CONTINUOUS
 10
6.8823183383
 20
12.3901967881
 40
0.031
100
AcDbArc
 50
134.3699285547
 51
155.1384429561
  0
ARC
  5
2B5
100
AcDbEntity
  8
0
100
AcDbCircle
 62
7
  6
CONTINUOUS
 10
7.0091163645
 20
12.1536908119
 40
0.024
100
AcDbArc
 50
198.2099568645
 51
270.0
  0
ARC
  5
2B6
100
AcDbEntity
  8
0
100
AcDbCircle
 62
7
  6
CONTINUOUS
 10
7.0091163645
 20
12.0656908119
 40
0.024
100
AcDbArc
 50
90.0
 51
161.7900431354
  0
ARC
  5
2B7
100
AcDbEntity
  8
0
100
AcDbCircle
 62
7
  6
CONTINUOUS
 10
7.0091163645
 20
12.0636908119
 40
0.024
100
AcDbArc
 50
198.2099568645
 51
270.0
  0
ARC
  5
2B8
100
AcDbEntity
  8
0
100
AcDbCircle
 62
7
  6
CONTINUOUS
 10
7.0091163645
 20
11.9756908119
 40
0.024
100
AcDbArc
 50
90.0
 51
161.7900431354
  0
ARC
  5
2B9
100
AcDbEntity
  8
0
100
AcDbCircle
 62
7
  6
CONTINUOUS
 10
6.1138183383
 20
12.0620845402
 40
0.016
100
AcDbArc
 50
235.0
 51
360.0
  0
ARC
  5
2BA
100
AcDbEntity
  8
0
100
AcDbCircle
 62
7
  6
CONTINUOUS
 10
6.1429848004
 20
12.0611908119
 40
0.016
100
AcDbArc
 50
43.0260516848
 51
145.3765488982
  0
ARC
  5
2BB
100
AcDbEntity
  8
0
100
AcDbCircle
 62
7
  6
CONTINUOUS
 10
7.0373183383
 20
12.0836908119
 40
0.006
100
AcDbArc
 50
0.0
 51
90.0
  0
ARC
  5
2BC
100
AcDbEntity
  8
0
100
AcDbCircle
 62
7
  6
CONTINUOUS
 10
7.0373183383
 20
12.0456908119
 40
0.006
100
AcDbArc
 50
270.0
 51
360.0
  0
ARC
  5
2BD
100
AcDbEntity
  8
0
100
AcDbCircle
 62
7
  6
CONTINUOUS
 10
6.6858183383
 20
12.5910667709
 40
0.25
100
AcDbArc
 50
314.3699285546
 51
46.9739483152
  0
ARC
  5
2BE
100
AcDbEntity
  8
0
100
AcDbCircle
 62
7
  6
CONTINUOUS
 10
6.8673183383
 20
12.7855243498
 40
0.016
100
AcDbArc
 50
124.6234510998
 51
226.9739483152
  0
ARC
  5
2BF
100
AcDbEntity
  8
0
100
AcDbCircle
 62
7
  6
CONTINUOUS
 10
6.86642461
 20
12.8146908119
 40
0.016
100
AcDbArc
 50
270.0
 51
34.9999999998
  0
ARC
  5
2C0
100
AcDbEntity
  8
0
100
AcDbCircle
 62
7
  6
CONTINUOUS
 10
7.0473183383
 20
11.8811908119
 40
1.18
100
AcDbArc
 50
103.3396252087
 51
166.6820710155
  0
ARC
  5
2C1
100
AcDbEntity
  8
0
100
AcDbCircle
 62
7
  6
CONTINUOUS
 10
7.0473183383
 20
11.8811908119
 40
1.18
100
AcDbArc
 50
193.3185143561
 51
256.6603429148
  0
ARC
  5
2C2
100
AcDbEntity
  8
0
100
AcDbCircle
 62
7
  6
CONTINUOUS
 10
7.0473183383
 20
11.8811908119
 40
1.18
100
AcDbArc
 50
283.3396252087
 51
346.6820710155
  0
ARC
  5
2C3
100
AcDbEntity
  8
0
100
AcDbCircle
 62
7
  6
CONTINUOUS
 10
7.0473183383
 20
11.8811908119
 40
1.18
100
AcDbArc
 50
13.3185143561
 51
76.6603429148
  0
ARC
  5
2C4
100
AcDbEntity
  8
0
100
AcDbCircle
 62
7
  6
CONTINUOUS
 10
7.0473183383
 20
11.8811908119
 40
1.0000026738
100
AcDbArc
 50
11.16482198
 51
78.83517802
  0
ARC
  5
2C5
100
AcDbEntity
  8
0
100
AcDbCircle
 62
7
  6
CONTINUOUS
 10
7.0473183383
 20
11.8811908119
 40
1.0000026738
100
AcDbArc
 50
281.16482198
 51
348.83517802
  0
ARC
  5
2C6
100
AcDbEntity
  8
0
100
AcDbCircle
 62
7
  6
CONTINUOUS
 10
7.0473183383
 20
11.8811908119
 40
1.0000026738
100
AcDbArc
 50
191.16482198
 51
258.83517802
  0
ARC
  5
2C7
100
AcDbEntity
  8
0
100
AcDbCircle
 62
7
  6
CONTINUOUS
 10
7.0473183383
 20
11.8811908119
 40
1.0000026738
100
AcDbArc
 50
101.16482198
 51
168.83517802
  0
ARC
  5
2C8
100
AcDbEntity
  8
0
100
AcDbCircle
 62
9
  6
CONTINUOUS
 10
7.0473183383
 20
11.8811908119
 40
0.8130026738
100
AcDbArc
 50
9.1749516451
 51
80.80222144
  0
ARC
  5
2C9
100
AcDbEntity
  8
0
100
AcDbCircle
 62
9
  6
CONTINUOUS
 10
7.0473183383
 20
11.8811908119
 40
0.8130026738
100
AcDbArc
 50
279.1976167995
 51
350.8217893733
  0
ARC
  5
2CA
100
AcDbEntity
  8
0
100
AcDbCircle
 62
9
  6
CONTINUOUS
 10
7.0473183383
 20
11.8811908119
 40
0.8130026738
100
AcDbArc
 50
189.1749516451
 51
260.80222144
  0
ARC
  5
2CB
100
AcDbEntity
  8
0
100
AcDbCircle
 62
9
  6
CONTINUOUS
 10
7.0473183383
 20
11.8811908119
 40
0.8130026738
100
AcDbArc
 50
99.1976167995
 51
170.8217893733
  0
ARC
  5
2CC
100
AcDbEntity
  8
0
100
AcDbCircle
 62
7
  6
CONTINUOUS
 10
7.0473183383
 20
11.8811908119
 40
0.741
100
AcDbArc
 50
62.3704986062
 51
81.1643410784
  0
ARC
  5
2CD
100
AcDbEntity
  8
0
100
AcDbCircle
 62
7
  6
CONTINUOUS
 10
7.0473183383
 20
11.8811908119
 40
0.741
100
AcDbArc
 50
98.8356589216
 51
117.6295013938
  0
ARC
  5
2CE
100
AcDbEntity
  8
0
100
AcDbCircle
 62
7
  6
CONTINUOUS
 10
7.0473183383
 20
11.8811908119
 40
0.741
100
AcDbArc
 50
122.3704986062
 51
171.158600952
  0
ARC
  5
2CF
100
AcDbEntity
  8
0
100
AcDbCircle
 62
7
  6
CONTINUOUS
 10
7.0473183383
 20
11.8811908119
 40
0.741
100
AcDbArc
 50
302.3704986062
 51
351.158600952
  0
ARC
  5
2D0
100
AcDbEntity
  8
0
100
AcDbCircle
 62
7
  6
CONTINUOUS
 10
7.0473183383
 20
11.8811908119
 40
0.741
100
AcDbArc
 50
8.841399048
 51
57.6295013938
  0
ARC
  5
2D1
100
AcDbEntity
  8
0
100
AcDbCircle
 62
7
  6
CONTINUOUS
 10
7.0473183383
 20
11.8811908119
 40
0.741
100
AcDbArc
 50
242.3704986062
 51
261.1643410784
  0
ARC
  5
2D2
100
AcDbEntity
  8
0
100
AcDbCircle
 62
7
  6
CONTINUOUS
 10
7.0473183383
 20
11.8811908119
 40
0.741
100
AcDbArc
 50
188.841399048
 51
237.6295013938
  0
ARC
  5
2D3
100
AcDbEntity
  8
0
100
AcDbCircle
 62
7
  6
CONTINUOUS
 10
7.0473183383
 20
11.8811908119
 40
0.741
100
AcDbArc
 50
278.8356589216
 51
297.6295013938
  0
ARC
  5
2D4
100
AcDbEntity
  8
0
100
AcDbCircle
 62
7
  6
CONTINUOUS
 10
7.0473183383
 20
11.8811908119
 40
0.6515
100
AcDbArc
 50
100.9044569725
 51
169.0906432827
  0
ARC
  5
2D5
100
AcDbEntity
  8
0
100
AcDbCircle
 62
7
  6
CONTINUOUS
 10
7.0473183383
 20
11.8811908119
 40
0.6515
100
AcDbArc
 50
10.9093567173
 51
79.0955430275
  0
ARC
  5
2D6
100
AcDbEntity
  8
0
100
AcDbCircle
 62
7
  6
CONTINUOUS
 10
7.0473183383
 20
11.8811908119
 40
0.6515
100
AcDbArc
 50
280.9044569725
 51
349.0906432827
  0
ARC
  5
2D7
100
AcDbEntity
  8
0
100
AcDbCircle
 62
7
  6
CONTINUOUS
 10
7.0473183383
 20
11.8811908119
 40
0.6515
100
AcDbArc
 50
190.9093567173
 51
259.0955430275
  0
ARC
  5
2D8
100
AcDbEntity
  8
0
100
AcDbCircle
 62
9
  6
CONTINUOUS
 10
7.0473183383
 20
11.8811908119
 40
0.6146339942
100
AcDbArc
 50
193.2289039359
 51
256.7788648429
  0
ARC
  5
2D9
100
AcDbEntity
  8
0
100
AcDbCircle
 62
9
  6
CONTINUOUS
 10
7.0473183383
 20
11.8811908119
 40
0.6146339942
100
AcDbArc
 50
283.2211351571
 51
346.7710960641
  0
ARC
  5
2DA
100
AcDbEntity
  8
0
100
AcDbCircle
 62
9
  6
CONTINUOUS
 10
7.0473183383
 20
11.8811908119
 40
0.6146339942
100
AcDbArc
 50
13.2289039359
 51
76.7788648429
  0
ARC
  5
2DB
100
AcDbEntity
  8
0
100
AcDbCircle
 62
9
  6
CONTINUOUS
 10
7.0473183383
 20
11.8811908119
 40
0.6146339942
100
AcDbArc
 50
103.2211351571
 51
166.7710960641
  0
CIRCLE
  5
2DC
100
AcDbEntity
  8
0
100
AcDbCircle
 62
7
  6
CONTINUOUS
 10
7.0473183383
 20
11.8811908119
 40
0.5575
  0
CIRCLE
  5
2DD
100
AcDbEntity
  8
0
100
AcDbCircle
 62
7
  6
CONTINUOUS
 10
7.0473183383
 20
11.8811908119
 40
0.5275
  0
CIRCLE
  5
2DE
100
AcDbEntity
  8
0
100
AcDbCircle
 62
7
  6
CONTINUOUS
 10
7.0473183383
 20
11.8811908119
 40
0.5132341523
  0
CIRCLE
  5
2DF
100
AcDbEntity
  8
0
100
AcDbCircle
 62
7
  6
CONTINUOUS
 10
7.0473183383
 20
11.8811908119
 40
0.4545099561
  0
CIRCLE
  5
2E0
100
AcDbEntity
  8
0
100
AcDbCircle
 62
7
  6
CONTINUOUS
 10
7.0473183383
 20
11.8811908119
 40
0.4275
  0
CIRCLE
  5
2E1
100
AcDbEntity
  8
0
100
AcDbCircle
 62
7
  6
CONTINUOUS
 10
7.0473183383
 20
11.8811908119
 40
0.4175
  0
CIRCLE
  5
2E2
100
AcDbEntity
  8
0
100
AcDbCircle
 62
9
  6
CONTINUOUS
 10
7.0473183383
 20
11.8811908119
 40
0.3951446396
  0
ARC
  5
2E3
100
AcDbEntity
  8
0
100
AcDbCircle
 62
7
  6
CONTINUOUS
 10
7.0905203121
 20
11.9756908119
 40
0.024
100
AcDbArc
 50
18.2099568646
 51
90.0
  0
ARC
  5
2E4
100
AcDbEntity
  8
0
100
AcDbCircle
 62
7
  6
CONTINUOUS
 10
7.0908739626
 20
12.0646908119
 40
0.024
100
AcDbArc
 50
270.0
 51
339.2576200451
  0
ARC
  5
2E5
100
AcDbEntity
  8
0
100
AcDbCircle
 62
7
  6
CONTINUOUS
 10
7.0908739626
 20
12.0646908119
 40
0.024
100
AcDbArc
 50
20.7423799549
 51
90.0
  0
ARC
  5
2E6
100
AcDbEntity
  8
0
100
AcDbCircle
 62
7
  6
CONTINUOUS
 10
7.0668739626
 20
12.0466908119
 40
0.006
100
AcDbArc
 50
180.0
 51
270.0
  0
ARC
  5
2E7
100
AcDbEntity
  8
0
100
AcDbCircle
 62
7
  6
CONTINUOUS
 10
7.0668739626
 20
12.0826908119
 40
0.006
100
AcDbArc
 50
90.0
 51
180.0
  0
ARC
  5
2E8
100
AcDbEntity
  8
0
100
AcDbCircle
 62
7
  6
CONTINUOUS
 10
7.5563243144
 20
12.0461908119
 40
0.031
100
AcDbArc
 50
44.3699285546
 51
63.0698510317
  0
ARC
  5
2E9
100
AcDbEntity
  8
0
100
AcDbCircle
 62
7
  6
CONTINUOUS
 10
7.2123183383
 20
12.3901967881
 40
0.031
100
AcDbArc
 50
25.3001936052
 51
45.6300714453
  0
ARC
  5
2EA
100
AcDbEntity
  8
0
100
AcDbCircle
 62
7
  6
CONTINUOUS
 10
7.0905203121
 20
12.1536908119
 40
0.024
100
AcDbArc
 50
270.0
 51
341.7900431355
  0
ARC
  5
2EB
100
AcDbEntity
  8
0
100
AcDbCircle
 62
7
  6
CONTINUOUS
 10
8.2298183383
 20
11.8811908119
 40
0.275
100
AcDbArc
 50
235.0
 51
125.0
  0
ARC
  5
2EC
100
AcDbEntity
  8
0
100
AcDbCircle
 62
7
  6
CONTINUOUS
 10
7.9808183383
 20
12.0620845402
 40
0.016
100
AcDbArc
 50
180.0
 51
305.0
  0
ARC
  5
2ED
100
AcDbEntity
  8
0
100
AcDbCircle
 62
7
  6
CONTINUOUS
 10
7.9516518762
 20
12.0611908119
 40
0.016
100
AcDbArc
 50
34.6234511018
 51
136.9739483152
  0
ARC
  5
2EE
100
AcDbEntity
  8
0
100
AcDbCircle
 62
7
  6
CONTINUOUS
 10
7.7571942973
 20
12.2426908119
 40
0.25
100
AcDbArc
 50
224.3699285547
 51
316.9739483152
  0
ARC
  5
2EF
100
AcDbEntity
  8
0
100
AcDbCircle
 62
7
  6
CONTINUOUS
 10
7.0473183383
 20
13.0636908119
 40
0.275
100
AcDbArc
 50
324.9999999999
 51
215.0000000001
  0
ARC
  5
2F0
100
AcDbEntity
  8
0
100
AcDbCircle
 62
7
  6
CONTINUOUS
 10
7.4088183383
 20
12.5910667709
 40
0.25
100
AcDbArc
 50
133.0260516848
 51
225.6300714454
  0
ARC
  5
2F1
100
AcDbEntity
  8
0
100
AcDbCircle
 62
7
  6
CONTINUOUS
 10
7.2273183383
 20
12.7855243498
 40
0.016
100
AcDbArc
 50
313.0260516848
 51
55.3765489002
  0
ARC
  5
2F2
100
AcDbEntity
  8
0
100
AcDbCircle
 62
7
  6
CONTINUOUS
 10
7.2282120666
 20
12.8146908119
 40
0.016
100
AcDbArc
 50
145.0000000002
 51
270.0
  0
ARC
  5
2F3
100
AcDbEntity
  8
0
100
AcDbCircle
 62
9
  6
CONTINUOUS
 10
11.0458898955
 20
11.8812577073
 40
1.1249350978
100
AcDbArc
 50
342.7507648677
 51
89.9273256385
  0
ARC
  5
2F4
100
AcDbEntity
  8
0
100
AcDbCircle
 62
7
  6
CONTINUOUS
 10
11.0640431089
 20
2.467420431
 40
0.8358821293
100
AcDbArc
 50
14.3374409644
 51
28.1509725718
  0
ARC
  5
2F5
100
AcDbEntity
  8
0
100
AcDbCircle
 62
7
  6
CONTINUOUS
 10
11.0658025255
 20
2.4680734225
 40
0.8340158328
100
AcDbArc
 50
0.0125512654
 51
14.3239097086
  0
ARC
  5
2F6
100
AcDbEntity
  8
0
100
AcDbCircle
 62
7
  6
CONTINUOUS
 10
11.0473183383
 20
11.8811908119
 40
1.425
100
AcDbArc
 50
312.4641057223
 51
227.538807799
  0
ARC
  5
2F7
100
AcDbEntity
  8
0
100
AcDbCircle
 62
9
  6
CONTINUOUS
 10
11.0473183383
 20
11.8811908119
 40
1.2931676647
100
AcDbArc
 50
319.9673280829
 51
220.0063181531
  0
ARC
  5
2F8
100
AcDbEntity
  8
0
100
AcDbCircle
 62
7
  6
CONTINUOUS
 10
11.0473183383
 20
11.8811908119
 40
1.253
100
AcDbArc
 50
323.1940327068
 51
216.8068841373
  0
ARC
  5
2F9
100
AcDbEntity
  8
0
100
AcDbCircle
 62
9
  6
CONTINUOUS
 10
11.0487462543
 20
11.8812584499
 40
1.1249342564
100
AcDbArc
 50
90.0727274967
 51
197.0195324216
  0
ARC
  5
2FA
100
AcDbEntity
  8
0
100
AcDbCircle
 62
7
  6
CONTINUOUS
 10
14.6858183383
 20
11.171314853
 40
0.25
100
AcDbArc
 50
313.0260516848
 51
45.6300714454
  0
ARC
  5
2FB
100
AcDbEntity
  8
0
100
AcDbCircle
 62
7
  6
CONTINUOUS
 10
14.86642461
 20
10.9476908119
 40
0.016
100
AcDbArc
 50
325.0000000002
 51
90.0
  0
ARC
  5
2FC
100
AcDbEntity
  8
0
100
AcDbCircle
 62
7
  6
CONTINUOUS
 10
14.8673183383
 20
10.976857274
 40
0.016
100
AcDbArc
 50
133.0260516848
 51
235.3765489001
  0
ARC
  5
2FD
100
AcDbEntity
  8
0
100
AcDbCircle
 62
7
  6
CONTINUOUS
 10
14.3374423793
 20
11.5196908119
 40
0.25
100
AcDbArc
 50
44.3699285547
 51
136.9739483152
  0
ARC
  5
2FE
100
AcDbEntity
  8
0
100
AcDbCircle
 62
7
  6
CONTINUOUS
 10
14.8236574183
 20
11.8786908119
 40
0.097
100
AcDbArc
 50
161.5590861806
 51
198.4409138194
  0
ARC
  5
2FF
100
AcDbEntity
  8
0
100
AcDbCircle
 62
7
  6
CONTINUOUS
 10
14.7771735501
 20
11.8631908119
 40
0.048
100
AcDbArc
 50
198.4409138194
 51
270.0
  0
ARC
  5
300
100
AcDbEntity
  8
0
100
AcDbCircle
 62
7
  6
CONTINUOUS
 10
14.8823183383
 20
11.3721848358
 40
0.031
100
AcDbArc
 50
204.3172689523
 51
225.6300714453
  0
ARC
  5
301
100
AcDbEntity
  8
0
100
AcDbCircle
 62
7
  6
CONTINUOUS
 10
14.5383123621
 20
11.7161908119
 40
0.031
100
AcDbArc
 50
224.3699285539
 51
245.1384469919
  0
ARC
  5
302
100
AcDbEntity
  8
0
100
AcDbCircle
 62
7
  6
CONTINUOUS
 10
14.9498183383
 20
11.8439614567
 40
0.03
100
AcDbArc
 50
286.4592496283
 51
360.0
  0
ARC
  5
303
100
AcDbEntity
  8
0
100
AcDbCircle
 62
7
  6
CONTINUOUS
 10
15.0458183383
 20
11.8439614567
 40
0.03
100
AcDbArc
 50
180.0
 51
253.5407503717
  0
ARC
  5
304
100
AcDbEntity
  8
0
100
AcDbCircle
 62
7
  6
CONTINUOUS
 10
14.8653183383
 20
11.8313153274
 40
0.018
100
AcDbArc
 50
180.0
 51
243.6122000388
  0
ARC
  5
305
100
AcDbEntity
  8
0
100
AcDbCircle
 62
7
  6
CONTINUOUS
 10
14.1138183383
 20
11.7002970836
 40
0.016
100
AcDbArc
 50
0.0
 51
125.000000001
  0
ARC
  5
306
100
AcDbEntity
  8
0
100
AcDbCircle
 62
7
  6
CONTINUOUS
 10
14.1429848004
 20
11.7011908119
 40
0.016
100
AcDbArc
 50
214.6234511005
 51
316.9739483164
  0
ARC
  5
307
100
AcDbEntity
  8
0
100
AcDbCircle
 62
7
  6
CONTINUOUS
 10
14.805036458
 20
11.8211908119
 40
0.006
100
AcDbArc
 50
270.0
 51
360.0
  0
ARC
  5
308
100
AcDbEntity
  8
0
100
AcDbCircle
 62
7
  6
CONTINUOUS
 10
15.0473183383
 20
10.6986908119
 40
0.275
100
AcDbArc
 50
145.0
 51
35.0
  0
ARC
  5
309
100
AcDbEntity
  8
0
100
AcDbCircle
 62
7
  6
CONTINUOUS
 10
15.4088183383
 20
11.171314853
 40
0.25
100
AcDbArc
 50
134.3699285546
 51
226.9739483152
  0
ARC
  5
30A
100
AcDbEntity
  8
0
100
AcDbCircle
 62
7
  6
CONTINUOUS
 10
15.2282120666
 20
10.9476908119
 40
0.016
100
AcDbArc
 50
90.0
 51
214.9999999998
  0
ARC
  5
30B
100
AcDbEntity
  8
0
100
AcDbCircle
 62
7
  6
CONTINUOUS
 10
15.2273183383
 20
10.976857274
 40
0.016
100
AcDbArc
 50
304.6234510999
 51
46.9739483152
  0
ARC
  5
30C
100
AcDbEntity
  8
0
100
AcDbCircle
 62
7
  6
CONTINUOUS
 10
15.7571942973
 20
11.5196908119
 40
0.25
100
AcDbArc
 50
43.0260516848
 51
135.6300714453
  0
ARC
  5
30D
100
AcDbEntity
  8
0
100
AcDbCircle
 62
7
  6
CONTINUOUS
 10
15.3100245669
 20
11.8773266307
 40
0.0888641812
100
AcDbArc
 50
44.2338173194
 51
156.845901431
  0
ARC
  5
30E
100
AcDbEntity
  8
0
100
AcDbCircle
 62
7
  6
CONTINUOUS
 10
15.2703183383
 20
11.8805701828
 40
0.085
100
AcDbArc
 50
338.3999655657
 51
21.6000344343
  0
ARC
  5
30F
100
AcDbEntity
  8
0
100
AcDbCircle
 62
7
  6
CONTINUOUS
 10
15.3126741768
 20
11.8773266307
 40
0.0697243244
100
AcDbArc
 50
195.9292215989
 51
211.263668006
  0
ARC
  5
310
100
AcDbEntity
  8
0
100
AcDbCircle
 62
7
  6
CONTINUOUS
 10
15.3015136185
 20
11.8809663597
 40
0.061607623
100
AcDbArc
 50
76.3709027898
 51
156.845901431
  0
ARC
  5
311
100
AcDbEntity
  8
0
100
AcDbCircle
 62
7
  6
CONTINUOUS
 10
15.299189236
 20
11.8691393657
 40
0.0539485538
100
AcDbArc
 50
211.2636680057
 51
338.3999655655
  0
ARC
  5
312
100
AcDbEntity
  8
0
100
AcDbCircle
 62
7
  6
CONTINUOUS
 10
15.2123183383
 20
11.3721848358
 40
0.031
100
AcDbArc
 50
314.3699285547
 51
333.0698510328
  0
ARC
  5
313
100
AcDbEntity
  8
0
100
AcDbCircle
 62
7
  6
CONTINUOUS
 10
15.5563243144
 20
11.7161908119
 40
0.031
100
AcDbArc
 50
295.3001936065
 51
315.6300714461
  0
ARC
  5
314
100
AcDbEntity
  8
0
100
AcDbCircle
 62
7
  6
CONTINUOUS
 10
15.9516518762
 20
11.7011908119
 40
0.016
100
AcDbArc
 50
223.0260516836
 51
325.3765488995
  0
ARC
  5
315
100
AcDbEntity
  8
0
100
AcDbCircle
 62
7
  6
CONTINUOUS
 10
15.9808183383
 20
11.7002970836
 40
0.016
100
AcDbArc
 50
54.999999999
 51
180.0
  0
ARC
  5
316
100
AcDbEntity
  8
0
100
AcDbCircle
 62
7
  6
CONTINUOUS
 10
15.2683183383
 20
11.7971908119
 40
0.006
100
AcDbArc
 50
72.3178031517
 51
180.0
  0
ARC
  5
317
100
AcDbEntity
  8
0
100
AcDbCircle
 62
7
  6
CONTINUOUS
 10
13.8648183383
 20
11.8811908119
 40
0.275
100
AcDbArc
 50
54.9999999999
 51
305.0000000001
  0
ARC
  5
318
100
AcDbEntity
  8
0
100
AcDbCircle
 62
7
  6
CONTINUOUS
 10
14.3374423793
 20
12.2426908119
 40
0.25
100
AcDbArc
 50
223.0260516848
 51
315.6300714453
  0
ARC
  5
319
100
AcDbEntity
  8
0
100
AcDbCircle
 62
7
  6
CONTINUOUS
 10
14.7728183383
 20
11.8816908119
 40
0.0845
100
AcDbArc
 50
90.0
 51
270.0
  0
ARC
  5
31A
100
AcDbEntity
  8
0
100
AcDbCircle
 62
7
  6
CONTINUOUS
 10
14.7771735501
 20
11.8941908119
 40
0.048
100
AcDbArc
 50
90.0
 51
161.5590861805
  0
ARC
  5
31B
100
AcDbEntity
  8
0
100
AcDbCircle
 62
7
  6
CONTINUOUS
 10
14.8823183383
 20
12.3901967881
 40
0.031
100
AcDbArc
 50
134.3699285547
 51
153.0698651458
  0
ARC
  5
31C
100
AcDbEntity
  8
0
100
AcDbCircle
 62
7
  6
CONTINUOUS
 10
14.5383123621
 20
12.0461908119
 40
0.031
100
AcDbArc
 50
115.3001518977
 51
135.6300714461
  0
ARC
  5
31D
100
AcDbEntity
  8
0
100
AcDbCircle
 62
7
  6
CONTINUOUS
 10
15.0458183383
 20
11.9134201672
 40
0.03
100
AcDbArc
 50
106.4592496282
 51
180.0
  0
ARC
  5
31E
100
AcDbEntity
  8
0
100
AcDbCircle
 62
7
  6
CONTINUOUS
 10
14.9258183383
 20
11.9134201672
 40
0.03
100
AcDbArc
 50
90.0
 51
148.8157171748
  0
ARC
  5
31F
100
AcDbEntity
  8
0
100
AcDbCircle
 62
7
  6
CONTINUOUS
 10
14.9498183383
 20
11.9134201672
 40
0.03
100
AcDbArc
 50
0.0
 51
90.0
  0
ARC
  5
320
100
AcDbEntity
  8
0
100
AcDbCircle
 62
7
  6
CONTINUOUS
 10
14.8653183383
 20
11.9260662964
 40
0.018
100
AcDbArc
 50
116.3877999612
 51
180.0
  0
ARC
  5
321
100
AcDbEntity
  8
0
100
AcDbCircle
 62
7
  6
CONTINUOUS
 10
14.1138183383
 20
12.0620845402
 40
0.016
100
AcDbArc
 50
234.999999999
 51
360.0
  0
ARC
  5
322
100
AcDbEntity
  8
0
100
AcDbCircle
 62
7
  6
CONTINUOUS
 10
14.1429848004
 20
12.0611908119
 40
0.016
100
AcDbArc
 50
43.0260516836
 51
145.3765488995
  0
ARC
  5
323
100
AcDbEntity
  8
0
100
AcDbCircle
 62
7
  6
CONTINUOUS
 10
14.805036458
 20
11.9361908119
 40
0.006
100
AcDbArc
 50
0.0
 51
90.0
  0
ARC
  5
324
100
AcDbEntity
  8
0
100
AcDbCircle
 62
7
  6
CONTINUOUS
 10
14.6858183383
 20
12.5910667709
 40
0.25
100
AcDbArc
 50
314.3699285546
 51
46.9739483152
  0
ARC
  5
325
100
AcDbEntity
  8
0
100
AcDbCircle
 62
7
  6
CONTINUOUS
 10
14.86642461
 20
12.8146908119
 40
0.016
100
AcDbArc
 50
270.0
 51
34.9999999998
  0
ARC
  5
326
100
AcDbEntity
  8
0
100
AcDbCircle
 62
7
  6
CONTINUOUS
 10
14.8673183383
 20
12.7855243498
 40
0.016
100
AcDbArc
 50
124.6234510999
 51
226.9739483152
  0
ARC
  5
327
100
AcDbEntity
  8
0
100
AcDbCircle
 62
7
  6
CONTINUOUS
 10
15.0473183383
 20
11.8811908119
 40
1.18
100
AcDbArc
 50
13.3396252087
 51
76.6820710155
  0
ARC
  5
328
100
AcDbEntity
  8
0
100
AcDbCircle
 62
7
  6
CONTINUOUS
 10
15.0473183383
 20
11.8811908119
 40
1.18
100
AcDbArc
 50
103.3185143561
 51
166.6603429148
  0
ARC
  5
329
100
AcDbEntity
  8
0
100
AcDbCircle
 62
7
  6
CONTINUOUS
 10
15.0473183383
 20
11.8811908119
 40
1.18
100
AcDbArc
 50
193.3396252087
 51
256.6820710155
  0
ARC
  5
32A
100
AcDbEntity
  8
0
100
AcDbCircle
 62
7
  6
CONTINUOUS
 10
15.0473183383
 20
11.8811908119
 40
1.18
100
AcDbArc
 50
283.3185143561
 51
346.6603429148
  0
ARC
  5
32B
100
AcDbEntity
  8
0
100
AcDbCircle
 62
7
  6
CONTINUOUS
 10
15.0473183383
 20
11.8811908119
 40
1.0000026738
100
AcDbArc
 50
281.16482198
 51
348.83517802
  0
ARC
  5
32C
100
AcDbEntity
  8
0
100
AcDbCircle
 62
7
  6
CONTINUOUS
 10
15.0473183383
 20
11.8811908119
 40
1.0000026738
100
AcDbArc
 50
191.16482198
 51
258.83517802
  0
ARC
  5
32D
100
AcDbEntity
  8
0
100
AcDbCircle
 62
7
  6
CONTINUOUS
 10
15.0473183383
 20
11.8811908119
 40
1.0000026738
100
AcDbArc
 50
101.16482198
 51
168.83517802
  0
ARC
  5
32E
100
AcDbEntity
  8
0
100
AcDbCircle
 62
7
  6
CONTINUOUS
 10
15.0473183383
 20
11.8811908119
 40
1.0000026738
100
AcDbArc
 50
11.16482198
 51
78.83517802
  0
ARC
  5
32F
100
AcDbEntity
  8
0
100
AcDbCircle
 62
9
  6
CONTINUOUS
 10
15.0473183383
 20
11.8811908119
 40
0.8130026738
100
AcDbArc
 50
279.1749516451
 51
350.80222144
  0
ARC
  5
330
100
AcDbEntity
  8
0
100
AcDbCircle
 62
9
  6
CONTINUOUS
 10
15.0473183383
 20
11.8811908119
 40
0.8130026738
100
AcDbArc
 50
189.1976167995
 51
260.8217893733
  0
ARC
  5
331
100
AcDbEntity
  8
0
100
AcDbCircle
 62
9
  6
CONTINUOUS
 10
15.0473183383
 20
11.8811908119
 40
0.8130026738
100
AcDbArc
 50
99.1749516451
 51
170.80222144
  0
ARC
  5
332
100
AcDbEntity
  8
0
100
AcDbCircle
 62
9
  6
CONTINUOUS
 10
15.0473183383
 20
11.8811908119
 40
0.8130026738
100
AcDbArc
 50
9.1976167995
 51
80.8217893733
  0
ARC
  5
333
100
AcDbEntity
  8
0
100
AcDbCircle
 62
7
  6
CONTINUOUS
 10
15.0473183383
 20
11.8811908119
 40
0.741
100
AcDbArc
 50
98.8288345053
 51
117.6295013938
  0
ARC
  5
334
100
AcDbEntity
  8
0
100
AcDbCircle
 62
7
  6
CONTINUOUS
 10
15.0473183383
 20
11.8811908119
 40
0.741
100
AcDbArc
 50
62.3704986062
 51
81.1711654947
  0
ARC
  5
335
100
AcDbEntity
  8
0
100
AcDbCircle
 62
7
  6
CONTINUOUS
 10
15.0473183383
 20
11.8811908119
 40
0.741
100
AcDbArc
 50
188.8493409489
 51
237.6295013938
  0
ARC
  5
336
100
AcDbEntity
  8
0
100
AcDbCircle
 62
7
  6
CONTINUOUS
 10
15.0473183383
 20
11.8811908119
 40
0.741
100
AcDbArc
 50
122.3704986062
 51
171.1506590511
  0
ARC
  5
337
100
AcDbEntity
  8
0
100
AcDbCircle
 62
7
  6
CONTINUOUS
 10
15.0473183383
 20
11.8811908119
 40
0.741
100
AcDbArc
 50
8.8493409489
 51
57.6295013938
  0
ARC
  5
338
100
AcDbEntity
  8
0
100
AcDbCircle
 62
7
  6
CONTINUOUS
 10
15.0473183383
 20
11.8811908119
 40
0.741
100
AcDbArc
 50
278.8288345053
 51
297.6295013938
  0
ARC
  5
339
100
AcDbEntity
  8
0
100
AcDbCircle
 62
7
  6
CONTINUOUS
 10
15.0473183383
 20
11.8811908119
 40
0.741
100
AcDbArc
 50
242.3704986062
 51
261.1711654947
  0
ARC
  5
33A
100
AcDbEntity
  8
0
100
AcDbCircle
 62
7
  6
CONTINUOUS
 10
15.0473183383
 20
11.8811908119
 40
0.741
100
AcDbArc
 50
302.3704986062
 51
351.1506590511
  0
ARC
  5
33B
100
AcDbEntity
  8
0
100
AcDbCircle
 62
7
  6
CONTINUOUS
 10
15.0473183383
 20
11.8811908119
 40
0.6515
100
AcDbArc
 50
100.9093567173
 51
169.0955430275
  0
ARC
  5
33C
100
AcDbEntity
  8
0
100
AcDbCircle
 62
7
  6
CONTINUOUS
 10
15.0473183383
 20
11.8811908119
 40
0.6515
100
AcDbArc
 50
10.9044569725
 51
79.0906432827
  0
ARC
  5
33D
100
AcDbEntity
  8
0
100
AcDbCircle
 62
7
  6
CONTINUOUS
 10
15.0473183383
 20
11.8811908119
 40
0.6515
100
AcDbArc
 50
280.9093567173
 51
349.0955430275
  0
ARC
  5
33E
100
AcDbEntity
  8
0
100
AcDbCircle
 62
7
  6
CONTINUOUS
 10
15.0473183383
 20
11.8811908119
 40
0.6515
100
AcDbArc
 50
190.9044569725
 51
259.0906432827
  0
ARC
  5
33F
100
AcDbEntity
  8
0
100
AcDbCircle
 62
9
  6
CONTINUOUS
 10
15.0473183383
 20
11.8811908119
 40
0.6146339942
100
AcDbArc
 50
193.2211351571
 51
256.7710960641
  0
ARC
  5
340
100
AcDbEntity
  8
0
100
AcDbCircle
 62
9
  6
CONTINUOUS
 10
15.0473183383
 20
11.8811908119
 40
0.6146339942
100
AcDbArc
 50
283.2289039359
 51
346.7788648429
  0
ARC
  5
341
100
AcDbEntity
  8
0
100
AcDbCircle
 62
9
  6
CONTINUOUS
 10
15.0473183383
 20
11.8811908119
 40
0.6146339942
100
AcDbArc
 50
13.2211351571
 51
76.7710960641
  0
ARC
  5
342
100
AcDbEntity
  8
0
100
AcDbCircle
 62
9
  6
CONTINUOUS
 10
15.0473183383
 20
11.8811908119
 40
0.6146339942
100
AcDbArc
 50
103.2289039359
 51
166.7788648429
  0
CIRCLE
  5
343
100
AcDbEntity
  8
0
100
AcDbCircle
 62
7
  6
CONTINUOUS
 10
15.0473183383
 20
11.8811908119
 40
0.5575
  0
CIRCLE
  5
344
100
AcDbEntity
  8
0
100
AcDbCircle
 62
7
  6
CONTINUOUS
 10
15.0473183383
 20
11.8811908119
 40
0.5275
  0
CIRCLE
  5
345
100
AcDbEntity
  8
0
100
AcDbCircle
 62
7
  6
CONTINUOUS
 10
15.0473183383
 20
11.8811908119
 40
0.5132341523
  0
CIRCLE
  5
346
100
AcDbEntity
  8
0
100
AcDbCircle
 62
7
  6
CONTINUOUS
 10
15.0473183383
 20
11.8811908119
 40
0.4545099561
  0
CIRCLE
  5
347
100
AcDbEntity
  8
0
100
AcDbCircle
 62
7
  6
CONTINUOUS
 10
15.0473183383
 20
11.8811908119
 40
0.4275
  0
CIRCLE
  5
348
100
AcDbEntity
  8
0
100
AcDbCircle
 62
7
  6
CONTINUOUS
 10
15.0473183383
 20
11.8811908119
 40
0.4175
  0
CIRCLE
  5
349
100
AcDbEntity
  8
0
100
AcDbCircle
 62
9
  6
CONTINUOUS
 10
15.0473183383
 20
11.8811908119
 40
0.3951446566
  0
ARC
  5
34A
100
AcDbEntity
  8
0
100
AcDbCircle
 62
7
  6
CONTINUOUS
 10
15.3068929413
 20
11.9181908119
 40
0.121
100
AcDbArc
 50
252.3178031512
 51
280.8633887081
  0
ARC
  5
34B
100
AcDbEntity
  8
0
100
AcDbCircle
 62
7
  6
CONTINUOUS
 10
15.313993502
 20
11.8811908119
 40
0.0833248363
100
AcDbArc
 50
280.8633887079
 51
44.2338173196
  0
ARC
  5
34C
100
AcDbEntity
  8
0
100
AcDbCircle
 62
7
  6
CONTINUOUS
 10
15.3047200601
 20
11.8941908119
 40
0.048
100
AcDbArc
 50
21.6000344343
 51
76.3709027895
  0
ARC
  5
34D
100
AcDbEntity
  8
0
100
AcDbCircle
 62
7
  6
CONTINUOUS
 10
15.5563243144
 20
12.0461908119
 40
0.031
100
AcDbArc
 50
44.3699285539
 51
65.1384429549
  0
ARC
  5
34E
100
AcDbEntity
  8
0
100
AcDbCircle
 62
7
  6
CONTINUOUS
 10
15.2123183383
 20
12.3901967881
 40
0.031
100
AcDbArc
 50
24.3172684465
 51
45.6300714453
  0
ARC
  5
34F
100
AcDbEntity
  8
0
100
AcDbCircle
 62
7
  6
CONTINUOUS
 10
16.2298183383
 20
11.8811908119
 40
0.275
100
AcDbArc
 50
234.9999999999
 51
125.0000000001
  0
ARC
  5
350
100
AcDbEntity
  8
0
100
AcDbCircle
 62
7
  6
CONTINUOUS
 10
15.9516518762
 20
12.0611908119
 40
0.016
100
AcDbArc
 50
34.6234511005
 51
136.9739483164
  0
ARC
  5
351
100
AcDbEntity
  8
0
100
AcDbCircle
 62
7
  6
CONTINUOUS
 10
15.9808183383
 20
12.0620845402
 40
0.016
100
AcDbArc
 50
180.0
 51
305.000000001
  0
ARC
  5
352
100
AcDbEntity
  8
0
100
AcDbCircle
 62
7
  6
CONTINUOUS
 10
15.7571942973
 20
12.2426908119
 40
0.25
100
AcDbArc
 50
224.3699285547
 51
316.9739483152
  0
ARC
  5
353
100
AcDbEntity
  8
0
100
AcDbCircle
 62
7
  6
CONTINUOUS
 10
15.0473183383
 20
13.0636908119
 40
0.275
100
AcDbArc
 50
325.0
 51
215.0
  0
ARC
  5
354
100
AcDbEntity
  8
0
100
AcDbCircle
 62
7
  6
CONTINUOUS
 10
15.4088183383
 20
12.5910667709
 40
0.25
100
AcDbArc
 50
133.0260516848
 51
225.6300714454
  0
ARC
  5
355
100
AcDbEntity
  8
0
100
AcDbCircle
 62
7
  6
CONTINUOUS
 10
15.2282120666
 20
12.8146908119
 40
0.016
100
AcDbArc
 50
145.0000000002
 51
270.0
  0
ARC
  5
356
100
AcDbEntity
  8
0
100
AcDbCircle
 62
7
  6
CONTINUOUS
 10
15.2273183383
 20
12.7855243498
 40
0.016
100
AcDbArc
 50
313.0260516848
 51
55.3765489001
  0
SPLINE
  5
357
100
AcDbEntity
  8
0
100
AcDbSpline
 62
7
  6
CONTINUOUS
 70
0
 71
3
 72
11
 73
7
 74
0
 42
0.0000001
 43
0.0000001
 44
0.0000000001
 40
0.0
 40
0.0
 40
0.0
 40
0.0
 40
0.273039475
 40
0.4997206271
 40
0.7263911349
 40
1.0
 40
1.0
 40
1.0
 40
1.0
 10
7.0473183383
 20
11.9611908119
 30
0.0
 10
7.0235275903
 20
11.9611900745
 30
0.0
 10
6.9799854131
 20
11.9480942189
 30
0.0
 10
6.955023444
 20
11.8828577694
 30
0.0
 10
6.9800391244
 20
11.817788243
 30
0.0
 10
7.0235316804
 20
11.8041900098
 30
0.0
 10
7.0473183383
 20
11.8041908119
 30
0.0
  0
SPLINE
  5
358
100
AcDbEntity
  8
0
100
AcDbSpline
 62
7
  6
CONTINUOUS
 70
0
 71
3
 72
11
 73
7
 74
0
 42
0.0000001
 43
0.0000001
 44
0.0000000001
 40
0.0
 40
0.0
 40
0.0
 40
0.0
 40
0.2736079326
 40
0.5003103346
 40
0.7269614556
 40
1.0
 40
1.0
 40
1.0
 40
1.0
 10
7.0473183383
 20
11.8041908119
 30
0.0
 10
7.0711049962
 20
11.8041916141
 30
0.0
 10
7.1146005779
 20
11.8177936689
 30
0.0
 10
7.1396131649
 20
11.8828473382
 30
0.0
 10
7.1146486721
 20
11.9480992127
 30
0.0
 10
7.0711090862
 20
11.9611915493
 30
0.0
 10
7.0473183383
 20
11.9611908119
 30
0.0
  0
SPLINE
  5
359
100
AcDbEntity
  8
0
100
AcDbSpline
 62
7
  6
CONTINUOUS
 70
0
 71
3
 72
11
 73
7
 74
0
 42
0.0000001
 43
0.0000001
 44
0.0000000001
 40
0.0
 40
0.0
 40
0.0
 40
0.0
 40
0.2895273334
 40
0.4992134133
 40
0.7088994931
 40
1.0
 40
1.0
 40
1.0
 40
1.0
 10
7.0473183383
 20
11.9248908119
 30
0.0
 10
7.0640421008
 20
11.9248908119
 30
0.0
 10
7.0928778121
 20
11.9222763196
 30
0.0
 10
7.114104497
 20
11.8828166334
 30
0.0
 10
7.0927799048
 20
11.8437720525
 30
0.0
 10
7.0640301715
 20
11.8398908119
 30
0.0
 10
7.0473183383
 20
11.8398908119
 30
0.0
  0
SPLINE
  5
35A
100
AcDbEntity
  8
0
100
AcDbSpline
 62
7
  6
CONTINUOUS
 70
0
 71
3
 72
11
 73
7
 74
0
 42
0.0000001
 43
0.0000001
 44
0.0000000001
 40
0.0
 40
0.0
 40
0.0
 40
0.0
 40
0.2911005069
 40
0.5007865867
 40
0.7104726666
 40
1.0
 40
1.0
 40
1.0
 40
1.0
 10
7.0473183383
 20
11.8398908119
 30
0.0
 10
7.030606505
 20
11.8398908119
 30
0.0
 10
7.0018567718
 20
11.8437720525
 30
0.0
 10
6.9805321795
 20
11.8828166334
 30
0.0
 10
7.0017588645
 20
11.9222763196
 30
0.0
 10
7.0305945757
 20
11.9248908119
 30
0.0
 10
7.0473183383
 20
11.9248908119
 30
0.0
  0
SPLINE
  5
35B
100
AcDbEntity
  8
0
100
AcDbSpline
 62
7
  6
CONTINUOUS
 70
0
 71
3
 72
11
 73
7
 74
0
 42
0.0000001
 43
0.0000001
 44
0.0000000001
 40
0.0
 40
0.0
 40
0.0
 40
0.0
 40
0.2736079326
 40
0.5003103346
 40
0.7269614556
 40
1.0
 40
1.0
 40
1.0
 40
1.0
 10
15.0503183383
 20
11.8811908119
 30
0.0
 10
15.0503191404
 20
11.857404154
 30
0.0
 10
15.0639211952
 20
11.8139085723
 30
0.0
 10
15.1289748646
 20
11.7888959853
 30
0.0
 10
15.1942267391
 20
11.8138604781
 30
0.0
 10
15.2073190757
 20
11.857400064
 30
0.0
 10
15.2073183383
 20
11.8811908119
 30
0.0
  0
SPLINE
  5
35C
100
AcDbEntity
  8
0
100
AcDbSpline
 62
7
  6
CONTINUOUS
 70
0
 71
3
 72
11
 73
7
 74
0
 42
0.0000001
 43
0.0000001
 44
0.0000000001
 40
0.0
 40
0.0
 40
0.0
 40
0.0
 40
0.273039475
 40
0.4997206271
 40
0.7263911349
 40
1.0
 40
1.0
 40
1.0
 40
1.0
 10
15.2073183383
 20
11.8811908119
 30
0.0
 10
15.2073176009
 20
11.9049815599
 30
0.0
 10
15.1942217452
 20
11.9485237371
 30
0.0
 10
15.1289852957
 20
11.9734857062
 30
0.0
 10
15.0639157694
 20
11.9484700258
 30
0.0
 10
15.0503175361
 20
11.9049774698
 30
0.0
 10
15.0503183383
 20
11.8811908119
 30
0.0
  0
SPLINE
  5
35D
100
AcDbEntity
  8
0
100
AcDbSpline
 62
7
  6
CONTINUOUS
 70
0
 71
3
 72
11
 73
7
 74
0
 42
0.0000001
 43
0.0000001
 44
0.0000000001
 40
0.0
 40
0.0
 40
0.0
 40
0.0
 40
0.2895273334
 40
0.4992134133
 40
0.7088994931
 40
1.0
 40
1.0
 40
1.0
 40
1.0
 10
15.1710183383
 20
11.8811908119
 30
0.0
 10
15.1710183383
 20
11.8644670494
 30
0.0
 10
15.1684038459
 20
11.8356313381
 30
0.0
 10
15.1289441598
 20
11.8144046532
 30
0.0
 10
15.0898995788
 20
11.8357292454
 30
0.0
 10
15.0860183383
 20
11.8644789787
 30
0.0
 10
15.0860183383
 20
11.8811908119
 30
0.0
  0
SPLINE
  5
35E
100
AcDbEntity
  8
0
100
AcDbSpline
 62
7
  6
CONTINUOUS
 70
0
 71
3
 72
11
 73
7
 74
0
 42
0.0000001
 43
0.0000001
 44
0.0000000001
 40
0.0
 40
0.0
 40
0.0
 40
0.0
 40
0.2911005069
 40
0.5007865867
 40
0.7104726666
 40
1.0
 40
1.0
 40
1.0
 40
1.0
 10
15.0860183383
 20
11.8811908119
 30
0.0
 10
15.0860183383
 20
11.8979026452
 30
0.0
 10
15.0898995788
 20
11.9266523784
 30
0.0
 10
15.1289441598
 20
11.9479769707
 30
0.0
 10
15.1684038459
 20
11.9267502857
 30
0.0
 10
15.1710183383
 20
11.8979145745
 30
0.0
 10
15.1710183383
 20
11.8811908119
 30
0.0
  0
SPLINE
  5
35F
100
AcDbEntity
  8
0
100
AcDbSpline
 62
7
  6
CONTINUOUS
 70
0
 71
3
 72
37
 73
33
 74
0
 42
0.0000001
 43
0.0000001
 44
0.0000000001
 40
0.0
 40
0.0
 40
0.0
 40
0.0
 40
0.0621428395
 40
0.093274396
 40
0.1244113568
 40
0.1555699215
 40
0.1867559572
 40
0.2179681743
 40
0.2492083377
 40
0.2804770482
 40
0.3117748188
 40
0.3430990896
 40
0.3744477771
 40
0.4058167846
 40
0.4372021964
 40
0.468598624
 40
0.5000007723
 40
0.5314029135
 40
0.5627992898
 40
0.5941846371
 40
0.6255535433
 40
0.6569021166
 40
0.688226251
 40
0.7195238789
 40
0.7507924415
 40
0.782032451
 40
0.81324452
 40
0.8444304242
 40
0.8755888828
 40
0.9067257373
 40
0.9378572058
 40
1.0
 40
1.0
 40
1.0
 40
1.0
 10
11.8998183383
 20
2.4682561228
 30
0.0
 10
11.8998183383
 20
2.4131415219
 30
0.0
 10
11.8915217973
 20
2.3301086811
 30
0.0
 10
11.8643262205
 20
2.2230462285
 30
0.0
 10
11.8360323904
 20
2.1450084447
 30
0.0
 10
11.8001242004
 20
2.0701320645
 30
0.0
 10
11.7569799508
 20
1.9990964163
 30
0.0
 10
11.7069959274
 20
1.9326060889
 30
0.0
 10
11.6506731973
 20
1.8712938864
 30
0.0
 10
11.5885556826
 20
1.8157471025
 30
0.0
 10
11.5212444396
 20
1.7664977227
 30
0.0
 10
11.44939522
 20
1.7240028286
 30
0.0
 10
11.3736906171
 20
1.6886849957
 30
0.0
 10
11.2948692246
 20
1.6608502651
 30
0.0
 10
11.2136757029
 20
1.640795814
 30
0.0
 10
11.1308962945
 20
1.6286694096
 30
0.0
 10
11.0473162773
 20
1.6246306854
 30
0.0
 10
10.9637363384
 20
1.6286698683
 30
0.0
 10
10.8809570619
 20
1.6407964787
 30
0.0
 10
10.7997638865
 20
1.6608514969
 30
0.0
 10
10.7209427384
 20
1.6886861822
 30
0.0
 10
10.645238702
 20
1.7240044842
 30
0.0
 10
10.5733897602
 20
1.7664991574
 30
0.0
 10
10.5060791608
 20
1.8157487782
 30
0.0
 10
10.4439619201
 20
1.8712952671
 30
0.0
 10
10.3876397407
 20
1.9326074377
 30
0.0
 10
10.3376559401
 20
1.999097443
 30
0.0
 10
10.2945120463
 20
2.0701329117
 30
0.0
 10
10.258604044
 20
2.1450090372
 30
0.0
 10
10.2303103454
 20
2.2230465856
 30
0.0
 10
10.2031148564
 20
2.33010884
 30
0.0
 10
10.1948183383
 20
2.4131415621
 30
0.0
 10
10.1948183383
 20
2.4682561228
 30
0.0
  0
SPLINE
  5
360
100
AcDbEntity
  8
0
100
AcDbSpline
 62
7
  6
CONTINUOUS
 70
0
 71
3
 72
26
 73
22
 74
0
 42
0.0000001
 43
0.0000001
 44
0.0000000001
 40
0.0
 40
0.0
 40
0.0
 40
0.0
 40
0.062099765
 40
0.1241692702
 40
0.1862422948
 40
0.2483486351
 40
0.3104986111
 40
0.3416071333
 40
0.3727354339
 40
0.4350396839
 40
0.4974430287
 40
0.5599424479
 40
0.6225502193
 40
0.68526907
 40
0.7480782285
 40
0.7795228041
 40
0.810985905
 40
0.842467585
 40
0.873965675
 40
0.9369725782
 40
1.0
 40
1.0
 40
1.0
 40
1.0
 10
10.260667185
 20
2.6615158363
 30
0.0
 10
10.2543310275
 20
2.6327363281
 30
0.0
 10
10.2448827538
 20
2.5744270903
 30
0.0
 10
10.2406641774
 20
2.4859656687
 30
0.0
 10
10.2465892352
 20
2.3975870203
 30
0.0
 10
10.2624138474
 20
2.3104109557
 30
0.0
 10
10.2836773626
 20
2.239639519
 30
0.0
 10
10.305408449
 20
2.1847292471
 30
0.0
 10
10.3302654408
 20
2.1310807368
 30
0.0
 10
10.3669957259
 20
2.0667034266
 30
0.0
 10
10.4194324699
 20
1.9947717506
 30
0.0
 10
10.4796521182
 20
1.929008225
 30
0.0
 10
10.5470068076
 20
1.8703475933
 30
0.0
 10
10.6205348696
 20
1.8194015986
 30
0.0
 10
10.6861948008
 20
1.7838759744
 30
0.0
 10
10.7408623957
 20
1.7599277858
 30
0.0
 10
10.782851484
 20
1.7442645752
 30
0.0
 10
10.8256650556
 20
1.7309370669
 30
0.0
 10
10.8836619618
 20
1.7163176297
 30
0.0
 10
10.9575536173
 20
1.7040113276
 30
0.0
 10
11.0174093847
 20
1.7006840153
 30
0.0
 10
11.0473183397
 20
1.7006840158
 30
0.0
  0
SPLINE
  5
361
100
AcDbEntity
  8
0
100
AcDbSpline
 62
7
  6
CONTINUOUS
 70
0
 71
3
 72
26
 73
22
 74
0
 42
0.0000001
 43
0.0000001
 44
0.0000000001
 40
0.0
 40
0.0
 40
0.0
 40
0.0
 40
0.0630274218
 40
0.1260343251
 40
0.157532415
 40
0.189014095
 40
0.2204771959
 40
0.2519217716
 40
0.3147309301
 40
0.3774497808
 40
0.4400575522
 40
0.5025569714
 40
0.5649603162
 40
0.6272645662
 40
0.6583928668
 40
0.6895013889
 40
0.751651365
 40
0.8137577052
 40
0.8758307299
 40
0.937900235
 40
1.0
 40
1.0
 40
1.0
 40
1.0
 10
11.0473183397
 20
1.7006840244
 30
0.0
 10
11.0772272945
 20
1.700684024
 30
0.0
 10
11.1370830615
 20
1.7040113364
 30
0.0
 10
11.2109747165
 20
1.7163176387
 30
0.0
 10
11.2689716223
 20
1.730937076
 30
0.0
 10
11.3117851935
 20
1.7442645843
 30
0.0
 10
11.3537742815
 20
1.7599277948
 30
0.0
 10
11.408441876
 20
1.7838759834
 30
0.0
 10
11.4741018067
 20
1.8194016074
 30
0.0
 10
11.5476298681
 20
1.8703476017
 30
0.0
 10
11.6149845571
 20
1.9290082329
 30
0.0
 10
11.675204205
 20
1.9947717581
 30
0.0
 10
11.7276409487
 20
2.0667034335
 30
0.0
 10
11.7643712337
 20
2.1310807431
 30
0.0
 10
11.7892282254
 20
2.184729253
 30
0.0
 10
11.8109593119
 20
2.2396395245
 30
0.0
 10
11.8322228271
 20
2.3104109605
 30
0.0
 10
11.8480474395
 20
2.3975870245
 30
0.0
 10
11.8539724976
 20
2.4859656722
 30
0.0
 10
11.8497539217
 20
2.5744270931
 30
0.0
 10
11.8403056484
 20
2.6327363306
 30
0.0
 10
11.833969491
 20
2.6615158386
 30
0.0
  0
LINE
  5
362
100
AcDbEntity
  8
0
100
AcDbLine
 62
7
  6
CONTINUOUS
 10
11.0473171623
 20
6.517886054
 11
11.0473168277
 21
1.7006844701
  0
LINE
  5
363
100
AcDbEntity
  8
0
100
AcDbLine
 62
7
  6
CONTINUOUS
 10
11.0473176363
 20
6.517886054
 11
11.0473175525
 21
8.4398990203
  0
SPLINE
  5
364
100
AcDbEntity
  8
0
100
AcDbSpline
 62
9
  6
CONTINUOUS
 70
0
 71
3
 72
25
 73
21
 74
0
 42
0.0000001
 43
0.0000001
 44
0.0000000001
 40
0.0
 40
0.0
 40
0.0
 40
0.0
 40
0.0804434618
 40
0.1603877203
 40
0.239238672
 40
0.3164144545
 40
0.3913742136
 40
0.4636545861
 40
0.5328298946
 40
0.598520876
 40
0.6604569988
 40
0.7185386852
 40
0.7727748222
 40
0.8233153617
 40
0.8705465048
 40
0.915125648
 40
0.9367008605
 40
0.9579474082
 40
0.9789994276
 40
1.0
 40
1.0
 40
1.0
 40
1.0
 10
11.0473175525
 20
8.4398990203
 30
0.0
 10
11.0707343889
 20
8.4392853392
 30
0.0
 10
11.1174003827
 20
8.4368910051
 30
0.0
 10
11.1867375793
 20
8.429853988
 30
0.0
 10
11.2546897684
 20
8.4194427968
 30
0.0
 10
11.3205730958
 20
8.405723585
 30
0.0
 10
11.3837223622
 20
8.3887652707
 30
0.0
 10
11.4435294672
 20
8.3687721234
 30
0.0
 10
11.4994122577
 20
8.3459389875
 30
0.0
 10
11.5508027475
 20
8.3204476857
 30
0.0
 10
11.5971651707
 20
8.2924779305
 30
0.0
 10
11.6380842436
 20
8.2623343284
 30
0.0
 10
11.6731785912
 20
8.2302888595
 30
0.0
 10
11.7020623427
 20
8.19657425
 30
0.0
 10
11.7243598278
 20
8.1614482178
 30
0.0
 10
11.7374316082
 20
8.130937755
 30
0.0
 10
11.7442285733
 20
8.1063794301
 30
0.0
 10
11.7475223508
 20
8.0880447191
 30
0.0
 10
11.7490449125
 20
8.0696481102
 30
0.0
 10
11.7488648955
 20
8.0573810144
 30
0.0
 10
11.7484799302
 20
8.0512778446
 30
0.0
  0
LINE
  5
365
100
AcDbEntity
  8
0
100
AcDbLine
 62
7
  6
CONTINUOUS
 10
11.0473173585
 20
8.4398990253
 11
11.0473167692
 21
13.0061908136
  0
SPLINE
  5
366
100
AcDbEntity
  8
0
100
AcDbSpline
 62
9
  6
CONTINUOUS
 70
0
 71
3
 72
25
 73
21
 74
0
 42
0.0000001
 43
0.0000001
 44
0.0000000001
 40
0.0
 40
0.0
 40
0.0
 40
0.0
 40
0.0804434584
 40
0.1603877149
 40
0.2392386659
 40
0.3164144487
 40
0.391374209
 40
0.4636545831
 40
0.5328298936
 40
0.5985208771
 40
0.6604570018
 40
0.7185386896
 40
0.7727748275
 40
0.8233153673
 40
0.8705465099
 40
0.9151256518
 40
0.9367008635
 40
0.9579474103
 40
0.9789994287
 40
1.0
 40
1.0
 40
1.0
 40
1.0
 10
11.047319318
 20
8.4398990253
 30
0.0
 10
11.0239024773
 20
8.4392853474
 30
0.0
 10
10.9772364745
 20
8.4368910191
 30
0.0
 10
10.9078992633
 20
8.4298540093
 30
0.0
 10
10.8399470585
 20
8.4194428241
 30
0.0
 10
10.7740637147
 20
8.405723617
 30
0.0
 10
10.7109144314
 20
8.3887653061
 30
0.0
 10
10.6511073095
 20
8.3687721607
 30
0.0
 10
10.5952245025
 20
8.3459390254
 30
0.0
 10
10.5438339968
 20
8.320447723
 30
0.0
 10
10.4974715588
 20
8.2924779661
 30
0.0
 10
10.4565524724
 20
8.262334361
 30
0.0
 10
10.4214581131
 20
8.2302888884
 30
0.0
 10
10.3925743515
 20
8.1965742743
 30
0.0
 10
10.3702768584
 20
8.1614482367
 30
0.0
 10
10.3572050731
 20
8.1309377688
 30
0.0
 10
10.3504081053
 20
8.1063794396
 30
0.0
 10
10.3471143265
 20
8.0880447255
 30
0.0
 10
10.3455917641
 20
8.0696481134
 30
0.0
 10
10.345771781
 20
8.0573810155
 30
0.0
 10
10.3461567464
 20
8.0512778446
 30
0.0
  0
ENDSEC
  0
SECTION
  2
OBJECTS
  0
DICTIONARY
  5
C
100
AcDbDictionary
280
0
281
1
  3
ACAD_GROUP
350
D
  3
ACAD_MLINESTYLE
350
17
  3
ACAD_LAYOUT
350
1A
  3
ACAD_PLOTSETTINGS
350
19
  3
ACAD_PLOTSTYLENAME
350
E
  0
DICTIONARY
  5
D
102
{ACAD_REACTORS
330
C
102
}
100
AcDbDictionary
280
0
281
1
  0
ACDBDICTIONARYWDFLT
  5
E
102
{ACAD_REACTORS
330
C
102
}
100
AcDbDictionary
281
1
  3
Normal
350
F
100
AcDbDictionaryWithDefault
340
F
  0
DICTIONARY
  5
17
102
{ACAD_REACTORS
330
C
102
}
100
AcDbDictionary
280
0
281
1
  3
Standard
350
18
  0
DICTIONARY
  5
19
102
{ACAD_REACTORS
330
C
102
}
100
AcDbDictionary
281
1
  0
DICTIONARY
  5
1A
102
{ACAD_REACTORS
330
C
102
}
100
AcDbDictionary
281
1
  3
Model
350
367
  3
Layout1
350
368
  0
ACDBPLACEHOLDER
  5
F
102
{ACAD_REACTORS
330
E
102
}
  0
MLINESTYLE
  5
18
102
{ACAD_REACTORS
330
17
102
}
100
AcDbMlineStyle
  2
STANDARD
 70
0
  3

 62
256
 51
90.0
 52
90.0
 71
2
 49
0.5
 62
256
  6
BYLAYER
 49
-0.5
 62
256
  6
BYLAYER
  0
LAYOUT
  5
367
102
{ACAD_REACTORS
330
1A
102
}
100
AcDbPlotSettings
  1

  2
none_device
  4
ANSI_C_(22.00_x_17.00_Inches)
  6

 40
0.0
 41
0.0
 42
0.0
 43
0.0
 44
558.8
 45
431.8
 46
0.0
 47
0.0
 48
0.0
 49
0.0
140
0.0
141
0.0
142
1.0
143
1.0
 70
1024
 72
0
 73
0
 74
0
  7

 75
0
147
1.0
148
0.0
149
0.0
100
AcDbLayout
  1
Model
 70
0
 71
0
 10
0.0
 20
0.0
 11
22.0
 21
17.0
 12
0.0
 22
0.0
 32
0.0
 14
0.0
 24
0.0
 34
0.0
 15
0.0
 25
0.0
 35
0.0
146
0.0
 13
0.0
 23
0.0
 33
0.0
 16
1.0
 26
0.0
 36
0.0
 17
0.0
 27
1.0
 37
0.0
 76
0
330
202
345
0
346
0
  0
LAYOUT
  5
368
102
{ACAD_REACTORS
330
1A
102
}
100
AcDbPlotSettings
  1

  2
none_device
  4
ANSI_C_(22.00_x_17.00_Inches)
  6

 40
0.0
 41
0.0
 42
0.0
 43
0.0
 44
558.8
 45
431.8
 46
0.0
 47
0.0
 48
0.0
 49
0.0
140
0.0
141
0.0
142
1.0
143
1.0
 70
0
 72
0
 73
0
 74
0
  7

 75
0
147
1.0
148
0.0
149
0.0
100
AcDbLayout
  1
Layout1
 70
0
 71
1
 10
0.0
 20
0.0
 11
22.0
 21
17.0
 12
0.0
 22
0.0
 32
0.0
 14
0.0
 24
0.0
 34
0.0
 15
0.0
 25
0.0
 35
0.0
146
0.0
 13
0.0
 23
0.0
 33
0.0
 16
1.0
 26
0.0
 36
0.0
 17
0.0
 27
1.0
 37
0.0
 76
0
330
203
345
0
346
0
  0
ENDSEC
  0
EOF
