999
DXF file: E:\BT Custom\CADOUTPUT\_TOP.dxf
999
Pro/ENGINEER 2018400 by Parametric Technology Corporation
  0
SECTION
  2
HEADER
  9
$ACADVER
  1
AC1018
  9
$DWGCODEPAGE
  3
ANSI_1252
  9
$EXTMAX
 10
22.0
 20
17.0
 30
0.0
  9
$EXTMIN
 10
0.0
 20
0.0
 30
0.0
  9
$LIMMIN
 10
0.0
 20
0.0
  9
$LIMMAX
 10
22.0
 20
17.0
  9
$VIEWCTR
 10
11.0
 20
8.5
  9
$VIEWSIZE
 40
17.0
  9
$CLAYER
  8
0
  9
$LTSCALE
 40
1.21
  9
$CELTYPE
  6
BYLAYER
  9
$DIMSCALE
 40
1.0
  9
$DIMASZ
 40
0.1
  9
$DIMEXO
 40
0.0625
  9
$DIMDLI
 40
0.836
  9
$DIMEXE
 40
0.125
  9
$DIMCEN
 40
0.198
  9
$DIMLFAC
 40
1.0
  9
$DIMBLK
  1
_FILLED
  9
$DIMALT
 70
1
  9
$DIMALTD
 70
2
  9
$DIMALTTD
 70
2
  9
$DIMALTF
 40
25.4
  9
$DIMTXT
 40
0.08
  9
$DIMTOL
 70
1
  9
$DIMLIM
 70
0
  9
$DIMTFAC
 40
1.0
  9
$DIMTP
 40
0.001
  9
$DIMTM
 40
0.001
  9
$DIMGAP
 40
0.09
  9
$DIMDSEP
 70
46
  9
$AUNITS
 70
0
  9
$PDMODE
 70
3
  9
$PDSIZE
 40
0.06
  9
$HANDSEED
  5
519
  9
$TILEMODE
 70
1
  9
$MEASUREMENT
 70
0
  9
$INSUNITS
 70
1
  0
ENDSEC
  0
SECTION
  2
CLASSES
  0
CLASS
  1
ACDBDICTIONARYWDFLT
  2
AcDbDictionaryWithDefault
  3
AutoCAD 2000
 90
0
 91
1
280
0
281
0
  0
CLASS
  1
ACDBPLACEHOLDER
  2
AcDbPlaceHolder
  3
AutoCAD 2000
 90
0
 91
1
280
0
281
0
  0
CLASS
  1
LAYOUT
  2
AcDbLayout
  3
AutoCAD 2000
 90
0
 91
0
280
0
281
0
  0
ENDSEC
  0
SECTION
  2
TABLES
  0
TABLE
  2
VPORT
  5
8
100
AcDbSymbolTable
 70
2
  0
VPORT
  5
1F4
100
AcDbSymbolTableRecord
100
AcDbViewportTableRecord
  2
*ACTIVE
 70
0
 10
0.0
 20
0.0
 11
1.0
 21
1.0
 12
11.0
 22
8.5
 13
0.0
 23
0.0
 14
1.0
 24
1.0
 15
0.0
 25
0.0
 16
0.0
 26
0.0
 36
1.0
 17
0.0
 27
0.0
 37
0.0
 40
17.0
 41
1.2941176471
 42
50.0
 43
0.0
 44
0.0
 50
0.0
 51
0.0
 71
0
 72
100
 73
1
 74
1
 75
0
 76
0
 77
0
 78
0
  0
ENDTAB
  0
TABLE
  2
LTYPE
  5
5
100
AcDbSymbolTable
 70
6
  0
LTYPE
  5
14
100
AcDbSymbolTableRecord
100
AcDbLinetypeTableRecord
  2
BYBLOCK
 70
0
  3

 72
65
 73
0
 40
0.0
  0
LTYPE
  5
15
100
AcDbSymbolTableRecord
100
AcDbLinetypeTableRecord
  2
BYLAYER
 70
0
  3

 72
65
 73
0
 40
0.0
  0
LTYPE
  5
16
100
AcDbSymbolTableRecord
100
AcDbLinetypeTableRecord
  2
CONTINUOUS
 70
64
  3
Solid line
 72
65
 73
0
 40
0.0
  0
LTYPE
  5
1F5
100
AcDbSymbolTableRecord
100
AcDbLinetypeTableRecord
  2
CENTER
 70
64
  3
____ _ ____ _ ____ _ ____ _ ____ _ ____ _ ____
 72
65
 73
4
 40
0.6
 49
0.375
 74
0
 49
-0.075
 74
0
 49
0.075
 74
0
 49
-0.075
 74
0
  0
LTYPE
  5
1F6
100
AcDbSymbolTableRecord
100
AcDbLinetypeTableRecord
  2
HIDDEN
 70
64
  3
- - - - - - - - - - - - - - - - - - - -
 72
65
 73
2
 40
0.2
 49
0.1
 74
0
 49
-0.1
 74
0
  0
LTYPE
  5
1F7
100
AcDbSymbolTableRecord
100
AcDbLinetypeTableRecord
  2
PHANTOM
 70
64
  3
_____ _ _ _____ _ _ _____ _ _ _____
 72
65
 73
6
 40
0.8
 49
0.45
 74
0
 49
-0.05
 74
0
 49
0.1
 74
0
 49
-0.05
 74
0
 49
0.1
 74
0
 49
-0.05
 74
0
  0
LTYPE
  5
1F8
100
AcDbSymbolTableRecord
100
AcDbLinetypeTableRecord
  2
DOT
 70
64
  3
. . . . . . . . . . . . . . . . . . . .
 72
65
 73
2
 40
0.2
 49
0.1
 74
0
 49
-0.1
 74
0
  0
LTYPE
  5
1F9
100
AcDbSymbolTableRecord
100
AcDbLinetypeTableRecord
  2
DASHED
 70
64
  3
- - - - - - - - - - - - - - - - - - - -
 72
65
 73
2
 40
0.2
 49
0.1
 74
0
 49
-0.1
 74
0
  0
ENDTAB
  0
TABLE
  2
LAYER
  5
2
100
AcDbSymbolTable
 70
36
  0
LAYER
  5
10
100
AcDbSymbolTableRecord
100
AcDbLayerTableRecord
  2
0
 70
0
 62
7
  6
CONTINUOUS
370
-3
390
F
  0
LAYER
  5
1FA
100
AcDbSymbolTableRecord
100
AcDbLayerTableRecord
  2
DEFAULT_1
 70
0
 62
7
  6
CENTER
370
-3
390
F
  0
LAYER
  5
1FB
100
AcDbSymbolTableRecord
100
AcDbLayerTableRecord
  2
DEFAULT_2
 70
0
 62
8
  6
HIDDEN
370
-3
390
F
  0
LAYER
  5
1FC
100
AcDbSymbolTableRecord
100
AcDbLayerTableRecord
  2
DEFAULT_3
 70
0
 62
7
  6
PHANTOM
370
-3
390
F
  0
LAYER
  5
1FD
100
AcDbSymbolTableRecord
100
AcDbLayerTableRecord
  2
ALL_FEATURES
 70
0
 62
7
  6
CONTINUOUS
370
-3
390
F
  0
LAYER
  5
1FE
100
AcDbSymbolTableRecord
100
AcDbLayerTableRecord
  2
AXES_FEATURES
 70
0
 62
7
  6
CONTINUOUS
370
-3
390
F
  0
LAYER
  5
1FF
100
AcDbSymbolTableRecord
100
AcDbLayerTableRecord
  2
DIMENSIONS
 70
0
 62
7
  6
CONTINUOUS
370
-3
390
F
  0
ENDTAB
  0
TABLE
  2
STYLE
  5
3
100
AcDbSymbolTable
 70
1
  0
STYLE
  5
11
100
AcDbSymbolTableRecord
100
AcDbTextStyleTableRecord
  2
STANDARD
 70
0
 40
0.0
 41
0.8
 50
0.0
 71
0
 42
0.2
  3
txt
  4

  0
STYLE
  5
200
100
AcDbSymbolTableRecord
100
AcDbTextStyleTableRecord
  2
TEXTSTYLE_1
 70
0
 40
0.0
 41
0.8
 50
0.0
 71
0
 42
0.2
  3
gdt
  4

  0
ENDTAB
  0
TABLE
  2
VIEW
  5
6
100
AcDbSymbolTable
 70
0
  0
ENDTAB
  0
TABLE
  2
UCS
  5
7
100
AcDbSymbolTable
 70
0
  0
ENDTAB
  0
TABLE
  2
APPID
  5
9
100
AcDbSymbolTable
 70
1
  0
APPID
  5
201
100
AcDbSymbolTableRecord
100
AcDbRegAppTableRecord
  2
ACAD
 70
0
  0
ENDTAB
  0
TABLE
  2
BLOCK_RECORD
  5
1
100
AcDbSymbolTable
 70
0
  0
BLOCK_RECORD
  5
202
100
AcDbSymbolTableRecord
100
AcDbBlockTableRecord
  2
*Model_Space
  0
BLOCK_RECORD
  5
203
100
AcDbSymbolTableRecord
100
AcDbBlockTableRecord
  2
*Paper_Space
  0
BLOCK_RECORD
  5
204
100
AcDbSymbolTableRecord
100
AcDbBlockTableRecord
  2
_FILLED
  0
ENDTAB
  0
TABLE
  2
DIMSTYLE
  5
A
100
AcDbSymbolTable
 70
1
100
AcDbDimStyleTable
 71
0
  0
DIMSTYLE
105
205
100
AcDbSymbolTableRecord
100
AcDbDimStyleTableRecord
  2
STANDARD
 70
0
  3

  4

 40
1.0
 41
0.1
 42
0.0625
 43
0.38
 44
0.125
 45
0.0
 46
0.0
 47
0.001
 48
0.001
140
0.08
141
0.09
142
0.0
143
25.4
144
1.0
145
0.0
146
1.0
147
0.09
 71
1.0
 72
0.0
 73
1
 74
1
 75
0
 76
0
 77
0
 78
4
 79
1
170
1
171
2
172
0
173
0
174
0
175
0
176
0
177
0
178
0
270
2
179
3
271
3
272
3
273
2
274
2
275
0
280
0
281
0
282
0
283
1
284
4
285
0
286
0
287
3
288
0
340
11
278
46
341
204
342
204
343
204
344
204
  0
ENDTAB
  0
ENDSEC
  0
SECTION
  2
BLOCKS
  0
BLOCK
  5
20
100
AcDbEntity
  8
0
100
AcDbBlockBegin
  2
*Model_Space
 70
0
 10
0.0
 20
0.0
 30
0.0
  3
*Model_Space
  1

  0
ENDBLK
  5
21
100
AcDbEntity
  8
0
100
AcDbBlockEnd
  0
BLOCK
  5
1C
100
AcDbEntity
  8
0
100
AcDbBlockBegin
  2
*Paper_Space
 70
0
 10
0.0
 20
0.0
 30
0.0
  3
*Paper_Space
  1

  0
ENDBLK
  5
1D
100
AcDbEntity
  8
0
100
AcDbBlockEnd
  0
BLOCK
  5
206
100
AcDbEntity
  8
0
100
AcDbBlockBegin
  2
_FILLED
 70
64
 10
0.0
 20
0.0
  3
_FILLED
  1

  0
SOLID
  5
207
100
AcDbEntity
  8
0
  6
BYBLOCK
 62
0
100
AcDbTrace
 10
0.0
 20
0.0
 11
-1.0
 21
0.2
 12
-1.0
 22
-0.2
 13
-1.0
 23
-0.2
  0
ENDBLK
  5
208
100
AcDbEntity
  8
0
  6
BYBLOCK
 62
0
100
AcDbBlockEnd
  0
ENDSEC
  0
SECTION
  2
ENTITIES
  0
LINE
  5
209
100
AcDbEntity
  8
0
100
AcDbLine
 62
7
  6
CONTINUOUS
 10
1.0860022901
 20
11.994514107
 11
1.3996047554
 21
12.5376895103
  0
LINE
  5
20A
100
AcDbEntity
  8
0
100
AcDbLine
 62
7
  6
CONTINUOUS
 10
1.9464232543
 20
12.8238680349
 11
2.0039027708
 21
12.9059572919
  0
LINE
  5
20B
100
AcDbEntity
  8
0
100
AcDbLine
 62
9
  6
CONTINUOUS
 10
0.7538694787
 20
12.1064576241
 11
0.7538694787
 21
11.6559239997
  0
LINE
  5
20C
100
AcDbEntity
  8
0
100
AcDbLine
 62
9
  6
CONTINUOUS
 10
0.8359587357
 20
11.7134035163
 11
0.8359587357
 21
12.0489781075
  0
LINE
  5
20D
100
AcDbEntity
  8
0
100
AcDbLine
 62
7
  6
CONTINUOUS
 10
0.8611359587
 20
12.0702682414
 11
0.8611359587
 21
11.6921133824
  0
LINE
  5
20E
100
AcDbEntity
  8
0
100
AcDbLine
 62
9
  6
CONTINUOUS
 10
0.8859991172
 20
11.6902735187
 11
0.8859991172
 21
12.0721081052
  0
LINE
  5
20F
100
AcDbEntity
  8
0
100
AcDbLine
 62
9
  6
CONTINUOUS
 10
1.2474699488
 20
11.694512876
 11
1.2474699488
 21
11.7185356906
  0
LINE
  5
210
100
AcDbEntity
  8
0
100
AcDbLine
 62
9
  6
CONTINUOUS
 10
1.2474699488
 20
12.0494530124
 11
1.2474699488
 21
12.0678687479
  0
LINE
  5
211
100
AcDbEntity
  8
0
100
AcDbLine
 62
7
  6
CONTINUOUS
 10
1.610848663
 20
10.9385135889
 11
1.5533691465
 21
10.8564243319
  0
LINE
  5
212
100
AcDbEntity
  8
0
100
AcDbLine
 62
7
  6
CONTINUOUS
 10
1.7161506773
 20
11.9711908119
 11
1.7246359587
 21
11.9796760933
  0
LINE
  5
213
100
AcDbEntity
  8
0
100
AcDbLine
 62
7
  6
CONTINUOUS
 10
1.6946359587
 20
12.1311908119
 11
1.6946359587
 21
11.9801908119
  0
LINE
  5
214
100
AcDbEntity
  8
0
100
AcDbLine
 62
7
  6
CONTINUOUS
 10
1.6946359587
 20
11.7791908119
 11
1.6946359587
 21
11.7061908119
  0
LINE
  5
215
100
AcDbEntity
  8
0
100
AcDbLine
 62
7
  6
CONTINUOUS
 10
1.6946359587
 20
11.6891908119
 11
1.6946359587
 21
11.6161908119
  0
LINE
  5
216
100
AcDbEntity
  8
0
100
AcDbLine
 62
7
  6
CONTINUOUS
 10
1.7125359587
 20
12.0088880774
 11
1.7125359587
 21
12.0346908119
  0
LINE
  5
217
100
AcDbEntity
  8
0
100
AcDbLine
 62
7
  6
CONTINUOUS
 10
1.7125359587
 20
12.0766908119
 11
1.7125359587
 21
12.1024935464
  0
LINE
  5
218
100
AcDbEntity
  8
0
100
AcDbLine
 62
7
  6
CONTINUOUS
 10
1.7650803343
 20
11.7156908119
 11
1.7650803343
 21
11.6796908119
  0
LINE
  5
219
100
AcDbEntity
  8
0
100
AcDbLine
 62
7
  6
CONTINUOUS
 10
1.7826359587
 20
11.6786908119
 11
1.7826359587
 21
11.7166908119
  0
LINE
  5
21A
100
AcDbEntity
  8
0
100
AcDbLine
 62
7
  6
CONTINUOUS
 10
1.8636359587
 20
11.6161908119
 11
1.8636359587
 21
11.6891908119
  0
LINE
  5
21B
100
AcDbEntity
  8
0
100
AcDbLine
 62
7
  6
CONTINUOUS
 10
1.8636359587
 20
11.7061908119
 11
1.8636359587
 21
11.7791908119
  0
LINE
  5
21C
100
AcDbEntity
  8
0
100
AcDbLine
 62
7
  6
CONTINUOUS
 10
1.8636359587
 20
12.0191908119
 11
1.8636359587
 21
12.0921908119
  0
LINE
  5
21D
100
AcDbEntity
  8
0
100
AcDbLine
 62
7
  6
CONTINUOUS
 10
2.4712696272
 20
11.7678675168
 11
2.1576671619
 21
11.2246921136
  0
LINE
  5
21E
100
AcDbEntity
  8
0
100
AcDbLine
 62
7
  6
CONTINUOUS
 10
0.8359587357
 20
11.7134035163
 11
0.7538694787
 21
11.6559239997
  0
LINE
  5
21F
100
AcDbEntity
  8
0
100
AcDbLine
 62
9
  6
CONTINUOUS
 10
2.3098019685
 20
12.0678687479
 11
2.3098019685
 21
12.0438459218
  0
LINE
  5
220
100
AcDbEntity
  8
0
100
AcDbLine
 62
9
  6
CONTINUOUS
 10
2.3098019685
 20
11.7129286094
 11
2.3098019685
 21
11.694512876
  0
LINE
  5
221
100
AcDbEntity
  8
0
100
AcDbLine
 62
9
  6
CONTINUOUS
 10
2.6712728001
 20
11.6902735187
 11
2.6712728001
 21
12.0721081052
  0
LINE
  5
222
100
AcDbEntity
  8
0
100
AcDbLine
 62
7
  6
CONTINUOUS
 10
2.6961359587
 20
11.6921133824
 11
2.6961359587
 21
12.0702682414
  0
LINE
  5
223
100
AcDbEntity
  8
0
100
AcDbLine
 62
9
  6
CONTINUOUS
 10
2.7213131816
 20
12.0489781075
 11
2.7213131816
 21
11.7134035163
  0
LINE
  5
224
100
AcDbEntity
  8
0
100
AcDbLine
 62
9
  6
CONTINUOUS
 10
2.8034024387
 20
11.6559239997
 11
2.8034024387
 21
12.1064576241
  0
LINE
  5
225
100
AcDbEntity
  8
0
100
AcDbLine
 62
7
  6
CONTINUOUS
 10
2.7213131816
 20
12.0489781075
 11
2.8034024387
 21
12.1064576241
  0
LINE
  5
226
100
AcDbEntity
  8
0
100
AcDbLine
 62
7
  6
CONTINUOUS
 10
1.7161506773
 20
12.1401908119
 11
1.6946359587
 21
12.1311908119
  0
LINE
  5
227
100
AcDbEntity
  8
0
100
AcDbLine
 62
7
  6
CONTINUOUS
 10
1.3996047556
 20
11.2246921134
 11
1.0860022901
 21
11.7678675168
  0
LWPOLYLINE
  5
228
100
AcDbEntity
  8
0
100
AcDbPolyline
 62
7
  6
CONTINUOUS
 90
11
 70
0
 10
5.0774743667
 20
8.0512778446
 10
5.1118305541
 20
7.4476815115
 10
5.140466956
 20
6.8005047803
 10
5.1604437498
 20
6.1462163699
 10
5.170302468
 20
5.5002461117
 10
5.1687964538
 20
4.8778296494
 10
5.1550152337
 20
4.2950028996
 10
5.1287072506
 20
3.7685646528
 10
5.0906836525
 20
3.3131897063
 10
5.0430729057
 20
2.9389520297
 10
4.9919848247
 20
2.6615159238
  0
LWPOLYLINE
  5
229
100
AcDbEntity
  8
0
100
AcDbPolyline
 62
7
  6
CONTINUOUS
 90
11
 70
0
 10
6.8406411393
 20
11.5161981999
 10
6.885545572
 20
11.6669504375
 10
6.9062011657
 20
11.8861560222
 10
6.8836076119
 20
12.1051872447
 10
6.8187912062
 20
12.3159439235
 10
6.7137647809
 20
12.5102494529
 10
6.5727958771
 20
12.6804833319
 10
6.4012410627
 20
12.819712274
 10
6.2061401226
 20
12.9227501033
 10
5.9951758572
 20
12.9855116484
 10
5.7786359592
 20
13.0061908119
  0
LINE
  5
22A
100
AcDbEntity
  8
0
100
AcDbLine
 62
7
  6
CONTINUOUS
 10
1.9464232543
 20
10.9385135889
 11
2.0039027708
 21
10.8564243319
  0
LINE
  5
22B
100
AcDbEntity
  8
0
100
AcDbLine
 62
7
  6
CONTINUOUS
 10
2.1576670901
 20
12.5376896346
 11
2.4712696272
 21
11.994514107
  0
LINE
  5
22C
100
AcDbEntity
  8
0
100
AcDbLine
 62
7
  6
CONTINUOUS
 10
4.6717263451
 20
11.6669504387
 11
4.7166114448
 21
11.5162631049
  0
LWPOLYLINE
  5
22D
100
AcDbEntity
  8
0
100
AcDbPolyline
 62
7
  6
CONTINUOUS
 90
33
 70
0
 10
4.7087540928
 20
11.5533253213
 10
4.7088877497
 20
11.5527655366
 10
4.7105660229
 20
11.5453676393
 10
4.7137712466
 20
11.5303438871
 10
4.718205485
 20
11.5083603704
 10
4.7236888711
 20
11.4797632906
 10
4.7301036464
 20
11.4447208061
 10
4.737370672
 20
11.4032741752
 10
4.7454388159
 20
11.3553634855
 10
4.7542579915
 20
11.3009575998
 10
4.7637855884
 20
11.2399980922
 10
4.7739836627
 20
11.1724057424
 10
4.7848182349
 20
11.0980781498
 10
4.7962594202
 20
11.016899778
 10
4.8082698605
 20
10.928816217
 10
4.8208108918
 20
10.8337793496
 10
4.8338425776
 20
10.7317450107
 10
4.8473274796
 20
10.6226466859
 10
4.8612377141
 20
10.5063495045
 10
4.8755454987
 20
10.3826976927
 10
4.890221259
 20
10.2515189704
 10
4.9052334059
 20
10.112623499
 10
4.9205482024
 20
9.9658229056
 10
4.9361259262
 20
9.8109579687
 10
4.951922119
 20
9.6478672099
 10
4.9678871083
 20
9.4763871299
 10
4.9839655574
 20
9.2963701205
 10
5.0000949234
 20
9.1076969769
 10
5.0162047693
 20
8.9102612883
 10
5.032215851
 20
8.7039733802
 10
5.0480390238
 20
8.4887806655
 10
5.0635737233
 20
8.2646747287
 10
5.0774746861
 20
8.0512727829
  0
LWPOLYLINE
  5
22E
100
AcDbEntity
  8
0
100
AcDbPolyline
 62
7
  6
CONTINUOUS
 90
11
 70
0
 10
6.5652870926
 20
2.6615159238
 10
6.5141990105
 20
2.9389520369
 10
6.466588264
 20
3.3131897145
 10
6.4285646662
 20
3.7685646613
 10
6.4022566833
 20
4.2950029078
 10
6.3884754634
 20
4.8778296568
 10
6.3869694494
 20
5.5002461179
 10
6.3968281677
 20
6.1462163747
 10
6.4168049614
 20
6.8005047835
 10
6.4454413633
 20
7.447681513
 10
6.4797975506
 20
8.0512778446
  0
LWPOLYLINE
  5
22F
100
AcDbEntity
  8
0
100
AcDbPolyline
 62
7
  6
CONTINUOUS
 90
33
 70
0
 10
6.4797972335
 20
8.0512728186
 10
6.4932206862
 20
8.2575594181
 10
6.5082568264
 20
8.4750970109
 10
6.5235700594
 20
8.6842690497
 10
6.5390680692
 20
8.8850802086
 10
6.5546686979
 20
9.0775731326
 10
6.5702986743
 20
9.2618262148
 10
6.5858926078
 20
9.4379338157
 10
6.601392189
 20
9.6060013444
 10
6.6167456672
 20
9.7661555907
 10
6.6319065481
 20
9.918544447
 10
6.6468330263
 20
10.0633154091
 10
6.6614874991
 20
10.2006127128
 10
6.6758373723
 20
10.3305947597
 10
6.6898535458
 20
10.4534405886
 10
6.7035082264
 20
10.5693126479
 10
6.7167754859
 20
10.6783596222
 10
6.7296306819
 20
10.7807158574
 10
6.7420449174
 20
10.8764778813
 10
6.7539818328
 20
10.9656886428
 10
6.7654057279
 20
11.0483906028
 10
6.7762818168
 20
11.1246288168
 10
6.7865779932
 20
11.1944663195
 10
6.7962676784
 20
11.2580182952
 10
6.8053183452
 20
11.3153677621
 10
6.813694634
 20
11.3665825554
 10
6.8213563245
 20
11.4117095828
 10
6.8282570036
 20
11.4507765999
 10
6.8343481737
 20
11.4838346401
 10
6.8395524308
 20
11.5108249446
 10
6.8437577163
 20
11.5315798779
 10
6.8467949375
 20
11.5457708412
 10
6.8475032504
 20
11.548941659
  0
LINE
  5
230
100
AcDbEntity
  8
0
100
AcDbLine
 62
7
  6
CONTINUOUS
 10
9.9464232543
 20
12.8238680349
 11
10.0039027708
 21
12.9059572919
  0
LINE
  5
231
100
AcDbEntity
  8
0
100
AcDbLine
 62
7
  6
CONTINUOUS
 10
8.8359587357
 20
11.7134035163
 11
8.7538694787
 21
11.6559239997
  0
LINE
  5
232
100
AcDbEntity
  8
0
100
AcDbLine
 62
7
  6
CONTINUOUS
 10
9.976944785
 20
11.8581908119
 11
9.9596359587
 21
11.8532507176
  0
LINE
  5
233
100
AcDbEntity
  8
0
100
AcDbLine
 62
7
  6
CONTINUOUS
 10
1.610848663
 20
12.8238680349
 11
1.5533691465
 21
12.9059572919
  0
LINE
  5
234
100
AcDbEntity
  8
0
100
AcDbLine
 62
7
  6
CONTINUOUS
 10
9.0859403216
 20
11.9944067744
 11
9.3996047554
 21
12.5376895103
  0
LINE
  5
235
100
AcDbEntity
  8
0
100
AcDbLine
 62
7
  6
CONTINUOUS
 10
9.618191022
 20
11.9070128884
 11
9.6314707687
 21
11.9289539376
  0
LINE
  5
236
100
AcDbEntity
  8
0
100
AcDbLine
 62
7
  6
CONTINUOUS
 10
9.610848663
 20
10.9385135889
 11
9.5533691465
 21
10.8564243319
  0
LINE
  5
237
100
AcDbEntity
  8
0
100
AcDbLine
 62
7
  6
CONTINUOUS
 10
10.7213131816
 20
12.0489781075
 11
10.8034024387
 21
12.1064576241
  0
LINE
  5
238
100
AcDbEntity
  8
0
100
AcDbLine
 62
7
  6
CONTINUOUS
 10
1.7246359587
 20
12.1317055305
 11
1.7161506773
 21
12.1401908119
  0
LINE
  5
239
100
AcDbEntity
  8
0
100
AcDbLine
 62
7
  6
CONTINUOUS
 10
10.4713315957
 20
11.7679748495
 11
10.1576671619
 21
11.2246921136
  0
LINE
  5
23A
100
AcDbEntity
  8
0
100
AcDbLine
 62
9
  6
CONTINUOUS
 10
8.7538694787
 20
12.1064576241
 11
8.7538694787
 21
11.6559239997
  0
LINE
  5
23B
100
AcDbEntity
  8
0
100
AcDbLine
 62
9
  6
CONTINUOUS
 10
8.8359587357
 20
11.7134035163
 11
8.8359587357
 21
12.0489781075
  0
LINE
  5
23C
100
AcDbEntity
  8
0
100
AcDbLine
 62
7
  6
CONTINUOUS
 10
8.8611359587
 20
12.0702817016
 11
8.8611359587
 21
11.6920999222
  0
LINE
  5
23D
100
AcDbEntity
  8
0
100
AcDbLine
 62
9
  6
CONTINUOUS
 10
8.8859991172
 20
12.0721081052
 11
8.8859991172
 21
11.6902735187
  0
LINE
  5
23E
100
AcDbEntity
  8
0
100
AcDbLine
 62
9
  6
CONTINUOUS
 10
9.2474699488
 20
11.6945237414
 11
9.2474699488
 21
11.7146089132
  0
LINE
  5
23F
100
AcDbEntity
  8
0
100
AcDbLine
 62
9
  6
CONTINUOUS
 10
9.2474699488
 20
12.0466161366
 11
9.2474699488
 21
12.0678687479
  0
LINE
  5
240
100
AcDbEntity
  8
0
100
AcDbLine
 62
7
  6
CONTINUOUS
 10
9.6191576156
 20
11.9661908119
 11
9.6096359587
 21
11.9121908119
  0
LINE
  5
241
100
AcDbEntity
  8
0
100
AcDbLine
 62
7
  6
CONTINUOUS
 10
0.8359587357
 20
12.0489781075
 11
0.7538694787
 21
12.1064576241
  0
LINE
  5
242
100
AcDbEntity
  8
0
100
AcDbLine
 62
7
  6
CONTINUOUS
 10
9.5423540783
 20
11.8211908119
 11
9.5423540783
 21
11.9361908119
  0
LINE
  5
243
100
AcDbEntity
  8
0
100
AcDbLine
 62
7
  6
CONTINUOUS
 10
9.5786359587
 20
11.8313153274
 11
9.5786359587
 21
11.9260662964
  0
LINE
  5
244
100
AcDbEntity
  8
0
100
AcDbLine
 62
7
  6
CONTINUOUS
 10
9.5886359587
 20
11.7971908119
 11
9.5886359587
 21
11.8151908119
  0
LINE
  5
245
100
AcDbEntity
  8
0
100
AcDbLine
 62
7
  6
CONTINUOUS
 10
9.5886359587
 20
11.9421908119
 11
9.5886359587
 21
11.9661908119
  0
LINE
  5
246
100
AcDbEntity
  8
0
100
AcDbLine
 62
7
  6
CONTINUOUS
 10
9.6896359587
 20
11.8151908119
 11
9.6896359587
 21
11.7971908119
  0
LINE
  5
247
100
AcDbEntity
  8
0
100
AcDbLine
 62
7
  6
CONTINUOUS
 10
9.7111359587
 20
11.9134201672
 11
9.7111359587
 21
11.8439614567
  0
LINE
  5
248
100
AcDbEntity
  8
0
100
AcDbLine
 62
7
  6
CONTINUOUS
 10
9.7471359587
 20
11.8439614567
 11
9.7471359587
 21
11.9134201672
  0
LINE
  5
249
100
AcDbEntity
  8
0
100
AcDbLine
 62
7
  6
CONTINUOUS
 10
9.7686359587
 20
11.7971908119
 11
9.7686359587
 21
11.8151908119
  0
LINE
  5
24A
100
AcDbEntity
  8
0
100
AcDbLine
 62
7
  6
CONTINUOUS
 10
9.7686359587
 20
11.9421908119
 11
9.7686359587
 21
11.9661908119
  0
LINE
  5
24B
100
AcDbEntity
  8
0
100
AcDbLine
 62
9
  6
CONTINUOUS
 10
10.3098019685
 20
12.0678687479
 11
10.3098019685
 21
12.047772704
  0
LINE
  5
24C
100
AcDbEntity
  8
0
100
AcDbLine
 62
9
  6
CONTINUOUS
 10
10.3098019685
 20
11.7157655342
 11
10.3098019685
 21
11.694512876
  0
LINE
  5
24D
100
AcDbEntity
  8
0
100
AcDbLine
 62
7
  6
CONTINUOUS
 10
14.8359587357
 20
11.7134035163
 11
14.7538694787
 21
11.6559239997
  0
LINE
  5
24E
100
AcDbEntity
  8
0
100
AcDbLine
 62
7
  6
CONTINUOUS
 10
2.7213131816
 20
11.7134035163
 11
2.8034024387
 21
11.6559239997
  0
LINE
  5
24F
100
AcDbEntity
  8
0
100
AcDbLine
 62
9
  6
CONTINUOUS
 10
10.6712728001
 20
11.6902735187
 11
10.6712728001
 21
12.0721081052
  0
LINE
  5
250
100
AcDbEntity
  8
0
100
AcDbLine
 62
7
  6
CONTINUOUS
 10
10.6961359587
 20
11.6920999222
 11
10.6961359587
 21
12.0702817016
  0
LINE
  5
251
100
AcDbEntity
  8
0
100
AcDbLine
 62
9
  6
CONTINUOUS
 10
10.7213131816
 20
12.0489781075
 11
10.7213131816
 21
11.7134035163
  0
LINE
  5
252
100
AcDbEntity
  8
0
100
AcDbLine
 62
9
  6
CONTINUOUS
 10
10.8034024387
 20
11.6559239997
 11
10.8034024387
 21
12.1064576241
  0
LINE
  5
253
100
AcDbEntity
  8
0
100
AcDbLine
 62
7
  6
CONTINUOUS
 10
15.7096930475
 20
11.8546743076
 11
15.5346841191
 21
11.690271981
  0
LINE
  5
254
100
AcDbEntity
  8
0
100
AcDbLine
 62
7
  6
CONTINUOUS
 10
15.5634172358
 20
11.6898231356
 11
15.7469679281
 21
11.8622495436
  0
LINE
  5
255
100
AcDbEntity
  8
0
100
AcDbLine
 62
7
  6
CONTINUOUS
 10
16.7213131816
 20
12.0489781075
 11
16.8034024387
 21
12.1064576241
  0
LINE
  5
256
100
AcDbEntity
  8
0
100
AcDbLine
 62
7
  6
CONTINUOUS
 10
15.7596946903
 20
11.8495227814
 11
15.5872682823
 21
11.6659720891
  0
LINE
  5
257
100
AcDbEntity
  8
0
100
AcDbLine
 62
7
  6
CONTINUOUS
 10
15.5877171277
 20
11.6372389724
 11
15.7521194544
 21
11.8122479008
  0
LINE
  5
258
100
AcDbEntity
  8
0
100
AcDbLine
 62
7
  6
CONTINUOUS
 10
1.6946359587
 20
11.9801908119
 11
1.7161506773
 21
11.9711908119
  0
LINE
  5
259
100
AcDbEntity
  8
0
100
AcDbLine
 62
7
  6
CONTINUOUS
 10
9.3996047556
 20
11.2246921134
 11
9.0859403216
 21
11.7679748495
  0
LINE
  5
25A
100
AcDbEntity
  8
0
100
AcDbLine
 62
7
  6
CONTINUOUS
 10
9.9596359587
 20
11.8532507176
 11
9.9756359587
 21
11.7971908119
  0
LINE
  5
25B
100
AcDbEntity
  8
0
100
AcDbLine
 62
7
  6
CONTINUOUS
 10
15.0860022901
 20
11.994514107
 11
15.3996047554
 21
12.5376895103
  0
LINE
  5
25C
100
AcDbEntity
  8
0
100
AcDbLine
 62
7
  6
CONTINUOUS
 10
15.9464232543
 20
12.8238680349
 11
16.0039027708
 21
12.9059572919
  0
LINE
  5
25D
100
AcDbEntity
  8
0
100
AcDbLine
 62
7
  6
CONTINUOUS
 10
9.9464232543
 20
10.9385135889
 11
10.0039027708
 21
10.8564243319
  0
LINE
  5
25E
100
AcDbEntity
  8
0
100
AcDbLine
 62
7
  6
CONTINUOUS
 10
15.610848663
 20
10.9385135889
 11
15.5533691465
 21
10.8564243319
  0
LINE
  5
25F
100
AcDbEntity
  8
0
100
AcDbLine
 62
7
  6
CONTINUOUS
 10
8.8359587357
 20
12.0489781075
 11
8.7538694787
 21
12.1064576241
  0
LINE
  5
260
100
AcDbEntity
  8
0
100
AcDbLine
 62
7
  6
CONTINUOUS
 10
9.610848663
 20
12.8238680349
 11
9.5533691465
 21
12.9059572919
  0
LINE
  5
261
100
AcDbEntity
  8
0
100
AcDbLine
 62
7
  6
CONTINUOUS
 10
10.1576670901
 20
12.5376896346
 11
10.4713315957
 21
11.9944067744
  0
LINE
  5
262
100
AcDbEntity
  8
0
100
AcDbLine
 62
7
  6
CONTINUOUS
 10
16.4712696272
 20
11.7678675168
 11
16.1576671619
 21
11.2246921136
  0
LINE
  5
263
100
AcDbEntity
  8
0
100
AcDbLine
 62
7
  6
CONTINUOUS
 10
9.6096359587
 20
11.9121908119
 11
9.618191022
 21
11.9070128884
  0
LINE
  5
264
100
AcDbEntity
  8
0
100
AcDbLine
 62
7
  6
CONTINUOUS
 10
10.7213131816
 20
11.7134035163
 11
10.8034024387
 21
11.6559239997
  0
LINE
  5
265
100
AcDbEntity
  8
0
100
AcDbLine
 62
9
  6
CONTINUOUS
 10
14.7538694787
 20
12.1064576241
 11
14.7538694787
 21
11.6559239997
  0
LINE
  5
266
100
AcDbEntity
  8
0
100
AcDbLine
 62
9
  6
CONTINUOUS
 10
14.8359587357
 20
11.7134035163
 11
14.8359587357
 21
12.0489781075
  0
LINE
  5
267
100
AcDbEntity
  8
0
100
AcDbLine
 62
7
  6
CONTINUOUS
 10
14.8611359587
 20
12.0702682414
 11
14.8611359587
 21
11.6921133824
  0
LINE
  5
268
100
AcDbEntity
  8
0
100
AcDbLine
 62
9
  6
CONTINUOUS
 10
14.8859991172
 20
11.6902735187
 11
14.8859991172
 21
12.0721081052
  0
LINE
  5
269
100
AcDbEntity
  8
0
100
AcDbLine
 62
9
  6
CONTINUOUS
 10
1.5533691465
 20
10.8564243319
 11
2.0039027708
 21
10.8564243319
  0
LINE
  5
26A
100
AcDbEntity
  8
0
100
AcDbLine
 62
9
  6
CONTINUOUS
 10
9.5533691465
 20
10.8564243319
 11
10.0039027708
 21
10.8564243319
  0
LINE
  5
26B
100
AcDbEntity
  8
0
100
AcDbLine
 62
9
  6
CONTINUOUS
 10
15.5533691465
 20
10.8564243319
 11
16.0039027708
 21
10.8564243319
  0
LINE
  5
26C
100
AcDbEntity
  8
0
100
AcDbLine
 62
9
  6
CONTINUOUS
 10
15.9464232543
 20
10.9385135889
 11
15.610848663
 21
10.9385135889
  0
LINE
  5
26D
100
AcDbEntity
  8
0
100
AcDbLine
 62
9
  6
CONTINUOUS
 10
9.9464232543
 20
10.9385135889
 11
9.610848663
 21
10.9385135889
  0
LINE
  5
26E
100
AcDbEntity
  8
0
100
AcDbLine
 62
9
  6
CONTINUOUS
 10
1.9464232543
 20
10.9385135889
 11
1.610848663
 21
10.9385135889
  0
LINE
  5
26F
100
AcDbEntity
  8
0
100
AcDbLine
 62
7
  6
CONTINUOUS
 10
1.589545069
 20
10.9636908119
 11
1.9677268484
 21
10.9636908119
  0
LINE
  5
270
100
AcDbEntity
  8
0
100
AcDbLine
 62
7
  6
CONTINUOUS
 10
9.5895585291
 20
10.9636908119
 11
9.9677133882
 21
10.9636908119
  0
LINE
  5
271
100
AcDbEntity
  8
0
100
AcDbLine
 62
7
  6
CONTINUOUS
 10
15.589545069
 20
10.9636908119
 11
15.9677268484
 21
10.9636908119
  0
LINE
  5
272
100
AcDbEntity
  8
0
100
AcDbLine
 62
9
  6
CONTINUOUS
 10
1.5877186654
 20
10.9885539705
 11
1.9695532519
 21
10.9885539705
  0
LINE
  5
273
100
AcDbEntity
  8
0
100
AcDbLine
 62
9
  6
CONTINUOUS
 10
9.5877186654
 20
10.9885539705
 11
9.9695532519
 21
10.9885539705
  0
LINE
  5
274
100
AcDbEntity
  8
0
100
AcDbLine
 62
9
  6
CONTINUOUS
 10
15.5877186654
 20
10.9885539705
 11
15.9695532519
 21
10.9885539705
  0
LINE
  5
275
100
AcDbEntity
  8
0
100
AcDbLine
 62
7
  6
CONTINUOUS
 10
16.1576653106
 20
11.2246908119
 11
15.8962843599
 21
11.2246908119
  0
LINE
  5
276
100
AcDbEntity
  8
0
100
AcDbLine
 62
7
  6
CONTINUOUS
 10
15.6609875575
 20
11.2246908119
 11
15.399606607
 21
11.2246908119
  0
LINE
  5
277
100
AcDbEntity
  8
0
100
AcDbLine
 62
7
  6
CONTINUOUS
 10
10.1576653106
 20
11.2246908119
 11
9.8964743518
 21
11.2246908119
  0
LINE
  5
278
100
AcDbEntity
  8
0
100
AcDbLine
 62
7
  6
CONTINUOUS
 10
9.6607975655
 20
11.2246908119
 11
9.399606607
 21
11.2246908119
  0
LINE
  5
279
100
AcDbEntity
  8
0
100
AcDbLine
 62
7
  6
CONTINUOUS
 10
2.1576653106
 20
11.2246908119
 11
1.8962843599
 21
11.2246908119
  0
LINE
  5
27A
100
AcDbEntity
  8
0
100
AcDbLine
 62
7
  6
CONTINUOUS
 10
1.6609875575
 20
11.2246908119
 11
1.399606607
 21
11.2246908119
  0
LINE
  5
27B
100
AcDbEntity
  8
0
100
AcDbLine
 62
9
  6
CONTINUOUS
 10
15.9653138946
 20
11.3500248021
 11
15.9452178507
 21
11.3500248021
  0
LINE
  5
27C
100
AcDbEntity
  8
0
100
AcDbLine
 62
9
  6
CONTINUOUS
 10
15.6132106809
 20
11.3500248021
 11
15.5919580227
 21
11.3500248021
  0
LINE
  5
27D
100
AcDbEntity
  8
0
100
AcDbLine
 62
9
  6
CONTINUOUS
 10
9.9653138946
 20
11.3500248021
 11
9.94129108
 21
11.3500248021
  0
LINE
  5
27E
100
AcDbEntity
  8
0
100
AcDbLine
 62
9
  6
CONTINUOUS
 10
9.6103737582
 20
11.3500248021
 11
9.5919580227
 21
11.3500248021
  0
LINE
  5
27F
100
AcDbEntity
  8
0
100
AcDbLine
 62
9
  6
CONTINUOUS
 10
1.9653138946
 20
11.3500248021
 11
1.9452178507
 21
11.3500248021
  0
LINE
  5
280
100
AcDbEntity
  8
0
100
AcDbLine
 62
9
  6
CONTINUOUS
 10
1.6132106809
 20
11.3500248021
 11
1.5919580227
 21
11.3500248021
  0
LINE
  5
281
100
AcDbEntity
  8
0
100
AcDbLine
 62
7
  6
CONTINUOUS
 10
1.6946359587
 20
11.6161908119
 11
1.7126359587
 21
11.6161908119
  0
LINE
  5
282
100
AcDbEntity
  8
0
100
AcDbLine
 62
7
  6
CONTINUOUS
 10
1.8396359587
 20
11.6161908119
 11
1.8636359587
 21
11.6161908119
  0
LINE
  5
283
100
AcDbEntity
  8
0
100
AcDbLine
 62
7
  6
CONTINUOUS
 10
1.7354339849
 20
11.6326908119
 11
1.8168379324
 21
11.6326908119
  0
LINE
  5
284
100
AcDbEntity
  8
0
100
AcDbLine
 62
7
  6
CONTINUOUS
 10
9.9596359587
 20
11.9122685098
 11
9.9761860702
 21
11.9051908119
  0
LINE
  5
285
100
AcDbEntity
  8
0
100
AcDbLine
 62
9
  6
CONTINUOUS
 10
15.2474699488
 20
11.694512876
 11
15.2474699488
 21
11.7185356906
  0
LINE
  5
286
100
AcDbEntity
  8
0
100
AcDbLine
 62
9
  6
CONTINUOUS
 10
15.2474699488
 20
12.0494530124
 11
15.2474699488
 21
12.0678687479
  0
LINE
  5
287
100
AcDbEntity
  8
0
100
AcDbLine
 62
7
  6
CONTINUOUS
 10
1.8168379324
 20
11.6726908119
 11
1.7886359587
 21
11.6726908119
  0
LINE
  5
288
100
AcDbEntity
  8
0
100
AcDbLine
 62
7
  6
CONTINUOUS
 10
1.7590803343
 20
11.6736908119
 11
1.7350803343
 21
11.6736908119
  0
LINE
  5
289
100
AcDbEntity
  8
0
100
AcDbLine
 62
7
  6
CONTINUOUS
 10
1.8636359587
 20
11.6891908119
 11
1.8396359587
 21
11.6891908119
  0
LINE
  5
28A
100
AcDbEntity
  8
0
100
AcDbLine
 62
7
  6
CONTINUOUS
 10
1.7126359587
 20
11.6891908119
 11
1.6946359587
 21
11.6891908119
  0
LINE
  5
28B
100
AcDbEntity
  8
0
100
AcDbLine
 62
7
  6
CONTINUOUS
 10
1.6946359587
 20
11.7061908119
 11
1.7126359587
 21
11.7061908119
  0
LINE
  5
28C
100
AcDbEntity
  8
0
100
AcDbLine
 62
7
  6
CONTINUOUS
 10
1.8396359587
 20
11.7061908119
 11
1.8636359587
 21
11.7061908119
  0
LINE
  5
28D
100
AcDbEntity
  8
0
100
AcDbLine
 62
7
  6
CONTINUOUS
 10
1.7350803343
 20
11.7216908119
 11
1.7590803343
 21
11.7216908119
  0
LINE
  5
28E
100
AcDbEntity
  8
0
100
AcDbLine
 62
7
  6
CONTINUOUS
 10
1.7886359587
 20
11.7226908119
 11
1.8168379324
 21
11.7226908119
  0
LINE
  5
28F
100
AcDbEntity
  8
0
100
AcDbLine
 62
7
  6
CONTINUOUS
 10
1.7354339849
 20
11.7626908119
 11
1.8168379324
 21
11.7626908119
  0
LINE
  5
290
100
AcDbEntity
  8
0
100
AcDbLine
 62
7
  6
CONTINUOUS
 10
1.8636359587
 20
11.7791908119
 11
1.8396359587
 21
11.7791908119
  0
LINE
  5
291
100
AcDbEntity
  8
0
100
AcDbLine
 62
7
  6
CONTINUOUS
 10
1.7126359587
 20
11.7791908119
 11
1.6946359587
 21
11.7791908119
  0
LINE
  5
292
100
AcDbEntity
  8
0
100
AcDbLine
 62
7
  6
CONTINUOUS
 10
9.5041359587
 20
11.7971908119
 11
9.5886359587
 21
11.7971908119
  0
LINE
  5
293
100
AcDbEntity
  8
0
100
AcDbLine
 62
7
  6
CONTINUOUS
 10
9.6896359587
 20
11.7971908119
 11
9.7686359587
 21
11.7971908119
  0
LINE
  5
294
100
AcDbEntity
  8
0
100
AcDbLine
 62
7
  6
CONTINUOUS
 10
9.9756359587
 20
11.7971908119
 11
9.9936359587
 21
11.7971908119
  0
LINE
  5
295
100
AcDbEntity
  8
0
100
AcDbLine
 62
7
  6
CONTINUOUS
 10
9.5363540783
 20
11.8151908119
 11
9.5084911705
 21
11.8151908119
  0
LINE
  5
296
100
AcDbEntity
  8
0
100
AcDbLine
 62
7
  6
CONTINUOUS
 10
9.5084911705
 20
11.9421908119
 11
9.5363540783
 21
11.9421908119
  0
LINE
  5
297
100
AcDbEntity
  8
0
100
AcDbLine
 62
7
  6
CONTINUOUS
 10
9.6571359587
 20
11.9434201672
 11
9.6811359587
 21
11.9434201672
  0
LINE
  5
298
100
AcDbEntity
  8
0
100
AcDbLine
 62
7
  6
CONTINUOUS
 10
9.7686359587
 20
11.9661908119
 11
9.6191576156
 21
11.9661908119
  0
LINE
  5
299
100
AcDbEntity
  8
0
100
AcDbLine
 62
7
  6
CONTINUOUS
 10
9.5886359587
 20
11.9661908119
 11
9.5041359587
 21
11.9661908119
  0
LINE
  5
29A
100
AcDbEntity
  8
0
100
AcDbLine
 62
7
  6
CONTINUOUS
 10
1.8396359587
 20
12.0191908119
 11
1.8636359587
 21
12.0191908119
  0
LINE
  5
29B
100
AcDbEntity
  8
0
100
AcDbLine
 62
7
  6
CONTINUOUS
 10
1.7155359587
 20
12.0376908119
 11
1.8081756662
 21
12.0376908119
  0
LINE
  5
29C
100
AcDbEntity
  8
0
100
AcDbLine
 62
7
  6
CONTINUOUS
 10
1.8081756662
 20
12.0736908119
 11
1.7155359587
 21
12.0736908119
  0
LINE
  5
29D
100
AcDbEntity
  8
0
100
AcDbLine
 62
7
  6
CONTINUOUS
 10
1.8636359587
 20
12.0921908119
 11
1.8396359587
 21
12.0921908119
  0
LINE
  5
29E
100
AcDbEntity
  8
0
100
AcDbLine
 62
9
  6
CONTINUOUS
 10
1.5919688882
 20
12.4123568218
 11
1.61205406
 21
12.4123568218
  0
LINE
  5
29F
100
AcDbEntity
  8
0
100
AcDbLine
 62
9
  6
CONTINUOUS
 10
1.9440612834
 20
12.4123568218
 11
1.9653138946
 21
12.4123568218
  0
LINE
  5
2A0
100
AcDbEntity
  8
0
100
AcDbLine
 62
9
  6
CONTINUOUS
 10
9.5919580227
 20
12.4123568218
 11
9.6159808488
 21
12.4123568218
  0
LINE
  5
2A1
100
AcDbEntity
  8
0
100
AcDbLine
 62
9
  6
CONTINUOUS
 10
9.9468981612
 20
12.4123568218
 11
9.9653138946
 21
12.4123568218
  0
LINE
  5
2A2
100
AcDbEntity
  8
0
100
AcDbLine
 62
9
  6
CONTINUOUS
 10
15.5919580227
 20
12.4123568218
 11
15.61205406
 21
12.4123568218
  0
LINE
  5
2A3
100
AcDbEntity
  8
0
100
AcDbLine
 62
9
  6
CONTINUOUS
 10
15.9440612834
 20
12.4123568218
 11
15.9653138946
 21
12.4123568218
  0
LINE
  5
2A4
100
AcDbEntity
  8
0
100
AcDbLine
 62
9
  6
CONTINUOUS
 10
16.3098019685
 20
12.0678687479
 11
16.3098019685
 21
12.0438459218
  0
LINE
  5
2A5
100
AcDbEntity
  8
0
100
AcDbLine
 62
9
  6
CONTINUOUS
 10
16.3098019685
 20
11.7129286094
 11
16.3098019685
 21
11.694512876
  0
LINE
  5
2A6
100
AcDbEntity
  8
0
100
AcDbLine
 62
9
  6
CONTINUOUS
 10
16.6712728001
 20
11.6902735187
 11
16.6712728001
 21
12.0721081052
  0
LINE
  5
2A7
100
AcDbEntity
  8
0
100
AcDbLine
 62
7
  6
CONTINUOUS
 10
16.6961359587
 20
11.6921133824
 11
16.6961359587
 21
12.0702682414
  0
LINE
  5
2A8
100
AcDbEntity
  8
0
100
AcDbLine
 62
9
  6
CONTINUOUS
 10
16.7213131816
 20
12.0489781075
 11
16.7213131816
 21
11.7134035163
  0
LINE
  5
2A9
100
AcDbEntity
  8
0
100
AcDbLine
 62
9
  6
CONTINUOUS
 10
16.8034024387
 20
11.6559239997
 11
16.8034024387
 21
12.1064576241
  0
LINE
  5
2AA
100
AcDbEntity
  8
0
100
AcDbLine
 62
7
  6
CONTINUOUS
 10
5.7786359587
 20
13.0061908119
 11
5.7786784882
 21
13.0061908806
  0
LINE
  5
2AB
100
AcDbEntity
  8
0
100
AcDbLine
 62
7
  6
CONTINUOUS
 10
1.3996066068
 20
12.5376908119
 11
1.6609875575
 21
12.5376908119
  0
LINE
  5
2AC
100
AcDbEntity
  8
0
100
AcDbLine
 62
7
  6
CONTINUOUS
 10
1.8962843599
 20
12.5376908119
 11
2.1576650507
 21
12.5376908119
  0
LINE
  5
2AD
100
AcDbEntity
  8
0
100
AcDbLine
 62
7
  6
CONTINUOUS
 10
9.3996066068
 20
12.5376908119
 11
9.6607975655
 21
12.5376908119
  0
LINE
  5
2AE
100
AcDbEntity
  8
0
100
AcDbLine
 62
7
  6
CONTINUOUS
 10
9.8964743518
 20
12.5376908119
 11
10.1576650507
 21
12.5376908119
  0
LINE
  5
2AF
100
AcDbEntity
  8
0
100
AcDbLine
 62
7
  6
CONTINUOUS
 10
15.3996066068
 20
12.5376908119
 11
15.6609875575
 21
12.5376908119
  0
LINE
  5
2B0
100
AcDbEntity
  8
0
100
AcDbLine
 62
7
  6
CONTINUOUS
 10
15.8962843599
 20
12.5376908119
 11
16.1576650507
 21
12.5376908119
  0
LINE
  5
2B1
100
AcDbEntity
  8
0
100
AcDbLine
 62
9
  6
CONTINUOUS
 10
15.9695532519
 20
12.7738276533
 11
15.5877186654
 21
12.7738276533
  0
LINE
  5
2B2
100
AcDbEntity
  8
0
100
AcDbLine
 62
9
  6
CONTINUOUS
 10
1.9695532519
 20
12.7738276533
 11
1.5877186654
 21
12.7738276533
  0
LINE
  5
2B3
100
AcDbEntity
  8
0
100
AcDbLine
 62
9
  6
CONTINUOUS
 10
9.5877186654
 20
12.7738276533
 11
9.9695532519
 21
12.7738276533
  0
LINE
  5
2B4
100
AcDbEntity
  8
0
100
AcDbLine
 62
7
  6
CONTINUOUS
 10
15.9677268484
 20
12.7986908119
 11
15.589545069
 21
12.7986908119
  0
LINE
  5
2B5
100
AcDbEntity
  8
0
100
AcDbLine
 62
7
  6
CONTINUOUS
 10
9.9677133882
 20
12.7986908119
 11
9.5895585291
 21
12.7986908119
  0
LINE
  5
2B6
100
AcDbEntity
  8
0
100
AcDbLine
 62
7
  6
CONTINUOUS
 10
1.9677268484
 20
12.7986908119
 11
1.589545069
 21
12.7986908119
  0
LINE
  5
2B7
100
AcDbEntity
  8
0
100
AcDbLine
 62
9
  6
CONTINUOUS
 10
1.610848663
 20
12.8238680349
 11
1.9464232543
 21
12.8238680349
  0
LINE
  5
2B8
100
AcDbEntity
  8
0
100
AcDbLine
 62
9
  6
CONTINUOUS
 10
9.610848663
 20
12.8238680349
 11
9.9464232543
 21
12.8238680349
  0
LINE
  5
2B9
100
AcDbEntity
  8
0
100
AcDbLine
 62
9
  6
CONTINUOUS
 10
15.610848663
 20
12.8238680349
 11
15.9464232543
 21
12.8238680349
  0
LINE
  5
2BA
100
AcDbEntity
  8
0
100
AcDbLine
 62
9
  6
CONTINUOUS
 10
16.0039027708
 20
12.9059572919
 11
15.5533691465
 21
12.9059572919
  0
LINE
  5
2BB
100
AcDbEntity
  8
0
100
AcDbLine
 62
9
  6
CONTINUOUS
 10
10.0039027708
 20
12.9059572919
 11
9.5533691465
 21
12.9059572919
  0
LINE
  5
2BC
100
AcDbEntity
  8
0
100
AcDbLine
 62
9
  6
CONTINUOUS
 10
2.0039027708
 20
12.9059572919
 11
1.5533691465
 21
12.9059572919
  0
LINE
  5
2BD
100
AcDbEntity
  8
0
100
AcDbLine
 62
7
  6
CONTINUOUS
 10
15.7096930475
 20
11.8546743076
 11
15.6231877063
 21
11.886562016
  0
LINE
  5
2BE
100
AcDbEntity
  8
0
100
AcDbLine
 62
7
  6
CONTINUOUS
 10
15.7469679281
 20
11.8622495436
 11
15.6439108026
 21
11.9002385916
  0
LINE
  5
2BF
100
AcDbEntity
  8
0
100
AcDbLine
 62
7
  6
CONTINUOUS
 10
15.3996047556
 20
11.2246921134
 11
15.0860022901
 21
11.7678675168
  0
LINE
  5
2C0
100
AcDbEntity
  8
0
100
AcDbLine
 62
7
  6
CONTINUOUS
 10
20.1855603736
 20
7.7958615365
 11
20.1751464964
 21
7.7841951902
  0
LWPOLYLINE
  5
2C1
100
AcDbEntity
  8
0
100
AcDbPolyline
 62
7
  6
CONTINUOUS
 90
4
 70
0
 10
20.1044635284
 20
7.7070229347
 10
20.0671475267
 20
7.6652796519
 10
20.0227805008
 20
7.6106630287
 10
20.0144618333
 20
7.5997194668
  0
LINE
  5
2C2
100
AcDbEntity
  8
0
100
AcDbLine
 62
7
  6
CONTINUOUS
 10
20.1751464964
 20
7.7841951902
 11
20.1440941923
 21
7.7497493665
  0
LINE
  5
2C3
100
AcDbEntity
  8
0
100
AcDbLine
 62
7
  6
CONTINUOUS
 10
20.1444164052
 20
7.7501012502
 11
20.1044590972
 21
7.7070181779
  0
LWPOLYLINE
  5
2C4
100
AcDbEntity
  8
0
100
AcDbPolyline
 62
7
  6
CONTINUOUS
 90
10
 70
0
 10
5.7786359592
 20
13.0061908119
 10
5.5620960619
 20
12.9855116488
 10
5.3511317972
 20
12.9227501043
 10
5.1560308572
 20
12.8197122757
 10
4.9844760424
 20
12.680483334
 10
4.8435071379
 20
12.5102494551
 10
4.738480712
 20
12.3159439255
 10
4.6736643057
 20
12.1051872464
 10
4.6510707516
 20
11.8861560236
 10
4.6717263451
 20
11.6669504387
  0
LINE
  5
2C5
100
AcDbEntity
  8
0
100
AcDbLine
 62
7
  6
CONTINUOUS
 10
14.8359587357
 20
12.0489781075
 11
14.7538694787
 21
12.1064576241
  0
LINE
  5
2C6
100
AcDbEntity
  8
0
100
AcDbLine
 62
7
  6
CONTINUOUS
 10
15.5346841191
 20
11.690271981
 11
15.5877171277
 21
11.6372389724
  0
LINE
  5
2C7
100
AcDbEntity
  8
0
100
AcDbLine
 62
7
  6
CONTINUOUS
 10
15.5872682823
 20
11.6659720891
 11
15.5634172358
 21
11.6898231356
  0
LINE
  5
2C8
100
AcDbEntity
  8
0
100
AcDbLine
 62
7
  6
CONTINUOUS
 10
15.9464232543
 20
10.9385135889
 11
16.0039027708
 21
10.8564243319
  0
LINE
  5
2C9
100
AcDbEntity
  8
0
100
AcDbLine
 62
7
  6
CONTINUOUS
 10
15.7521194544
 20
11.8122479008
 11
15.7840071627
 21
11.7257425595
  0
LINE
  5
2CA
100
AcDbEntity
  8
0
100
AcDbLine
 62
7
  6
CONTINUOUS
 10
15.7976837383
 20
11.7464656559
 11
15.7596946903
 21
11.8495227814
  0
LINE
  5
2CB
100
AcDbEntity
  8
0
100
AcDbLine
 62
7
  6
CONTINUOUS
 10
20.3086359587
 20
11.3582637644
 11
20.3053873656
 21
11.351519801
  0
LWPOLYLINE
  5
2CC
100
AcDbEntity
  8
0
100
AcDbPolyline
 62
7
  6
CONTINUOUS
 90
4
 70
0
 10
20.0142666532
 20
7.5994597521
 10
19.9277525845
 20
7.4675771647
 10
19.8421903969
 20
7.2793994745
 10
19.795115513
 20
7.0914668955
  0
LINE
  5
2CD
100
AcDbEntity
  8
0
100
AcDbLine
 62
7
  6
CONTINUOUS
 10
20.014273647
 20
7.599469052
 11
20.0144618333
 21
7.5997194668
  0
LINE
  5
2CE
100
AcDbEntity
  8
0
100
AcDbLine
 62
7
  6
CONTINUOUS
 10
16.7213131816
 20
11.7134035163
 11
16.8034024387
 21
11.6559239997
  0
LINE
  5
2CF
100
AcDbEntity
  8
0
100
AcDbLine
 62
7
  6
CONTINUOUS
 10
15.610848663
 20
12.8238680349
 11
15.5533691465
 21
12.9059572919
  0
LINE
  5
2D0
100
AcDbEntity
  8
0
100
AcDbLine
 62
7
  6
CONTINUOUS
 10
16.1576670901
 20
12.5376896346
 11
16.4712696272
 21
11.994514107
  0
LINE
  5
2D1
100
AcDbEntity
  8
0
100
AcDbLine
 62
7
  6
CONTINUOUS
 10
20.4436194363
 20
11.5347778505
 11
20.443663394
 21
11.5349630949
  0
LWPOLYLINE
  5
2D2
100
AcDbEntity
  8
0
100
AcDbPolyline
 62
7
  6
CONTINUOUS
 90
3
 70
0
 10
20.374592185
 20
11.4819599513
 10
20.3729168056
 20
11.476281135
 10
20.3686159435
 20
11.4522184225
  0
LWPOLYLINE
  5
2D3
100
AcDbEntity
  8
0
100
AcDbPolyline
 62
7
  6
CONTINUOUS
 90
3
 70
0
 10
20.3053873656
 20
11.351519801
 10
20.2941890651
 20
11.3156349451
 10
20.2919278443
 20
11.2899210666
  0
LINE
  5
2D4
100
AcDbEntity
  8
0
100
AcDbLine
 62
7
  6
CONTINUOUS
 10
20.3262721465
 20
11.4162454084
 11
20.3231216589
 21
11.4065027877
  0
LINE
  5
2D5
100
AcDbEntity
  8
0
100
AcDbLine
 62
7
  6
CONTINUOUS
 10
20.2920082649
 20
7.9445107725
 11
20.2920200361
 21
7.9445315481
  0
LWPOLYLINE
  5
2D6
100
AcDbEntity
  8
0
100
AcDbPolyline
 62
7
  6
CONTINUOUS
 90
4
 70
0
 10
20.2920082649
 20
7.9445107725
 10
20.2621420115
 20
7.8956692081
 10
20.2214222381
 20
7.8388863454
 10
20.1855604369
 20
7.7958616076
  0
LINE
  5
2D7
100
AcDbEntity
  8
0
100
AcDbLine
 62
7
  6
CONTINUOUS
 10
21.4528128202
 20
7.7070181779
 11
21.4128555121
 21
7.7501012502
  0
LWPOLYLINE
  5
2D8
100
AcDbEntity
  8
0
100
AcDbPolyline
 62
7
  6
CONTINUOUS
 90
3
 70
0
 10
21.413177725
 20
7.7497493665
 10
21.3821254209
 20
7.7841951902
 10
21.3717202672
 20
7.795851741
  0
LWPOLYLINE
  5
2D9
100
AcDbEntity
  8
0
100
AcDbPolyline
 62
7
  6
CONTINUOUS
 90
4
 70
0
 10
21.3717114805
 20
7.7958616075
 10
21.3358496752
 20
7.8388863506
 10
21.2951299083
 20
7.8956692044
 10
21.2652636524
 20
7.9445107725
  0
LWPOLYLINE
  5
2DA
100
AcDbEntity
  8
0
100
AcDbPolyline
 62
7
  6
CONTINUOUS
 90
5
 70
0
 10
19.7839396145
 20
6.9258545306
 10
19.7941672404
 20
6.8013803515
 10
19.8245086948
 20
6.6619738433
 10
19.8748454029
 20
6.5261088708
 10
19.9242977987
 20
6.4309859128
  0
LINE
  5
2DB
100
AcDbEntity
  8
0
100
AcDbLine
 62
7
  6
CONTINUOUS
 10
19.7839389812
 20
6.9258546175
 11
19.7839401202
 21
6.9257948086
  0
LINE
  5
2DC
100
AcDbEntity
  8
0
100
AcDbLine
 62
7
  6
CONTINUOUS
 10
19.795115513
 20
7.0914668955
 11
19.7839401202
 21
6.9257948086
  0
LINE
  5
2DD
100
AcDbEntity
  8
0
100
AcDbLine
 62
7
  6
CONTINUOUS
 10
20.4436653097
 20
11.5349628172
 11
20.4401620174
 21
11.5151542031
  0
LWPOLYLINE
  5
2DE
100
AcDbEntity
  8
0
100
AcDbPolyline
 62
7
  6
CONTINUOUS
 90
3
 70
0
 10
20.3231216589
 20
11.4065027877
 10
20.318477715
 20
11.381761703
 10
20.3177834173
 20
11.3672151788
  0
LINE
  5
2DF
100
AcDbEntity
  8
0
100
AcDbLine
 62
7
  6
CONTINUOUS
 10
20.3827329615
 20
8.1771705639
 11
20.3828596764
 21
8.177833913
  0
LWPOLYLINE
  5
2E0
100
AcDbEntity
  8
0
100
AcDbPolyline
 62
7
  6
CONTINUOUS
 90
4
 70
0
 10
20.3828596775
 20
8.1778339185
 10
20.3755461542
 20
8.1455514009
 10
20.3609184447
 20
8.0966545264
 10
20.3436106156
 20
8.0504472845
  0
LINE
  5
2E1
100
AcDbEntity
  8
0
100
AcDbLine
 62
7
  6
CONTINUOUS
 10
20.3436037041
 20
8.0504303913
 11
20.3436106156
 21
8.0504472845
  0
LWPOLYLINE
  5
2E2
100
AcDbEntity
  8
0
100
AcDbPolyline
 62
7
  6
CONTINUOUS
 90
4
 70
0
 10
20.3436037041
 20
8.0504303913
 10
20.3306760732
 20
8.0204427912
 10
20.3100521916
 20
7.9778576943
 10
20.2920200361
 20
7.9445315481
  0
LWPOLYLINE
  5
2E3
100
AcDbEntity
  8
0
100
AcDbPolyline
 62
7
  6
CONTINUOUS
 90
4
 70
0
 10
21.5428801291
 20
7.5996262787
 10
21.5342061002
 20
7.6110341015
 10
21.4899676399
 20
7.6654624366
 10
21.4528084214
 20
7.7070228997
  0
LINE
  5
2E4
100
AcDbEntity
  8
0
100
AcDbLine
 62
7
  6
CONTINUOUS
 10
21.5429095525
 20
7.5995871258
 11
21.5428752379
 21
7.5996327856
  0
LINE
  5
2E5
100
AcDbEntity
  8
0
100
AcDbLine
 62
7
  6
CONTINUOUS
 10
20.3177834157
 20
9.2460209111
 11
20.3206784164
 21
9.2161771516
  0
LINE
  5
2E6
100
AcDbEntity
  8
0
100
AcDbLine
 62
7
  6
CONTINUOUS
 10
20.3679182358
 20
9.3157913623
 11
20.3701594032
 21
9.2870981016
  0
LINE
  5
2E7
100
AcDbEntity
  8
0
100
AcDbLine
 62
7
  6
CONTINUOUS
 10
20.3860730275
 20
8.3768639573
 11
20.3886774902
 21
8.3422811604
  0
LINE
  5
2E8
100
AcDbEntity
  8
0
100
AcDbLine
 62
7
  6
CONTINUOUS
 10
20.439105162
 20
9.3738533964
 11
20.4391322172
 21
9.3704942682
  0
LINE
  5
2E9
100
AcDbEntity
  8
0
100
AcDbLine
 62
7
  6
CONTINUOUS
 10
20.2886359587
 20
11.5843675099
 11
20.2886359587
 21
11.5008051206
  0
LINE
  5
2EA
100
AcDbEntity
  8
0
100
AcDbLine
 62
7
  6
CONTINUOUS
 10
20.2911359587
 20
11.6017206867
 11
20.2911359587
 21
11.8811908119
  0
LINE
  5
2EB
100
AcDbEntity
  8
0
100
AcDbLine
 62
7
  6
CONTINUOUS
 10
20.2919227305
 20
11.2899624461
 11
20.2919227305
 21
9.1687633341
  0
LINE
  5
2EC
100
AcDbEntity
  8
0
100
AcDbLine
 62
7
  6
CONTINUOUS
 10
20.3086359587
 20
11.3531694093
 11
20.3086359587
 21
11.6069513523
  0
LINE
  5
2ED
100
AcDbEntity
  8
0
100
AcDbLine
 62
7
  6
CONTINUOUS
 10
20.3177930899
 20
11.3671478565
 11
20.3177930899
 21
9.2459487446
  0
LINE
  5
2EE
100
AcDbEntity
  8
0
100
AcDbLine
 62
7
  6
CONTINUOUS
 10
20.3679082789
 20
11.4369798477
 11
20.3679082789
 21
9.3157807358
  0
LINE
  5
2EF
100
AcDbEntity
  8
0
100
AcDbLine
 62
7
  6
CONTINUOUS
 10
20.4391251111
 20
9.373161066
 11
20.4391251111
 21
11.4943601779
  0
LINE
  5
2F0
100
AcDbEntity
  8
0
100
AcDbLine
 62
7
  6
CONTINUOUS
 10
20.5290826534
 20
9.4301671122
 11
20.5290826534
 21
11.5513662242
  0
LINE
  5
2F1
100
AcDbEntity
  8
0
100
AcDbLine
 62
7
  6
CONTINUOUS
 10
20.6347205476
 20
9.4682446216
 11
20.6347205476
 21
11.5894437336
  0
LINE
  5
2F2
100
AcDbEntity
  8
0
100
AcDbLine
 62
7
  6
CONTINUOUS
 10
20.7494011764
 20
9.4850010443
 11
20.7494011764
 21
11.6062001563
  0
LINE
  5
2F3
100
AcDbEntity
  8
0
100
AcDbLine
 62
9
  6
CONTINUOUS
 10
20.7786357496
 20
5.9648291675
 11
20.7786359587
 21
7.2252030024
  0
LINE
  5
2F4
100
AcDbEntity
  8
0
100
AcDbLine
 62
7
  6
CONTINUOUS
 10
20.7786359584
 20
7.2252030069
 11
20.7786359585
 21
7.7493065934
  0
LINE
  5
2F5
100
AcDbEntity
  8
0
100
AcDbLine
 62
9
  6
CONTINUOUS
 10
20.7786346083
 20
9.4337099608
 11
20.7786359587
 21
7.7493065934
  0
LINE
  5
2F6
100
AcDbEntity
  8
0
100
AcDbLine
 62
7
  6
CONTINUOUS
 10
20.8659187341
 20
9.4793835126
 11
20.8659187341
 21
11.6005826245
  0
LINE
  5
2F7
100
AcDbEntity
  8
0
100
AcDbLine
 62
7
  6
CONTINUOUS
 10
20.3679082789
 20
9.3157807358
 11
20.3679082808
 21
9.315793746
  0
LINE
  5
2F8
100
AcDbEntity
  8
0
100
AcDbLine
 62
7
  6
CONTINUOUS
 10
20.3686159435
 20
11.4522184225
 11
20.3679182209
 21
11.436964256
  0
LINE
  5
2F9
100
AcDbEntity
  8
0
100
AcDbLine
 62
7
  6
CONTINUOUS
 10
20.4401620174
 20
11.5151542031
 11
20.4391051621
 21
11.4950478917
  0
LINE
  5
2FA
100
AcDbEntity
  8
0
100
AcDbLine
 62
7
  6
CONTINUOUS
 10
20.3928794105
 20
8.2735244888
 11
20.3902706343
 21
8.2287193484
  0
LINE
  5
2FB
100
AcDbEntity
  8
0
100
AcDbLine
 62
7
  6
CONTINUOUS
 10
20.3922134929
 20
8.2506465774
 11
20.391347094
 21
8.2394466423
  0
LINE
  5
2FC
100
AcDbEntity
  8
0
100
AcDbLine
 62
7
  6
CONTINUOUS
 10
20.3902706343
 20
8.2287193484
 11
20.3902668773
 21
8.2286819333
  0
LINE
  5
2FD
100
AcDbEntity
  8
0
100
AcDbLine
 62
7
  6
CONTINUOUS
 10
20.3902668773
 20
8.2286819335
 11
20.389531704
 21
8.2217805647
  0
LINE
  5
2FE
100
AcDbEntity
  8
0
100
AcDbLine
 62
7
  6
CONTINUOUS
 10
20.391347094
 20
8.2394466423
 11
20.3874788056
 21
8.2058835275
  0
LINE
  5
2FF
100
AcDbEntity
  8
0
100
AcDbLine
 62
9
  6
CONTINUOUS
 10
20.3907184678
 20
8.232584244
 11
20.3902706343
 21
8.2287193484
  0
LINE
  5
300
100
AcDbEntity
  8
0
100
AcDbLine
 62
7
  6
CONTINUOUS
 10
21.1529324737
 20
9.3102641366
 11
21.1540745068
 21
9.317642096
  0
LINE
  5
301
100
AcDbEntity
  8
0
100
AcDbLine
 62
7
  6
CONTINUOUS
 10
20.3874788056
 20
8.2058835275
 11
20.3827329626
 21
8.1771705694
  0
LINE
  5
302
100
AcDbEntity
  8
0
100
AcDbLine
 62
7
  6
CONTINUOUS
 10
21.1682820956
 20
8.3398253323
 11
21.2887588739
 21
8.9828412987
  0
LINE
  5
303
100
AcDbEntity
  8
0
100
AcDbLine
 62
7
  6
CONTINUOUS
 10
21.2133943379
 20
9.2484024136
 11
21.2150501271
 21
9.2545833083
  0
LWPOLYLINE
  5
304
100
AcDbEntity
  8
0
100
AcDbPolyline
 62
7
  6
CONTINUOUS
 90
5
 70
0
 10
21.6329741186
 20
6.4309859126
 10
21.6824265144
 20
6.5261088709
 10
21.7327632226
 20
6.6619738434
 10
21.763104677
 20
6.8013803516
 10
21.7733323028
 20
6.9258545306
  0
LINE
  5
305
100
AcDbEntity
  8
0
100
AcDbLine
 62
7
  6
CONTINUOUS
 10
21.2652636524
 20
7.9445107725
 11
21.2652518812
 21
7.9445315481
  0
LWPOLYLINE
  5
306
100
AcDbEntity
  8
0
100
AcDbPolyline
 62
7
  6
CONTINUOUS
 90
4
 70
0
 10
21.2652518812
 20
7.9445315481
 10
21.2472197193
 20
7.9778577068
 10
21.2265958496
 20
8.0204427791
 10
21.2136682132
 20
8.0504303913
  0
LINE
  5
307
100
AcDbEntity
  8
0
100
AcDbLine
 62
7
  6
CONTINUOUS
 10
21.2136682132
 20
8.0504303914
 11
21.2136613017
 21
8.0504472845
  0
LWPOLYLINE
  5
308
100
AcDbEntity
  8
0
100
AcDbPolyline
 62
7
  6
CONTINUOUS
 90
4
 70
0
 10
21.2136613017
 20
8.0504472845
 10
21.1963534716
 20
8.0966545296
 10
21.1817257643
 20
8.1455513964
 10
21.1744122398
 20
8.1778339185
  0
LINE
  5
309
100
AcDbEntity
  8
0
100
AcDbLine
 62
7
  6
CONTINUOUS
 10
20.3701594032
 20
9.2870981016
 11
20.3722354857
 21
9.2783746464
  0
LINE
  5
30A
100
AcDbEntity
  8
0
100
AcDbLine
 62
7
  6
CONTINUOUS
 10
20.2685130434
 20
8.9828412987
 11
20.3889898217
 21
8.3398253324
  0
LWPOLYLINE
  5
30B
100
AcDbEntity
  8
0
100
AcDbPolyline
 62
7
  6
CONTINUOUS
 90
3
 70
0
 10
20.3887574089
 20
8.3418637304
 10
20.3914570219
 20
8.3181865247
 10
20.3928794105
 20
8.2735244888
  0
LINE
  5
30C
100
AcDbEntity
  8
0
100
AcDbLine
 62
7
  6
CONTINUOUS
 10
21.1677402134
 20
8.2217805639
 11
21.16700504
 21
8.2286819335
  0
LINE
  5
30D
100
AcDbEntity
  8
0
100
AcDbLine
 62
7
  6
CONTINUOUS
 10
21.167001283
 20
8.2287193485
 11
21.16700504
 21
8.2286819335
  0
LWPOLYLINE
  5
30E
100
AcDbEntity
  8
0
100
AcDbPolyline
 62
7
  6
CONTINUOUS
 90
3
 70
0
 10
21.2686071857
 20
11.2501672378
 10
21.2662367486
 20
11.2765960751
 10
21.2555835976
 20
11.309724686
  0
LINE
  5
30F
100
AcDbEntity
  8
0
100
AcDbLine
 62
7
  6
CONTINUOUS
 10
21.1659291757
 20
8.2393967289
 11
21.1650584207
 21
8.250646632
  0
LWPOLYLINE
  5
310
100
AcDbEntity
  8
0
100
AcDbPolyline
 62
7
  6
CONTINUOUS
 90
5
 70
0
 10
21.7733317974
 20
6.9257948267
 10
21.7621419124
 20
7.0915615439
 10
21.7150141581
 20
7.2795923594
 10
21.6293583345
 20
7.4678611759
 10
21.5429095525
 20
7.5995871258
  0
LINE
  5
311
100
AcDbEntity
  8
0
100
AcDbLine
 62
7
  6
CONTINUOUS
 10
21.167001283
 20
8.2287193484
 11
21.1643925069
 21
8.2735244881
  0
LWPOLYLINE
  5
312
100
AcDbEntity
  8
0
100
AcDbPolyline
 62
7
  6
CONTINUOUS
 90
3
 70
0
 10
21.2555953784
 20
11.3291156391
 10
21.2548301051
 20
11.3441971871
 10
21.2493634565
 20
11.3713555056
  0
LINE
  5
313
100
AcDbEntity
  8
0
100
AcDbLine
 62
7
  6
CONTINUOUS
 10
21.2172833082
 20
11.4033652828
 11
21.2165574896
 21
11.4185112056
  0
LINE
  5
314
100
AcDbEntity
  8
0
100
AcDbLine
 62
7
  6
CONTINUOUS
 10
21.1561453591
 20
11.467632268
 11
21.1555697444
 21
11.4820077577
  0
LINE
  5
315
100
AcDbEntity
  8
0
100
AcDbLine
 62
7
  6
CONTINUOUS
 10
20.976951994
 20
9.4517449966
 11
20.976951994
 21
11.5729441085
  0
LINE
  5
316
100
AcDbEntity
  8
0
100
AcDbLine
 62
7
  6
CONTINUOUS
 10
21.075524328
 20
9.4038221259
 11
21.075524328
 21
11.5250212379
  0
LINE
  5
317
100
AcDbEntity
  8
0
100
AcDbLine
 62
7
  6
CONTINUOUS
 10
21.1561435661
 20
11.4677412581
 11
21.1561435661
 21
9.3465421461
  0
LINE
  5
318
100
AcDbEntity
  8
0
100
AcDbLine
 62
7
  6
CONTINUOUS
 10
21.21728876
 20
11.4033643905
 11
21.217288858
 21
9.2820724017
  0
LINE
  5
319
100
AcDbEntity
  8
0
100
AcDbLine
 62
7
  6
CONTINUOUS
 10
21.2486359587
 20
11.6069513523
 11
21.2486359587
 21
11.372605757
  0
LINE
  5
31A
100
AcDbEntity
  8
0
100
AcDbLine
 62
7
  6
CONTINUOUS
 10
21.2555835976
 20
11.3291785679
 11
21.2555835976
 21
9.2079794559
  0
LINE
  5
31B
100
AcDbEntity
  8
0
100
AcDbLine
 62
7
  6
CONTINUOUS
 10
21.2661359587
 20
11.6036565497
 11
21.2661359587
 21
11.8811908119
  0
LINE
  5
31C
100
AcDbEntity
  8
0
100
AcDbLine
 62
7
  6
CONTINUOUS
 10
21.2686215581
 20
11.2501672445
 11
21.2686215857
 21
9.160973054
  0
LINE
  5
31D
100
AcDbEntity
  8
0
100
AcDbLine
 62
7
  6
CONTINUOUS
 10
21.2686359587
 20
11.5843675099
 11
21.2686359587
 21
11.5008051206
  0
LINE
  5
31E
100
AcDbEntity
  8
0
100
AcDbLine
 62
7
  6
CONTINUOUS
 10
21.1643925069
 20
8.2735244881
 11
21.1658148955
 21
8.3181865264
  0
LINE
  5
31F
100
AcDbEntity
  8
0
100
AcDbLine
 62
7
  6
CONTINUOUS
 10
21.1711988
 20
8.3768633049
 11
21.1685779308
 21
8.3422844547
  0
LINE
  5
320
100
AcDbEntity
  8
0
100
AcDbLine
 62
7
  6
CONTINUOUS
 10
21.2150501271
 20
9.2545833083
 11
21.2172833117
 21
9.2821515516
  0
LWPOLYLINE
  5
321
100
AcDbEntity
  8
0
100
AcDbPolyline
 62
7
  6
CONTINUOUS
 90
3
 70
0
 10
21.1540745068
 20
9.317642096
 10
21.1560074021
 20
9.3391970592
 10
21.1561453602
 20
9.3464457194
  0
LINE
  5
322
100
AcDbEntity
  8
0
100
AcDbLine
 62
7
  6
CONTINUOUS
 10
21.2534776416
 20
9.1871742942
 11
21.2555953296
 21
9.2079727168
  0
LINE
  5
323
100
AcDbEntity
  8
0
100
AcDbLine
 62
7
  6
CONTINUOUS
 10
21.1658148955
 20
8.3181865264
 11
21.1685145084
 21
8.3418637303
  0
LINE
  5
324
100
AcDbEntity
  8
0
100
AcDbLine
 62
7
  6
CONTINUOUS
 10
21.0729646922
 20
11.5534680809
 11
21.0723076216
 21
11.5567017732
  0
LINE
  5
325
100
AcDbEntity
  8
0
100
AcDbLine
 62
7
  6
CONTINUOUS
 10
21.1745389563
 20
8.1771705608
 11
21.1744122408
 21
8.1778339133
  0
LINE
  5
326
100
AcDbEntity
  8
0
100
AcDbLine
 62
7
  6
CONTINUOUS
 10
21.0738086842
 20
11.5486312614
 11
21.0729646922
 21
11.5534680809
  0
LINE
  5
327
100
AcDbEntity
  8
0
100
AcDbLine
 62
7
  6
CONTINUOUS
 10
21.1745389554
 20
8.1771705659
 11
21.169797225
 21
8.2058546917
  0
LINE
  5
328
100
AcDbEntity
  8
0
100
AcDbLine
 62
7
  6
CONTINUOUS
 10
21.1555697444
 20
11.4820077577
 11
21.1517046918
 21
11.5057974165
  0
LINE
  5
329
100
AcDbEntity
  8
0
100
AcDbLine
 62
9
  6
CONTINUOUS
 10
21.1665534495
 20
8.2325842441
 11
21.167001283
 21
8.2287193485
  0
LINE
  5
32A
100
AcDbEntity
  8
0
100
AcDbLine
 62
7
  6
CONTINUOUS
 10
21.169797225
 20
8.2058546917
 11
21.1659291757
 21
8.2393967289
  0
LINE
  5
32B
100
AcDbEntity
  8
0
100
AcDbLine
 62
7
  6
CONTINUOUS
 10
21.7733323028
 20
6.9258545306
 11
21.7733311524
 21
6.92579474
  0
LINE
  5
32C
100
AcDbEntity
  8
0
100
AcDbLine
 62
7
  6
CONTINUOUS
 10
21.2493634565
 20
11.3713555056
 11
21.2467098835
 21
11.3792467822
  0
LINE
  5
32D
100
AcDbEntity
  8
0
100
AcDbLine
 62
7
  6
CONTINUOUS
 10
21.1517046918
 20
11.5057974165
 11
21.1505952194
 21
11.5099472811
  0
LWPOLYLINE
  5
32E
100
AcDbEntity
  8
0
100
AcDbPolyline
 62
7
  6
CONTINUOUS
 90
3
 70
0
 10
21.2165574896
 20
11.4185112056
 10
21.2119977954
 20
11.44295372
 10
21.209584985
 20
11.4506231196
  0
ARC
  5
32F
100
AcDbEntity
  8
0
100
AcDbCircle
 62
7
  6
CONTINUOUS
 10
5.7619119072
 20
2.4674201574
 40
0.8358828909
100
AcDbArc
 50
151.8490401611
 51
165.6621770446
  0
ARC
  5
330
100
AcDbEntity
  8
0
100
AcDbCircle
 62
7
  6
CONTINUOUS
 10
5.7953607292
 20
2.467420431
 40
0.8358821293
100
AcDbArc
 50
14.3374409644
 51
28.1509725718
  0
ARC
  5
331
100
AcDbEntity
  8
0
100
AcDbCircle
 62
7
  6
CONTINUOUS
 10
5.7601521123
 20
2.4680733629
 40
0.8340161737
100
AcDbArc
 50
165.6757152495
 51
179.9874446465
  0
ARC
  5
332
100
AcDbEntity
  8
0
100
AcDbCircle
 62
7
  6
CONTINUOUS
 10
5.7971201458
 20
2.4680734225
 40
0.8340158328
100
AcDbArc
 50
0.0125512654
 51
14.3239097086
  0
ARC
  5
333
100
AcDbEntity
  8
0
100
AcDbCircle
 62
7
  6
CONTINUOUS
 10
1.7786359587
 20
10.6986908119
 40
0.275
100
AcDbArc
 50
144.9999999999
 51
35.0000000001
  0
ARC
  5
334
100
AcDbEntity
  8
0
100
AcDbCircle
 62
7
  6
CONTINUOUS
 10
1.0687599997
 20
11.5196908119
 40
0.25
100
AcDbArc
 50
44.3699285547
 51
136.9739483152
  0
ARC
  5
335
100
AcDbEntity
  8
0
100
AcDbCircle
 62
7
  6
CONTINUOUS
 10
2.4885119176
 20
11.5196908119
 40
0.25
100
AcDbArc
 50
43.0260516848
 51
135.6300714453
  0
ARC
  5
336
100
AcDbEntity
  8
0
100
AcDbCircle
 62
7
  6
CONTINUOUS
 10
2.1401359587
 20
11.171314853
 40
0.25
100
AcDbArc
 50
134.3699285546
 51
226.9739483152
  0
ARC
  5
337
100
AcDbEntity
  8
0
100
AcDbCircle
 62
7
  6
CONTINUOUS
 10
1.4171359587
 20
11.171314853
 40
0.25
100
AcDbArc
 50
313.0260516848
 51
45.6300714454
  0
ARC
  5
338
100
AcDbEntity
  8
0
100
AcDbCircle
 62
7
  6
CONTINUOUS
 10
1.2696299825
 20
11.7161908119
 40
0.031
100
AcDbArc
 50
224.3699285546
 51
243.0698510317
  0
ARC
  5
339
100
AcDbEntity
  8
0
100
AcDbCircle
 62
7
  6
CONTINUOUS
 10
2.2876419348
 20
11.7161908119
 40
0.031
100
AcDbArc
 50
294.3172684478
 51
315.6300714454
  0
ARC
  5
33A
100
AcDbEntity
  8
0
100
AcDbCircle
 62
7
  6
CONTINUOUS
 10
1.9436359587
 20
11.3721848358
 40
0.031
100
AcDbArc
 50
314.3699285547
 51
335.1384429561
  0
ARC
  5
33B
100
AcDbEntity
  8
0
100
AcDbCircle
 62
7
  6
CONTINUOUS
 10
1.6136359587
 20
11.3721848358
 40
0.031
100
AcDbArc
 50
205.3001936052
 51
225.6300714453
  0
ARC
  5
33C
100
AcDbEntity
  8
0
100
AcDbCircle
 62
7
  6
CONTINUOUS
 10
1.8168379324
 20
11.6086908119
 40
0.024
100
AcDbArc
 50
18.2099568646
 51
90.0
  0
ARC
  5
33D
100
AcDbEntity
  8
0
100
AcDbCircle
 62
7
  6
CONTINUOUS
 10
1.8168379324
 20
11.6966908119
 40
0.024
100
AcDbArc
 50
270.0
 51
341.7900431355
  0
ARC
  5
33E
100
AcDbEntity
  8
0
100
AcDbCircle
 62
7
  6
CONTINUOUS
 10
1.8168379324
 20
11.6986908119
 40
0.024
100
AcDbArc
 50
18.2099568646
 51
90.0
  0
ARC
  5
33F
100
AcDbEntity
  8
0
100
AcDbCircle
 62
7
  6
CONTINUOUS
 10
1.8168379324
 20
11.7866908119
 40
0.024
100
AcDbArc
 50
270.0
 51
341.7900431355
  0
ARC
  5
340
100
AcDbEntity
  8
0
100
AcDbCircle
 62
7
  6
CONTINUOUS
 10
1.7354339849
 20
11.7866908119
 40
0.024
100
AcDbArc
 50
198.2099568645
 51
270.0
  0
ARC
  5
341
100
AcDbEntity
  8
0
100
AcDbCircle
 62
7
  6
CONTINUOUS
 10
1.7350803343
 20
11.6976908119
 40
0.024
100
AcDbArc
 50
90.0
 51
159.2576200451
  0
ARC
  5
342
100
AcDbEntity
  8
0
100
AcDbCircle
 62
7
  6
CONTINUOUS
 10
1.7350803343
 20
11.6976908119
 40
0.024
100
AcDbArc
 50
200.7423799549
 51
270.0
  0
ARC
  5
343
100
AcDbEntity
  8
0
100
AcDbCircle
 62
7
  6
CONTINUOUS
 10
1.7354339849
 20
11.6086908119
 40
0.024
100
AcDbArc
 50
90.0
 51
161.7900431354
  0
ARC
  5
344
100
AcDbEntity
  8
0
100
AcDbCircle
 62
7
  6
CONTINUOUS
 10
0.8451359587
 20
11.7002970836
 40
0.016
100
AcDbArc
 50
0.0
 51
125.0
  0
ARC
  5
345
100
AcDbEntity
  8
0
100
AcDbCircle
 62
7
  6
CONTINUOUS
 10
0.8743024208
 20
11.7011908119
 40
0.016
100
AcDbArc
 50
214.6234511018
 51
316.9739483152
  0
ARC
  5
346
100
AcDbEntity
  8
0
100
AcDbCircle
 62
7
  6
CONTINUOUS
 10
2.7121359587
 20
11.7002970836
 40
0.016
100
AcDbArc
 50
55.0
 51
180.0
  0
ARC
  5
347
100
AcDbEntity
  8
0
100
AcDbCircle
 62
7
  6
CONTINUOUS
 10
2.6829694965
 20
11.7011908119
 40
0.016
100
AcDbArc
 50
223.0260516848
 51
325.3765488982
  0
ARC
  5
348
100
AcDbEntity
  8
0
100
AcDbCircle
 62
7
  6
CONTINUOUS
 10
1.5986359587
 20
10.976857274
 40
0.016
100
AcDbArc
 50
133.0260516848
 51
235.3765489002
  0
ARC
  5
349
100
AcDbEntity
  8
0
100
AcDbCircle
 62
7
  6
CONTINUOUS
 10
1.9586359587
 20
10.976857274
 40
0.016
100
AcDbArc
 50
304.6234510998
 51
46.9739483152
  0
ARC
  5
34A
100
AcDbEntity
  8
0
100
AcDbCircle
 62
7
  6
CONTINUOUS
 10
1.959529687
 20
10.9476908119
 40
0.016
100
AcDbArc
 50
90.0
 51
214.9999999998
  0
ARC
  5
34B
100
AcDbEntity
  8
0
100
AcDbCircle
 62
7
  6
CONTINUOUS
 10
1.5977422303
 20
10.9476908119
 40
0.016
100
AcDbArc
 50
325.0000000002
 51
90.0
  0
ARC
  5
34C
100
AcDbEntity
  8
0
100
AcDbCircle
 62
7
  6
CONTINUOUS
 10
1.7886359587
 20
11.6786908119
 40
0.006
100
AcDbArc
 50
180.0
 51
270.0
  0
ARC
  5
34D
100
AcDbEntity
  8
0
100
AcDbCircle
 62
7
  6
CONTINUOUS
 10
1.7886359587
 20
11.7166908119
 40
0.006
100
AcDbArc
 50
90.0
 51
180.0
  0
ARC
  5
34E
100
AcDbEntity
  8
0
100
AcDbCircle
 62
7
  6
CONTINUOUS
 10
1.7590803343
 20
11.7156908119
 40
0.006
100
AcDbArc
 50
0.0
 51
90.0
  0
ARC
  5
34F
100
AcDbEntity
  8
0
100
AcDbCircle
 62
7
  6
CONTINUOUS
 10
1.7590803343
 20
11.6796908119
 40
0.006
100
AcDbArc
 50
270.0
 51
360.0
  0
ARC
  5
350
100
AcDbEntity
  8
0
100
AcDbCircle
 62
7
  6
CONTINUOUS
 10
0.5961359587
 20
11.8811908119
 40
0.275
100
AcDbArc
 50
55.0
 51
305.0
  0
ARC
  5
351
100
AcDbEntity
  8
0
100
AcDbCircle
 62
7
  6
CONTINUOUS
 10
1.7538479428
 20
12.1024935464
 40
0.0413119841
100
AcDbArc
 50
135.0000000002
 51
180.0
  0
ARC
  5
352
100
AcDbEntity
  8
0
100
AcDbCircle
 62
7
  6
CONTINUOUS
 10
1.7538479428
 20
12.0088880774
 40
0.0413119841
100
AcDbArc
 50
180.0
 51
224.9999999998
  0
ARC
  5
353
100
AcDbEntity
  8
0
100
AcDbCircle
 62
7
  6
CONTINUOUS
 10
1.2696299825
 20
12.0461908119
 40
0.031
100
AcDbArc
 50
114.3172689536
 51
135.6300714454
  0
ARC
  5
354
100
AcDbEntity
  8
0
100
AcDbCircle
 62
7
  6
CONTINUOUS
 10
0.8451359587
 20
12.0620845402
 40
0.016
100
AcDbArc
 50
235.0
 51
360.0
  0
ARC
  5
355
100
AcDbEntity
  8
0
100
AcDbCircle
 62
7
  6
CONTINUOUS
 10
0.8743024208
 20
12.0611908119
 40
0.016
100
AcDbArc
 50
43.0260516848
 51
145.3765488982
  0
ARC
  5
356
100
AcDbEntity
  8
0
100
AcDbCircle
 62
7
  6
CONTINUOUS
 10
1.7155359587
 20
12.0766908119
 40
0.003
100
AcDbArc
 50
180.0
 51
270.0
  0
ARC
  5
357
100
AcDbEntity
  8
0
100
AcDbCircle
 62
7
  6
CONTINUOUS
 10
1.7155359587
 20
12.0346908119
 40
0.003
100
AcDbArc
 50
90.0
 51
179.9999999999
  0
ARC
  5
358
100
AcDbEntity
  8
0
100
AcDbCircle
 62
7
  6
CONTINUOUS
 10
1.0687599997
 20
12.2426908119
 40
0.25
100
AcDbArc
 50
223.0260516848
 51
315.6300714453
  0
ARC
  5
359
100
AcDbEntity
  8
0
100
AcDbCircle
 62
7
  6
CONTINUOUS
 10
1.6136359587
 20
12.3901967881
 40
0.031
100
AcDbArc
 50
134.3699285547
 51
155.1384469932
  0
ARC
  5
35A
100
AcDbEntity
  8
0
100
AcDbCircle
 62
7
  6
CONTINUOUS
 10
1.7786359587
 20
11.8811908119
 40
1.18
100
AcDbArc
 50
13.3396252087
 51
76.6820710155
  0
ARC
  5
35B
100
AcDbEntity
  8
0
100
AcDbCircle
 62
7
  6
CONTINUOUS
 10
1.7786359587
 20
11.8811908119
 40
1.18
100
AcDbArc
 50
103.3185143561
 51
166.6603429148
  0
ARC
  5
35C
100
AcDbEntity
  8
0
100
AcDbCircle
 62
7
  6
CONTINUOUS
 10
1.7786359587
 20
11.8811908119
 40
1.18
100
AcDbArc
 50
193.3396252087
 51
256.6820710155
  0
ARC
  5
35D
100
AcDbEntity
  8
0
100
AcDbCircle
 62
7
  6
CONTINUOUS
 10
1.7786359587
 20
11.8811908119
 40
1.18
100
AcDbArc
 50
283.3185143561
 51
346.6603429148
  0
ARC
  5
35E
100
AcDbEntity
  8
0
100
AcDbCircle
 62
7
  6
CONTINUOUS
 10
1.7786359587
 20
11.8811908119
 40
1.0000026738
100
AcDbArc
 50
281.16482198
 51
348.83517802
  0
ARC
  5
35F
100
AcDbEntity
  8
0
100
AcDbCircle
 62
7
  6
CONTINUOUS
 10
1.7786359587
 20
11.8811908119
 40
1.0000026738
100
AcDbArc
 50
191.16482198
 51
258.83517802
  0
ARC
  5
360
100
AcDbEntity
  8
0
100
AcDbCircle
 62
7
  6
CONTINUOUS
 10
1.7786359587
 20
11.8811908119
 40
1.0000026738
100
AcDbArc
 50
101.16482198
 51
168.83517802
  0
ARC
  5
361
100
AcDbEntity
  8
0
100
AcDbCircle
 62
7
  6
CONTINUOUS
 10
1.7786359587
 20
11.8811908119
 40
1.0000026738
100
AcDbArc
 50
11.16482198
 51
78.83517802
  0
ARC
  5
362
100
AcDbEntity
  8
0
100
AcDbCircle
 62
9
  6
CONTINUOUS
 10
1.7786359587
 20
11.8811908119
 40
0.8130026738
100
AcDbArc
 50
279.1699849541
 51
350.7958820602
  0
ARC
  5
363
100
AcDbEntity
  8
0
100
AcDbCircle
 62
9
  6
CONTINUOUS
 10
1.7786359587
 20
11.8811908119
 40
0.8130026738
100
AcDbArc
 50
189.2039081191
 51
260.826768503
  0
ARC
  5
364
100
AcDbEntity
  8
0
100
AcDbCircle
 62
9
  6
CONTINUOUS
 10
1.7786359587
 20
11.8811908119
 40
0.8130026738
100
AcDbArc
 50
99.1699849541
 51
170.7958820602
  0
ARC
  5
365
100
AcDbEntity
  8
0
100
AcDbCircle
 62
9
  6
CONTINUOUS
 10
1.7786359587
 20
11.8811908119
 40
0.8130026738
100
AcDbArc
 50
9.2039081191
 51
80.826768503
  0
ARC
  5
366
100
AcDbEntity
  8
0
100
AcDbCircle
 62
7
  6
CONTINUOUS
 10
1.7786359587
 20
11.8811908119
 40
0.741
100
AcDbArc
 50
98.8354901004
 51
117.6295013938
  0
ARC
  5
367
100
AcDbEntity
  8
0
100
AcDbCircle
 62
7
  6
CONTINUOUS
 10
1.7786359587
 20
11.8811908119
 40
0.741
100
AcDbArc
 50
62.3704986062
 51
81.1645098996
  0
ARC
  5
368
100
AcDbEntity
  8
0
100
AcDbCircle
 62
7
  6
CONTINUOUS
 10
1.7786359587
 20
11.8811908119
 40
0.741
100
AcDbArc
 50
122.3704986062
 51
171.158600952
  0
ARC
  5
369
100
AcDbEntity
  8
0
100
AcDbCircle
 62
7
  6
CONTINUOUS
 10
1.7786359587
 20
11.8811908119
 40
0.741
100
AcDbArc
 50
8.841399048
 51
57.6295013938
  0
ARC
  5
36A
100
AcDbEntity
  8
0
100
AcDbCircle
 62
7
  6
CONTINUOUS
 10
1.7786359587
 20
11.8811908119
 40
0.741
100
AcDbArc
 50
278.8354901004
 51
297.6295013938
  0
ARC
  5
36B
100
AcDbEntity
  8
0
100
AcDbCircle
 62
7
  6
CONTINUOUS
 10
1.7786359587
 20
11.8811908119
 40
0.741
100
AcDbArc
 50
242.3704986062
 51
261.1645098996
  0
ARC
  5
36C
100
AcDbEntity
  8
0
100
AcDbCircle
 62
7
  6
CONTINUOUS
 10
1.7786359587
 20
11.8811908119
 40
0.741
100
AcDbArc
 50
302.3704986062
 51
351.158600952
  0
ARC
  5
36D
100
AcDbEntity
  8
0
100
AcDbCircle
 62
7
  6
CONTINUOUS
 10
1.7786359587
 20
11.8811908119
 40
0.741
100
AcDbArc
 50
188.841399048
 51
237.6295013938
  0
ARC
  5
36E
100
AcDbEntity
  8
0
100
AcDbCircle
 62
7
  6
CONTINUOUS
 10
1.7786359587
 20
11.8811908119
 40
0.6515
100
AcDbArc
 50
100.9044569725
 51
169.0906432827
  0
ARC
  5
36F
100
AcDbEntity
  8
0
100
AcDbCircle
 62
7
  6
CONTINUOUS
 10
1.7786359587
 20
11.8811908119
 40
0.6515
100
AcDbArc
 50
10.9093567173
 51
79.0955430275
  0
ARC
  5
370
100
AcDbEntity
  8
0
100
AcDbCircle
 62
7
  6
CONTINUOUS
 10
1.7786359587
 20
11.8811908119
 40
0.6515
100
AcDbArc
 50
280.9044569725
 51
349.0906432827
  0
ARC
  5
371
100
AcDbEntity
  8
0
100
AcDbCircle
 62
7
  6
CONTINUOUS
 10
1.7786359587
 20
11.8811908119
 40
0.6515
100
AcDbArc
 50
190.9093567173
 51
259.0955430275
  0
ARC
  5
372
100
AcDbEntity
  8
0
100
AcDbCircle
 62
9
  6
CONTINUOUS
 10
1.7786359587
 20
11.8811908119
 40
0.6146339942
100
AcDbArc
 50
193.2289039359
 51
256.7788648429
  0
ARC
  5
373
100
AcDbEntity
  8
0
100
AcDbCircle
 62
9
  6
CONTINUOUS
 10
1.7786359587
 20
11.8811908119
 40
0.6146339942
100
AcDbArc
 50
283.2211351571
 51
346.7710960641
  0
ARC
  5
374
100
AcDbEntity
  8
0
100
AcDbCircle
 62
9
  6
CONTINUOUS
 10
1.7786359587
 20
11.8811908119
 40
0.6146339942
100
AcDbArc
 50
13.2289039359
 51
76.7788648429
  0
ARC
  5
375
100
AcDbEntity
  8
0
100
AcDbCircle
 62
9
  6
CONTINUOUS
 10
1.7786359587
 20
11.8811908119
 40
0.6146339942
100
AcDbArc
 50
103.2211351571
 51
166.7710960641
  0
CIRCLE
  5
376
100
AcDbEntity
  8
0
100
AcDbCircle
 62
7
  6
CONTINUOUS
 10
1.7786359587
 20
11.8811908119
 40
0.5575
  0
CIRCLE
  5
377
100
AcDbEntity
  8
0
100
AcDbCircle
 62
7
  6
CONTINUOUS
 10
1.7786359587
 20
11.8811908119
 40
0.5275
  0
CIRCLE
  5
378
100
AcDbEntity
  8
0
100
AcDbCircle
 62
7
  6
CONTINUOUS
 10
1.7786359587
 20
11.8811908119
 40
0.5132341523
  0
CIRCLE
  5
379
100
AcDbEntity
  8
0
100
AcDbCircle
 62
7
  6
CONTINUOUS
 10
1.7786359587
 20
11.8811908119
 40
0.4545099561
  0
CIRCLE
  5
37A
100
AcDbEntity
  8
0
100
AcDbCircle
 62
7
  6
CONTINUOUS
 10
1.7786359587
 20
11.8811908119
 40
0.4275
  0
CIRCLE
  5
37B
100
AcDbEntity
  8
0
100
AcDbCircle
 62
7
  6
CONTINUOUS
 10
1.7786359587
 20
11.8811908119
 40
0.4175
  0
CIRCLE
  5
37C
100
AcDbEntity
  8
0
100
AcDbCircle
 62
9
  6
CONTINUOUS
 10
1.7786359587
 20
11.8811908119
 40
0.3951446396
  0
ARC
  5
37D
100
AcDbEntity
  8
0
100
AcDbCircle
 62
7
  6
CONTINUOUS
 10
1.8081756662
 20
12.0016908119
 40
0.036
100
AcDbArc
 50
29.0852950611
 51
90.0
  0
ARC
  5
37E
100
AcDbEntity
  8
0
100
AcDbCircle
 62
7
  6
CONTINUOUS
 10
1.8081756662
 20
12.1096908119
 40
0.036
100
AcDbArc
 50
270.0
 51
330.9147049389
  0
ARC
  5
37F
100
AcDbEntity
  8
0
100
AcDbCircle
 62
7
  6
CONTINUOUS
 10
2.2876419348
 20
12.0461908119
 40
0.031
100
AcDbArc
 50
44.3699285546
 51
63.0698651446
  0
ARC
  5
380
100
AcDbEntity
  8
0
100
AcDbCircle
 62
7
  6
CONTINUOUS
 10
2.9611359587
 20
11.8811908119
 40
0.275
100
AcDbArc
 50
235.0
 51
125.0
  0
ARC
  5
381
100
AcDbEntity
  8
0
100
AcDbCircle
 62
7
  6
CONTINUOUS
 10
2.7121359587
 20
12.0620845402
 40
0.016
100
AcDbArc
 50
180.0
 51
305.0
  0
ARC
  5
382
100
AcDbEntity
  8
0
100
AcDbCircle
 62
7
  6
CONTINUOUS
 10
2.6829694965
 20
12.0611908119
 40
0.016
100
AcDbArc
 50
34.6234511018
 51
136.9739483152
  0
ARC
  5
383
100
AcDbEntity
  8
0
100
AcDbCircle
 62
7
  6
CONTINUOUS
 10
2.4885119176
 20
12.2426908119
 40
0.25
100
AcDbArc
 50
224.3699285547
 51
316.9739483152
  0
ARC
  5
384
100
AcDbEntity
  8
0
100
AcDbCircle
 62
7
  6
CONTINUOUS
 10
1.9436359587
 20
12.3901967881
 40
0.031
100
AcDbArc
 50
25.3001518964
 51
45.6300714453
  0
ARC
  5
385
100
AcDbEntity
  8
0
100
AcDbCircle
 62
7
  6
CONTINUOUS
 10
1.7786359587
 20
13.0636908119
 40
0.275
100
AcDbArc
 50
324.9999999999
 51
215.0000000001
  0
ARC
  5
386
100
AcDbEntity
  8
0
100
AcDbCircle
 62
7
  6
CONTINUOUS
 10
2.1401359587
 20
12.5910667709
 40
0.25
100
AcDbArc
 50
133.0260516848
 51
225.6300714454
  0
ARC
  5
387
100
AcDbEntity
  8
0
100
AcDbCircle
 62
7
  6
CONTINUOUS
 10
1.4171359587
 20
12.5910667709
 40
0.25
100
AcDbArc
 50
314.3699285546
 51
46.9739483152
  0
ARC
  5
388
100
AcDbEntity
  8
0
100
AcDbCircle
 62
7
  6
CONTINUOUS
 10
1.959529687
 20
12.8146908119
 40
0.016
100
AcDbArc
 50
145.0000000002
 51
270.0
  0
ARC
  5
389
100
AcDbEntity
  8
0
100
AcDbCircle
 62
7
  6
CONTINUOUS
 10
1.5977422303
 20
12.8146908119
 40
0.016
100
AcDbArc
 50
270.0
 51
34.9999999998
  0
ARC
  5
38A
100
AcDbEntity
  8
0
100
AcDbCircle
 62
7
  6
CONTINUOUS
 10
1.5986359587
 20
12.7855243498
 40
0.016
100
AcDbArc
 50
124.6234510998
 51
226.9739483152
  0
ARC
  5
38B
100
AcDbEntity
  8
0
100
AcDbCircle
 62
7
  6
CONTINUOUS
 10
1.9586359587
 20
12.7855243498
 40
0.016
100
AcDbArc
 50
313.0260516848
 51
55.3765489002
  0
ARC
  5
38C
100
AcDbEntity
  8
0
100
AcDbCircle
 62
9
  6
CONTINUOUS
 10
5.7772075159
 20
11.8812577074
 40
1.1249350978
100
AcDbArc
 50
342.7507648655
 51
89.9273256408
  0
ARC
  5
38D
100
AcDbEntity
  8
0
100
AcDbCircle
 62
7
  6
CONTINUOUS
 10
9.4171359587
 20
11.171314853
 40
0.25
100
AcDbArc
 50
313.0260516848
 51
45.6300714454
  0
ARC
  5
38E
100
AcDbEntity
  8
0
100
AcDbCircle
 62
7
  6
CONTINUOUS
 10
9.5977422303
 20
10.9476908119
 40
0.016
100
AcDbArc
 50
325.0000000002
 51
90.0
  0
ARC
  5
38F
100
AcDbEntity
  8
0
100
AcDbCircle
 62
7
  6
CONTINUOUS
 10
9.5986359587
 20
10.976857274
 40
0.016
100
AcDbArc
 50
133.0260516848
 51
235.3765489001
  0
ARC
  5
390
100
AcDbEntity
  8
0
100
AcDbCircle
 62
7
  6
CONTINUOUS
 10
9.0687599997
 20
11.5196908119
 40
0.25
100
AcDbArc
 50
44.3699285547
 51
136.9739483152
  0
ARC
  5
391
100
AcDbEntity
  8
0
100
AcDbCircle
 62
7
  6
CONTINUOUS
 10
9.5549750387
 20
11.8786908119
 40
0.097
100
AcDbArc
 50
161.5590861806
 51
198.4409138194
  0
ARC
  5
392
100
AcDbEntity
  8
0
100
AcDbCircle
 62
7
  6
CONTINUOUS
 10
9.5084911705
 20
11.8631908119
 40
0.048
100
AcDbArc
 50
198.4409138194
 51
270.0
  0
ARC
  5
393
100
AcDbEntity
  8
0
100
AcDbCircle
 62
7
  6
CONTINUOUS
 10
9.6136359587
 20
11.3721848358
 40
0.031
100
AcDbArc
 50
204.3172689523
 51
225.6300714453
  0
ARC
  5
394
100
AcDbEntity
  8
0
100
AcDbCircle
 62
7
  6
CONTINUOUS
 10
9.2696299825
 20
11.7161908119
 40
0.031
100
AcDbArc
 50
224.3699285539
 51
245.1384469919
  0
ARC
  5
395
100
AcDbEntity
  8
0
100
AcDbCircle
 62
7
  6
CONTINUOUS
 10
9.6811359587
 20
11.8439614567
 40
0.03
100
AcDbArc
 50
286.4592496283
 51
360.0
  0
ARC
  5
396
100
AcDbEntity
  8
0
100
AcDbCircle
 62
7
  6
CONTINUOUS
 10
9.7771359587
 20
11.8439614567
 40
0.03
100
AcDbArc
 50
180.0
 51
253.5407503717
  0
ARC
  5
397
100
AcDbEntity
  8
0
100
AcDbCircle
 62
7
  6
CONTINUOUS
 10
9.5966359587
 20
11.8313153274
 40
0.018
100
AcDbArc
 50
180.0
 51
243.6122000388
  0
ARC
  5
398
100
AcDbEntity
  8
0
100
AcDbCircle
 62
7
  6
CONTINUOUS
 10
8.8451359587
 20
11.7002970836
 40
0.016
100
AcDbArc
 50
0.0
 51
125.000000001
  0
ARC
  5
399
100
AcDbEntity
  8
0
100
AcDbCircle
 62
7
  6
CONTINUOUS
 10
8.8743024208
 20
11.7011908119
 40
0.016
100
AcDbArc
 50
214.6234511005
 51
316.9739483164
  0
ARC
  5
39A
100
AcDbEntity
  8
0
100
AcDbCircle
 62
7
  6
CONTINUOUS
 10
9.5363540783
 20
11.8211908119
 40
0.006
100
AcDbArc
 50
270.0
 51
360.0
  0
ARC
  5
39B
100
AcDbEntity
  8
0
100
AcDbCircle
 62
7
  6
CONTINUOUS
 10
9.7786359587
 20
10.6986908119
 40
0.275
100
AcDbArc
 50
145.0
 51
35.0
  0
ARC
  5
39C
100
AcDbEntity
  8
0
100
AcDbCircle
 62
7
  6
CONTINUOUS
 10
10.1401359587
 20
11.171314853
 40
0.25
100
AcDbArc
 50
134.3699285546
 51
226.9739483152
  0
ARC
  5
39D
100
AcDbEntity
  8
0
100
AcDbCircle
 62
7
  6
CONTINUOUS
 10
9.959529687
 20
10.9476908119
 40
0.016
100
AcDbArc
 50
90.0
 51
214.9999999998
  0
ARC
  5
39E
100
AcDbEntity
  8
0
100
AcDbCircle
 62
7
  6
CONTINUOUS
 10
9.9586359587
 20
10.976857274
 40
0.016
100
AcDbArc
 50
304.6234510999
 51
46.9739483152
  0
ARC
  5
39F
100
AcDbEntity
  8
0
100
AcDbCircle
 62
7
  6
CONTINUOUS
 10
10.4885119176
 20
11.5196908119
 40
0.25
100
AcDbArc
 50
43.0260516848
 51
135.6300714453
  0
ARC
  5
3A0
100
AcDbEntity
  8
0
100
AcDbCircle
 62
7
  6
CONTINUOUS
 10
10.0413421873
 20
11.8773266307
 40
0.0888641812
100
AcDbArc
 50
44.2338173194
 51
156.845901431
  0
ARC
  5
3A1
100
AcDbEntity
  8
0
100
AcDbCircle
 62
7
  6
CONTINUOUS
 10
10.0016359587
 20
11.8805701828
 40
0.085
100
AcDbArc
 50
338.3999655657
 51
21.6000344343
  0
ARC
  5
3A2
100
AcDbEntity
  8
0
100
AcDbCircle
 62
7
  6
CONTINUOUS
 10
10.0439917972
 20
11.8773266307
 40
0.0697243244
100
AcDbArc
 50
195.9292215989
 51
211.263668006
  0
ARC
  5
3A3
100
AcDbEntity
  8
0
100
AcDbCircle
 62
7
  6
CONTINUOUS
 10
10.0328312389
 20
11.8809663597
 40
0.061607623
100
AcDbArc
 50
76.3709027898
 51
156.845901431
  0
ARC
  5
3A4
100
AcDbEntity
  8
0
100
AcDbCircle
 62
7
  6
CONTINUOUS
 10
10.0305068563
 20
11.8691393657
 40
0.0539485538
100
AcDbArc
 50
211.2636680057
 51
338.3999655655
  0
ARC
  5
3A5
100
AcDbEntity
  8
0
100
AcDbCircle
 62
7
  6
CONTINUOUS
 10
9.9436359587
 20
11.3721848358
 40
0.031
100
AcDbArc
 50
314.3699285547
 51
333.0698510328
  0
ARC
  5
3A6
100
AcDbEntity
  8
0
100
AcDbCircle
 62
7
  6
CONTINUOUS
 10
10.2876419348
 20
11.7161908119
 40
0.031
100
AcDbArc
 50
295.3001936065
 51
315.6300714461
  0
ARC
  5
3A7
100
AcDbEntity
  8
0
100
AcDbCircle
 62
7
  6
CONTINUOUS
 10
10.6829694965
 20
11.7011908119
 40
0.016
100
AcDbArc
 50
223.0260516836
 51
325.3765488995
  0
ARC
  5
3A8
100
AcDbEntity
  8
0
100
AcDbCircle
 62
7
  6
CONTINUOUS
 10
10.7121359587
 20
11.7002970836
 40
0.016
100
AcDbArc
 50
54.999999999
 51
180.0
  0
ARC
  5
3A9
100
AcDbEntity
  8
0
100
AcDbCircle
 62
7
  6
CONTINUOUS
 10
9.9996359587
 20
11.7971908119
 40
0.006
100
AcDbArc
 50
72.3178031517
 51
180.0
  0
ARC
  5
3AA
100
AcDbEntity
  8
0
100
AcDbCircle
 62
7
  6
CONTINUOUS
 10
5.7786359587
 20
11.8811908119
 40
1.425
100
AcDbArc
 50
312.4641057223
 51
227.538807799
  0
ARC
  5
3AB
100
AcDbEntity
  8
0
100
AcDbCircle
 62
9
  6
CONTINUOUS
 10
5.7786359587
 20
11.8811908119
 40
1.2931676647
100
AcDbArc
 50
319.9673280829
 51
220.0063181531
  0
ARC
  5
3AC
100
AcDbEntity
  8
0
100
AcDbCircle
 62
7
  6
CONTINUOUS
 10
5.7786359587
 20
11.8811908119
 40
1.253
100
AcDbArc
 50
323.1940327068
 51
216.8068841373
  0
ARC
  5
3AD
100
AcDbEntity
  8
0
100
AcDbCircle
 62
9
  6
CONTINUOUS
 10
5.7800638747
 20
11.8812584498
 40
1.1249342564
100
AcDbArc
 50
90.0727274992
 51
197.0195324189
  0
ARC
  5
3AE
100
AcDbEntity
  8
0
100
AcDbCircle
 62
7
  6
CONTINUOUS
 10
8.5961359587
 20
11.8811908119
 40
0.275
100
AcDbArc
 50
54.9999999999
 51
305.0000000001
  0
ARC
  5
3AF
100
AcDbEntity
  8
0
100
AcDbCircle
 62
7
  6
CONTINUOUS
 10
9.5041359587
 20
11.8816908119
 40
0.0845
100
AcDbArc
 50
90.0
 51
270.0
  0
ARC
  5
3B0
100
AcDbEntity
  8
0
100
AcDbCircle
 62
7
  6
CONTINUOUS
 10
9.5084911705
 20
11.8941908119
 40
0.048
100
AcDbArc
 50
90.0
 51
161.5590861805
  0
ARC
  5
3B1
100
AcDbEntity
  8
0
100
AcDbCircle
 62
7
  6
CONTINUOUS
 10
9.2696299825
 20
12.0461908119
 40
0.031
100
AcDbArc
 50
115.3001518977
 51
135.6300714461
  0
ARC
  5
3B2
100
AcDbEntity
  8
0
100
AcDbCircle
 62
7
  6
CONTINUOUS
 10
9.7771359587
 20
11.9134201672
 40
0.03
100
AcDbArc
 50
106.4592496282
 51
180.0
  0
ARC
  5
3B3
100
AcDbEntity
  8
0
100
AcDbCircle
 62
7
  6
CONTINUOUS
 10
9.6571359587
 20
11.9134201672
 40
0.03
100
AcDbArc
 50
90.0
 51
148.8157171748
  0
ARC
  5
3B4
100
AcDbEntity
  8
0
100
AcDbCircle
 62
7
  6
CONTINUOUS
 10
9.6811359587
 20
11.9134201672
 40
0.03
100
AcDbArc
 50
0.0
 51
90.0
  0
ARC
  5
3B5
100
AcDbEntity
  8
0
100
AcDbCircle
 62
7
  6
CONTINUOUS
 10
9.5966359587
 20
11.9260662964
 40
0.018
100
AcDbArc
 50
116.3877999612
 51
180.0
  0
ARC
  5
3B6
100
AcDbEntity
  8
0
100
AcDbCircle
 62
7
  6
CONTINUOUS
 10
8.8451359587
 20
12.0620845402
 40
0.016
100
AcDbArc
 50
234.999999999
 51
360.0
  0
ARC
  5
3B7
100
AcDbEntity
  8
0
100
AcDbCircle
 62
7
  6
CONTINUOUS
 10
8.8743024208
 20
12.0611908119
 40
0.016
100
AcDbArc
 50
43.0260516836
 51
145.3765488995
  0
ARC
  5
3B8
100
AcDbEntity
  8
0
100
AcDbCircle
 62
7
  6
CONTINUOUS
 10
9.5363540783
 20
11.9361908119
 40
0.006
100
AcDbArc
 50
0.0
 51
90.0
  0
ARC
  5
3B9
100
AcDbEntity
  8
0
100
AcDbCircle
 62
7
  6
CONTINUOUS
 10
9.0687599997
 20
12.2426908119
 40
0.25
100
AcDbArc
 50
223.0260516848
 51
315.6300714453
  0
ARC
  5
3BA
100
AcDbEntity
  8
0
100
AcDbCircle
 62
7
  6
CONTINUOUS
 10
9.6136359587
 20
12.3901967881
 40
0.031
100
AcDbArc
 50
134.3699285547
 51
153.0698651458
  0
ARC
  5
3BB
100
AcDbEntity
  8
0
100
AcDbCircle
 62
7
  6
CONTINUOUS
 10
9.7786359587
 20
11.8811908119
 40
1.18
100
AcDbArc
 50
13.3396252087
 51
76.6820710155
  0
ARC
  5
3BC
100
AcDbEntity
  8
0
100
AcDbCircle
 62
7
  6
CONTINUOUS
 10
9.7786359587
 20
11.8811908119
 40
1.18
100
AcDbArc
 50
103.3185143561
 51
166.6603429148
  0
ARC
  5
3BD
100
AcDbEntity
  8
0
100
AcDbCircle
 62
7
  6
CONTINUOUS
 10
9.7786359587
 20
11.8811908119
 40
1.18
100
AcDbArc
 50
193.3396252087
 51
256.6820710155
  0
ARC
  5
3BE
100
AcDbEntity
  8
0
100
AcDbCircle
 62
7
  6
CONTINUOUS
 10
9.7786359587
 20
11.8811908119
 40
1.18
100
AcDbArc
 50
283.3185143561
 51
346.6603429148
  0
ARC
  5
3BF
100
AcDbEntity
  8
0
100
AcDbCircle
 62
7
  6
CONTINUOUS
 10
9.7786359587
 20
11.8811908119
 40
1.0000026738
100
AcDbArc
 50
281.16482198
 51
348.83517802
  0
ARC
  5
3C0
100
AcDbEntity
  8
0
100
AcDbCircle
 62
7
  6
CONTINUOUS
 10
9.7786359587
 20
11.8811908119
 40
1.0000026738
100
AcDbArc
 50
191.16482198
 51
258.83517802
  0
ARC
  5
3C1
100
AcDbEntity
  8
0
100
AcDbCircle
 62
7
  6
CONTINUOUS
 10
9.7786359587
 20
11.8811908119
 40
1.0000026738
100
AcDbArc
 50
101.16482198
 51
168.83517802
  0
ARC
  5
3C2
100
AcDbEntity
  8
0
100
AcDbCircle
 62
7
  6
CONTINUOUS
 10
9.7786359587
 20
11.8811908119
 40
1.0000026738
100
AcDbArc
 50
11.16482198
 51
78.83517802
  0
ARC
  5
3C3
100
AcDbEntity
  8
0
100
AcDbCircle
 62
9
  6
CONTINUOUS
 10
9.7786359587
 20
11.8811908119
 40
0.8130026738
100
AcDbArc
 50
279.1749516451
 51
350.80222144
  0
ARC
  5
3C4
100
AcDbEntity
  8
0
100
AcDbCircle
 62
9
  6
CONTINUOUS
 10
9.7786359587
 20
11.8811908119
 40
0.8130026738
100
AcDbArc
 50
189.1976167995
 51
260.8217893733
  0
ARC
  5
3C5
100
AcDbEntity
  8
0
100
AcDbCircle
 62
9
  6
CONTINUOUS
 10
9.7786359587
 20
11.8811908119
 40
0.8130026738
100
AcDbArc
 50
99.1749516451
 51
170.80222144
  0
ARC
  5
3C6
100
AcDbEntity
  8
0
100
AcDbCircle
 62
9
  6
CONTINUOUS
 10
9.7786359587
 20
11.8811908119
 40
0.8130026738
100
AcDbArc
 50
9.1976167995
 51
80.8217893733
  0
ARC
  5
3C7
100
AcDbEntity
  8
0
100
AcDbCircle
 62
7
  6
CONTINUOUS
 10
9.7786359587
 20
11.8811908119
 40
0.741
100
AcDbArc
 50
98.8288345053
 51
117.6295013938
  0
ARC
  5
3C8
100
AcDbEntity
  8
0
100
AcDbCircle
 62
7
  6
CONTINUOUS
 10
9.7786359587
 20
11.8811908119
 40
0.741
100
AcDbArc
 50
62.3704986062
 51
81.1711654947
  0
ARC
  5
3C9
100
AcDbEntity
  8
0
100
AcDbCircle
 62
7
  6
CONTINUOUS
 10
9.7786359587
 20
11.8811908119
 40
0.741
100
AcDbArc
 50
188.8493409489
 51
237.6295013938
  0
ARC
  5
3CA
100
AcDbEntity
  8
0
100
AcDbCircle
 62
7
  6
CONTINUOUS
 10
9.7786359587
 20
11.8811908119
 40
0.741
100
AcDbArc
 50
122.3704986062
 51
171.1506590511
  0
ARC
  5
3CB
100
AcDbEntity
  8
0
100
AcDbCircle
 62
7
  6
CONTINUOUS
 10
9.7786359587
 20
11.8811908119
 40
0.741
100
AcDbArc
 50
8.8493409489
 51
57.6295013938
  0
ARC
  5
3CC
100
AcDbEntity
  8
0
100
AcDbCircle
 62
7
  6
CONTINUOUS
 10
9.7786359587
 20
11.8811908119
 40
0.741
100
AcDbArc
 50
278.8288345053
 51
297.6295013938
  0
ARC
  5
3CD
100
AcDbEntity
  8
0
100
AcDbCircle
 62
7
  6
CONTINUOUS
 10
9.7786359587
 20
11.8811908119
 40
0.741
100
AcDbArc
 50
242.3704986062
 51
261.1711654947
  0
ARC
  5
3CE
100
AcDbEntity
  8
0
100
AcDbCircle
 62
7
  6
CONTINUOUS
 10
9.7786359587
 20
11.8811908119
 40
0.741
100
AcDbArc
 50
302.3704986062
 51
351.1506590511
  0
ARC
  5
3CF
100
AcDbEntity
  8
0
100
AcDbCircle
 62
7
  6
CONTINUOUS
 10
9.7786359587
 20
11.8811908119
 40
0.6515
100
AcDbArc
 50
100.9093567173
 51
169.0955430275
  0
ARC
  5
3D0
100
AcDbEntity
  8
0
100
AcDbCircle
 62
7
  6
CONTINUOUS
 10
9.7786359587
 20
11.8811908119
 40
0.6515
100
AcDbArc
 50
10.9044569725
 51
79.0906432827
  0
ARC
  5
3D1
100
AcDbEntity
  8
0
100
AcDbCircle
 62
7
  6
CONTINUOUS
 10
9.7786359587
 20
11.8811908119
 40
0.6515
100
AcDbArc
 50
280.9093567173
 51
349.0955430275
  0
ARC
  5
3D2
100
AcDbEntity
  8
0
100
AcDbCircle
 62
7
  6
CONTINUOUS
 10
9.7786359587
 20
11.8811908119
 40
0.6515
100
AcDbArc
 50
190.9044569725
 51
259.0906432827
  0
ARC
  5
3D3
100
AcDbEntity
  8
0
100
AcDbCircle
 62
9
  6
CONTINUOUS
 10
9.7786359587
 20
11.8811908119
 40
0.6146339942
100
AcDbArc
 50
193.2211351571
 51
256.7710960641
  0
ARC
  5
3D4
100
AcDbEntity
  8
0
100
AcDbCircle
 62
9
  6
CONTINUOUS
 10
9.7786359587
 20
11.8811908119
 40
0.6146339942
100
AcDbArc
 50
283.2289039359
 51
346.7788648429
  0
ARC
  5
3D5
100
AcDbEntity
  8
0
100
AcDbCircle
 62
9
  6
CONTINUOUS
 10
9.7786359587
 20
11.8811908119
 40
0.6146339942
100
AcDbArc
 50
13.2211351571
 51
76.7710960641
  0
ARC
  5
3D6
100
AcDbEntity
  8
0
100
AcDbCircle
 62
9
  6
CONTINUOUS
 10
9.7786359587
 20
11.8811908119
 40
0.6146339942
100
AcDbArc
 50
103.2289039359
 51
166.7788648429
  0
CIRCLE
  5
3D7
100
AcDbEntity
  8
0
100
AcDbCircle
 62
7
  6
CONTINUOUS
 10
9.7786359587
 20
11.8811908119
 40
0.5575
  0
CIRCLE
  5
3D8
100
AcDbEntity
  8
0
100
AcDbCircle
 62
7
  6
CONTINUOUS
 10
9.7786359587
 20
11.8811908119
 40
0.5275
  0
CIRCLE
  5
3D9
100
AcDbEntity
  8
0
100
AcDbCircle
 62
7
  6
CONTINUOUS
 10
9.7786359587
 20
11.8811908119
 40
0.5132341523
  0
CIRCLE
  5
3DA
100
AcDbEntity
  8
0
100
AcDbCircle
 62
7
  6
CONTINUOUS
 10
9.7786359587
 20
11.8811908119
 40
0.4545099561
  0
CIRCLE
  5
3DB
100
AcDbEntity
  8
0
100
AcDbCircle
 62
7
  6
CONTINUOUS
 10
9.7786359587
 20
11.8811908119
 40
0.4275
  0
CIRCLE
  5
3DC
100
AcDbEntity
  8
0
100
AcDbCircle
 62
7
  6
CONTINUOUS
 10
9.7786359587
 20
11.8811908119
 40
0.4175
  0
CIRCLE
  5
3DD
100
AcDbEntity
  8
0
100
AcDbCircle
 62
9
  6
CONTINUOUS
 10
9.7786359587
 20
11.8811908119
 40
0.3951446566
  0
ARC
  5
3DE
100
AcDbEntity
  8
0
100
AcDbCircle
 62
7
  6
CONTINUOUS
 10
10.0453111224
 20
11.8811908119
 40
0.0833248363
100
AcDbArc
 50
280.8633887079
 51
44.2338173196
  0
ARC
  5
3DF
100
AcDbEntity
  8
0
100
AcDbCircle
 62
7
  6
CONTINUOUS
 10
10.0360376804
 20
11.8941908119
 40
0.048
100
AcDbArc
 50
21.6000344343
 51
76.3709027895
  0
ARC
  5
3E0
100
AcDbEntity
  8
0
100
AcDbCircle
 62
7
  6
CONTINUOUS
 10
10.0382105617
 20
11.9181908119
 40
0.121
100
AcDbArc
 50
252.3178031512
 51
280.8633887081
  0
ARC
  5
3E1
100
AcDbEntity
  8
0
100
AcDbCircle
 62
7
  6
CONTINUOUS
 10
10.2876419348
 20
12.0461908119
 40
0.031
100
AcDbArc
 50
44.3699285539
 51
65.1384429549
  0
ARC
  5
3E2
100
AcDbEntity
  8
0
100
AcDbCircle
 62
7
  6
CONTINUOUS
 10
10.9611359587
 20
11.8811908119
 40
0.275
100
AcDbArc
 50
234.9999999999
 51
125.0000000001
  0
ARC
  5
3E3
100
AcDbEntity
  8
0
100
AcDbCircle
 62
7
  6
CONTINUOUS
 10
10.6829694965
 20
12.0611908119
 40
0.016
100
AcDbArc
 50
34.6234511005
 51
136.9739483164
  0
ARC
  5
3E4
100
AcDbEntity
  8
0
100
AcDbCircle
 62
7
  6
CONTINUOUS
 10
10.7121359587
 20
12.0620845402
 40
0.016
100
AcDbArc
 50
180.0
 51
305.000000001
  0
ARC
  5
3E5
100
AcDbEntity
  8
0
100
AcDbCircle
 62
7
  6
CONTINUOUS
 10
10.4885119176
 20
12.2426908119
 40
0.25
100
AcDbArc
 50
224.3699285547
 51
316.9739483152
  0
ARC
  5
3E6
100
AcDbEntity
  8
0
100
AcDbCircle
 62
7
  6
CONTINUOUS
 10
9.9436359587
 20
12.3901967881
 40
0.031
100
AcDbArc
 50
24.3172684466
 51
45.6300714453
  0
ARC
  5
3E7
100
AcDbEntity
  8
0
100
AcDbCircle
 62
7
  6
CONTINUOUS
 10
9.7786359587
 20
13.0636908119
 40
0.275
100
AcDbArc
 50
325.0
 51
215.0
  0
ARC
  5
3E8
100
AcDbEntity
  8
0
100
AcDbCircle
 62
7
  6
CONTINUOUS
 10
9.4171359587
 20
12.5910667709
 40
0.25
100
AcDbArc
 50
314.3699285546
 51
46.9739483152
  0
ARC
  5
3E9
100
AcDbEntity
  8
0
100
AcDbCircle
 62
7
  6
CONTINUOUS
 10
10.1401359587
 20
12.5910667709
 40
0.25
100
AcDbArc
 50
133.0260516848
 51
225.6300714454
  0
ARC
  5
3EA
100
AcDbEntity
  8
0
100
AcDbCircle
 62
7
  6
CONTINUOUS
 10
9.5977422303
 20
12.8146908119
 40
0.016
100
AcDbArc
 50
270.0
 51
34.9999999998
  0
ARC
  5
3EB
100
AcDbEntity
  8
0
100
AcDbCircle
 62
7
  6
CONTINUOUS
 10
9.959529687
 20
12.8146908119
 40
0.016
100
AcDbArc
 50
145.0000000002
 51
270.0
  0
ARC
  5
3EC
100
AcDbEntity
  8
0
100
AcDbCircle
 62
7
  6
CONTINUOUS
 10
9.9586359587
 20
12.7855243498
 40
0.016
100
AcDbArc
 50
313.0260516848
 51
55.3765489001
  0
ARC
  5
3ED
100
AcDbEntity
  8
0
100
AcDbCircle
 62
7
  6
CONTINUOUS
 10
9.5986359587
 20
12.7855243498
 40
0.016
100
AcDbArc
 50
124.6234510999
 51
226.9739483152
  0
ARC
  5
3EE
100
AcDbEntity
  8
0
100
AcDbCircle
 62
9
  6
CONTINUOUS
 10
20.914227605
 20
4.7606157028
 40
2.4536609194
100
AcDbArc
 50
76.2143997724
 51
77.7918436095
  0
ARC
  5
3EF
100
AcDbEntity
  8
0
100
AcDbCircle
 62
9
  6
CONTINUOUS
 10
20.6419033306
 20
4.7657547001
 40
2.4483957824
100
AcDbArc
 50
102.2073851917
 51
103.7883395199
  0
ARC
  5
3F0
100
AcDbEntity
  8
0
100
AcDbCircle
 62
7
  6
CONTINUOUS
 10
20.262486033
 20
7.5465907884
 40
0.2403332192
100
AcDbArc
 50
104.558674157
 51
106.9407915325
  0
ARC
  5
3F1
100
AcDbEntity
  8
0
100
AcDbCircle
 62
7
  6
CONTINUOUS
 10
21.2947859006
 20
7.5465908093
 40
0.2403331952
100
AcDbArc
 50
73.0592102711
 51
75.441329522
  0
ARC
  5
3F2
100
AcDbEntity
  8
0
100
AcDbCircle
 62
7
  6
CONTINUOUS
 10
15.4171359587
 20
11.171314853
 40
0.25
100
AcDbArc
 50
313.0260516848
 51
45.6300714454
  0
ARC
  5
3F3
100
AcDbEntity
  8
0
100
AcDbCircle
 62
7
  6
CONTINUOUS
 10
15.0687599997
 20
11.5196908119
 40
0.25
100
AcDbArc
 50
44.3699285547
 51
136.9739483152
  0
ARC
  5
3F4
100
AcDbEntity
  8
0
100
AcDbCircle
 62
7
  6
CONTINUOUS
 10
15.6136359587
 20
11.3721848358
 40
0.031
100
AcDbArc
 50
205.3001936052
 51
225.6300714453
  0
ARC
  5
3F5
100
AcDbEntity
  8
0
100
AcDbCircle
 62
7
  6
CONTINUOUS
 10
15.2696299825
 20
11.7161908119
 40
0.031
100
AcDbArc
 50
224.3699285546
 51
243.0698510317
  0
ARC
  5
3F6
100
AcDbEntity
  8
0
100
AcDbCircle
 62
7
  6
CONTINUOUS
 10
15.5986359587
 20
10.976857274
 40
0.016
100
AcDbArc
 50
133.0260516848
 51
235.3765489002
  0
ARC
  5
3F7
100
AcDbEntity
  8
0
100
AcDbCircle
 62
7
  6
CONTINUOUS
 10
15.5977422303
 20
10.9476908119
 40
0.016
100
AcDbArc
 50
325.0000000002
 51
90.0
  0
ARC
  5
3F8
100
AcDbEntity
  8
0
100
AcDbCircle
 62
7
  6
CONTINUOUS
 10
14.8451359587
 20
11.7002970836
 40
0.016
100
AcDbArc
 50
0.0
 51
125.0
  0
ARC
  5
3F9
100
AcDbEntity
  8
0
100
AcDbCircle
 62
7
  6
CONTINUOUS
 10
14.8743024208
 20
11.7011908119
 40
0.016
100
AcDbArc
 50
214.6234511018
 51
316.9739483152
  0
ARC
  5
3FA
100
AcDbEntity
  8
0
100
AcDbCircle
 62
7
  6
CONTINUOUS
 10
15.3335237692
 20
12.8718660353
 40
1.02
100
AcDbArc
 50
287.7161161373
 51
309.4712949163
  0
ARC
  5
3FB
100
AcDbEntity
  8
0
100
AcDbCircle
 62
7
  6
CONTINUOUS
 10
15.3335237692
 20
12.8718660353
 40
1.0
100
AcDbArc
 50
286.8875681082
 51
309.4712949162
  0
ARC
  5
3FC
100
AcDbEntity
  8
0
100
AcDbCircle
 62
7
  6
CONTINUOUS
 10
14.5961359587
 20
11.8811908119
 40
0.275
100
AcDbArc
 50
55.0
 51
305.0
  0
ARC
  5
3FD
100
AcDbEntity
  8
0
100
AcDbCircle
 62
7
  6
CONTINUOUS
 10
15.0687599997
 20
12.2426908119
 40
0.25
100
AcDbArc
 50
223.0260516848
 51
315.6300714453
  0
ARC
  5
3FE
100
AcDbEntity
  8
0
100
AcDbCircle
 62
7
  6
CONTINUOUS
 10
15.4171359587
 20
12.5910667709
 40
0.25
100
AcDbArc
 50
314.3699285546
 51
46.9739483152
  0
ARC
  5
3FF
100
AcDbEntity
  8
0
100
AcDbCircle
 62
7
  6
CONTINUOUS
 10
15.2696299825
 20
12.0461908119
 40
0.031
100
AcDbArc
 50
114.3172689536
 51
135.6300714454
  0
ARC
  5
400
100
AcDbEntity
  8
0
100
AcDbCircle
 62
7
  6
CONTINUOUS
 10
15.6136359587
 20
12.3901967881
 40
0.031
100
AcDbArc
 50
134.3699285547
 51
155.1384469932
  0
ARC
  5
401
100
AcDbEntity
  8
0
100
AcDbCircle
 62
7
  6
CONTINUOUS
 10
14.8451359587
 20
12.0620845402
 40
0.016
100
AcDbArc
 50
235.0
 51
360.0
  0
ARC
  5
402
100
AcDbEntity
  8
0
100
AcDbCircle
 62
7
  6
CONTINUOUS
 10
14.8743024208
 20
12.0611908119
 40
0.016
100
AcDbArc
 50
43.0260516848
 51
145.3765488982
  0
ARC
  5
403
100
AcDbEntity
  8
0
100
AcDbCircle
 62
7
  6
CONTINUOUS
 10
15.5977422303
 20
12.8146908119
 40
0.016
100
AcDbArc
 50
270.0
 51
34.9999999998
  0
ARC
  5
404
100
AcDbEntity
  8
0
100
AcDbCircle
 62
7
  6
CONTINUOUS
 10
15.5986359587
 20
12.7855243498
 40
0.016
100
AcDbArc
 50
124.6234510998
 51
226.9739483152
  0
ARC
  5
405
100
AcDbEntity
  8
0
100
AcDbCircle
 62
7
  6
CONTINUOUS
 10
15.6283757677
 20
11.9006362484
 40
0.015
100
AcDbArc
 50
106.8875681087
 51
249.7650408544
  0
ARC
  5
406
100
AcDbEntity
  8
0
100
AcDbCircle
 62
7
  6
CONTINUOUS
 10
16.7693111821
 20
11.4360786224
 40
1.02
100
AcDbArc
 50
140.5287050838
 51
162.2838838627
  0
ARC
  5
407
100
AcDbEntity
  8
0
100
AcDbCircle
 62
7
  6
CONTINUOUS
 10
16.7693111821
 20
11.4360786224
 40
1.0
100
AcDbArc
 50
140.5287050839
 51
163.1124318919
  0
ARC
  5
408
100
AcDbEntity
  8
0
100
AcDbCircle
 62
7
  6
CONTINUOUS
 10
15.7786359587
 20
10.6986908119
 40
0.275
100
AcDbArc
 50
144.9999999999
 51
35.0000000001
  0
ARC
  5
409
100
AcDbEntity
  8
0
100
AcDbCircle
 62
7
  6
CONTINUOUS
 10
16.4885119176
 20
11.5196908119
 40
0.25
100
AcDbArc
 50
43.0260516851
 51
135.6300714447
  0
ARC
  5
40A
100
AcDbEntity
  8
0
100
AcDbCircle
 62
7
  6
CONTINUOUS
 10
16.1401359587
 20
11.171314853
 40
0.25
100
AcDbArc
 50
134.3699285546
 51
226.9739483152
  0
ARC
  5
40B
100
AcDbEntity
  8
0
100
AcDbCircle
 62
7
  6
CONTINUOUS
 10
16.2876419348
 20
11.7161908119
 40
0.031
100
AcDbArc
 50
294.3172684355
 51
315.6300714422
  0
ARC
  5
40C
100
AcDbEntity
  8
0
100
AcDbCircle
 62
7
  6
CONTINUOUS
 10
15.9436359587
 20
11.3721848358
 40
0.031
100
AcDbArc
 50
314.3699285547
 51
335.1384429557
  0
ARC
  5
40D
100
AcDbEntity
  8
0
100
AcDbCircle
 62
7
  6
CONTINUOUS
 10
16.7121359587
 20
11.7002970836
 40
0.016
100
AcDbArc
 50
55.0000000049
 51
180.0
  0
ARC
  5
40E
100
AcDbEntity
  8
0
100
AcDbCircle
 62
7
  6
CONTINUOUS
 10
16.6829694965
 20
11.7011908119
 40
0.016
100
AcDbArc
 50
223.0260517007
 51
325.3765489036
  0
ARC
  5
40F
100
AcDbEntity
  8
0
100
AcDbCircle
 62
7
  6
CONTINUOUS
 10
15.9586359587
 20
10.976857274
 40
0.016
100
AcDbArc
 50
304.6234510998
 51
46.9739483152
  0
ARC
  5
410
100
AcDbEntity
  8
0
100
AcDbCircle
 62
7
  6
CONTINUOUS
 10
15.959529687
 20
10.9476908119
 40
0.016
100
AcDbArc
 50
90.0
 51
214.9999999998
  0
ARC
  5
411
100
AcDbEntity
  8
0
100
AcDbCircle
 62
7
  6
CONTINUOUS
 10
15.7980813951
 20
11.7309306209
 40
0.015
100
AcDbArc
 50
200.2349591514
 51
343.1124318914
  0
ARC
  5
412
100
AcDbEntity
  8
0
100
AcDbCircle
 62
7
  6
CONTINUOUS
 10
15.7786359587
 20
11.8811908119
 40
1.18
100
AcDbArc
 50
193.3396252087
 51
256.6820710155
  0
ARC
  5
413
100
AcDbEntity
  8
0
100
AcDbCircle
 62
7
  6
CONTINUOUS
 10
15.7786359587
 20
11.8811908119
 40
1.18
100
AcDbArc
 50
283.3185143561
 51
346.6603429148
  0
ARC
  5
414
100
AcDbEntity
  8
0
100
AcDbCircle
 62
7
  6
CONTINUOUS
 10
15.7786359587
 20
11.8811908119
 40
1.18
100
AcDbArc
 50
13.3396252087
 51
76.6820710155
  0
ARC
  5
415
100
AcDbEntity
  8
0
100
AcDbCircle
 62
7
  6
CONTINUOUS
 10
15.7786359587
 20
11.8811908119
 40
1.18
100
AcDbArc
 50
103.3185143561
 51
166.6603429148
  0
ARC
  5
416
100
AcDbEntity
  8
0
100
AcDbCircle
 62
7
  6
CONTINUOUS
 10
15.7786359587
 20
11.8811908119
 40
1.0000026738
100
AcDbArc
 50
281.16482198
 51
348.8351780199
  0
ARC
  5
417
100
AcDbEntity
  8
0
100
AcDbCircle
 62
7
  6
CONTINUOUS
 10
15.7786359587
 20
11.8811908119
 40
1.0000026738
100
AcDbArc
 50
191.16482198
 51
258.83517802
  0
ARC
  5
418
100
AcDbEntity
  8
0
100
AcDbCircle
 62
7
  6
CONTINUOUS
 10
15.7786359587
 20
11.8811908119
 40
1.0000026738
100
AcDbArc
 50
101.16482198
 51
168.83517802
  0
ARC
  5
419
100
AcDbEntity
  8
0
100
AcDbCircle
 62
7
  6
CONTINUOUS
 10
15.7786359587
 20
11.8811908119
 40
1.0000026738
100
AcDbArc
 50
11.1648219801
 51
78.83517802
  0
ARC
  5
41A
100
AcDbEntity
  8
0
100
AcDbCircle
 62
9
  6
CONTINUOUS
 10
15.7786359587
 20
11.8811908119
 40
0.8130026738
100
AcDbArc
 50
99.1699849541
 51
170.7958820602
  0
ARC
  5
41B
100
AcDbEntity
  8
0
100
AcDbCircle
 62
9
  6
CONTINUOUS
 10
15.7786359587
 20
11.8811908119
 40
0.8130026738
100
AcDbArc
 50
9.2039081191
 51
80.826768503
  0
ARC
  5
41C
100
AcDbEntity
  8
0
100
AcDbCircle
 62
9
  6
CONTINUOUS
 10
15.7786359587
 20
11.8811908119
 40
0.8130026738
100
AcDbArc
 50
279.1699849541
 51
350.7958820602
  0
ARC
  5
41D
100
AcDbEntity
  8
0
100
AcDbCircle
 62
9
  6
CONTINUOUS
 10
15.7786359587
 20
11.8811908119
 40
0.8130026738
100
AcDbArc
 50
189.2039081191
 51
260.826768503
  0
ARC
  5
41E
100
AcDbEntity
  8
0
100
AcDbCircle
 62
7
  6
CONTINUOUS
 10
15.7786359587
 20
11.8811908119
 40
0.741
100
AcDbArc
 50
188.841399048
 51
237.6295013938
  0
ARC
  5
41F
100
AcDbEntity
  8
0
100
AcDbCircle
 62
7
  6
CONTINUOUS
 10
15.7786359587
 20
11.8811908119
 40
0.741
100
AcDbArc
 50
302.3704986067
 51
351.1586009521
  0
ARC
  5
420
100
AcDbEntity
  8
0
100
AcDbCircle
 62
7
  6
CONTINUOUS
 10
15.7786359587
 20
11.8811908119
 40
0.741
100
AcDbArc
 50
278.8354901004
 51
297.6295013938
  0
ARC
  5
421
100
AcDbEntity
  8
0
100
AcDbCircle
 62
7
  6
CONTINUOUS
 10
15.7786359587
 20
11.8811908119
 40
0.741
100
AcDbArc
 50
242.3704986062
 51
261.1645098996
  0
ARC
  5
422
100
AcDbEntity
  8
0
100
AcDbCircle
 62
7
  6
CONTINUOUS
 10
15.7786359587
 20
11.8811908119
 40
0.741
100
AcDbArc
 50
8.8413990479
 51
57.6295013933
  0
ARC
  5
423
100
AcDbEntity
  8
0
100
AcDbCircle
 62
7
  6
CONTINUOUS
 10
15.7786359587
 20
11.8811908119
 40
0.741
100
AcDbArc
 50
122.3704986062
 51
171.158600952
  0
ARC
  5
424
100
AcDbEntity
  8
0
100
AcDbCircle
 62
7
  6
CONTINUOUS
 10
15.7786359587
 20
11.8811908119
 40
0.741
100
AcDbArc
 50
98.8354901004
 51
117.6295013938
  0
ARC
  5
425
100
AcDbEntity
  8
0
100
AcDbCircle
 62
7
  6
CONTINUOUS
 10
15.7786359587
 20
11.8811908119
 40
0.741
100
AcDbArc
 50
62.3704986062
 51
81.1645098996
  0
ARC
  5
426
100
AcDbEntity
  8
0
100
AcDbCircle
 62
7
  6
CONTINUOUS
 10
15.7786359587
 20
11.8811908119
 40
0.6515
100
AcDbArc
 50
100.9044569725
 51
169.0906432827
  0
ARC
  5
427
100
AcDbEntity
  8
0
100
AcDbCircle
 62
7
  6
CONTINUOUS
 10
15.7786359587
 20
11.8811908119
 40
0.6515
100
AcDbArc
 50
10.9093567173
 51
79.0955430275
  0
ARC
  5
428
100
AcDbEntity
  8
0
100
AcDbCircle
 62
7
  6
CONTINUOUS
 10
15.7786359587
 20
11.8811908119
 40
0.6515
100
AcDbArc
 50
280.9044569725
 51
349.0906432827
  0
ARC
  5
429
100
AcDbEntity
  8
0
100
AcDbCircle
 62
7
  6
CONTINUOUS
 10
15.7786359587
 20
11.8811908119
 40
0.6515
100
AcDbArc
 50
190.9093567173
 51
259.0955430275
  0
ARC
  5
42A
100
AcDbEntity
  8
0
100
AcDbCircle
 62
9
  6
CONTINUOUS
 10
15.7786359587
 20
11.8811908119
 40
0.6146339942
100
AcDbArc
 50
193.2289039359
 51
256.7788648429
  0
ARC
  5
42B
100
AcDbEntity
  8
0
100
AcDbCircle
 62
9
  6
CONTINUOUS
 10
15.7786359587
 20
11.8811908119
 40
0.6146339942
100
AcDbArc
 50
283.2211351571
 51
346.7710960641
  0
ARC
  5
42C
100
AcDbEntity
  8
0
100
AcDbCircle
 62
9
  6
CONTINUOUS
 10
15.7786359587
 20
11.8811908119
 40
0.6146339942
100
AcDbArc
 50
13.2289039359
 51
76.7788648429
  0
ARC
  5
42D
100
AcDbEntity
  8
0
100
AcDbCircle
 62
9
  6
CONTINUOUS
 10
15.7786359587
 20
11.8811908119
 40
0.6146339942
100
AcDbArc
 50
103.2211351571
 51
166.7710960641
  0
CIRCLE
  5
42E
100
AcDbEntity
  8
0
100
AcDbCircle
 62
7
  6
CONTINUOUS
 10
15.7786359587
 20
11.8811908119
 40
0.5575
  0
CIRCLE
  5
42F
100
AcDbEntity
  8
0
100
AcDbCircle
 62
7
  6
CONTINUOUS
 10
15.7786359587
 20
11.8811908119
 40
0.5275
  0
CIRCLE
  5
430
100
AcDbEntity
  8
0
100
AcDbCircle
 62
7
  6
CONTINUOUS
 10
15.7786359587
 20
11.8811908119
 40
0.5132341523
  0
CIRCLE
  5
431
100
AcDbEntity
  8
0
100
AcDbCircle
 62
7
  6
CONTINUOUS
 10
15.7786359587
 20
11.8811908119
 40
0.4545099561
  0
CIRCLE
  5
432
100
AcDbEntity
  8
0
100
AcDbCircle
 62
7
  6
CONTINUOUS
 10
15.7786359587
 20
11.8811908119
 40
0.4275
  0
CIRCLE
  5
433
100
AcDbEntity
  8
0
100
AcDbCircle
 62
7
  6
CONTINUOUS
 10
15.7786359587
 20
11.8811908119
 40
0.4175
  0
CIRCLE
  5
434
100
AcDbEntity
  8
0
100
AcDbCircle
 62
9
  6
CONTINUOUS
 10
15.7786359587
 20
11.8811908119
 40
0.3951446566
  0
ARC
  5
435
100
AcDbEntity
  8
0
100
AcDbCircle
 62
7
  6
CONTINUOUS
 10
15.9819291582
 20
12.0844840115
 40
0.02
100
AcDbArc
 50
320.5287050804
 51
129.4712949197
  0
ARC
  5
436
100
AcDbEntity
  8
0
100
AcDbCircle
 62
7
  6
CONTINUOUS
 10
15.9436359587
 20
12.3901967881
 40
0.031
100
AcDbArc
 50
25.3001518967
 51
45.6300714453
  0
ARC
  5
437
100
AcDbEntity
  8
0
100
AcDbCircle
 62
7
  6
CONTINUOUS
 10
16.2876419348
 20
12.0461908119
 40
0.031
100
AcDbArc
 50
44.3699285578
 51
63.0698651563
  0
ARC
  5
438
100
AcDbEntity
  8
0
100
AcDbCircle
 62
7
  6
CONTINUOUS
 10
15.7786359587
 20
13.0636908119
 40
0.275
100
AcDbArc
 50
324.9999999999
 51
215.0000000001
  0
ARC
  5
439
100
AcDbEntity
  8
0
100
AcDbCircle
 62
7
  6
CONTINUOUS
 10
16.1401359587
 20
12.5910667709
 40
0.25
100
AcDbArc
 50
133.0260516848
 51
225.6300714454
  0
ARC
  5
43A
100
AcDbEntity
  8
0
100
AcDbCircle
 62
7
  6
CONTINUOUS
 10
15.959529687
 20
12.8146908119
 40
0.016
100
AcDbArc
 50
145.0000000002
 51
270.0
  0
ARC
  5
43B
100
AcDbEntity
  8
0
100
AcDbCircle
 62
7
  6
CONTINUOUS
 10
15.9586359587
 20
12.7855243498
 40
0.016
100
AcDbArc
 50
313.0260516848
 51
55.3765489002
  0
ARC
  5
43C
100
AcDbEntity
  8
0
100
AcDbCircle
 62
7
  6
CONTINUOUS
 10
16.9611359587
 20
11.8811908119
 40
0.275
100
AcDbArc
 50
235.0
 51
125.0
  0
ARC
  5
43D
100
AcDbEntity
  8
0
100
AcDbCircle
 62
7
  6
CONTINUOUS
 10
16.4885119176
 20
12.2426908119
 40
0.25
100
AcDbArc
 50
224.3699285553
 51
316.9739483149
  0
ARC
  5
43E
100
AcDbEntity
  8
0
100
AcDbCircle
 62
7
  6
CONTINUOUS
 10
16.7121359587
 20
12.0620845402
 40
0.016
100
AcDbArc
 50
180.0
 51
304.9999999951
  0
ARC
  5
43F
100
AcDbEntity
  8
0
100
AcDbCircle
 62
7
  6
CONTINUOUS
 10
16.6829694965
 20
12.0611908119
 40
0.016
100
AcDbArc
 50
34.6234510964
 51
136.9739482993
  0
ARC
  5
440
100
AcDbEntity
  8
0
100
AcDbCircle
 62
7
  6
CONTINUOUS
 10
23.5062002475
 20
9.4884087967
 40
2.7568117664
100
AcDbArc
 50
180.0706699525
 51
181.1718975751
  0
ARC
  5
441
100
AcDbEntity
  8
0
100
AcDbCircle
 62
7
  6
CONTINUOUS
 10
21.6725786006
 20
8.2906874409
 40
0.5087739609
100
AcDbArc
 50
174.176437832
 51
175.5463053011
  0
ARC
  5
442
100
AcDbEntity
  8
0
100
AcDbCircle
 62
7
  6
CONTINUOUS
 10
19.8847389159
 20
8.2906897397
 40
0.5087284397
100
AcDbArc
 50
4.4541252241
 51
5.8238177923
  0
ARC
  5
443
100
AcDbEntity
  8
0
100
AcDbCircle
 62
7
  6
CONTINUOUS
 10
19.9039104033
 20
8.2927064737
 40
0.4894512698
100
AcDbArc
 50
5.8166774414
 51
9.9003220464
  0
ARC
  5
444
100
AcDbEntity
  8
0
100
AcDbCircle
 62
7
  6
CONTINUOUS
 10
21.6533366143
 20
8.2927109782
 40
0.4894259659
100
AcDbArc
 50
170.0997727435
 51
174.1835435447
  0
ARC
  5
445
100
AcDbEntity
  8
0
100
AcDbCircle
 62
7
  6
CONTINUOUS
 10
20.8604202328
 20
8.949100117
 40
0.4647829465
100
AcDbArc
 50
50.9498213648
 51
52.6639695966
  0
ARC
  5
446
100
AcDbEntity
  8
0
100
AcDbCircle
 62
7
  6
CONTINUOUS
 10
20.8655887495
 20
8.955447626
 40
0.4565973366
100
AcDbArc
 50
49.4364538886
 51
50.9516918569
  0
ARC
  5
447
100
AcDbEntity
  8
0
100
AcDbCircle
 62
7
  6
CONTINUOUS
 10
20.6838721332
 20
8.9644049979
 40
0.4447119901
100
AcDbArc
 50
131.7049534178
 51
132.8988113325
  0
ARC
  5
448
100
AcDbEntity
  8
0
100
AcDbCircle
 62
7
  6
CONTINUOUS
 10
20.8820936305
 20
8.9738865291
 40
0.4318569466
100
AcDbArc
 50
42.4761964116
 51
49.5091403068
  0
ARC
  5
449
100
AcDbEntity
  8
0
100
AcDbCircle
 62
7
  6
CONTINUOUS
 10
20.6749880781
 20
8.9738903992
 40
0.4317159692
100
AcDbArc
 50
132.8920015877
 51
137.0742671958
  0
ARC
  5
44A
100
AcDbEntity
  8
0
100
AcDbCircle
 62
7
  6
CONTINUOUS
 10
20.8974429742
 20
8.9881481852
 40
0.4109052789
100
AcDbArc
 50
40.7750929282
 51
42.4547740193
  0
ARC
  5
44B
100
AcDbEntity
  8
0
100
AcDbCircle
 62
7
  6
CONTINUOUS
 10
20.6560885773
 20
8.9915661542
 40
0.4058389903
100
AcDbArc
 50
137.0843392008
 51
142.8010264032
  0
ARC
  5
44C
100
AcDbEntity
  8
0
100
AcDbCircle
 62
7
  6
CONTINUOUS
 10
20.6371350076
 20
9.0063703302
 40
0.3817914646
100
AcDbArc
 50
142.851013288
 51
145.8071536966
  0
ARC
  5
44D
100
AcDbEntity
  8
0
100
AcDbCircle
 62
7
  6
CONTINUOUS
 10
20.5970476937
 20
9.0302690554
 40
0.3350492156
100
AcDbArc
 50
155.6336119971
 51
156.9462598005
  0
ARC
  5
44E
100
AcDbEntity
  8
0
100
AcDbCircle
 62
9
  6
CONTINUOUS
 10
21.1428366333
 20
9.2461597818
 40
0.0933326311
100
AcDbArc
 50
78.9431833372
 51
82.2363902831
  0
ARC
  5
44F
100
AcDbEntity
  8
0
100
AcDbCircle
 62
9
  6
CONTINUOUS
 10
20.7785802642
 20
11.0304814686
 40
0.6118158123
100
AcDbArc
 50
91.7332603146
 51
93.7852591274
  0
ARC
  5
450
100
AcDbEntity
  8
0
100
AcDbCircle
 62
9
  6
CONTINUOUS
 10
20.7798315457
 20
11.0414963748
 40
0.6007390846
100
AcDbArc
 50
80.6480101042
 51
82.7243248524
  0
ARC
  5
451
100
AcDbEntity
  8
0
100
AcDbCircle
 62
9
  6
CONTINUOUS
 10
20.7727066325
 20
11.0650514469
 40
0.5767038657
100
AcDbArc
 50
102.90941592
 51
105.0447203017
  0
ARC
  5
452
100
AcDbEntity
  8
0
100
AcDbCircle
 62
9
  6
CONTINUOUS
 10
20.7932441153
 20
11.0934705602
 40
0.5469795088
100
AcDbArc
 50
69.0724188775
 51
71.2818369707
  0
ARC
  5
453
100
AcDbEntity
  8
0
100
AcDbCircle
 62
9
  6
CONTINUOUS
 10
20.7482249525
 20
11.1308332164
 40
0.5063939214
100
AcDbArc
 50
114.7618299529
 51
117.0912611774
  0
ARC
  5
454
100
AcDbEntity
  8
0
100
AcDbCircle
 62
9
  6
CONTINUOUS
 10
20.7026074196
 20
11.2019717703
 40
0.4217044729
100
AcDbArc
 50
127.8898705929
 51
130.5221284991
  0
ARC
  5
455
100
AcDbEntity
  8
0
100
AcDbCircle
 62
9
  6
CONTINUOUS
 10
20.6463199775
 20
11.2551019716
 40
0.3440788716
100
AcDbArc
 50
143.4179589733
 51
145.8406544446
  0
ARC
  5
456
100
AcDbEntity
  8
0
100
AcDbCircle
 62
9
  6
CONTINUOUS
 10
20.6026625875
 20
11.2880628981
 40
0.315063625
100
AcDbArc
 50
155.0876827176
 51
158.9439449131
  0
ARC
  5
457
100
AcDbEntity
  8
0
100
AcDbCircle
 62
7
  6
CONTINUOUS
 10
20.3759319478
 20
11.2850924686
 40
0.0959477076
100
AcDbArc
 50
127.3308152509
 51
128.244171847
  0
ARC
  5
458
100
AcDbEntity
  8
0
100
AcDbCircle
 62
7
  6
CONTINUOUS
 10
20.446889273
 20
11.4286403708
 40
0.0956552851
100
AcDbArc
 50
92.7345633659
 51
101.0176578216
  0
ARC
  5
459
100
AcDbEntity
  8
0
100
AcDbCircle
 62
7
  6
CONTINUOUS
 10
20.3951918754
 20
11.3679989244
 40
0.0870443211
100
AcDbArc
 50
107.8294024921
 51
112.6993405912
  0
ARC
  5
45A
100
AcDbEntity
  8
0
100
AcDbCircle
 62
7
  6
CONTINUOUS
 10
20.5984144331
 20
11.5061860949
 40
0.3104994073
100
AcDbArc
 50
199.8823908253
 51
201.0502467118
  0
ARC
  5
45B
100
AcDbEntity
  8
0
100
AcDbCircle
 62
7
  6
CONTINUOUS
 10
20.5976333955
 20
11.4957152241
 40
0.3096659406
100
AcDbArc
 50
158.9481092954
 51
160.6732860328
  0
ARC
  5
45C
100
AcDbEntity
  8
0
100
AcDbCircle
 62
7
  6
CONTINUOUS
 10
20.5926095128
 20
11.4974286778
 40
0.3043580984
100
AcDbArc
 50
160.6646676787
 51
164.1150821056
  0
ARC
  5
45D
100
AcDbEntity
  8
0
100
AcDbCircle
 62
7
  6
CONTINUOUS
 10
20.5855450845
 20
11.5842443308
 40
0.2969120564
100
AcDbArc
 50
175.1262565472
 51
176.6081489377
  0
ARC
  5
45E
100
AcDbEntity
  8
0
100
AcDbCircle
 62
7
  6
CONTINUOUS
 10
20.5847466192
 20
11.584294368
 40
0.2961120293
100
AcDbArc
 50
176.6086730881
 51
176.9868076817
  0
ARC
  5
45F
100
AcDbEntity
  8
0
100
AcDbCircle
 62
7
  6
CONTINUOUS
 10
20.5843886204
 20
11.5843131135
 40
0.2957535401
100
AcDbArc
 50
176.9867885123
 51
177.4693178151
  0
ARC
  5
460
100
AcDbEntity
  8
0
100
AcDbCircle
 62
7
  6
CONTINUOUS
 10
20.5832000707
 20
11.584359258
 40
0.2945641122
100
AcDbArc
 50
177.4680768077
 51
179.9983949303
  0
ARC
  5
461
100
AcDbEntity
  8
0
100
AcDbCircle
 62
7
  6
CONTINUOUS
 10
20.5802163457
 20
11.5005632119
 40
0.2915804874
100
AcDbArc
 50
164.0409525988
 51
179.9524647507
  0
ARC
  5
462
100
AcDbEntity
  8
0
100
AcDbCircle
 62
9
  6
CONTINUOUS
 10
20.5764962022
 20
11.5842890798
 40
0.2878617428
100
AcDbArc
 50
176.5782517061
 51
176.8943657146
  0
ARC
  5
463
100
AcDbEntity
  8
0
100
AcDbCircle
 62
9
  6
CONTINUOUS
 10
20.5761422569
 20
11.5843080983
 40
0.287507287
100
AcDbArc
 50
176.8943288034
 51
177.3992346901
  0
ARC
  5
464
100
AcDbEntity
  8
0
100
AcDbCircle
 62
9
  6
CONTINUOUS
 10
20.574878101
 20
11.5843585821
 40
0.2862421424
100
AcDbArc
 50
177.3978473636
 51
179.9982129732
  0
ARC
  5
465
100
AcDbEntity
  8
0
100
AcDbCircle
 62
7
  6
CONTINUOUS
 10
20.5175285707
 20
11.4855695949
 40
0.0960971878
100
AcDbArc
 50
81.6813156395
 51
89.9523204064
  0
ARC
  5
466
100
AcDbEntity
  8
0
100
AcDbCircle
 62
7
  6
CONTINUOUS
 10
20.7786359587
 20
11.8811908119
 40
0.9794250637
100
AcDbArc
 50
300.1512835009
 51
240.0741954299
  0
ARC
  5
467
100
AcDbEntity
  8
0
100
AcDbCircle
 62
9
  6
CONTINUOUS
 10
20.7786359587
 20
11.8811908119
 40
0.7622057121
100
AcDbArc
 50
309.310814198
 51
230.3478588785
  0
ARC
  5
468
100
AcDbEntity
  8
0
100
AcDbCircle
 62
9
  6
CONTINUOUS
 10
20.7786359587
 20
11.8811908119
 40
0.7298140957
100
AcDbArc
 50
310.8377974611
 51
228.8039380286
  0
ARC
  5
469
100
AcDbEntity
  8
0
100
AcDbCircle
 62
7
  6
CONTINUOUS
 10
20.7786359587
 20
11.8811908119
 40
0.5475
100
AcDbArc
 50
333.344130238
 51
207.4982300143
  0
ARC
  5
46A
100
AcDbEntity
  8
0
100
AcDbCircle
 62
9
  6
CONTINUOUS
 10
20.7786359587
 20
11.8811908119
 40
0.5175
100
AcDbArc
 50
341.2908822838
 51
198.7091177162
  0
ARC
  5
46B
100
AcDbEntity
  8
0
100
AcDbCircle
 62
7
  6
CONTINUOUS
 10
20.7786359587
 20
11.8811908119
 40
0.4875
100
AcDbArc
 50
0.0
 51
180.0
  0
ARC
  5
46C
100
AcDbEntity
  8
0
100
AcDbCircle
 62
9
  6
CONTINUOUS
 10
20.8270456287
 20
11.1633147552
 40
0.4692455712
100
AcDbArc
 50
57.2301206675
 51
58.8616253218
  0
ARC
  5
46D
100
AcDbEntity
  8
0
100
AcDbCircle
 62
9
  6
CONTINUOUS
 10
20.8315543401
 20
11.1703820507
 40
0.4608626149
100
AcDbArc
 50
56.4000102995
 51
57.225877174
  0
ARC
  5
46E
100
AcDbEntity
  8
0
100
AcDbCircle
 62
9
  6
CONTINUOUS
 10
20.879128415
 20
11.2285593301
 40
0.3855575832
100
AcDbArc
 50
43.0210369576
 51
44.8806960484
  0
ARC
  5
46F
100
AcDbEntity
  8
0
100
AcDbCircle
 62
9
  6
CONTINUOUS
 10
20.8846529838
 20
11.2337634198
 40
0.3779679768
100
AcDbArc
 50
42.0730953445
 51
43.0156560289
  0
ARC
  5
470
100
AcDbEntity
  8
0
100
AcDbCircle
 62
9
  6
CONTINUOUS
 10
20.9364011471
 20
11.279451825
 40
0.3351998891
100
AcDbArc
 50
24.1267942489
 51
31.8800618037
  0
ARC
  5
471
100
AcDbEntity
  8
0
100
AcDbCircle
 62
9
  6
CONTINUOUS
 10
20.9541777219
 20
11.2878655391
 40
0.3155373229
100
AcDbArc
 50
21.0613414137
 51
24.0519074947
  0
ARC
  5
472
100
AcDbEntity
  8
0
100
AcDbCircle
 62
9
  6
CONTINUOUS
 10
20.9374966674
 20
11.2710157655
 40
0.3131001226
100
AcDbArc
 50
25.7319783796
 51
26.8459668615
  0
ARC
  5
473
100
AcDbEntity
  8
0
100
AcDbCircle
 62
7
  6
CONTINUOUS
 10
21.1386652649
 20
11.398827785
 40
0.0921128972
100
AcDbArc
 50
73.2479263588
 51
80.1963886402
  0
ARC
  5
474
100
AcDbEntity
  8
0
100
AcDbCircle
 62
7
  6
CONTINUOUS
 10
21.1811601761
 20
11.3376283434
 40
0.0792426417
100
AcDbArc
 50
61.0244704435
 51
63.0556395493
  0
ARC
  5
475
100
AcDbEntity
  8
0
100
AcDbCircle
 62
9
  6
CONTINUOUS
 10
21.2115693379
 20
11.3290719875
 40
0.0440269613
100
AcDbArc
 50
3.6698270074
 51
5.6107815344
  0
ARC
  5
476
100
AcDbEntity
  8
0
100
AcDbCircle
 62
9
  6
CONTINUOUS
 10
21.2120665605
 20
11.3291021867
 40
0.0435288254
100
AcDbArc
 50
0.1005536011
 51
3.6720492448
  0
ARC
  5
477
100
AcDbEntity
  8
0
100
AcDbCircle
 62
7
  6
CONTINUOUS
 10
21.207903424
 20
11.3654521341
 40
0.041159474
100
AcDbArc
 50
31.8738213999
 51
40.8402724896
  0
ARC
  5
478
100
AcDbEntity
  8
0
100
AcDbCircle
 62
7
  6
CONTINUOUS
 10
20.9588574842
 20
11.5061860949
 40
0.3104994073
100
AcDbArc
 50
338.9497532882
 51
340.1176091746
  0
ARC
  5
479
100
AcDbEntity
  8
0
100
AcDbCircle
 62
7
  6
CONTINUOUS
 10
20.9589802506
 20
11.4954704026
 40
0.310368219
100
AcDbArc
 50
19.7468299234
 51
21.0504177845
  0
ARC
  5
47A
100
AcDbEntity
  8
0
100
AcDbCircle
 62
7
  6
CONTINUOUS
 10
20.9627982251
 20
11.4968288101
 40
0.3063158039
100
AcDbArc
 50
16.3478669056
 51
19.748968364
  0
ARC
  5
47B
100
AcDbEntity
  8
0
100
AcDbCircle
 62
7
  6
CONTINUOUS
 10
20.9715660801
 20
11.5842318446
 40
0.2970732915
100
AcDbArc
 50
3.7668951437
 51
4.8916587768
  0
ARC
  5
47C
100
AcDbEntity
  8
0
100
AcDbCircle
 62
7
  6
CONTINUOUS
 10
20.9721704261
 20
11.5842731851
 40
0.2964675352
100
AcDbArc
 50
3.4853466797
 51
3.7665961212
  0
ARC
  5
47D
100
AcDbEntity
  8
0
100
AcDbCircle
 62
7
  6
CONTINUOUS
 10
20.9726802371
 20
11.5843032844
 40
0.2959568373
100
AcDbArc
 50
2.5379271264
 51
3.4855305018
  0
ARC
  5
47E
100
AcDbEntity
  8
0
100
AcDbCircle
 62
7
  6
CONTINUOUS
 10
20.9738845988
 20
11.584353315
 40
0.2947514416
100
AcDbArc
 50
0.4945492639
 51
2.5385780057
  0
ARC
  5
47F
100
AcDbEntity
  8
0
100
AcDbCircle
 62
7
  6
CONTINUOUS
 10
20.9810864915
 20
11.5843674949
 40
0.2875494672
100
AcDbArc
 50
0.0000029744
 51
0.4902043386
  0
ARC
  5
480
100
AcDbEntity
  8
0
100
AcDbCircle
 62
9
  6
CONTINUOUS
 10
20.9811276503
 20
11.5843131382
 40
0.2875096072
100
AcDbArc
 50
2.6072816404
 51
3.7096333487
  0
ARC
  5
481
100
AcDbEntity
  8
0
100
AcDbCircle
 62
9
  6
CONTINUOUS
 10
20.9825378155
 20
11.5843737987
 40
0.2860981424
100
AcDbArc
 50
0.4914286445
 51
2.6079927192
  0
ARC
  5
482
100
AcDbEntity
  8
0
100
AcDbCircle
 62
7
  6
CONTINUOUS
 10
21.077385947
 20
11.4573712749
 40
0.0973095117
100
AcDbArc
 50
84.5715124994
 51
92.7530371758
  0
ARC
  5
483
100
AcDbEntity
  8
0
100
AcDbCircle
 62
9
  6
CONTINUOUS
 10
21.0988960512
 20
11.4605816044
 40
0.0593025566
100
AcDbArc
 50
40.3861694193
 51
42.0850684373
  0
SPLINE
  5
484
100
AcDbEntity
  8
0
100
AcDbSpline
 62
7
  6
CONTINUOUS
 70
0
 71
3
 72
11
 73
7
 74
0
 42
0.0000001
 43
0.0000001
 44
0.0000000001
 40
0.0
 40
0.0
 40
0.0
 40
0.0
 40
0.2736079326
 40
0.5003103346
 40
0.7269614556
 40
1.0
 40
1.0
 40
1.0
 40
1.0
 10
9.7816359587
 20
11.8811908119
 30
0.0
 10
9.7816367608
 20
11.857404154
 30
0.0
 10
9.7952388156
 20
11.8139085723
 30
0.0
 10
9.8602924849
 20
11.7888959853
 30
0.0
 10
9.9255443595
 20
11.8138604781
 30
0.0
 10
9.938636696
 20
11.857400064
 30
0.0
 10
9.9386359587
 20
11.8811908119
 30
0.0
  0
SPLINE
  5
485
100
AcDbEntity
  8
0
100
AcDbSpline
 62
7
  6
CONTINUOUS
 70
0
 71
3
 72
11
 73
7
 74
0
 42
0.0000001
 43
0.0000001
 44
0.0000000001
 40
0.0
 40
0.0
 40
0.0
 40
0.0
 40
0.273039475
 40
0.4997206271
 40
0.7263911349
 40
1.0
 40
1.0
 40
1.0
 40
1.0
 10
9.9386359587
 20
11.8811908119
 30
0.0
 10
9.9386352213
 20
11.9049815599
 30
0.0
 10
9.9255393656
 20
11.9485237371
 30
0.0
 10
9.8603029161
 20
11.9734857062
 30
0.0
 10
9.7952333897
 20
11.9484700258
 30
0.0
 10
9.7816351565
 20
11.9049774698
 30
0.0
 10
9.7816359587
 20
11.8811908119
 30
0.0
  0
SPLINE
  5
486
100
AcDbEntity
  8
0
100
AcDbSpline
 62
7
  6
CONTINUOUS
 70
0
 71
3
 72
11
 73
7
 74
0
 42
0.0000001
 43
0.0000001
 44
0.0000000001
 40
0.0
 40
0.0
 40
0.0
 40
0.0
 40
0.2895273334
 40
0.4992134133
 40
0.7088994931
 40
1.0
 40
1.0
 40
1.0
 40
1.0
 10
9.9023359587
 20
11.8811908119
 30
0.0
 10
9.9023359587
 20
11.8644670494
 30
0.0
 10
9.8997214663
 20
11.8356313381
 30
0.0
 10
9.8602617802
 20
11.8144046532
 30
0.0
 10
9.8212171992
 20
11.8357292454
 30
0.0
 10
9.8173359587
 20
11.8644789787
 30
0.0
 10
9.8173359587
 20
11.8811908119
 30
0.0
  0
SPLINE
  5
487
100
AcDbEntity
  8
0
100
AcDbSpline
 62
7
  6
CONTINUOUS
 70
0
 71
3
 72
11
 73
7
 74
0
 42
0.0000001
 43
0.0000001
 44
0.0000000001
 40
0.0
 40
0.0
 40
0.0
 40
0.0
 40
0.2911005069
 40
0.5007865867
 40
0.7104726666
 40
1.0
 40
1.0
 40
1.0
 40
1.0
 10
9.8173359587
 20
11.8811908119
 30
0.0
 10
9.8173359587
 20
11.8979026452
 30
0.0
 10
9.8212171992
 20
11.9266523784
 30
0.0
 10
9.8602617802
 20
11.9479769707
 30
0.0
 10
9.8997214663
 20
11.9267502857
 30
0.0
 10
9.9023359587
 20
11.8979145745
 30
0.0
 10
9.9023359587
 20
11.8811908119
 30
0.0
  0
SPLINE
  5
488
100
AcDbEntity
  8
0
100
AcDbSpline
 62
7
  6
CONTINUOUS
 70
0
 71
3
 72
11
 73
7
 74
0
 42
0.0000001
 43
0.0000001
 44
0.0000000001
 40
0.0
 40
0.0
 40
0.0
 40
0.0
 40
0.273039475
 40
0.4997206271
 40
0.7263911349
 40
1.0
 40
1.0
 40
1.0
 40
1.0
 10
1.7786359587
 20
11.8011908119
 30
0.0
 10
1.8024267066
 20
11.8011915493
 30
0.0
 10
1.8459688838
 20
11.814287405
 30
0.0
 10
1.8709308529
 20
11.8795238545
 30
0.0
 10
1.8459151726
 20
11.9445933808
 30
0.0
 10
1.8024226166
 20
11.9581916141
 30
0.0
 10
1.7786359587
 20
11.9581908119
 30
0.0
  0
SPLINE
  5
489
100
AcDbEntity
  8
0
100
AcDbSpline
 62
7
  6
CONTINUOUS
 70
0
 71
3
 72
11
 73
7
 74
0
 42
0.0000001
 43
0.0000001
 44
0.0000000001
 40
0.0
 40
0.0
 40
0.0
 40
0.0
 40
0.2736079326
 40
0.5003103346
 40
0.7269614556
 40
1.0
 40
1.0
 40
1.0
 40
1.0
 10
1.7786359587
 20
11.9581908119
 30
0.0
 10
1.7548493007
 20
11.9581900098
 30
0.0
 10
1.711353719
 20
11.944587955
 30
0.0
 10
1.686341132
 20
11.8795342857
 30
0.0
 10
1.7113056249
 20
11.8142824111
 30
0.0
 10
1.7548452107
 20
11.8011900745
 30
0.0
 10
1.7786359587
 20
11.8011908119
 30
0.0
  0
SPLINE
  5
48A
100
AcDbEntity
  8
0
100
AcDbSpline
 62
7
  6
CONTINUOUS
 70
0
 71
3
 72
11
 73
7
 74
0
 42
0.0000001
 43
0.0000001
 44
0.0000000001
 40
0.0
 40
0.0
 40
0.0
 40
0.0
 40
0.2895273334
 40
0.4992134133
 40
0.7088994931
 40
1.0
 40
1.0
 40
1.0
 40
1.0
 10
1.7786359587
 20
11.8374908119
 30
0.0
 10
1.7619121961
 20
11.8374908119
 30
0.0
 10
1.7330764848
 20
11.8401053043
 30
0.0
 10
1.7118497999
 20
11.8795649904
 30
0.0
 10
1.7331743921
 20
11.9186095714
 30
0.0
 10
1.7619241254
 20
11.9224908119
 30
0.0
 10
1.7786359587
 20
11.9224908119
 30
0.0
  0
SPLINE
  5
48B
100
AcDbEntity
  8
0
100
AcDbSpline
 62
7
  6
CONTINUOUS
 70
0
 71
3
 72
11
 73
7
 74
0
 42
0.0000001
 43
0.0000001
 44
0.0000000001
 40
0.0
 40
0.0
 40
0.0
 40
0.0
 40
0.2911005069
 40
0.5007865867
 40
0.7104726666
 40
1.0
 40
1.0
 40
1.0
 40
1.0
 10
1.7786359587
 20
11.9224908119
 30
0.0
 10
1.7953477919
 20
11.9224908119
 30
0.0
 10
1.8240975252
 20
11.9186095714
 30
0.0
 10
1.8454221174
 20
11.8795649904
 30
0.0
 10
1.8241954325
 20
11.8401053043
 30
0.0
 10
1.7953597212
 20
11.8374908119
 30
0.0
 10
1.7786359587
 20
11.8374908119
 30
0.0
  0
SPLINE
  5
48C
100
AcDbEntity
  8
0
100
AcDbSpline
 62
7
  6
CONTINUOUS
 70
0
 71
3
 72
17
 73
13
 74
0
 42
0.0000001
 43
0.0000001
 44
0.0000000001
 40
0.0
 40
0.0
 40
0.0
 40
0.0
 40
0.0548950661
 40
0.1102678683
 40
0.1663493361
 40
0.2233728958
 40
0.3407956393
 40
0.4635993107
 40
0.5918630969
 40
0.7249263131
 40
0.861528967
 40
1.0
 40
1.0
 40
1.0
 40
1.0
 10
21.2675573477
 20
11.6095638405
 30
0.0
 10
21.2665263392
 20
11.6216113602
 30
0.0
 10
21.2629756069
 20
11.6457097171
 30
0.0
 10
21.2533034206
 20
11.6811364013
 30
0.0
 10
21.2393577204
 20
11.7156192331
 30
0.0
 10
21.215091544
 20
11.7603272991
 30
0.0
 10
21.1745158266
 20
11.8123781298
 30
0.0
 10
21.1126771319
 20
11.8656563457
 30
0.0
 10
21.0394451129
 20
11.9088547778
 30
0.0
 10
20.9573767691
 20
11.9406581096
 30
0.0
 10
20.8692826854
 20
11.9601104239
 30
0.0
 10
20.808595863
 20
11.9644341369
 30
0.0
 10
20.7780953159
 20
11.9644081672
 30
0.0
  0
SPLINE
  5
48D
100
AcDbEntity
  8
0
100
AcDbSpline
 62
7
  6
CONTINUOUS
 70
0
 71
3
 72
17
 73
13
 74
0
 42
0.0000001
 43
0.0000001
 44
0.0000000001
 40
0.0
 40
0.0
 40
0.0
 40
0.0
 40
0.1384869238
 40
0.2750880364
 40
0.4081394809
 40
0.5363887276
 40
0.6591817309
 40
0.7766024369
 40
0.8336286669
 40
0.889715372
 40
0.9450957659
 40
1.0
 40
1.0
 40
1.0
 40
1.0
 10
20.7780953159
 20
11.9644081672
 30
0.0
 10
20.7476367326
 20
11.9643822331
 30
0.0
 10
20.6870448053
 20
11.9599670881
 30
0.0
 10
20.5991105128
 20
11.9404151499
 30
0.0
 10
20.5172134728
 20
11.9085514872
 30
0.0
 10
20.4441514218
 20
11.8653316293
 30
0.0
 10
20.3824693204
 20
11.8120683193
 30
0.0
 10
20.3420060833
 20
11.760058571
 30
0.0
 10
20.3178112131
 20
11.7153968391
 30
0.0
 10
20.3039085271
 20
11.6809529322
 30
0.0
 10
20.2942688811
 20
11.6455692871
 30
0.0
 10
20.2907324013
 20
11.6215019737
 30
0.0
 10
20.2897065627
 20
11.6094700758
 30
0.0
  0
SPLINE
  5
48E
100
AcDbEntity
  8
0
100
AcDbSpline
 62
7
  6
CONTINUOUS
 70
0
 71
3
 72
11
 73
7
 74
0
 42
0.0000001
 43
0.0000001
 44
0.0000000001
 40
0.0
 40
0.0
 40
0.0
 40
0.0
 40
0.2496266528
 40
0.4984332287
 40
0.7480534483
 40
1.0
 40
1.0
 40
1.0
 40
1.0
 10
21.2887307945
 20
8.9828444846
 30
0.0
 10
21.2910426287
 20
8.9951540607
 30
0.0
 10
21.2941748049
 20
9.0200407176
 30
0.0
 10
21.2941829837
 20
9.0576689349
 30
0.0
 10
21.2894915044
 20
9.0951180784
 30
0.0
 10
21.2833383172
 20
9.1195930534
 30
0.0
 10
21.2795394489
 20
9.131649924
 30
0.0
  0
SPLINE
  5
48F
100
AcDbEntity
  8
0
100
AcDbSpline
 62
7
  6
CONTINUOUS
 70
0
 71
3
 72
9
 73
5
 74
0
 42
0.0000001
 43
0.0000001
 44
0.0000000001
 40
0.0
 40
0.0
 40
0.0
 40
0.0
 40
0.4952078749
 40
1.0
 40
1.0
 40
1.0
 40
1.0
 10
21.2795394489
 20
9.131649924
 30
0.0
 10
21.2756651671
 20
9.1439461423
 30
0.0
 10
21.2663420868
 20
9.168326662
 30
0.0
 10
21.2542487119
 20
9.1914528385
 30
0.0
 10
21.2475214629
 20
9.2027420795
 30
0.0
  0
SPLINE
  5
490
100
AcDbEntity
  8
0
100
AcDbSpline
 62
7
  6
CONTINUOUS
 70
0
 71
3
 72
9
 73
5
 74
0
 42
0.0000001
 43
0.0000001
 44
0.0000000001
 40
0.0
 40
0.0
 40
0.0
 40
0.0
 40
0.2464164515
 40
1.0
 40
1.0
 40
1.0
 40
1.0
 10
21.2475214629
 20
9.2027420795
 30
0.0
 10
21.2447289273
 20
9.2074283349
 30
0.0
 10
21.2329614451
 20
9.2261846736
 30
0.0
 10
21.2195080759
 20
9.2438729829
 30
0.0
 10
21.2086129264
 20
9.2565069172
 30
0.0
  0
SPLINE
  5
491
100
AcDbEntity
  8
0
100
AcDbSpline
 62
7
  6
CONTINUOUS
 70
0
 71
3
 72
13
 73
9
 74
0
 42
0.0000001
 43
0.0000001
 44
0.0000000001
 40
0.0
 40
0.0
 40
0.0
 40
0.0
 40
0.2373596127
 40
0.360152838
 40
0.4852157738
 40
0.6122030364
 40
0.7406868079
 40
1.0
 40
1.0
 40
1.0
 40
1.0
 10
21.142305751
 20
9.3186454349
 30
0.0
 10
21.1179099903
 20
9.3372569718
 30
0.0
 10
21.0780496494
 20
9.3619473689
 30
0.0
 10
21.0209636652
 20
9.3880382998
 30
0.0
 10
20.975329655
 20
9.4045147321
 30
0.0
 10
20.9278118449
 20
9.4174501563
 30
0.0
 10
20.8623983371
 20
9.429925106
 30
0.0
 10
20.8121572117
 20
9.4337100985
 30
0.0
 10
20.7786346083
 20
9.4337100313
 30
0.0
  0
SPLINE
  5
492
100
AcDbEntity
  8
0
100
AcDbSpline
 62
7
  6
CONTINUOUS
 70
0
 71
3
 72
18
 73
14
 74
0
 42
0.0000001
 43
0.0000001
 44
0.0000000001
 40
0.0
 40
0.0
 40
0.0
 40
0.0
 40
0.1204063562
 40
0.1811778753
 40
0.2423172191
 40
0.3038339813
 40
0.365730718
 40
0.49054039
 40
0.5534696844
 40
0.6166895274
 40
0.7438267123
 40
0.8717239665
 40
1.0
 40
1.0
 40
1.0
 40
1.0
 10
19.9242964457
 20
6.4309882126
 30
0.0
 10
19.9450363188
 20
6.3958162043
 30
0.0
 10
19.9800554236
 20
6.345016426
 30
0.0
 10
20.0334027243
 20
6.2824603059
 30
0.0
 10
20.0769247283
 20
6.2379461086
 30
0.0
 10
20.123657846
 20
6.1962446474
 30
0.0
 10
20.190108776
 20
6.1444957233
 30
0.0
 10
20.2619253054
 20
6.0991457567
 30
0.0
 10
20.3379298157
 20
6.0607598908
 30
0.0
 10
20.416952797
 20
6.0269668767
 30
0.0
 10
20.5200923332
 20
5.9941380245
 30
0.0
 10
20.6481676355
 20
5.9702353747
 30
0.0
 10
20.7351339563
 20
5.9648292384
 30
0.0
 10
20.7786341898
 20
5.9648291675
 30
0.0
  0
SPLINE
  5
493
100
AcDbEntity
  8
0
100
AcDbSpline
 62
7
  6
CONTINUOUS
 70
0
 71
3
 72
18
 73
14
 74
0
 42
0.0000001
 43
0.0000001
 44
0.0000000001
 40
0.0
 40
0.0
 40
0.0
 40
0.0
 40
0.1282760264
 40
0.2561732814
 40
0.3833104717
 40
0.4465303181
 40
0.5094596155
 40
0.6342692924
 40
0.6961660306
 40
0.7576827931
 40
0.8188221359
 40
0.8795936527
 40
1.0
 40
1.0
 40
1.0
 40
1.0
 10
20.7786341898
 20
5.9648291675
 30
0.0
 10
20.822134572
 20
5.9648290917
 30
0.0
 10
20.9091012115
 20
5.9702349756
 30
0.0
 10
21.0371770244
 20
5.9941373637
 30
0.0
 10
21.1403170005
 20
6.0269660893
 30
0.0
 10
21.2193403296
 20
6.0607590603
 30
0.0
 10
21.2953451779
 20
6.099144922
 30
0.0
 10
21.3671620303
 20
6.1444949388
 30
0.0
 10
21.4336132567
 20
6.1962439623
 30
0.0
 10
21.4803465803
 20
6.2379455203
 30
0.0
 10
21.5238687708
 20
6.2824598366
 30
0.0
 10
21.5772162905
 20
6.34501614
 30
0.0
 10
21.6122355279
 20
6.3958160846
 30
0.0
 10
21.6329754716
 20
6.4309882124
 30
0.0
  0
SPLINE
  5
494
100
AcDbEntity
  8
0
100
AcDbSpline
 62
7
  6
CONTINUOUS
 70
0
 71
3
 72
13
 73
9
 74
0
 42
0.0000001
 43
0.0000001
 44
0.0000000001
 40
0.0
 40
0.0
 40
0.0
 40
0.0
 40
0.2570836879
 40
0.3847536913
 40
0.5113044094
 40
0.6363914972
 40
0.7597248801
 40
1.0
 40
1.0
 40
1.0
 40
1.0
 10
20.7786346083
 20
9.433709919
 30
0.0
 10
20.7495888324
 20
9.4337098607
 30
0.0
 10
20.7060484293
 20
9.4308641228
 30
0.0
 10
20.6490188325
 20
9.4214827952
 30
0.0
 10
20.6072518673
 20
9.4117377969
 30
0.0
 10
20.566712915
 20
9.399306045
 30
0.0
 10
20.5151688914
 20
9.3794363366
 30
0.0
 10
20.4784437948
 20
9.3605887825
 30
0.0
 10
20.4553360305
 20
9.3463418427
 30
0.0
  0
SPLINE
  5
495
100
AcDbEntity
  8
0
100
AcDbSpline
 62
7
  6
CONTINUOUS
 70
0
 71
3
 72
9
 73
5
 74
0
 42
0.0000001
 43
0.0000001
 44
0.0000000001
 40
0.0
 40
0.0
 40
0.0
 40
0.0
 40
0.5059201875
 40
1.0
 40
1.0
 40
1.0
 40
1.0
 10
20.4553360305
 20
9.3463418427
 30
0.0
 10
20.4432923748
 20
9.3389164061
 30
0.0
 10
20.4200758165
 20
9.323256798
 30
0.0
 10
20.3983233571
 20
9.3056112813
 30
0.0
 10
20.3880075135
 20
9.2964183726
 30
0.0
  0
SPLINE
  5
496
100
AcDbEntity
  8
0
100
AcDbSpline
 62
7
  6
CONTINUOUS
 70
0
 71
3
 72
9
 73
5
 74
0
 42
0.0000001
 43
0.0000001
 44
0.0000000001
 40
0.0
 40
0.0
 40
0.0
 40
0.0
 40
0.5042059667
 40
1.0
 40
1.0
 40
1.0
 40
1.0
 10
20.3213359124
 20
9.2209295387
 30
0.0
 10
20.3156510808
 20
9.212557691
 30
0.0
 10
20.3050458469
 20
9.1954871228
 30
0.0
 10
20.2959479941
 20
9.1775647449
 30
0.0
 10
20.291842703
 20
9.1685003489
 30
0.0
  0
SPLINE
  5
497
100
AcDbEntity
  8
0
100
AcDbSpline
 62
7
  6
CONTINUOUS
 70
0
 71
3
 72
12
 73
8
 74
0
 42
0.0000001
 43
0.0000001
 44
0.0000000001
 40
0.0
 40
0.0
 40
0.0
 40
0.0
 40
0.2535549446
 40
0.5032863938
 40
0.6274407217
 40
0.7514410296
 40
1.0
 40
1.0
 40
1.0
 40
1.0
 10
20.2887561903
 20
9.1614724312
 30
0.0
 10
20.2827232525
 20
9.14729572
 30
0.0
 10
20.2726873362
 20
9.1182819562
 30
0.0
 10
20.2655316077
 20
9.0806882577
 30
0.0
 10
20.2632248369
 20
9.0504960681
 30
0.0
 10
20.2631978868
 20
9.0202928196
 30
0.0
 10
20.265753339
 20
8.9976882997
 30
0.0
 10
20.268541139
 20
8.9828443969
 30
0.0
  0
SPLINE
  5
498
100
AcDbEntity
  8
0
100
AcDbSpline
 62
7
  6
CONTINUOUS
 70
0
 71
3
 72
9
 73
5
 74
0
 42
0.0000001
 43
0.0000001
 44
0.0000000001
 40
0.0
 40
0.0
 40
0.0
 40
0.0
 40
0.4968764676
 40
1.0
 40
1.0
 40
1.0
 40
1.0
 10
21.2686359587
 20
11.5008051206
 30
0.0
 10
21.2686359587
 20
11.4838832232
 30
0.0
 10
21.2656075082
 20
11.4497605701
 30
0.0
 10
21.2566759848
 20
11.4167015565
 30
0.0
 10
21.2508488584
 20
11.4005881814
 30
0.0
  0
SPLINE
  5
499
100
AcDbEntity
  8
0
100
AcDbSpline
 62
7
  6
CONTINUOUS
 70
0
 71
3
 72
9
 73
5
 74
0
 42
0.0000001
 43
0.0000001
 44
0.0000000001
 40
0.0
 40
0.0
 40
0.0
 40
0.0
 40
0.5031235324
 40
1.0
 40
1.0
 40
1.0
 40
1.0
 10
20.3064230589
 20
11.4005881814
 30
0.0
 10
20.3005959326
 20
11.4167015565
 30
0.0
 10
20.2916644092
 20
11.4497605701
 30
0.0
 10
20.2886359587
 20
11.4838832232
 30
0.0
 10
20.2886359587
 20
11.5008051206
 30
0.0
  0
SPLINE
  5
49A
100
AcDbEntity
  8
0
100
AcDbSpline
 62
9
  6
CONTINUOUS
 70
0
 71
3
 72
39
 73
35
 74
0
 42
0.0000001
 43
0.0000001
 44
0.0000000001
 40
0.0
 40
0.0
 40
0.0
 40
0.0
 40
0.0269657973
 40
0.054203009
 40
0.0818340379
 40
0.1099945201
 40
0.1388005697
 40
0.1683288098
 40
0.1986214381
 40
0.2296944977
 40
0.2615336295
 40
0.2941027424
 40
0.3273383958
 40
0.3611598119
 40
0.3954692609
 40
0.4301546213
 40
0.4650962365
 40
0.5001655433
 40
0.5352321689
 40
0.570165898
 40
0.6048383229
 40
0.6391300982
 40
0.6729296615
 40
0.7061397477
 40
0.7386804595
 40
0.7704891261
 40
0.8015306533
 40
0.8317918599
 40
0.8612899139
 40
0.8900684157
 40
0.9182048014
 40
0.945816273
 40
0.9730399665
 40
1.0
 40
1.0
 40
1.0
 40
1.0
 10
21.2680348542
 20
11.6029150358
 30
0.0
 10
21.267261959
 20
11.6148368116
 30
0.0
 10
21.26421199
 20
11.6387285921
 30
0.0
 10
21.2552478012
 20
11.673945911
 30
0.0
 10
21.2419301773
 20
11.7083281099
 30
0.0
 10
21.2244210345
 20
11.7415567733
 30
0.0
 10
21.2028679418
 20
11.7733319391
 30
0.0
 10
21.1774882281
 20
11.8033822124
 30
0.0
 10
21.1485081182
 20
11.8314350421
 30
0.0
 10
21.1161895611
 20
11.8572327505
 30
0.0
 10
21.0808369698
 20
11.880562855
 30
0.0
 10
21.0427574308
 20
11.9011981322
 30
0.0
 10
21.0023065322
 20
11.9189786899
 30
0.0
 10
20.9598394053
 20
11.9337268337
 30
0.0
 10
20.9157436133
 20
11.9453229899
 30
0.0
 10
20.8704141607
 20
11.9536631406
 30
0.0
 10
20.8242584361
 20
11.958662933
 30
0.0
 10
20.7776927343
 20
11.9602967289
 30
0.0
 10
20.731135514
 20
11.9585259264
 30
0.0
 10
20.6850052085
 20
11.9533899201
 30
0.0
 10
20.6397177246
 20
11.9449167654
 30
0.0
 10
20.5956803873
 20
11.9331903057
 30
0.0
 10
20.5532872264
 20
11.9183175148
 30
0.0
 10
20.5129256491
 20
11.9004175074
 30
0.0
 10
20.4749496441
 20
11.8796699707
 30
0.0
 10
20.4397138979
 20
11.8562356878
 30
0.0
 10
20.4075249535
 20
11.8303421528
 30
0.0
 10
20.3786850971
 20
11.8022039068
 30
0.0
 10
20.3534565495
 20
11.7720778227
 30
0.0
 10
20.3320627323
 20
11.7402386205
 30
0.0
 10
20.314720835
 20
11.7069576808
 30
0.0
 10
20.3015761878
 20
11.6725359246
 30
0.0
 10
20.2927891422
 20
11.6372915429
 30
0.0
 10
20.2898605372
 20
11.6133931449
 30
0.0
 10
20.2891476465
 20
11.6014701887
 30
0.0
  0
SPLINE
  5
49B
100
AcDbEntity
  8
0
100
AcDbSpline
 62
9
  6
CONTINUOUS
 70
0
 71
3
 72
11
 73
7
 74
0
 42
0.0000001
 43
0.0000001
 44
0.0000000001
 40
0.0
 40
0.0
 40
0.0
 40
0.0
 40
0.2352893352
 40
0.4771931496
 40
0.7312328108
 40
1.0
 40
1.0
 40
1.0
 40
1.0
 10
20.29192792
 20
9.1687633271
 30
0.0
 10
20.2919371511
 20
9.1727843792
 30
0.0
 10
20.2930809673
 20
9.180975181
 30
0.0
 10
20.2980392854
 20
9.1925940916
 30
0.0
 10
20.3060771455
 20
9.2030494237
 30
0.0
 10
20.3129697275
 20
9.2088451996
 30
0.0
 10
20.3167475862
 20
9.211457712
 30
0.0
  0
SPLINE
  5
49C
100
AcDbEntity
  8
0
100
AcDbSpline
 62
9
  6
CONTINUOUS
 70
0
 71
3
 72
11
 73
7
 74
0
 42
0.0000001
 43
0.0000001
 44
0.0000000001
 40
0.0
 40
0.0
 40
0.0
 40
0.0
 40
0.2351624727
 40
0.4770065278
 40
0.7310971031
 40
1.0
 40
1.0
 40
1.0
 40
1.0
 10
20.29192792
 20
11.2899624391
 30
0.0
 10
20.2919372033
 20
11.2940062016
 30
0.0
 10
20.2930941298
 20
11.3022449205
 30
0.0
 10
20.29810931
 20
11.3139235382
 30
0.0
 10
20.3062343558
 20
11.3244185882
 30
0.0
 10
20.31319591
 20
11.330224579
 30
0.0
 10
20.3170105967
 20
11.3328378509
 30
0.0
  0
SPLINE
  5
49D
100
AcDbEntity
  8
0
100
AcDbSpline
 62
9
  6
CONTINUOUS
 70
0
 71
3
 72
15
 73
11
 74
0
 42
0.0000001
 43
0.0000001
 44
0.0000000001
 40
0.0
 40
0.0
 40
0.0
 40
0.0
 40
0.1118057608
 40
0.2255306505
 40
0.3426447763
 40
0.4641365266
 40
0.5907175866
 40
0.7226022535
 40
0.859304425
 40
1.0
 40
1.0
 40
1.0
 40
1.0
 10
20.3177834184
 20
11.3672125314
 30
0.0
 10
20.3177821141
 20
11.3701567109
 30
0.0
 10
20.3183966858
 20
11.3761131336
 30
0.0
 10
20.3211152409
 20
11.3847730464
 30
0.0
 10
20.3255028608
 20
11.3930045953
 30
0.0
 10
20.3314529947
 20
11.4006179923
 30
0.0
 10
20.3388619095
 20
11.4074050587
 30
0.0
 10
20.3475321051
 20
11.4132231114
 30
0.0
 10
20.357237129
 20
11.4179774164
 30
0.0
 10
20.3641754832
 20
11.4203341697
 30
0.0
 10
20.3677505342
 20
11.4213065651
 30
0.0
  0
SPLINE
  5
49E
100
AcDbEntity
  8
0
100
AcDbSpline
 62
7
  6
CONTINUOUS
 70
0
 71
3
 72
14
 73
10
 74
0
 42
0.0000001
 43
0.0000001
 44
0.0000000001
 40
0.0
 40
0.0
 40
0.0
 40
0.0
 40
0.2440369568
 40
0.362325894
 40
0.4804136491
 40
0.6009260343
 40
0.7265108346
 40
0.8592406667
 40
1.0
 40
1.0
 40
1.0
 40
1.0
 10
20.3262719516
 20
11.416245487
 30
0.0
 10
20.3276458951
 20
11.4200132537
 30
0.0
 10
20.3303416661
 20
11.4254124764
 30
0.0
 10
20.3351938777
 20
11.4316629382
 30
0.0
 10
20.3393848071
 20
11.4357914764
 30
0.0
 10
20.344152745
 20
11.4394309412
 30
0.0
 10
20.3494788164
 20
11.4426718615
 30
0.0
 10
20.3553448127
 20
11.4456158047
 30
0.0
 10
20.3594681956
 20
11.4474074846
 30
0.0
 10
20.36160187
 20
11.4483010119
 30
0.0
  0
SPLINE
  5
49F
100
AcDbEntity
  8
0
100
AcDbSpline
 62
7
  6
CONTINUOUS
 70
0
 71
3
 72
15
 73
11
 74
0
 42
0.0000001
 43
0.0000001
 44
0.0000000001
 40
0.0
 40
0.0
 40
0.0
 40
0.0
 40
0.1240926344
 40
0.2477332667
 40
0.3694859453
 40
0.4894810646
 40
0.6096995847
 40
0.7333105829
 40
0.8630982504
 40
1.0
 40
1.0
 40
1.0
 40
1.0
 10
20.3745926243
 20
11.4819597785
 30
0.0
 10
20.3754933829
 20
11.4847773249
 30
0.0
 10
20.3777271567
 20
11.490273547
 30
0.0
 10
20.382276812
 20
11.497854664
 30
0.0
 10
20.387899744
 20
11.5045561631
 30
0.0
 10
20.3944861206
 20
11.5101922505
 30
0.0
 10
20.4019540196
 20
11.5146762371
 30
0.0
 10
20.4102164489
 20
11.5180702616
 30
0.0
 10
20.4191782119
 20
11.5206163688
 30
0.0
 10
20.425405264
 20
11.5219087436
 30
0.0
 10
20.4286084468
 20
11.5225325686
 30
0.0
  0
SPLINE
  5
4A0
100
AcDbEntity
  8
0
100
AcDbSpline
 62
9
  6
CONTINUOUS
 70
0
 71
3
 72
14
 73
10
 74
0
 42
0.0000001
 43
0.0000001
 44
0.0000000001
 40
0.0
 40
0.0
 40
0.0
 40
0.0
 40
0.1116666393
 40
0.2253048424
 40
0.3424135425
 40
0.4639959339
 40
0.7221540205
 40
0.859101386
 40
1.0
 40
1.0
 40
1.0
 40
1.0
 10
20.3177834165
 20
9.2460182639
 30
0.0
 10
20.3177824253
 20
9.2490061364
 30
0.0
 10
20.3184167181
 20
9.2550528572
 30
0.0
 10
20.3212167133
 20
9.2638350229
 30
0.0
 10
20.325733543
 20
9.2721703477
 30
0.0
 10
20.3340478962
 20
9.2826191102
 30
0.0
 10
20.3453183756
 20
9.2910638246
 30
0.0
 10
20.3582963356
 20
9.2972129278
 30
0.0
 10
20.3653942929
 20
9.2995146221
 30
0.0
 10
20.3690465576
 20
9.3004495689
 30
0.0
  0
SPLINE
  5
4A1
100
AcDbEntity
  8
0
100
AcDbSpline
 62
9
  6
CONTINUOUS
 70
0
 71
3
 72
15
 73
11
 74
0
 42
0.0000001
 43
0.0000001
 44
0.0000000001
 40
0.0
 40
0.0
 40
0.0
 40
0.0
 40
0.1220263976
 40
0.2449870333
 40
0.3688566179
 40
0.493319789
 40
0.6183019337
 40
0.7443060581
 40
0.8716751614
 40
1.0
 40
1.0
 40
1.0
 40
1.0
 10
21.7436477428
 20
7.0135852879
 30
0.0
 10
21.7436478832
 20
7.0392154399
 30
0.0
 10
21.7414728567
 20
7.0906968718
 30
0.0
 10
21.7317883071
 20
7.1676475739
 30
0.0
 10
21.7156897895
 20
7.2440443756
 30
0.0
 10
21.6932947389
 20
7.3192783523
 30
0.0
 10
21.6647416532
 20
7.3928758717
 30
0.0
 10
21.6301892063
 20
7.4645330305
 30
0.0
 10
21.5897385192
 20
7.5338421938
 30
0.0
 10
21.559107709
 20
7.578032843
 30
0.0
 10
21.5429151231
 20
7.599579716
 30
0.0
  0
SPLINE
  5
4A2
100
AcDbEntity
  8
0
100
AcDbSpline
 62
9
  6
CONTINUOUS
 70
0
 71
3
 72
16
 73
12
 74
0
 42
0.0000001
 43
0.0000001
 44
0.0000000001
 40
0.0
 40
0.0
 40
0.0
 40
0.0
 40
0.1087657668
 40
0.1640412853
 40
0.2202719607
 40
0.3364402208
 40
0.4585632876
 40
0.586788522
 40
0.720736422
 40
0.8590915349
 40
1.0
 40
1.0
 40
1.0
 40
1.0
 10
20.3679182379
 20
9.3157937406
 30
0.0
 10
20.3679215739
 20
9.3194386716
 30
0.0
 10
20.368610774
 20
9.3249643858
 30
0.0
 10
20.3708324436
 20
9.332016839
 30
0.0
 10
20.373986225
 20
9.3389835442
 30
0.0
 10
20.3796044131
 20
9.347201039
 30
0.0
 10
20.3884786254
 20
9.3557965016
 30
0.0
 10
20.3992713944
 20
9.3629499492
 30
0.0
 10
20.4116228211
 20
9.3683552622
 30
0.0
 10
20.4250530442
 20
9.3719200844
 30
0.0
 10
20.4343921788
 20
9.3729783676
 30
0.0
 10
20.4391107393
 20
9.3731609298
 30
0.0
  0
SPLINE
  5
4A3
100
AcDbEntity
  8
0
100
AcDbSpline
 62
9
  6
CONTINUOUS
 70
0
 71
3
 72
34
 73
30
 74
0
 42
0.0000001
 43
0.0000001
 44
0.0000000001
 40
0.0
 40
0.0
 40
0.0
 40
0.0
 40
0.0326438248
 40
0.0489639989
 40
0.0652775917
 40
0.0978781203
 40
0.1304458192
 40
0.1629686555
 40
0.1954276583
 40
0.2278115276
 40
0.260111021
 40
0.2923156156
 40
0.3244164951
 40
0.3882619568
 40
0.4516089942
 40
0.514419037
 40
0.5456251042
 40
0.5766921166
 40
0.6384067789
 40
0.6996137693
 40
0.7603008766
 40
0.7904724478
 40
0.8205726202
 40
0.8506524461
 40
0.8807306287
 40
0.9107558987
 40
0.9406612658
 40
0.9704080304
 40
1.0
 40
1.0
 40
1.0
 40
1.0
 10
20.7786357507
 20
6.1328069742
 30
0.0
 10
20.7944138633
 20
6.1328802843
 30
0.0
 10
20.818081546
 20
6.1334887072
 30
0.0
 10
20.8495846899
 20
6.1352660553
 30
0.0
 10
20.8810244961
 20
6.137683898
 30
0.0
 10
20.9201886278
 20
6.1419799745
 30
0.0
 10
20.9668421923
 20
6.1493753143
 30
0.0
 10
21.0130416371
 20
6.1588736326
 30
0.0
 10
21.058690582
 20
6.1703805788
 30
0.0
 10
21.1036703105
 20
6.1839078882
 30
0.0
 10
21.1478665504
 20
6.1994420888
 30
0.0
 10
21.1911723749
 20
6.2169509717
 30
0.0
 10
21.2474673109
 20
6.2428327373
 30
0.0
 10
21.3151230644
 20
6.279839993
 30
0.0
 10
21.3913330251
 20
6.3313191867
 30
0.0
 10
21.450088424
 20
6.3798276673
 30
0.0
 10
21.4937635509
 20
6.4216646454
 30
0.0
 10
21.5349381411
 20
6.465238316
 30
0.0
 10
21.5819626795
 20
6.5231081173
 30
0.0
 10
21.6307726815
 20
6.5973995837
 30
0.0
 10
21.6647537631
 20
6.6627336843
 30
0.0
 10
21.6876010965
 20
6.7165742922
 30
0.0
 10
21.702484106
 20
6.7576551775
 30
0.0
 10
21.7150601283
 20
6.7994526437
 30
0.0
 10
21.725291249
 20
6.8418468514
 30
0.0
 10
21.7332596069
 20
6.8846358043
 30
0.0
 10
21.7390263644
 20
6.9276143551
 30
0.0
 10
21.7426163937
 20
6.970617933
 30
0.0
 10
21.7435437735
 20
6.9992990647
 30
0.0
 10
21.7436359583
 20
7.0136019466
 30
0.0
  0
SPLINE
  5
4A4
100
AcDbEntity
  8
0
100
AcDbSpline
 62
9
  6
CONTINUOUS
 70
0
 71
3
 72
11
 73
7
 74
0
 42
0.0000001
 43
0.0000001
 44
0.0000000001
 40
0.0
 40
0.0
 40
0.0
 40
0.0
 40
0.268668909
 40
0.5216161593
 40
0.7635411738
 40
1.0
 40
1.0
 40
1.0
 40
1.0
 10
21.7436359583
 20
7.0136019466
 30
0.0
 10
21.7485190764
 20
7.0067278728
 30
0.0
 10
21.7571859584
 20
6.9927698105
 30
0.0
 10
21.7667646188
 20
6.9707023607
 30
0.0
 10
21.7724001101
 20
6.9483438353
 30
0.0
 10
21.7734732803
 20
6.9332742523
 30
0.0
 10
21.7733323028
 20
6.9258545306
 30
0.0
  0
SPLINE
  5
4A5
100
AcDbEntity
  8
0
100
AcDbSpline
 62
9
  6
CONTINUOUS
 70
0
 71
3
 72
11
 73
7
 74
0
 42
0.0000001
 43
0.0000001
 44
0.0000000001
 40
0.0
 40
0.0
 40
0.0
 40
0.0
 40
0.2686863002
 40
0.5216376841
 40
0.7635418184
 40
1.0
 40
1.0
 40
1.0
 40
1.0
 10
19.8136359593
 20
7.0136018797
 30
0.0
 10
19.8087523768
 20
7.0067271515
 30
0.0
 10
19.8000808291
 20
6.9927710654
 30
0.0
 10
19.7904947125
 20
6.9707052512
 30
0.0
 10
19.7848690006
 20
6.9483435075
 30
0.0
 10
19.7837994432
 20
6.9332745721
 30
0.0
 10
19.7839389812
 20
6.9258546175
 30
0.0
  0
SPLINE
  5
4A6
100
AcDbEntity
  8
0
100
AcDbSpline
 62
9
  6
CONTINUOUS
 70
0
 71
3
 72
11
 73
7
 74
0
 42
0.0000001
 43
0.0000001
 44
0.0000000001
 40
0.0
 40
0.0
 40
0.0
 40
0.0
 40
0.2450009259
 40
0.492001973
 40
0.7430128505
 40
1.0
 40
1.0
 40
1.0
 40
1.0
 10
20.3679182279
 20
11.4369798441
 30
0.0
 10
20.3679195734
 20
11.4391361649
 30
0.0
 10
20.368237275
 20
11.4434725975
 30
0.0
 10
20.3696527649
 20
11.4498791421
 30
0.0
 10
20.3720037192
 20
11.4561178036
 30
0.0
 10
20.3741591949
 20
11.4600532613
 30
0.0
 10
20.3753698305
 20
11.4619638032
 30
0.0
  0
SPLINE
  5
4A7
100
AcDbEntity
  8
0
100
AcDbSpline
 62
9
  6
CONTINUOUS
 70
0
 71
3
 72
13
 73
9
 74
0
 42
0.0000001
 43
0.0000001
 44
0.0000000001
 40
0.0
 40
0.0
 40
0.0
 40
0.0
 40
0.2278595274
 40
0.348211771
 40
0.4726103054
 40
0.6007705706
 40
0.732028176
 40
1.0
 40
1.0
 40
1.0
 40
1.0
 10
20.3753698305
 20
11.4619638032
 30
0.0
 10
20.3783839682
 20
11.4667205081
 30
0.0
 10
20.3841746912
 20
11.4732891732
 30
0.0
 10
20.3934551166
 20
11.4804080493
 30
0.0
 10
20.4014383811
 20
11.4850655304
 30
0.0
 10
20.4101619853
 20
11.4888439903
 30
0.0
 10
20.4226321615
 20
11.4926937421
 30
0.0
 10
20.4324930872
 20
11.4941040032
 30
0.0
 10
20.4391107393
 20
11.4943600418
 30
0.0
  0
SPLINE
  5
4A8
100
AcDbEntity
  8
0
100
AcDbSpline
 62
9
  6
CONTINUOUS
 70
0
 71
3
 72
20
 73
16
 74
0
 42
0.0000001
 43
0.0000001
 44
0.0000000001
 40
0.0
 40
0.0
 40
0.0
 40
0.0
 40
0.0533175959
 40
0.1071032337
 40
0.1617566259
 40
0.2176054708
 40
0.2749288329
 40
0.3339716894
 40
0.3948516953
 40
0.4575318179
 40
0.5875961257
 40
0.6547632389
 40
0.7230155436
 40
0.8613819005
 40
1.0
 40
1.0
 40
1.0
 40
1.0
 10
20.439105162
 20
9.3738538242
 30
0.0
 10
20.4391052432
 20
9.3759758588
 30
0.0
 10
20.4394233747
 20
9.3802447572
 30
0.0
 10
20.4408214949
 20
9.3865496852
 30
0.0
 10
20.443109466
 20
9.3926966282
 30
0.0
 10
20.4462568773
 20
9.398609261
 30
0.0
 10
20.4502330359
 20
9.4042147139
 30
0.0
 10
20.4550077969
 20
9.4094304908
 30
0.0
 10
20.460509328
 20
9.4142026208
 30
0.0
 10
20.4688030056
 20
9.419981769
 30
0.0
 10
20.47814995
 20
9.4245892897
 30
0.0
 10
20.4881910507
 20
9.4279131246
 30
0.0
 10
20.4988180531
 20
9.430384132
 30
0.0
 10
20.5125563971
 20
9.4317545115
 30
0.0
 10
20.5236176113
 20
9.4310199441
 30
0.0
 10
20.5290686889
 20
9.4301697183
 30
0.0
  0
SPLINE
  5
4A9
100
AcDbEntity
  8
0
100
AcDbSpline
 62
9
  6
CONTINUOUS
 70
0
 71
3
 72
20
 73
16
 74
0
 42
0.0000001
 43
0.0000001
 44
0.0000000001
 40
0.0
 40
0.0
 40
0.0
 40
0.0
 40
0.0533177894
 40
0.1071033433
 40
0.1617564678
 40
0.2176049306
 40
0.2749278445
 40
0.3339702376
 40
0.3948498643
 40
0.457529737
 40
0.5875939532
 40
0.6547612199
 40
0.7230137946
 40
0.8613809534
 40
1.0
 40
1.0
 40
1.0
 40
1.0
 10
20.4391051621
 20
11.4950483165
 30
0.0
 10
20.4391050147
 20
11.4971704407
 30
0.0
 10
20.4394227196
 20
11.5014395432
 30
0.0
 10
20.4408203088
 20
11.5077448405
 30
0.0
 10
20.4431078496
 20
11.5138921853
 30
0.0
 10
20.4462549268
 20
11.5198052415
 30
0.0
 10
20.4502308423
 20
11.5254111312
 30
0.0
 10
20.4550054547
 20
11.5306273476
 30
0.0
 10
20.4605069424
 20
11.5353998936
 30
0.0
 10
20.4688006899
 20
11.5411795764
 30
0.0
 10
20.4781478592
 20
11.5457875519
 30
0.0
 10
20.4881892831
 20
11.5491117529
 30
0.0
 10
20.4988167002
 20
11.5515830573
 30
0.0
 10
20.5125556452
 20
11.5529536517
 30
0.0
 10
20.5236173639
 20
11.5522190946
 30
0.0
 10
20.5290686889
 20
11.5513688302
 30
0.0
  0
SPLINE
  5
4AA
100
AcDbEntity
  8
0
100
AcDbSpline
 62
9
  6
CONTINUOUS
 70
0
 71
3
 72
22
 73
18
 74
0
 42
0.0000001
 43
0.0000001
 44
0.0000000001
 40
0.0
 40
0.0
 40
0.0
 40
0.0
 40
0.1405017075
 40
0.2101103615
 40
0.2789184176
 40
0.3466863577
 40
0.4132023672
 40
0.4783087105
 40
0.5418856398
 40
0.6038582397
 40
0.6642182408
 40
0.7230106368
 40
0.7803615395
 40
0.8364683732
 40
0.8915709432
 40
0.9459654193
 40
1.0
 40
1.0
 40
1.0
 40
1.0
 10
20.7786359587
 20
8.6775765122
 30
0.0
 10
20.8042357169
 20
8.6775765252
 30
0.0
 10
20.8426057833
 20
8.6747118916
 30
0.0
 10
20.8925474966
 20
8.6651209667
 30
0.0
 10
20.9288233966
 20
8.6551983974
 30
0.0
 10
20.9636672506
 20
8.6426227894
 30
0.0
 10
20.9967368467
 20
8.6274763396
 30
0.0
 10
21.0277150096
 20
8.6099114179
 30
0.0
 10
21.0563164156
 20
8.5901093143
 30
0.0
 10
21.082251943
 20
8.5682379131
 30
0.0
 10
21.105283462
 20
8.5445220975
 30
0.0
 10
21.1251736631
 20
8.5191708105
 30
0.0
 10
21.1417128069
 20
8.4924184204
 30
0.0
 10
21.1547739857
 20
8.4645440885
 30
0.0
 10
21.1642271744
 20
8.4358080078
 30
0.0
 10
21.1699277887
 20
8.4064845187
 30
0.0
 10
21.1711981363
 20
8.3867053707
 30
0.0
 10
21.1711981689
 20
8.3768601367
 30
0.0
  0
SPLINE
  5
4AB
100
AcDbEntity
  8
0
100
AcDbSpline
 62
7
  6
CONTINUOUS
 70
0
 71
3
 72
19
 73
15
 74
0
 42
0.0000001
 43
0.0000001
 44
0.0000000001
 40
0.0
 40
0.0
 40
0.0
 40
0.0
 40
0.055145498
 40
0.1135149814
 40
0.1738877324
 40
0.2355070587
 40
0.3602119682
 40
0.484870042
 40
0.5469970846
 40
0.6091057467
 40
0.6715792595
 40
0.7348184462
 40
0.8648887496
 40
1.0
 40
1.0
 40
1.0
 40
1.0
 10
20.4436653102
 20
11.5349628015
 30
0.0
 10
20.4440900807
 20
11.5366602125
 30
0.0
 10
20.4451611112
 20
11.5401068552
 30
0.0
 10
20.4472935383
 20
11.5452032958
 30
0.0
 10
20.4499774134
 20
11.5502671493
 30
0.0
 10
20.4542516987
 20
11.5568349581
 30
0.0
 10
20.4607582507
 20
11.5643355408
 30
0.0
 10
20.4686031569
 20
11.570459604
 30
0.0
 10
20.4754926136
 20
11.574343049
 30
0.0
 10
20.4809271508
 20
11.5767263854
 30
0.0
 10
20.4865974001
 20
11.578588564
 30
0.0
 10
20.4945140691
 20
11.5804181681
 30
0.0
 10
20.5049038318
 20
11.5815696064
 30
0.0
 10
20.5133215011
 20
11.5816745364
 30
0.0
 10
20.5176085395
 20
11.5816667486
 30
0.0
  0
SPLINE
  5
4AC
100
AcDbEntity
  8
0
100
AcDbSpline
 62
7
  6
CONTINUOUS
 70
0
 71
3
 72
9
 73
5
 74
0
 42
0.0000001
 43
0.0000001
 44
0.0000000001
 40
0.0
 40
0.0
 40
0.0
 40
0.0
 40
0.2480586532
 40
1.0
 40
1.0
 40
1.0
 40
1.0
 10
21.0723076214
 20
11.5567017742
 30
0.0
 10
21.0721569456
 20
11.5574018728
 30
0.0
 10
21.0714814331
 20
11.5602092284
 30
0.0
 10
21.0705375149
 20
11.5629509443
 30
0.0
 10
21.0696956621
 20
11.5649518651
 30
0.0
  0
SPLINE
  5
4AD
100
AcDbEntity
  8
0
100
AcDbSpline
 62
9
  6
CONTINUOUS
 70
0
 71
3
 72
10
 73
6
 74
0
 42
0.0000001
 43
0.0000001
 44
0.0000000001
 40
0.0
 40
0.0
 40
0.0
 40
0.0
 40
0.2483781355
 40
0.4993025746
 40
1.0
 40
1.0
 40
1.0
 40
1.0
 10
20.7786359587
 20
7.7856577936
 30
0.0
 10
20.7611810114
 20
7.7856577936
 30
0.0
 10
20.726091916
 20
7.7859687744
 30
0.0
 10
20.6558313471
 20
7.7874792652
 30
0.0
 10
20.6030396203
 20
7.7892634713
 30
0.0
 10
20.5678726239
 20
7.7904456784
 30
0.0
  0
SPLINE
  5
4AE
100
AcDbEntity
  8
0
100
AcDbSpline
 62
7
  6
CONTINUOUS
 70
0
 71
3
 72
14
 73
10
 74
0
 42
0.0000001
 43
0.0000001
 44
0.0000000001
 40
0.0
 40
0.0
 40
0.0
 40
0.0
 40
0.277617391
 40
0.4115292786
 40
0.541083337
 40
0.6654748921
 40
0.7839196429
 40
0.8956639025
 40
1.0
 40
1.0
 40
1.0
 40
1.0
 10
20.5678726239
 20
7.7904456784
 30
0.0
 10
20.5402502868
 20
7.791374257
 30
0.0
 10
20.4993034873
 20
7.7927494499
 30
0.0
 10
20.4454519603
 20
7.7940645711
 30
0.0
 10
20.4068425858
 20
7.7946378124
 30
0.0
 10
20.3697681724
 20
7.7946862922
 30
0.0
 10
20.3344706025
 20
7.7940858419
 30
0.0
 10
20.3011919255
 20
7.7927129938
 30
0.0
 10
20.2797315547
 20
7.7911444271
 30
0.0
 10
20.2693909781
 20
7.7901626084
 30
0.0
  0
SPLINE
  5
4AF
100
AcDbEntity
  8
0
100
AcDbSpline
 62
7
  6
CONTINUOUS
 70
0
 71
3
 72
11
 73
7
 74
0
 42
0.0000001
 43
0.0000001
 44
0.0000000001
 40
0.0
 40
0.0
 40
0.0
 40
0.0
 40
0.2729185863
 40
0.530883256
 40
0.7733701364
 40
1.0
 40
1.0
 40
1.0
 40
1.0
 10
20.2693910031
 20
7.7901626539
 30
0.0
 10
20.2632081619
 20
7.7895756042
 30
0.0
 10
20.2511952422
 20
7.7882764468
 30
0.0
 10
20.2337642185
 20
7.7858235752
 30
0.0
 10
20.2174764937
 20
7.7828876759
 30
0.0
 10
20.2070644173
 20
7.780505114
 30
0.0
 10
20.2020731565
 20
7.7792070832
 30
0.0
  0
SPLINE
  5
4B0
100
AcDbEntity
  8
0
100
AcDbSpline
 62
7
  6
CONTINUOUS
 70
0
 71
3
 72
10
 73
6
 74
0
 42
0.0000001
 43
0.0000001
 44
0.0000000001
 40
0.0
 40
0.0
 40
0.0
 40
0.0
 40
0.2874551286
 40
0.548479541
 40
1.0
 40
1.0
 40
1.0
 40
1.0
 10
20.1924569416
 20
7.7764950785
 30
0.0
 10
20.1873889714
 20
7.7749456751
 30
0.0
 10
20.1778115497
 20
7.7716287556
 30
0.0
 10
20.1610722394
 20
7.7639315793
 30
0.0
 10
20.1500636667
 20
7.7562169818
 30
0.0
 10
20.1444164388
 20
7.7501012872
 30
0.0
  0
SPLINE
  5
4B1
100
AcDbEntity
  8
0
100
AcDbSpline
 62
9
  6
CONTINUOUS
 70
0
 71
3
 72
18
 73
14
 74
0
 42
0.0000001
 43
0.0000001
 44
0.0000000001
 40
0.0
 40
0.0
 40
0.0
 40
0.0
 40
0.1341367844
 40
0.2693948859
 40
0.4039013629
 40
0.4702839826
 40
0.5357723597
 40
0.6631308066
 40
0.7841296317
 40
0.8416829385
 40
0.8969820158
 40
0.9498196443
 40
1.0
 40
1.0
 40
1.0
 40
1.0
 10
20.7786359587
 20
7.7493065934
 30
0.0
 10
20.7547126115
 20
7.7494820335
 30
0.0
 10
20.7066689818
 20
7.7502648751
 30
0.0
 10
20.634656816
 20
7.7522029384
 30
0.0
 10
20.5747321305
 20
7.7540652719
 30
0.0
 10
20.5272427546
 20
7.755459542
 30
0.0
 10
20.4810240052
 20
7.7566841867
 30
0.0
 10
20.4250577146
 20
7.7577848661
 30
0.0
 10
20.3704918662
 20
7.7579270737
 30
0.0
 10
20.3287887131
 20
7.7571633828
 30
0.0
 10
20.2992537376
 20
7.7561173014
 30
0.0
 10
20.2710595609
 20
7.7545285229
 30
0.0
 10
20.2527442614
 20
7.7530263167
 30
0.0
 10
20.243837231
 20
7.7521511064
 30
0.0
  0
SPLINE
  5
4B2
100
AcDbEntity
  8
0
100
AcDbSpline
 62
9
  6
CONTINUOUS
 70
0
 71
3
 72
10
 73
6
 74
0
 42
0.0000001
 43
0.0000001
 44
0.0000000001
 40
0.0
 40
0.0
 40
0.0
 40
0.0
 40
0.2483781355
 40
0.4993025746
 40
1.0
 40
1.0
 40
1.0
 40
1.0
 10
20.7786359587
 20
7.7856577936
 30
0.0
 10
20.7960909059
 20
7.7856577936
 30
0.0
 10
20.8311800013
 20
7.7859687744
 30
0.0
 10
20.9014405702
 20
7.7874792652
 30
0.0
 10
20.954232297
 20
7.7892634713
 30
0.0
 10
20.9893992935
 20
7.7904456784
 30
0.0
  0
SPLINE
  5
4B3
100
AcDbEntity
  8
0
100
AcDbSpline
 62
7
  6
CONTINUOUS
 70
0
 71
3
 72
14
 73
10
 74
0
 42
0.0000001
 43
0.0000001
 44
0.0000000001
 40
0.0
 40
0.0
 40
0.0
 40
0.0
 40
0.2776182263
 40
0.4115303956
 40
0.5410846042
 40
0.6654761488
 40
0.7839207007
 40
0.8956645482
 40
1.0
 40
1.0
 40
1.0
 40
1.0
 10
20.9893992935
 20
7.7904456784
 30
0.0
 10
21.0170220946
 20
7.7913742726
 30
0.0
 10
21.0579695703
 20
7.7927494884
 30
0.0
 10
21.1118219667
 20
7.7940646139
 30
0.0
 10
21.1504319163
 20
7.794637838
 30
0.0
 10
21.1875068354
 20
7.7946862741
 30
0.0
 10
21.2228048295
 20
7.7940857477
 30
0.0
 10
21.2560838367
 20
7.7927127847
 30
0.0
 10
21.2775443919
 20
7.7911441052
 30
0.0
 10
21.2878850414
 20
7.7901622189
 30
0.0
  0
LINE
  5
4B4
100
AcDbEntity
  8
0
100
AcDbLine
 62
9
  6
CONTINUOUS
 10
21.2878850414
 20
7.7901622189
 11
21.3134346863
 21
7.7521511064
  0
SPLINE
  5
4B5
100
AcDbEntity
  8
0
100
AcDbSpline
 62
7
  6
CONTINUOUS
 70
0
 71
3
 72
11
 73
7
 74
0
 42
0.0000001
 43
0.0000001
 44
0.0000000001
 40
0.0
 40
0.0
 40
0.0
 40
0.0
 40
0.2729176032
 40
0.530881902
 40
0.773369093
 40
1.0
 40
1.0
 40
1.0
 40
1.0
 10
21.2878850127
 20
7.7901622616
 30
0.0
 10
21.294067455
 20
7.7895752138
 30
0.0
 10
21.3060796114
 20
7.7882760712
 30
0.0
 10
21.3235095473
 20
7.7858232674
 30
0.0
 10
21.3397963001
 20
7.7828874838
 30
0.0
 10
21.3502077736
 20
7.7805050428
 30
0.0
 10
21.3551987561
 20
7.7792070847
 30
0.0
  0
SPLINE
  5
4B6
100
AcDbEntity
  8
0
100
AcDbSpline
 62
7
  6
CONTINUOUS
 70
0
 71
3
 72
10
 73
6
 74
0
 42
0.0000001
 43
0.0000001
 44
0.0000000001
 40
0.0
 40
0.0
 40
0.0
 40
0.0
 40
0.2874551297
 40
0.5484795422
 40
1.0
 40
1.0
 40
1.0
 40
1.0
 10
21.3648149777
 20
7.7764950786
 30
0.0
 10
21.369882947
 20
7.7749456757
 30
0.0
 10
21.379460367
 20
7.7716287571
 30
0.0
 10
21.3961996741
 20
7.7639315828
 30
0.0
 10
21.4072082448
 20
7.7562169871
 30
0.0
 10
21.4128554717
 20
7.7501012938
 30
0.0
  0
SPLINE
  5
4B7
100
AcDbEntity
  8
0
100
AcDbSpline
 62
9
  6
CONTINUOUS
 70
0
 71
3
 72
15
 73
11
 74
0
 42
0.0000001
 43
0.0000001
 44
0.0000000001
 40
0.0
 40
0.0
 40
0.0
 40
0.0
 40
0.0916845333
 40
0.1924814641
 40
0.3030933625
 40
0.4237283818
 40
0.5542639141
 40
0.6942693958
 40
0.8431222868
 40
1.0
 40
1.0
 40
1.0
 40
1.0
 10
21.7436359574
 20
7.0136304407
 30
0.0
 10
21.7386427178
 20
7.020659159
 30
0.0
 10
21.7268809743
 20
7.0345250357
 30
0.0
 10
21.7056275764
 20
7.0536134856
 30
0.0
 10
21.6801611143
 20
7.0717776266
 30
0.0
 10
21.6507067328
 20
7.0888851867
 30
0.0
 10
21.6175014039
 20
7.1047911576
 30
0.0
 10
21.5808288864
 20
7.1193741995
 30
0.0
 10
21.5409981389
 20
7.1324992903
 30
0.0
 10
21.5132360103
 20
7.1400275607
 30
0.0
 10
21.4989096818
 20
7.1435474647
 30
0.0
  0
SPLINE
  5
4B8
100
AcDbEntity
  8
0
100
AcDbSpline
 62
9
  6
CONTINUOUS
 70
0
 71
3
 72
33
 73
29
 74
0
 42
0.0000001
 43
0.0000001
 44
0.0000000001
 40
0.0
 40
0.0
 40
0.0
 40
0.0
 40
0.032644463
 40
0.0489650383
 40
0.0652791545
 40
0.0978807739
 40
0.1304494216
 40
0.1629726004
 40
0.1954313177
 40
0.2278148117
 40
0.2601141732
 40
0.3244060044
 40
0.388254159
 40
0.4516003047
 40
0.5144083662
 40
0.5766669144
 40
0.6383858417
 40
0.6995887721
 40
0.7300079019
 40
0.7602959653
 40
0.7904694871
 40
0.8205715021
 40
0.8506530948
 40
0.8807330624
 40
0.9107589924
 40
0.940662598
 40
0.9704068365
 40
1.0
 40
1.0
 40
1.0
 40
1.0
 10
20.7786359587
 20
6.1328069746
 30
0.0
 10
20.762857363
 20
6.1328798833
 30
0.0
 10
20.7391889147
 20
6.1334842292
 30
0.0
 10
20.7076841358
 20
6.1352520551
 30
0.0
 10
20.6762421526
 20
6.137658527
 30
0.0
 10
20.6370746743
 20
6.1419400164
 30
0.0
 10
20.5904180793
 20
6.1493281387
 30
0.0
 10
20.5442186966
 20
6.1588331211
 30
0.0
 10
20.4985741789
 20
6.1703586611
 30
0.0
 10
20.4535987925
 20
6.1839030605
 30
0.0
 10
20.3947714512
 20
6.2045872727
 30
0.0
 10
20.3234473644
 20
6.2353350317
 30
0.0
 10
20.242116525
 20
6.2797904426
 30
0.0
 10
20.1659190952
 20
6.3313049208
 30
0.0
 10
20.095595386
 20
6.3893924187
 30
0.0
 10
20.0318304931
 20
6.453515481
 30
0.0
 10
19.9752554717
 20
6.5230673641
 30
0.0
 10
19.9345063963
 20
6.5851469072
 30
0.0
 10
19.9060266786
 20
6.6367566551
 30
0.0
 10
19.8867771098
 20
6.6762640072
 30
0.0
 10
19.8696587008
 20
6.7165737653
 30
0.0
 10
19.8547567595
 20
6.7576502208
 30
0.0
 10
19.8421656014
 20
6.7994467799
 30
0.0
 10
19.831930676
 20
6.8418427916
 30
0.0
 10
19.8239675873
 20
6.8846337172
 30
0.0
 10
19.8182156671
 20
6.9276131041
 30
0.0
 10
19.8146455503
 20
6.9706173262
 30
0.0
 10
19.8137269177
 20
6.9992982238
 30
0.0
 10
19.8136359593
 20
7.0136018472
 30
0.0
  0
SPLINE
  5
4B9
100
AcDbEntity
  8
0
100
AcDbSpline
 62
9
  6
CONTINUOUS
 70
0
 71
3
 72
15
 73
11
 74
0
 42
0.0000001
 43
0.0000001
 44
0.0000000001
 40
0.0
 40
0.0
 40
0.0
 40
0.0
 40
0.0917117226
 40
0.1925436085
 40
0.3031288002
 40
0.4237221082
 40
0.5542723959
 40
0.6943068377
 40
0.8431427905
 40
1.0
 40
1.0
 40
1.0
 40
1.0
 10
19.8136359597
 20
7.013628553
 30
0.0
 10
19.8186305309
 20
7.0206593127
 30
0.0
 10
19.8304062886
 20
7.0345215958
 30
0.0
 10
19.8516699918
 20
7.0536011922
 30
0.0
 10
19.8771236122
 20
7.0717761741
 30
0.0
 10
19.9065678644
 20
7.0888915075
 30
0.0
 10
19.9397785837
 20
7.104786259
 30
0.0
 10
19.9764559589
 20
7.1193612729
 30
0.0
 10
20.0162813156
 20
7.1324974628
 30
0.0
 10
20.0440380953
 20
7.1400311944
 30
0.0
 10
20.058362285
 20
7.1435508521
 30
0.0
  0
SPLINE
  5
4BA
100
AcDbEntity
  8
0
100
AcDbSpline
 62
9
  6
CONTINUOUS
 70
0
 71
3
 72
22
 73
18
 74
0
 42
0.0000001
 43
0.0000001
 44
0.0000000001
 40
0.0
 40
0.0
 40
0.0
 40
0.0
 40
0.0571518127
 40
0.1150863367
 40
0.1738696151
 40
0.2335621489
 40
0.2942384675
 40
0.355912454
 40
0.4185610948
 40
0.4821088865
 40
0.5464331326
 40
0.6113625127
 40
0.6766782521
 40
0.7421434462
 40
0.8074859217
 40
0.8724411267
 40
1.0
 40
1.0
 40
1.0
 40
1.0
 10
20.0583619366
 20
7.1435271815
 30
0.0
 10
20.0583172996
 20
7.1230186534
 30
0.0
 10
20.0604189184
 20
7.0816833283
 30
0.0
 10
20.0701956488
 20
7.0199466279
 30
0.0
 10
20.0868073787
 20
6.9587318825
 30
0.0
 10
20.110303772
 20
6.8987545607
 30
0.0
 10
20.1407016108
 20
6.8407885936
 30
0.0
 10
20.1776754168
 20
6.7855034854
 30
0.0
 10
20.220885531
 20
6.7336013728
 30
0.0
 10
20.2697491538
 20
6.6856254872
 30
0.0
 10
20.3236825162
 20
6.6421250453
 30
0.0
 10
20.3819228676
 20
6.6034430152
 30
0.0
 10
20.4437318447
 20
6.5699126226
 30
0.0
 10
20.5082733102
 20
6.5416537958
 30
0.0
 10
20.5747701151
 20
6.5187648527
 30
0.0
 10
20.6643708719
 20
6.4954112425
 30
0.0
 10
20.7330081293
 20
6.4853234696
 30
0.0
 10
20.7786359587
 20
6.4816718403
 30
0.0
  0
SPLINE
  5
4BB
100
AcDbEntity
  8
0
100
AcDbSpline
 62
9
  6
CONTINUOUS
 70
0
 71
3
 72
15
 73
11
 74
0
 42
0.0000001
 43
0.0000001
 44
0.0000000001
 40
0.0
 40
0.0
 40
0.0
 40
0.0
 40
0.1220275472
 40
0.2449890116
 40
0.3688591633
 40
0.4933229646
 40
0.6183051885
 40
0.7443083769
 40
0.8716761502
 40
1.0
 40
1.0
 40
1.0
 40
1.0
 10
19.8136238437
 20
7.0135847899
 30
0.0
 10
19.8136236462
 20
7.039209074
 30
0.0
 10
19.8157975396
 20
7.0906786437
 30
0.0
 10
19.8254774337
 20
7.1676118002
 30
0.0
 10
19.8415684078
 20
7.2439915671
 30
0.0
 10
19.8639531159
 20
7.3192093434
 30
0.0
 10
19.8924932353
 20
7.3927916215
 30
0.0
 10
19.9270300574
 20
7.4644347141
 30
0.0
 10
19.9674627823
 20
7.5337313855
 30
0.0
 10
19.9980802762
 20
7.5779150494
 30
0.0
 10
20.0142659517
 20
7.5994588189
 30
0.0
  0
SPLINE
  5
4BC
100
AcDbEntity
  8
0
100
AcDbSpline
 62
9
  6
CONTINUOUS
 70
0
 71
3
 72
14
 73
10
 74
0
 42
0.0000001
 43
0.0000001
 44
0.0000000001
 40
0.0
 40
0.0
 40
0.0
 40
0.0
 40
0.1229490065
 40
0.2470769787
 40
0.3719678577
 40
0.4970543496
 40
0.6225131637
 40
0.7485155275
 40
1.0
 40
1.0
 40
1.0
 40
1.0
 10
20.2438416399
 20
7.7521515396
 30
0.0
 10
20.2290955873
 20
7.7302014263
 30
0.0
 10
20.2010989663
 20
7.6849667649
 30
0.0
 10
20.164074751
 20
7.613971415
 30
0.0
 10
20.1321870538
 20
7.5400168143
 30
0.0
 10
20.1057744627
 20
7.4636365498
 30
0.0
 10
20.0849258786
 20
7.3852989855
 30
0.0
 10
20.0648090238
 20
7.2789483596
 30
0.0
 10
20.058538034
 20
7.1976152144
 30
0.0
 10
20.0583619366
 20
7.1435271815
 30
0.0
  0
LINE
  5
4BD
100
AcDbEntity
  8
0
100
AcDbLine
 62
9
  6
CONTINUOUS
 10
20.2693869046
 20
7.7901622616
 11
20.243837231
 21
7.7521511064
  0
SPLINE
  5
4BE
100
AcDbEntity
  8
0
100
AcDbSpline
 62
9
  6
CONTINUOUS
 70
0
 71
3
 72
26
 73
22
 74
0
 42
0.0000001
 43
0.0000001
 44
0.0000000001
 40
0.0
 40
0.0
 40
0.0
 40
0.0
 40
0.0645911959
 40
0.0968875236
 40
0.1291536443
 40
0.1935591669
 40
0.2577811595
 40
0.3218480183
 40
0.3538194397
 40
0.3857304383
 40
0.4175622028
 40
0.4492987848
 40
0.5124748784
 40
0.5439137285
 40
0.5752532589
 40
0.6376119513
 40
0.6994954711
 40
0.7608452977
 40
0.8216163088
 40
0.8817662018
 40
1.0
 40
1.0
 40
1.0
 40
1.0
 10
20.7786359589
 20
7.2252030069
 30
0.0
 10
20.7644946993
 20
7.224035073
 30
0.0
 10
20.7432363809
 20
7.22281707
 30
0.0
 10
20.7148757991
 20
7.221982023
 30
0.0
 10
20.6865453864
 20
7.2215968524
 30
0.0
 10
20.6512012286
 20
7.2216435972
 30
0.0
 10
20.608865123
 20
7.2212072072
 30
0.0
 10
20.5737004464
 20
7.219310022
 30
0.0
 10
20.5456686666
 20
7.2172456917
 30
0.0
 10
20.5247123695
 20
7.2155255546
 30
0.0
 10
20.5038142287
 20
7.2137328272
 30
0.0
 10
20.4760721855
 20
7.2113614916
 30
0.0
 10
20.4484238462
 20
7.2089036067
 30
0.0
 10
20.4208881626
 20
7.2061803004
 30
0.0
 10
20.3935565537
 20
7.2032292157
 30
0.0
 10
20.3596242284
 20
7.1991228428
 30
0.0
 10
20.3192264772
 20
7.1936097859
 30
0.0
 10
20.2792511961
 20
7.1876082167
 30
0.0
 10
20.2397368492
 20
7.1811250618
 30
0.0
 10
20.1880133277
 20
7.1719066584
 30
0.0
 10
20.149578876
 20
7.164225401
 30
0.0
 10
20.1241879199
 20
7.1587546973
 30
0.0
  0
SPLINE
  5
4BF
100
AcDbEntity
  8
0
100
AcDbSpline
 62
9
  6
CONTINUOUS
 70
0
 71
3
 72
18
 73
14
 74
0
 42
0.0000001
 43
0.0000001
 44
0.0000000001
 40
0.0
 40
0.0
 40
0.0
 40
0.0
 40
0.1341364631
 40
0.2693942485
 40
0.4039004591
 40
0.4702829781
 40
0.5357712835
 40
0.6631296955
 40
0.7841286646
 40
0.8416821224
 40
0.8969814091
 40
0.9498193087
 40
1.0
 40
1.0
 40
1.0
 40
1.0
 10
20.7786359585
 20
7.7493065934
 30
0.0
 10
20.8025590503
 20
7.7494820316
 30
0.0
 10
20.8506021687
 20
7.7502648604
 30
0.0
 10
20.9226135774
 20
7.7522028937
 30
0.0
 10
20.9825376451
 20
7.7540652054
 30
0.0
 10
21.0300265495
 20
7.7554594679
 30
0.0
 10
21.0762448789
 20
7.756684115
 30
0.0
 10
21.1322107121
 20
7.7577848185
 30
0.0
 10
21.1867761545
 20
7.7579270921
 30
0.0
 10
21.2284790538
 20
7.7571634903
 30
0.0
 10
21.2580139001
 20
7.756117493
 30
0.0
 10
21.286207994
 20
7.754528819
 30
0.0
 10
21.3045232565
 20
7.7530267008
 30
0.0
 10
21.3134302774
 20
7.7521515396
 30
0.0
  0
SPLINE
  5
4C0
100
AcDbEntity
  8
0
100
AcDbSpline
 62
9
  6
CONTINUOUS
 70
0
 71
3
 72
14
 73
10
 74
0
 42
0.0000001
 43
0.0000001
 44
0.0000000001
 40
0.0
 40
0.0
 40
0.0
 40
0.0
 40
0.1229490065
 40
0.2470769787
 40
0.3719678577
 40
0.4970543496
 40
0.6225131637
 40
0.7485155275
 40
1.0
 40
1.0
 40
1.0
 40
1.0
 10
21.3134302774
 20
7.7521515396
 30
0.0
 10
21.32817633
 20
7.7302014263
 30
0.0
 10
21.356172951
 20
7.6849667649
 30
0.0
 10
21.3931971663
 20
7.613971415
 30
0.0
 10
21.4250848635
 20
7.5400168143
 30
0.0
 10
21.4514974546
 20
7.4636365498
 30
0.0
 10
21.4723460387
 20
7.3852989855
 30
0.0
 10
21.4924628935
 20
7.2789483596
 30
0.0
 10
21.4987338833
 20
7.1976152144
 30
0.0
 10
21.4989099807
 20
7.1435271815
 30
0.0
  0
SPLINE
  5
4C1
100
AcDbEntity
  8
0
100
AcDbSpline
 62
9
  6
CONTINUOUS
 70
0
 71
3
 72
22
 73
18
 74
0
 42
0.0000001
 43
0.0000001
 44
0.0000000001
 40
0.0
 40
0.0
 40
0.0
 40
0.0
 40
0.0571518127
 40
0.1150863367
 40
0.1738696151
 40
0.2335621489
 40
0.2942384675
 40
0.355912454
 40
0.4185610948
 40
0.4821088865
 40
0.5464331326
 40
0.6113625127
 40
0.6766782521
 40
0.7421434462
 40
0.8074859217
 40
0.8724411267
 40
1.0
 40
1.0
 40
1.0
 40
1.0
 10
21.4989099807
 20
7.1435271815
 30
0.0
 10
21.4989546177
 20
7.1230186534
 30
0.0
 10
21.496852999
 20
7.0816833283
 30
0.0
 10
21.4870762685
 20
7.0199466279
 30
0.0
 10
21.4704645387
 20
6.9587318825
 30
0.0
 10
21.4469681453
 20
6.8987545607
 30
0.0
 10
21.4165703065
 20
6.8407885936
 30
0.0
 10
21.3795965005
 20
6.7855034854
 30
0.0
 10
21.3363863863
 20
6.7336013728
 30
0.0
 10
21.2875227635
 20
6.6856254872
 30
0.0
 10
21.2335894011
 20
6.6421250453
 30
0.0
 10
21.1753490497
 20
6.6034430152
 30
0.0
 10
21.1135400726
 20
6.5699126226
 30
0.0
 10
21.0489986071
 20
6.5416537958
 30
0.0
 10
20.9825018022
 20
6.5187648527
 30
0.0
 10
20.8929010455
 20
6.4954112425
 30
0.0
 10
20.8242637881
 20
6.4853234696
 30
0.0
 10
20.7786359587
 20
6.4816718403
 30
0.0
  0
SPLINE
  5
4C2
100
AcDbEntity
  8
0
100
AcDbSpline
 62
9
  6
CONTINUOUS
 70
0
 71
3
 72
22
 73
18
 74
0
 42
0.0000001
 43
0.0000001
 44
0.0000000001
 40
0.0
 40
0.0
 40
0.0
 40
0.0
 40
0.0569368349
 40
0.1155702686
 40
0.1756421119
 40
0.2369096757
 40
0.2991781991
 40
0.3622346174
 40
0.4258828072
 40
0.4899356803
 40
0.554221172
 40
0.6185816913
 40
0.7468231862
 40
0.8106424665
 40
0.874128668
 40
0.9372410786
 40
1.0
 40
1.0
 40
1.0
 40
1.0
 10
20.1241833196
 20
7.1587575315
 30
0.0
 10
20.1255352991
 20
7.1402317036
 30
0.0
 10
20.1298981344
 20
7.1027274594
 30
0.0
 10
20.1413797057
 20
7.0465174002
 30
0.0
 10
20.1581936971
 20
6.9901788971
 30
0.0
 10
20.1805062255
 20
6.9344956428
 30
0.0
 10
20.2084550888
 20
6.8803128046
 30
0.0
 10
20.2418541228
 20
6.8283793902
 30
0.0
 10
20.2805050295
 20
6.7794785139
 30
0.0
 10
20.3239786341
 20
6.7342537222
 30
0.0
 10
20.3718561207
 20
6.6933480588
 30
0.0
 10
20.4406181311
 20
6.6452639412
 30
0.0
 10
20.5159558753
 20
6.6074890445
 30
0.0
 10
20.5951527493
 20
6.5811500416
 30
0.0
 10
20.6557728631
 20
6.5671313854
 30
0.0
 10
20.7170729547
 20
6.5588480974
 30
0.0
 10
20.7581614642
 20
6.5570344762
 30
0.0
 10
20.7786359587
 20
6.5570344761
 30
0.0
  0
SPLINE
  5
4C3
100
AcDbEntity
  8
0
100
AcDbSpline
 62
9
  6
CONTINUOUS
 70
0
 71
3
 72
26
 73
22
 74
0
 42
0.0000001
 43
0.0000001
 44
0.0000000001
 40
0.0
 40
0.0
 40
0.0
 40
0.0
 40
0.0645910616
 40
0.0968873747
 40
0.1291534406
 40
0.1935588743
 40
0.2577809435
 40
0.3218482093
 40
0.3538197399
 40
0.3857306744
 40
0.4175621264
 40
0.4492981778
 40
0.5124729532
 40
0.5439111781
 40
0.5752501795
 40
0.6376082367
 40
0.6994920789
 40
0.7608434685
 40
0.8216167433
 40
0.8817688923
 40
1.0
 40
1.0
 40
1.0
 40
1.0
 10
20.7786359587
 20
7.2252030024
 30
0.0
 10
20.7927771579
 20
7.2240335389
 30
0.0
 10
20.8140356114
 20
7.2228150113
 30
0.0
 10
20.8423963813
 20
7.2219813888
 30
0.0
 10
20.8707269859
 20
7.2215985759
 30
0.0
 10
20.9060713572
 20
7.2216485185
 30
0.0
 10
20.9484078767
 20
7.2212122865
 30
0.0
 10
20.9835728131
 20
7.219313013
 30
0.0
 10
21.011604841
 20
7.2172481859
 30
0.0
 10
21.0325611988
 20
7.2155277755
 30
0.0
 10
21.0534592882
 20
7.2137351352
 30
0.0
 10
21.0812010082
 20
7.211363394
 30
0.0
 10
21.1088488747
 20
7.208904195
 30
0.0
 10
21.1363840578
 20
7.2061794637
 30
0.0
 10
21.1637153461
 20
7.2032273651
 30
0.0
 10
21.1976477083
 20
7.199121003
 30
0.0
 10
21.2380462106
 20
7.1936094361
 30
0.0
 10
21.2780230307
 20
7.1876101569
 30
0.0
 10
21.3175392825
 20
7.1811286641
 30
0.0
 10
21.3692634492
 20
7.1719094165
 30
0.0
 10
21.4076975524
 20
7.1642258427
 30
0.0
 10
21.4330885976
 20
7.1587575307
 30
0.0
  0
SPLINE
  5
4C4
100
AcDbEntity
  8
0
100
AcDbSpline
 62
9
  6
CONTINUOUS
 70
0
 71
3
 72
22
 73
18
 74
0
 42
0.0000001
 43
0.0000001
 44
0.0000000001
 40
0.0
 40
0.0
 40
0.0
 40
0.0
 40
0.056936835
 40
0.1155702687
 40
0.175642112
 40
0.2369096757
 40
0.2991781991
 40
0.3622346175
 40
0.4258828072
 40
0.4899356804
 40
0.5542211721
 40
0.6185816913
 40
0.7468231862
 40
0.8106424665
 40
0.8741286681
 40
0.9372410786
 40
1.0
 40
1.0
 40
1.0
 40
1.0
 10
21.4330885976
 20
7.1587575307
 30
0.0
 10
21.4317366182
 20
7.1402317029
 30
0.0
 10
21.4273737828
 20
7.1027274587
 30
0.0
 10
21.4158922114
 20
7.0465173995
 30
0.0
 10
21.39907822
 20
6.9901788965
 30
0.0
 10
21.3767656916
 20
6.9344956422
 30
0.0
 10
21.3488168282
 20
6.8803128041
 30
0.0
 10
21.3154177942
 20
6.8283793898
 30
0.0
 10
21.2767668874
 20
6.7794785135
 30
0.0
 10
21.2332932829
 20
6.7342537219
 30
0.0
 10
21.1854157963
 20
6.6933480586
 30
0.0
 10
21.1166537859
 20
6.6452639411
 30
0.0
 10
21.0413160418
 20
6.6074890444
 30
0.0
 10
20.9621191679
 20
6.5811500416
 30
0.0
 10
20.9014990541
 20
6.5671313853
 30
0.0
 10
20.8401989626
 20
6.5588480974
 30
0.0
 10
20.7991104531
 20
6.5570344762
 30
0.0
 10
20.7786359587
 20
6.5570344761
 30
0.0
  0
SPLINE
  5
4C5
100
AcDbEntity
  8
0
100
AcDbSpline
 62
9
  6
CONTINUOUS
 70
0
 71
3
 72
10
 73
6
 74
0
 42
0.0000001
 43
0.0000001
 44
0.0000000001
 40
0.0
 40
0.0
 40
0.0
 40
0.0
 40
0.4572843745
 40
0.7170179878
 40
1.0
 40
1.0
 40
1.0
 40
1.0
 10
20.1044635284
 20
7.7070229347
 30
0.0
 10
20.1099155643
 20
7.7128748902
 30
0.0
 10
20.1201765496
 20
7.7204732991
 30
0.0
 10
20.1357558438
 20
7.7284154726
 30
0.0
 10
20.1445931458
 20
7.7319325031
 30
0.0
 10
20.14925488
 20
7.7335955534
 30
0.0
  0
SPLINE
  5
4C6
100
AcDbEntity
  8
0
100
AcDbSpline
 62
9
  6
CONTINUOUS
 70
0
 71
3
 72
11
 73
7
 74
0
 42
0.0000001
 43
0.0000001
 44
0.0000000001
 40
0.0
 40
0.0
 40
0.0
 40
0.0
 40
0.2177233478
 40
0.4573879698
 40
0.7184618889
 40
1.0
 40
1.0
 40
1.0
 40
1.0
 10
20.14925488
 20
7.7335955534
 30
0.0
 10
20.1558580981
 20
7.7359512185
 30
0.0
 10
20.1699836812
 20
7.7401970544
 30
0.0
 10
20.1925829782
 20
7.7452112448
 30
0.0
 10
20.217458104
 20
7.7492502165
 30
0.0
 10
20.2348193886
 20
7.7512650564
 30
0.0
 10
20.2438416399
 20
7.7521515396
 30
0.0
  0
SPLINE
  5
4C7
100
AcDbEntity
  8
0
100
AcDbSpline
 62
9
  6
CONTINUOUS
 70
0
 71
3
 72
20
 73
16
 74
0
 42
0.0000001
 43
0.0000001
 44
0.0000000001
 40
0.0
 40
0.0
 40
0.0
 40
0.0
 40
0.1405468097
 40
0.2101812584
 40
0.2790005148
 40
0.4131927037
 40
0.4783249793
 40
0.5419173404
 40
0.6641160706
 40
0.7229375619
 40
0.7803111344
 40
0.8364204464
 40
0.8915334528
 40
0.9459494392
 40
1.0
 40
1.0
 40
1.0
 40
1.0
 10
20.7786353824
 20
8.6775800336
 30
0.0
 10
20.7530345821
 20
8.6775800049
 30
0.0
 10
20.7146676105
 20
8.6746823015
 30
0.0
 10
20.6647148698
 20
8.6651302326
 30
0.0
 10
20.6167668243
 20
8.6520404782
 30
0.0
 10
20.5712796644
 20
8.6335344013
 30
0.0
 10
20.5295613548
 20
8.6099044759
 30
0.0
 10
20.491932778
 20
8.5838799458
 30
0.0
 10
20.4589723006
 20
8.5533726015
 30
0.0
 10
20.4321117655
 20
8.5191654286
 30
0.0
 10
20.4155298321
 20
8.4924340965
 30
0.0
 10
20.4024884489
 20
8.464550745
 30
0.0
 10
20.3930732309
 20
8.4358055438
 30
0.0
 10
20.3873616009
 20
8.4064859107
 30
0.0
 10
20.3860737781
 20
8.3867058133
 30
0.0
 10
20.3860737571
 20
8.3768604272
 30
0.0
  0
SPLINE
  5
4C8
100
AcDbEntity
  8
0
100
AcDbSpline
 62
9
  6
CONTINUOUS
 70
0
 71
3
 72
14
 73
10
 74
0
 42
0.0000001
 43
0.0000001
 44
0.0000000001
 40
0.0
 40
0.0
 40
0.0
 40
0.0
 40
0.2744652363
 40
0.4052604155
 40
0.5312977257
 40
0.6528990129
 40
0.7708778809
 40
0.886193847
 40
1.0
 40
1.0
 40
1.0
 40
1.0
 10
21.2156655301
 20
9.2587630005
 30
0.0
 10
21.221467478
 20
9.2564046467
 30
0.0
 10
21.229700816
 20
9.2519383699
 30
0.0
 10
21.2390805186
 20
9.2442151753
 30
0.0
 10
21.2449511148
 20
9.2378381502
 30
0.0
 10
21.2496162561
 20
9.2308806578
 30
0.0
 10
21.2530186494
 20
9.2234920774
 30
0.0
 10
21.2551077364
 20
9.2158148211
 30
0.0
 10
21.2555909691
 20
9.2105763728
 30
0.0
 10
21.2555953188
 20
9.2079794674
 30
0.0
  0
SPLINE
  5
4C9
100
AcDbEntity
  8
0
100
AcDbSpline
 62
9
  6
CONTINUOUS
 70
0
 71
3
 72
15
 73
11
 74
0
 42
0.0000001
 43
0.0000001
 44
0.0000000001
 40
0.0
 40
0.0
 40
0.0
 40
0.0
 40
0.1410986019
 40
0.278502415
 40
0.4110540922
 40
0.5380875185
 40
0.6597183363
 40
0.7764384188
 40
0.8892534439
 40
1.0
 40
1.0
 40
1.0
 40
1.0
 10
21.1607361818
 20
9.3377599248
 30
0.0
 10
21.1646938339
 20
9.336986513
 30
0.0
 10
21.1724169014
 20
9.3349519225
 30
0.0
 10
21.1833114147
 20
9.3304656204
 30
0.0
 10
21.193125418
 20
9.3246865595
 30
0.0
 10
21.2015536735
 20
9.3177040861
 30
0.0
 10
21.2083861757
 20
9.3097369637
 30
0.0
 10
21.2134627584
 20
9.3010080502
 30
0.0
 10
21.2165955808
 20
9.2917278234
 30
0.0
 10
21.2172831438
 20
9.2853157356
 30
0.0
 10
21.2172833118
 20
9.2821506644
 30
0.0
  0
SPLINE
  5
4CA
100
AcDbEntity
  8
0
100
AcDbSpline
 62
7
  6
CONTINUOUS
 70
0
 71
3
 72
9
 73
5
 74
0
 42
0.0000001
 43
0.0000001
 44
0.0000000001
 40
0.0
 40
0.0
 40
0.0
 40
0.0
 40
0.5239006729
 40
1.0
 40
1.0
 40
1.0
 40
1.0
 10
21.0716998311
 20
9.3629429001
 30
0.0
 10
21.0729308223
 20
9.3700151306
 30
0.0
 10
21.074811022
 20
9.383602998
 30
0.0
 10
21.0755232482
 20
9.397309522
 30
0.0
 10
21.0755232482
 20
9.4038331051
 30
0.0
  0
SPLINE
  5
4CB
100
AcDbEntity
  8
0
100
AcDbSpline
 62
9
  6
CONTINUOUS
 70
0
 71
3
 72
15
 73
11
 74
0
 42
0.0000001
 43
0.0000001
 44
0.0000000001
 40
0.0
 40
0.0
 40
0.0
 40
0.0
 40
0.1401184681
 40
0.2787273478
 40
0.4134701738
 40
0.5426457359
 40
0.6653954494
 40
0.7814987397
 40
0.8922185036
 40
1.0
 40
1.0
 40
1.0
 40
1.0
 10
21.0755232482
 20
9.4038331051
 30
0.0
 10
21.0806483134
 20
9.4041289005
 30
0.0
 10
21.090907914
 20
9.4038921759
 30
0.0
 10
21.1058733366
 20
9.4011928643
 30
0.0
 10
21.1198442943
 20
9.3962446291
 30
0.0
 10
21.1322006383
 20
9.3891508173
 30
0.0
 10
21.1424826471
 20
9.3802909063
 30
0.0
 10
21.1502456281
 20
9.369955613
 30
0.0
 10
21.155026302
 20
9.3585295781
 30
0.0
 10
21.1561363809
 20
9.3504909858
 30
0.0
 10
21.156145249
 20
9.3465421483
 30
0.0
  0
SPLINE
  5
4CC
100
AcDbEntity
  8
0
100
AcDbSpline
 62
7
  6
CONTINUOUS
 70
0
 71
3
 72
9
 73
5
 74
0
 42
0.0000001
 43
0.0000001
 44
0.0000000001
 40
0.0
 40
0.0
 40
0.0
 40
0.0
 40
0.5297421459
 40
1.0
 40
1.0
 40
1.0
 40
1.0
 10
20.9736131714
 20
9.4037327043
 30
0.0
 10
20.9746786629
 20
9.4121701231
 30
0.0
 10
20.9763070502
 20
9.4281499597
 30
0.0
 10
20.9769473838
 20
9.4442059514
 30
0.0
 10
20.9769473838
 20
9.4517554251
 30
0.0
  0
SPLINE
  5
4CD
100
AcDbEntity
  8
0
100
AcDbSpline
 62
9
  6
CONTINUOUS
 70
0
 71
3
 72
19
 73
15
 74
0
 42
0.0000001
 43
0.0000001
 44
0.0000000001
 40
0.0
 40
0.0
 40
0.0
 40
0.0
 40
0.1353864261
 40
0.2720583826
 40
0.3400281385
 40
0.4072670781
 40
0.5383600819
 40
0.6018562661
 40
0.6636570369
 40
0.7236388901
 40
0.7818270055
 40
0.8932088183
 40
0.9470512014
 40
1.0
 40
1.0
 40
1.0
 40
1.0
 10
20.9769473838
 20
9.4517554251
 30
0.0
 10
20.9822822863
 20
9.4531394087
 30
0.0
 10
20.9932769767
 20
9.4549355506
 30
0.0
 10
21.0071850512
 20
9.4548584171
 30
0.0
 10
21.018168912
 20
9.4533904458
 30
0.0
 10
21.0287538088
 20
9.4509989703
 30
0.0
 10
21.0388114424
 20
9.4472567119
 30
0.0
 10
21.047985613
 20
9.4422512863
 30
0.0
 10
21.0542226709
 20
9.4379852262
 30
0.0
 10
21.059796865
 20
9.4332041056
 30
0.0
 10
21.066141549
 20
9.4263236295
 30
0.0
 10
21.071080384
 20
9.4185466533
 30
0.0
 10
21.0742440991
 20
9.4102240078
 30
0.0
 10
21.0752065582
 20
9.4059652265
 30
0.0
 10
21.0755232482
 20
9.4038331051
 30
0.0
  0
SPLINE
  5
4CE
100
AcDbEntity
  8
0
100
AcDbSpline
 62
7
  6
CONTINUOUS
 70
0
 71
3
 72
9
 73
5
 74
0
 42
0.0000001
 43
0.0000001
 44
0.0000000001
 40
0.0
 40
0.0
 40
0.0
 40
0.0
 40
0.5328717887
 40
1.0
 40
1.0
 40
1.0
 40
1.0
 10
20.8642468934
 20
9.4273958498
 30
0.0
 10
20.864776734
 20
9.436622198
 30
0.0
 10
20.8655860212
 20
9.4539480787
 30
0.0
 10
20.8659108832
 20
9.4712913711
 30
0.0
 10
20.8659108832
 20
9.4793927352
 30
0.0
  0
SPLINE
  5
4CF
100
AcDbEntity
  8
0
100
AcDbSpline
 62
9
  6
CONTINUOUS
 70
0
 71
3
 72
19
 73
15
 74
0
 42
0.0000001
 43
0.0000001
 44
0.0000000001
 40
0.0
 40
0.0
 40
0.0
 40
0.0
 40
0.1273788978
 40
0.2588041752
 40
0.3252952392
 40
0.3918405242
 40
0.5237374621
 40
0.5885550365
 40
0.6521574671
 40
0.7142864969
 40
0.77479699
 40
0.8336368722
 40
0.8907839656
 40
1.0
 40
1.0
 40
1.0
 40
1.0
 10
20.8659108832
 20
9.4793927352
 30
0.0
 10
20.8706766198
 20
9.4817734248
 30
0.0
 10
20.8808677564
 20
9.485632955
 30
0.0
 10
20.894301818
 20
9.4881688203
 30
0.0
 10
20.9053551308
 20
9.4888302278
 30
0.0
 10
20.9164419483
 20
9.4885230184
 30
0.0
 10
20.927382282
 20
9.486796928
 30
0.0
 10
20.9378338252
 20
9.4837097525
 30
0.0
 10
20.9452523714
 20
9.4807656682
 30
0.0
 10
20.9521923989
 20
9.4772006368
 30
0.0
 10
20.9585627384
 20
9.4730501004
 30
0.0
 10
20.9643000568
 20
9.4683796646
 30
0.0
 10
20.9709106827
 20
9.4616565721
 30
0.0
 10
20.9749103504
 20
9.455843712
 30
0.0
 10
20.9769473838
 20
9.4517554251
 30
0.0
  0
SPLINE
  5
4D0
100
AcDbEntity
  8
0
100
AcDbSpline
 62
9
  6
CONTINUOUS
 70
0
 71
3
 72
21
 73
17
 74
0
 42
0.0000001
 43
0.0000001
 44
0.0000000001
 40
0.0
 40
0.0
 40
0.0
 40
0.0
 40
0.1190435833
 40
0.1809902041
 40
0.244228788
 40
0.3085142237
 40
0.3735980023
 40
0.4391978106
 40
0.5049732678
 40
0.5705618297
 40
0.6356050042
 40
0.6997752994
 40
0.7628213255
 40
0.8245466993
 40
0.884767609
 40
1.0
 40
1.0
 40
1.0
 40
1.0
 10
20.7493905781
 20
9.4850084815
 30
0.0
 10
20.7532596156
 20
9.4882439414
 30
0.0
 10
20.7597300725
 20
9.4924936838
 30
0.0
 10
20.7691074223
 20
9.4968859259
 30
0.0
 10
20.7766722995
 20
9.4996090089
 30
0.0
 10
20.7845780641
 20
9.5016736832
 30
0.0
 10
20.792736569
 20
9.5030356526
 30
0.0
 10
20.8010447164
 20
9.5036863448
 30
0.0
 10
20.8093991974
 20
9.5036350673
 30
0.0
 10
20.8176965732
 20
9.5028857888
 30
0.0
 10
20.8258335502
 20
9.5014444867
 30
0.0
 10
20.8337068535
 20
9.4993115638
 30
0.0
 10
20.8412157135
 20
9.496505005
 30
0.0
 10
20.8482791699
 20
9.4930769879
 30
0.0
 10
20.8568564168
 20
9.487826264
 30
0.0
 10
20.8625976926
 20
9.4829785007
 30
0.0
 10
20.8659108832
 20
9.4793927352
 30
0.0
  0
SPLINE
  5
4D1
100
AcDbEntity
  8
0
100
AcDbSpline
 62
7
  6
CONTINUOUS
 70
0
 71
3
 72
9
 73
5
 74
0
 42
0.0000001
 43
0.0000001
 44
0.0000000001
 40
0.0
 40
0.0
 40
0.0
 40
0.0
 40
0.5319442654
 40
1.0
 40
1.0
 40
1.0
 40
1.0
 10
20.6373779748
 20
9.4172456386
 30
0.0
 10
20.6365269328
 20
9.4262642063
 30
0.0
 10
20.6352265104
 20
9.4432487776
 30
0.0
 10
20.6347078679
 20
9.4602791492
 30
0.0
 10
20.6347078679
 20
9.4682498062
 30
0.0
  0
SPLINE
  5
4D2
100
AcDbEntity
  8
0
100
AcDbSpline
 62
9
  6
CONTINUOUS
 70
0
 71
3
 72
19
 73
15
 74
0
 42
0.0000001
 43
0.0000001
 44
0.0000000001
 40
0.0
 40
0.0
 40
0.0
 40
0.0
 40
0.1119132218
 40
0.1705194189
 40
0.2307688625
 40
0.2925521183
 40
0.355738163
 40
0.4201209934
 40
0.485400104
 40
0.6171508964
 40
0.6830481437
 40
0.7485076457
 40
0.8768290109
 40
1.0
 40
1.0
 40
1.0
 40
1.0
 10
20.6347078679
 20
9.4682498062
 30
0.0
 10
20.6374061614
 20
9.4721223835
 30
0.0
 10
20.6423201611
 20
9.4774948409
 30
0.0
 10
20.6499707191
 20
9.4835253843
 30
0.0
 10
20.6564219336
 20
9.4876058294
 30
0.0
 10
20.6634164108
 20
9.4911112243
 30
0.0
 10
20.6708813407
 20
9.4939822135
 30
0.0
 10
20.6787206835
 20
9.4961920343
 30
0.0
 10
20.6895626268
 20
9.4982477973
 30
0.0
 10
20.7006953083
 20
9.4989203289
 30
0.0
 10
20.7117772465
 20
9.4981613942
 30
0.0
 10
20.7226075953
 20
9.4964510923
 30
0.0
 10
20.7354996447
 20
9.4926650411
 30
0.0
 10
20.745034808
 20
9.4878390861
 30
0.0
 10
20.7493905781
 20
9.4850084815
 30
0.0
  0
SPLINE
  5
4D3
100
AcDbEntity
  8
0
100
AcDbSpline
 62
7
  6
CONTINUOUS
 70
0
 71
3
 72
9
 73
5
 74
0
 42
0.0000001
 43
0.0000001
 44
0.0000000001
 40
0.0
 40
0.0
 40
0.0
 40
0.0
 40
0.5277336038
 40
1.0
 40
1.0
 40
1.0
 40
1.0
 10
20.5329846482
 20
9.3842725812
 30
0.0
 10
20.5317302514
 20
9.3922841667
 30
0.0
 10
20.5298126005
 20
9.407543343
 30
0.0
 10
20.5290686889
 20
9.4229128383
 30
0.0
 10
20.5290686889
 20
9.4301697183
 30
0.0
  0
SPLINE
  5
4D4
100
AcDbEntity
  8
0
100
AcDbSpline
 62
9
  6
CONTINUOUS
 70
0
 71
3
 72
19
 73
15
 74
0
 42
0.0000001
 43
0.0000001
 44
0.0000000001
 40
0.0
 40
0.0
 40
0.0
 40
0.0
 40
0.1073608278
 40
0.1633004564
 40
0.2208787711
 40
0.2801720602
 40
0.3412203331
 40
0.4039555265
 40
0.4681780426
 40
0.5998701877
 40
0.6668772277
 40
0.7342240834
 40
0.8684833149
 40
1.0
 40
1.0
 40
1.0
 40
1.0
 10
20.5290686889
 20
9.4301697183
 30
0.0
 10
20.5304131824
 20
9.434397482
 30
0.0
 10
20.5334249226
 20
9.4405553824
 30
0.0
 10
20.5388956047
 20
9.4478762888
 30
0.0
 10
20.5438278542
 20
9.4530651671
 30
0.0
 10
20.5494736733
 20
9.4577973784
 30
0.0
 10
20.5557800535
 20
9.4620018827
 30
0.0
 10
20.5626618541
 20
9.4656349758
 30
0.0
 10
20.5725551112
 20
9.4697108028
 30
0.0
 10
20.5831353085
 20
9.4724651472
 30
0.0
 10
20.5940549894
 20
9.473827747
 30
0.0
 10
20.6051603177
 20
9.4742311581
 30
0.0
 10
20.6189355202
 20
9.4729890413
 30
0.0
 10
20.6296144986
 20
9.4701451205
 30
0.0
 10
20.6347078679
 20
9.4682498062
 30
0.0
  0
SPLINE
  5
4D5
100
AcDbEntity
  8
0
100
AcDbSpline
 62
7
  6
CONTINUOUS
 70
0
 71
3
 72
9
 73
5
 74
0
 42
0.0000001
 43
0.0000001
 44
0.0000000001
 40
0.0
 40
0.0
 40
0.0
 40
0.0
 40
0.2647273901
 40
1.0
 40
1.0
 40
1.0
 40
1.0
 10
20.4428470427
 20
9.3359125146
 30
0.0
 10
20.4422762771
 20
9.338930187
 30
0.0
 10
20.4403315932
 20
9.3503667244
 30
0.0
 10
20.4392689477
 20
9.3619652631
 30
0.0
 10
20.4391322172
 20
9.3704942682
 30
0.0
  0
SPLINE
  5
4D6
100
AcDbEntity
  8
0
100
AcDbSpline
 62
9
  6
CONTINUOUS
 70
0
 71
3
 72
10
 73
6
 74
0
 42
0.0000001
 43
0.0000001
 44
0.0000000001
 40
0.0
 40
0.0
 40
0.0
 40
0.0
 40
0.457284333
 40
0.7170179534
 40
1.0
 40
1.0
 40
1.0
 40
1.0
 10
21.4528084214
 20
7.7070228997
 30
0.0
 10
21.4473563855
 20
7.7128748641
 30
0.0
 10
21.4370953939
 20
7.7204732841
 30
0.0
 10
21.4215160869
 20
7.7284154671
 30
0.0
 10
21.4126787763
 20
7.7319325013
 30
0.0
 10
21.4080170373
 20
7.7335955534
 30
0.0
  0
SPLINE
  5
4D7
100
AcDbEntity
  8
0
100
AcDbSpline
 62
9
  6
CONTINUOUS
 70
0
 71
3
 72
11
 73
7
 74
0
 42
0.0000001
 43
0.0000001
 44
0.0000000001
 40
0.0
 40
0.0
 40
0.0
 40
0.0
 40
0.2177243348
 40
0.4573892358
 40
0.7184627926
 40
1.0
 40
1.0
 40
1.0
 40
1.0
 10
21.4080170373
 20
7.7335955534
 30
0.0
 10
21.401414092
 20
7.7359511211
 30
0.0
 10
21.3872891275
 20
7.7401968025
 30
0.0
 10
21.3646908591
 20
7.7452108616
 30
0.0
 10
21.3398169264
 20
7.7492497722
 30
0.0
 10
21.3224564899
 20
7.7512646144
 30
0.0
 10
21.3134346863
 20
7.7521511064
 30
0.0
  0
SPLINE
  5
4D8
100
AcDbEntity
  8
0
100
AcDbSpline
 62
9
  6
CONTINUOUS
 70
0
 71
3
 72
11
 73
7
 74
0
 42
0.0000001
 43
0.0000001
 44
0.0000000001
 40
0.0
 40
0.0
 40
0.0
 40
0.0
 40
0.2610973707
 40
0.5130126468
 40
0.7581812521
 40
1.0
 40
1.0
 40
1.0
 40
1.0
 10
21.2560536277
 20
11.2819370355
 30
0.0
 10
21.2580442535
 20
11.2796463086
 30
0.0
 10
21.2616218204
 20
11.2748385663
 30
0.0
 10
21.2656389625
 20
11.266943109
 30
0.0
 10
21.2680608033
 20
11.2586517759
 30
0.0
 10
21.2686040908
 20
11.2529779547
 30
0.0
 10
21.2686071857
 20
11.2501672352
 30
0.0
  0
SPLINE
  5
4D9
100
AcDbEntity
  8
0
100
AcDbSpline
 62
9
  6
CONTINUOUS
 70
0
 71
3
 72
9
 73
5
 74
0
 42
0.0000001
 43
0.0000001
 44
0.0000000001
 40
0.0
 40
0.0
 40
0.0
 40
0.0
 40
0.2566541491
 40
1.0
 40
1.0
 40
1.0
 40
1.0
 10
21.2177390999
 20
11.3790864632
 30
0.0
 10
21.2193298872
 20
11.3783891445
 30
0.0
 10
21.2254401808
 20
11.3754785686
 30
0.0
 10
21.2311882082
 20
11.3717878018
 30
0.0
 10
21.2350997208
 20
11.3686244118
 30
0.0
  0
SPLINE
  5
4DA
100
AcDbEntity
  8
0
100
AcDbSpline
 62
9
  6
CONTINUOUS
 70
0
 71
3
 72
11
 73
7
 74
0
 42
0.0000001
 43
0.0000001
 44
0.0000000001
 40
0.0
 40
0.0
 40
0.0
 40
0.0
 40
0.265392961
 40
0.5188008455
 40
0.7625979518
 40
1.0
 40
1.0
 40
1.0
 40
1.0
 10
21.2350997208
 20
11.3686244118
 30
0.0
 10
21.2379679805
 20
11.3663047404
 30
0.0
 10
21.2432270918
 20
11.3613072039
 30
0.0
 10
21.2494467385
 20
11.3526417574
 30
0.0
 10
21.2536546708
 20
11.3432628283
 30
0.0
 10
21.2550628217
 20
11.3366605187
 30
0.0
 10
21.2553853669
 20
11.3333765111
 30
0.0
  0
SPLINE
  5
4DB
100
AcDbEntity
  8
0
100
AcDbSpline
 62
7
  6
CONTINUOUS
 70
0
 71
3
 72
11
 73
7
 74
0
 42
0.0000001
 43
0.0000001
 44
0.0000000001
 40
0.0
 40
0.0
 40
0.0
 40
0.0
 40
0.2730848221
 40
0.5290061913
 40
0.7697893801
 40
1.0
 40
1.0
 40
1.0
 40
1.0
 10
21.2195481674
 20
11.4069519201
 30
0.0
 10
21.2214965419
 20
11.4058729237
 30
0.0
 10
21.2252340232
 20
11.4037141255
 30
0.0
 10
21.2304742223
 20
11.4002455928
 30
0.0
 10
21.2351086548
 20
11.3965323417
 30
0.0
 10
21.2378149161
 20
11.3937894945
 30
0.0
 10
21.2390420309
 20
11.392368476
 30
0.0
  0
SPLINE
  5
4DC
100
AcDbEntity
  8
0
100
AcDbSpline
 62
7
  6
CONTINUOUS
 70
0
 71
3
 72
9
 73
5
 74
0
 42
0.0000001
 43
0.0000001
 44
0.0000000001
 40
0.0
 40
0.0
 40
0.0
 40
0.0
 40
0.2464553678
 40
1.0
 40
1.0
 40
1.0
 40
1.0
 10
21.2428565862
 20
11.38718641
 30
0.0
 10
21.2432397157
 20
11.3865692559
 30
0.0
 10
21.2447271469
 20
11.3840238165
 30
0.0
 10
21.2459450143
 20
11.3813229788
 30
0.0
 10
21.2467123953
 20
11.3792387478
 30
0.0
  0
SPLINE
  5
4DD
100
AcDbEntity
  8
0
100
AcDbSpline
 62
7
  6
CONTINUOUS
 70
0
 71
3
 72
15
 73
11
 74
0
 42
0.0000001
 43
0.0000001
 44
0.0000000001
 40
0.0
 40
0.0
 40
0.0
 40
0.0
 40
0.1387232813
 40
0.2697101992
 40
0.3939198413
 40
0.5137991887
 40
0.6323790808
 40
0.7523289273
 40
0.8748973798
 40
1.0
 40
1.0
 40
1.0
 40
1.0
 10
21.1652150505
 20
11.4870314956
 30
0.0
 10
21.167871447
 20
11.4862313916
 30
0.0
 10
21.1730178976
 20
11.484610493
 30
0.0
 10
21.1803760294
 20
11.4817741333
 30
0.0
 10
21.1870983377
 20
11.4784112815
 30
0.0
 10
21.193141342
 20
11.4743580717
 30
0.0
 10
21.1984616611
 20
11.4695145396
 30
0.0
 10
21.2030328667
 20
11.4638900479
 30
0.0
 10
21.2068181316
 20
11.4575608062
 30
0.0
 10
21.2087630477
 20
11.4529860109
 30
0.0
 10
21.2095853243
 20
11.4506231158
 30
0.0
  0
SPLINE
  5
4DE
100
AcDbEntity
  8
0
100
AcDbSpline
 62
9
  6
CONTINUOUS
 70
0
 71
3
 72
9
 73
5
 74
0
 42
0.0000001
 43
0.0000001
 44
0.0000000001
 40
0.0
 40
0.0
 40
0.0
 40
0.0
 40
0.4935228785
 40
1.0
 40
1.0
 40
1.0
 40
1.0
 10
20.3169145363
 20
11.4207774001
 30
0.0
 10
20.3227991306
 20
11.4334586951
 30
0.0
 10
20.3364042969
 20
11.4584015853
 30
0.0
 10
20.3529543131
 20
11.4814835417
 30
0.0
 10
20.3619705825
 20
11.492643535
 30
0.0
  0
SPLINE
  5
4DF
100
AcDbEntity
  8
0
100
AcDbSpline
 62
9
  6
CONTINUOUS
 70
0
 71
3
 72
23
 73
19
 74
0
 42
0.0000001
 43
0.0000001
 44
0.0000000001
 40
0.0
 40
0.0
 40
0.0
 40
0.0
 40
0.057089305
 40
0.1162685645
 40
0.1775012058
 40
0.2406089257
 40
0.305303896
 40
0.3712111297
 40
0.4378900915
 40
0.5048599401
 40
0.5716280001
 40
0.6377085382
 40
0.7658716454
 40
0.8274598178
 40
0.887018664
 40
0.9444791564
 40
0.9724733597
 40
1.0
 40
1.0
 40
1.0
 40
1.0
 10
20.3619705825
 20
11.492643535
 30
0.0
 10
20.3736810614
 20
11.5071383179
 30
0.0
 10
20.3997590885
 20
11.5349167896
 30
0.0
 10
20.4449051359
 20
11.5714770681
 30
0.0
 10
20.4959638809
 20
11.6030914568
 30
0.0
 10
20.5520279394
 20
11.6291836263
 30
0.0
 10
20.6120983882
 20
11.6493164902
 30
0.0
 10
20.6751115415
 20
11.6631476452
 30
0.0
 10
20.7399574058
 20
11.6704225739
 30
0.0
 10
20.8054826607
 20
11.671030536
 30
0.0
 10
20.8705475903
 20
11.6649501135
 30
0.0
 10
20.9541955307
 20
11.6482592618
 30
0.0
 10
21.0332866702
 20
11.618971584
 30
0.0
 10
21.1035434113
 20
11.5775797137
 30
0.0
 10
21.1498290545
 20
11.541866836
 30
0.0
 10
21.1832079304
 20
11.5080687369
 30
0.0
 10
21.2061274258
 20
11.4791434171
 30
0.0
 10
21.2162960659
 20
11.464116854
 30
0.0
 10
21.2210379853
 20
11.4564852569
 30
0.0
  0
SPLINE
  5
4E0
100
AcDbEntity
  8
0
100
AcDbSpline
 62
7
  6
CONTINUOUS
 70
0
 71
3
 72
15
 73
11
 74
0
 42
0.0000001
 43
0.0000001
 44
0.0000000001
 40
0.0
 40
0.0
 40
0.0
 40
0.0
 40
0.1356102578
 40
0.2650087036
 40
0.3890145159
 40
0.5106193373
 40
0.6327111111
 40
0.7561209724
 40
0.8795307238
 40
1.0
 40
1.0
 40
1.0
 40
1.0
 10
21.0865917475
 20
11.5542443575
 30
0.0
 10
21.0903514982
 20
11.5538874486
 30
0.0
 10
21.0976929136
 20
11.5530951376
 30
0.0
 10
21.1083494951
 20
11.5510321336
 30
0.0
 10
21.1182875721
 20
11.5476848047
 30
0.0
 10
21.1273264973
 20
11.5427504737
 30
0.0
 10
21.1352900856
 20
11.5362488164
 30
0.0
 10
21.1419985722
 20
11.528395983
 30
0.0
 10
21.1472263126
 20
11.5195502402
 30
0.0
 10
21.1496775842
 20
11.5131742228
 30
0.0
 10
21.1505955313
 20
11.5099472565
 30
0.0
  0
SPLINE
  5
4E1
100
AcDbEntity
  8
0
100
AcDbSpline
 62
7
  6
CONTINUOUS
 70
0
 71
3
 72
9
 73
5
 74
0
 42
0.0000001
 43
0.0000001
 44
0.0000000001
 40
0.0
 40
0.0
 40
0.0
 40
0.0
 40
0.2618972666
 40
1.0
 40
1.0
 40
1.0
 40
1.0
 10
21.0755233828
 20
11.5250322249
 30
0.0
 10
21.0755233828
 20
11.5270989625
 30
0.0
 10
21.0753943121
 20
11.5349887306
 30
0.0
 10
21.0747180266
 20
11.5428780072
 30
0.0
 10
21.0738088167
 20
11.5486312755
 30
0.0
  0
SPLINE
  5
4E2
100
AcDbEntity
  8
0
100
AcDbSpline
 62
9
  6
CONTINUOUS
 70
0
 71
3
 72
13
 73
9
 74
0
 42
0.0000001
 43
0.0000001
 44
0.0000000001
 40
0.0
 40
0.0
 40
0.0
 40
0.0
 40
0.2632055135
 40
0.3935019524
 40
0.5216173685
 40
0.6467807997
 40
0.7685021637
 40
1.0
 40
1.0
 40
1.0
 40
1.0
 10
21.0755232482
 20
11.5250322171
 30
0.0
 10
21.0820066713
 20
11.5254064106
 30
0.0
 10
21.0917924118
 20
11.5249761504
 30
0.0
 10
21.1044384201
 20
11.5225086367
 30
0.0
 10
21.1135116162
 20
11.5197529643
 30
0.0
 10
21.1220381051
 20
11.516103209
 30
0.0
 10
21.1322930206
 20
11.5102304106
 30
0.0
 10
21.1390794711
 20
11.5045674723
 30
0.0
 10
21.1429074752
 20
11.5003281487
 30
0.0
  0
SPLINE
  5
4E3
100
AcDbEntity
  8
0
100
AcDbSpline
 62
9
  6
CONTINUOUS
 70
0
 71
3
 72
11
 73
7
 74
0
 42
0.0000001
 43
0.0000001
 44
0.0000000001
 40
0.0
 40
0.0
 40
0.0
 40
0.0
 40
0.2606035379
 40
0.5123480752
 40
0.7578534824
 40
1.0
 40
1.0
 40
1.0
 40
1.0
 10
21.1440664963
 20
11.499005869
 30
0.0
 10
21.1459902149
 20
11.496744089
 30
0.0
 10
21.1494407578
 20
11.4919972692
 30
0.0
 10
21.1532650638
 20
11.4842074105
 30
0.0
 10
21.1556012739
 20
11.4760681682
 30
0.0
 10
21.1561390531
 20
11.4705001925
 30
0.0
 10
21.156145249
 20
11.4677412603
 30
0.0
  0
SPLINE
  5
4E4
100
AcDbEntity
  8
0
100
AcDbSpline
 62
9
  6
CONTINUOUS
 70
0
 71
3
 72
15
 73
11
 74
0
 42
0.0000001
 43
0.0000001
 44
0.0000000001
 40
0.0
 40
0.0
 40
0.0
 40
0.0
 40
0.1411846465
 40
0.2790171401
 40
0.4121359009
 40
0.5395918927
 40
0.6613229843
 40
0.7778035068
 40
0.8900464834
 40
1.0
 40
1.0
 40
1.0
 40
1.0
 10
21.1554445923
 20
11.4598360228
 30
0.0
 10
21.1596912955
 20
11.4592570527
 30
0.0
 10
21.1680170028
 20
11.4575339979
 30
0.0
 10
21.1798382137
 20
11.4533184734
 30
0.0
 10
21.1905654426
 20
11.4476292591
 30
0.0
 10
21.1998458046
 20
11.4405657879
 30
0.0
 10
21.2073934085
 20
11.4323418867
 30
0.0
 10
21.2130211071
 20
11.4232304794
 30
0.0
 10
21.2165127727
 20
11.4134741452
 30
0.0
 10
21.2172820344
 20
11.4067022836
 30
0.0
 10
21.2172833086
 20
11.4033643893
 30
0.0
  0
SPLINE
  5
4E5
100
AcDbEntity
  8
0
100
AcDbSpline
 62
9
  6
CONTINUOUS
 70
0
 71
3
 72
19
 73
15
 74
0
 42
0.0000001
 43
0.0000001
 44
0.0000000001
 40
0.0
 40
0.0
 40
0.0
 40
0.0
 40
0.1353864261
 40
0.2720583826
 40
0.3400281385
 40
0.4072670781
 40
0.5383600819
 40
0.6018562661
 40
0.6636570369
 40
0.7236388901
 40
0.7818270055
 40
0.8932088183
 40
0.9470512014
 40
1.0
 40
1.0
 40
1.0
 40
1.0
 10
20.9769473838
 20
11.5729545371
 30
0.0
 10
20.9822822863
 20
11.5743385207
 30
0.0
 10
20.9932769767
 20
11.5761346625
 30
0.0
 10
21.0071850512
 20
11.5760575291
 30
0.0
 10
21.018168912
 20
11.5745895577
 30
0.0
 10
21.0287538088
 20
11.5721980823
 30
0.0
 10
21.0388114424
 20
11.5684558239
 30
0.0
 10
21.047985613
 20
11.5634503982
 30
0.0
 10
21.0542226709
 20
11.5591843382
 30
0.0
 10
21.059796865
 20
11.5544032176
 30
0.0
 10
21.066141549
 20
11.5475227415
 30
0.0
 10
21.071080384
 20
11.5397457653
 30
0.0
 10
21.0742440991
 20
11.5314231197
 30
0.0
 10
21.0752065582
 20
11.5271643384
 30
0.0
 10
21.0755232482
 20
11.5250322171
 30
0.0
  0
SPLINE
  5
4E6
100
AcDbEntity
  8
0
100
AcDbSpline
 62
7
  6
CONTINUOUS
 70
0
 71
3
 72
18
 73
14
 74
0
 42
0.0000001
 43
0.0000001
 44
0.0000000001
 40
0.0
 40
0.0
 40
0.0
 40
0.0
 40
0.1330570031
 40
0.2630677604
 40
0.3267151871
 40
0.3897273643
 40
0.4523961857
 40
0.5150125965
 40
0.6402795688
 40
0.7651082252
 40
0.8868356878
 40
0.9450683899
 40
1.0
 40
1.0
 40
1.0
 40
1.0
 10
20.9886184497
 20
11.6043672743
 30
0.0
 10
20.9929228573
 20
11.6047917753
 30
0.0
 10
21.0014495529
 20
11.6055004374
 30
0.0
 10
21.0121007564
 20
11.6053532311
 30
0.0
 10
21.0203864127
 20
11.6042979386
 30
0.0
 10
21.0264088492
 20
11.6029897646
 30
0.0
 10
21.0322533645
 20
11.6011384608
 30
0.0
 10
21.0397523362
 20
11.5979328089
 30
0.0
 10
21.0484786384
 20
11.5925840711
 30
0.0
 10
21.0574566202
 20
11.5843960723
 30
0.0
 10
21.0635416934
 20
11.5765108663
 30
0.0
 10
21.0674126468
 20
11.5699214545
 30
0.0
 10
21.0690031703
 20
11.5665977835
 30
0.0
 10
21.0696956624
 20
11.5649518642
 30
0.0
  0
SPLINE
  5
4E7
100
AcDbEntity
  8
0
100
AcDbSpline
 62
7
  6
CONTINUOUS
 70
0
 71
3
 72
9
 73
5
 74
0
 42
0.0000001
 43
0.0000001
 44
0.0000000001
 40
0.0
 40
0.0
 40
0.0
 40
0.0
 40
0.5254977513
 40
1.0
 40
1.0
 40
1.0
 40
1.0
 10
20.9769475116
 20
11.5729545702
 30
0.0
 10
20.9769475116
 20
11.5780627731
 30
0.0
 10
20.9766891247
 20
11.5877863595
 30
0.0
 10
20.9757412328
 20
11.5974737164
 30
0.0
 10
20.9750697277
 20
11.6020370656
 30
0.0
  0
SPLINE
  5
4E8
100
AcDbEntity
  8
0
100
AcDbSpline
 62
7
  6
CONTINUOUS
 70
0
 71
3
 72
19
 73
15
 74
0
 42
0.0000001
 43
0.0000001
 44
0.0000000001
 40
0.0
 40
0.0
 40
0.0
 40
0.0
 40
0.1277925927
 40
0.2563298432
 40
0.3201360821
 40
0.3836273702
 40
0.4469116057
 40
0.5101230946
 40
0.5732985924
 40
0.6364264799
 40
0.6994007002
 40
0.7620347972
 40
0.8848317325
 40
1.0
 40
1.0
 40
1.0
 40
1.0
 10
20.8774511797
 20
11.6342508389
 30
0.0
 10
20.8815623134
 20
11.6355063865
 30
0.0
 10
20.8898662342
 20
11.6378511361
 30
0.0
 10
20.9004996821
 20
11.6397391078
 30
0.0
 10
20.9090942163
 20
11.6403167419
 30
0.0
 10
20.9155120472
 20
11.6402123758
 30
0.0
 10
20.9218765522
 20
11.6395445088
 30
0.0
 10
20.9281414707
 20
11.6382901665
 30
0.0
 10
20.9342583747
 20
11.6364629308
 30
0.0
 10
20.940171048
 20
11.6340777935
 30
0.0
 10
20.9458301765
 20
11.631181812
 30
0.0
 10
20.9529164749
 20
11.6267378493
 30
0.0
 10
20.9608149177
 20
11.6203607725
 30
0.0
 10
20.9663133768
 20
11.6145091243
 30
0.0
 10
20.9687770841
 20
11.6115195539
 30
0.0
  0
SPLINE
  5
4E9
100
AcDbEntity
  8
0
100
AcDbSpline
 62
7
  6
CONTINUOUS
 70
0
 71
3
 72
9
 73
5
 74
0
 42
0.0000001
 43
0.0000001
 44
0.0000000001
 40
0.0
 40
0.0
 40
0.0
 40
0.0
 40
0.5290045703
 40
1.0
 40
1.0
 40
1.0
 40
1.0
 10
20.8659109963
 20
11.6005919036
 30
0.0
 10
20.8659109963
 20
11.605676776
 30
0.0
 10
20.8657993657
 20
11.615289462
 30
0.0
 10
20.8653832751
 20
11.6248952881
 30
0.0
 10
20.8650846018
 20
11.629412705
 30
0.0
  0
SPLINE
  5
4EA
100
AcDbEntity
  8
0
100
AcDbSpline
 62
7
  6
CONTINUOUS
 70
0
 71
3
 72
9
 73
5
 74
0
 42
0.0000001
 43
0.0000001
 44
0.0000000001
 40
0.0
 40
0.0
 40
0.0
 40
0.0
 40
0.2515733753
 40
1.0
 40
1.0
 40
1.0
 40
1.0
 10
20.9886184497
 20
11.6043672752
 30
0.0
 10
20.98747059
 20
11.6042540732
 30
0.0
 10
20.9829162953
 20
11.6037234314
 30
0.0
 10
20.9783989871
 20
11.602867633
 30
0.0
 10
20.9750696023
 20
11.6020370266
 30
0.0
  0
SPLINE
  5
4EB
100
AcDbEntity
  8
0
100
AcDbSpline
 62
7
  6
CONTINUOUS
 70
0
 71
3
 72
9
 73
5
 74
0
 42
0.0000001
 43
0.0000001
 44
0.0000000001
 40
0.0
 40
0.0
 40
0.0
 40
0.0
 40
0.2459003731
 40
1.0
 40
1.0
 40
1.0
 40
1.0
 10
20.975069602
 20
11.6020370267
 30
0.0
 10
20.9746415091
 20
11.6028669481
 30
0.0
 10
20.9728044661
 20
11.6061919477
 30
0.0
 10
20.9705983467
 20
11.6093095548
 30
0.0
 10
20.9687770839
 20
11.6115195548
 30
0.0
  0
SPLINE
  5
4EC
100
AcDbEntity
  8
0
100
AcDbSpline
 62
9
  6
CONTINUOUS
 70
0
 71
3
 72
19
 73
15
 74
0
 42
0.0000001
 43
0.0000001
 44
0.0000000001
 40
0.0
 40
0.0
 40
0.0
 40
0.0
 40
0.1273788978
 40
0.2588041752
 40
0.3252952392
 40
0.3918405242
 40
0.5237374621
 40
0.5885550365
 40
0.6521574671
 40
0.7142864969
 40
0.77479699
 40
0.8336368722
 40
0.8907839656
 40
1.0
 40
1.0
 40
1.0
 40
1.0
 10
20.8659108832
 20
11.6005918471
 30
0.0
 10
20.8706766198
 20
11.6029725368
 30
0.0
 10
20.8808677564
 20
11.606832067
 30
0.0
 10
20.894301818
 20
11.6093679323
 30
0.0
 10
20.9053551308
 20
11.6100293397
 30
0.0
 10
20.9164419483
 20
11.6097221304
 30
0.0
 10
20.927382282
 20
11.60799604
 30
0.0
 10
20.9378338252
 20
11.6049088645
 30
0.0
 10
20.9452523714
 20
11.6019647802
 30
0.0
 10
20.9521923989
 20
11.5983997488
 30
0.0
 10
20.9585627384
 20
11.5942492124
 30
0.0
 10
20.9643000568
 20
11.5895787766
 30
0.0
 10
20.9709106827
 20
11.5828556841
 30
0.0
 10
20.9749103504
 20
11.577042824
 30
0.0
 10
20.9769473838
 20
11.5729545371
 30
0.0
  0
SPLINE
  5
4ED
100
AcDbEntity
  8
0
100
AcDbSpline
 62
9
  6
CONTINUOUS
 70
0
 71
3
 72
21
 73
17
 74
0
 42
0.0000001
 43
0.0000001
 44
0.0000000001
 40
0.0
 40
0.0
 40
0.0
 40
0.0
 40
0.1190435833
 40
0.1809902041
 40
0.244228788
 40
0.3085142237
 40
0.3735980023
 40
0.4391978106
 40
0.5049732678
 40
0.5705618297
 40
0.6356050042
 40
0.6997752994
 40
0.7628213255
 40
0.8245466993
 40
0.884767609
 40
1.0
 40
1.0
 40
1.0
 40
1.0
 10
20.7493905781
 20
11.6062075935
 30
0.0
 10
20.7532596156
 20
11.6094430534
 30
0.0
 10
20.7597300725
 20
11.6136927958
 30
0.0
 10
20.7691074223
 20
11.6180850379
 30
0.0
 10
20.7766722995
 20
11.6208081208
 30
0.0
 10
20.7845780641
 20
11.6228727952
 30
0.0
 10
20.792736569
 20
11.6242347646
 30
0.0
 10
20.8010447164
 20
11.6248854567
 30
0.0
 10
20.8093991974
 20
11.6248341793
 30
0.0
 10
20.8176965732
 20
11.6240849008
 30
0.0
 10
20.8258335502
 20
11.6226435987
 30
0.0
 10
20.8337068535
 20
11.6205106758
 30
0.0
 10
20.8412157135
 20
11.617704117
 30
0.0
 10
20.8482791699
 20
11.6142760998
 30
0.0
 10
20.8568564168
 20
11.6090253759
 30
0.0
 10
20.8625976926
 20
11.6041776127
 30
0.0
 10
20.8659108832
 20
11.6005918471
 30
0.0
  0
SPLINE
  5
4EE
100
AcDbEntity
  8
0
100
AcDbSpline
 62
7
  6
CONTINUOUS
 70
0
 71
3
 72
19
 73
15
 74
0
 42
0.0000001
 43
0.0000001
 44
0.0000000001
 40
0.0
 40
0.0
 40
0.0
 40
0.0
 40
0.1221584876
 40
0.248363687
 40
0.3118227158
 40
0.3752922847
 40
0.4387385175
 40
0.5021763338
 40
0.5656015012
 40
0.628999894
 40
0.6923393373
 40
0.7555282631
 40
0.880491058
 40
1.0
 40
1.0
 40
1.0
 40
1.0
 10
20.760074986
 20
11.642017357
 30
0.0
 10
20.7637172293
 20
11.6440546246
 30
0.0
 10
20.7712641844
 20
11.6479553445
 30
0.0
 10
20.7812363395
 20
11.6517958747
 30
0.0
 10
20.7896056809
 20
11.6540051568
 30
0.0
 10
20.7960176752
 20
11.6551407073
 30
0.0
 10
20.8025038868
 20
11.6557160145
 30
0.0
 10
20.8090144396
 20
11.6556980479
 30
0.0
 10
20.8154949162
 20
11.6550899682
 30
0.0
 10
20.8218892992
 20
11.6538944846
 30
0.0
 10
20.8281471111
 20
11.6521494376
 30
0.0
 10
20.8362091626
 20
11.6491555473
 30
0.0
 10
20.8456243533
 20
11.6444049788
 30
0.0
 10
20.8526023071
 20
11.6397901502
 30
0.0
 10
20.8559112397
 20
11.6373984874
 30
0.0
  0
LINE
  5
4EF
100
AcDbEntity
  8
0
100
AcDbLine
 62
7
  6
CONTINUOUS
 10
20.7493906693
 20
11.6062076698
 11
20.7496675896
 21
11.6349752964
  0
SPLINE
  5
4F0
100
AcDbEntity
  8
0
100
AcDbSpline
 62
7
  6
CONTINUOUS
 70
0
 71
3
 72
9
 73
5
 74
0
 42
0.0000001
 43
0.0000001
 44
0.0000000001
 40
0.0
 40
0.0
 40
0.0
 40
0.0
 40
0.2532289544
 40
1.0
 40
1.0
 40
1.0
 40
1.0
 10
20.8774511798
 20
11.6342508398
 30
0.0
 10
20.8763785417
 20
11.6339232541
 30
0.0
 10
20.8721672857
 20
11.6325510786
 30
0.0
 10
20.8680581947
 20
11.6308604676
 30
0.0
 10
20.8650844899
 20
11.6294126431
 30
0.0
  0
SPLINE
  5
4F1
100
AcDbEntity
  8
0
100
AcDbSpline
 62
7
  6
CONTINUOUS
 70
0
 71
3
 72
9
 73
5
 74
0
 42
0.0000001
 43
0.0000001
 44
0.0000000001
 40
0.0
 40
0.0
 40
0.0
 40
0.0
 40
0.2454459808
 40
1.0
 40
1.0
 40
1.0
 40
1.0
 10
20.8650844897
 20
11.6294126432
 30
0.0
 10
20.8643996796
 20
11.6301357169
 30
0.0
 10
20.8615356383
 20
11.6330111593
 30
0.0
 10
20.8583925358
 20
11.6356050327
 30
0.0
 10
20.8559112396
 20
11.6373984883
 30
0.0
  0
SPLINE
  5
4F2
100
AcDbEntity
  8
0
100
AcDbSpline
 62
7
  6
CONTINUOUS
 70
0
 71
3
 72
19
 73
15
 74
0
 42
0.0000001
 43
0.0000001
 44
0.0000000001
 40
0.0
 40
0.0
 40
0.0
 40
0.0
 40
0.1171349878
 40
0.2409313917
 40
0.3038345047
 40
0.3670010843
 40
0.4302887746
 40
0.4936248317
 40
0.5569936035
 40
0.6204071436
 40
0.6839357421
 40
0.7476121813
 40
0.8750398312
 40
1.0
 40
1.0
 40
1.0
 40
1.0
 10
20.6438650465
 20
11.6271788297
 30
0.0
 10
20.6467793871
 20
11.6298905436
 30
0.0
 10
20.6530711805
 20
11.6351597399
 30
0.0
 10
20.6617913136
 20
11.6407593536
 30
0.0
 10
20.6694233057
 20
11.6445017085
 30
0.0
 10
20.6754289135
 20
11.6468366477
 30
0.0
 10
20.6816311541
 20
11.6486385851
 30
0.0
 10
20.68797977
 20
11.6498648618
 30
0.0
 10
20.6944180842
 20
11.65050678
 30
0.0
 10
20.7008942519
 20
11.6505558505
 30
0.0
 10
20.7073598039
 20
11.6500399791
 30
0.0
 10
20.7159078071
 20
11.6486401545
 30
0.0
 10
20.7262885842
 20
11.6457582583
 30
0.0
 10
20.7342794005
 20
11.6426187152
 30
0.0
 10
20.7381899052
 20
11.6409625961
 30
0.0
  0
SPLINE
  5
4F3
100
AcDbEntity
  8
0
100
AcDbSpline
 62
7
  6
CONTINUOUS
 70
0
 71
3
 72
9
 73
5
 74
0
 42
0.0000001
 43
0.0000001
 44
0.0000000001
 40
0.0
 40
0.0
 40
0.0
 40
0.0
 40
0.5275673435
 40
1.0
 40
1.0
 40
1.0
 40
1.0
 10
20.6347079314
 20
11.5894490094
 30
0.0
 10
20.6347079314
 20
11.5945433087
 30
0.0
 10
20.6348934043
 20
11.6042010004
 30
0.0
 10
20.6355803849
 20
11.6138398475
 30
0.0
 10
20.6360707666
 20
11.6183753215
 30
0.0
  0
SPLINE
  5
4F4
100
AcDbEntity
  8
0
100
AcDbSpline
 62
7
  6
CONTINUOUS
 70
0
 71
3
 72
9
 73
5
 74
0
 42
0.0000001
 43
0.0000001
 44
0.0000000001
 40
0.0
 40
0.0
 40
0.0
 40
0.0
 40
0.2544708048
 40
1.0
 40
1.0
 40
1.0
 40
1.0
 10
20.7600749862
 20
11.6420173579
 30
0.0
 10
20.7591440642
 20
11.6414966521
 30
0.0
 10
20.7555282176
 20
11.6393760567
 30
0.0
 10
20.7520876781
 20
11.6369521723
 30
0.0
 10
20.7496674984
 20
11.6349752148
 30
0.0
  0
SPLINE
  5
4F5
100
AcDbEntity
  8
0
100
AcDbSpline
 62
7
  6
CONTINUOUS
 70
0
 71
3
 72
9
 73
5
 74
0
 42
0.0000001
 43
0.0000001
 44
0.0000000001
 40
0.0
 40
0.0
 40
0.0
 40
0.0
 40
0.246157891
 40
1.0
 40
1.0
 40
1.0
 40
1.0
 10
20.7496674982
 20
11.6349752148
 30
0.0
 10
20.7487700619
 20
11.6355447302
 30
0.0
 10
20.7450734695
 20
11.6377777043
 30
0.0
 10
20.7411872259
 20
11.6396932159
 30
0.0
 10
20.7381899051
 20
11.6409625969
 30
0.0
  0
SPLINE
  5
4F6
100
AcDbEntity
  8
0
100
AcDbSpline
 62
9
  6
CONTINUOUS
 70
0
 71
3
 72
19
 73
15
 74
0
 42
0.0000001
 43
0.0000001
 44
0.0000000001
 40
0.0
 40
0.0
 40
0.0
 40
0.0
 40
0.1119132218
 40
0.1705194189
 40
0.2307688625
 40
0.2925521183
 40
0.355738163
 40
0.4201209934
 40
0.485400104
 40
0.6171508964
 40
0.6830481437
 40
0.7485076457
 40
0.8768290109
 40
1.0
 40
1.0
 40
1.0
 40
1.0
 10
20.6347078679
 20
11.5894489181
 30
0.0
 10
20.6374061614
 20
11.5933214955
 30
0.0
 10
20.6423201611
 20
11.5986939529
 30
0.0
 10
20.6499707191
 20
11.6047244963
 30
0.0
 10
20.6564219336
 20
11.6088049414
 30
0.0
 10
20.6634164108
 20
11.6123103363
 30
0.0
 10
20.6708813407
 20
11.6151813254
 30
0.0
 10
20.6787206835
 20
11.6173911463
 30
0.0
 10
20.6895626268
 20
11.6194469093
 30
0.0
 10
20.7006953083
 20
11.6201194409
 30
0.0
 10
20.7117772465
 20
11.6193605062
 30
0.0
 10
20.7226075953
 20
11.6176502043
 30
0.0
 10
20.7354996447
 20
11.613864153
 30
0.0
 10
20.745034808
 20
11.6090381981
 30
0.0
 10
20.7493905781
 20
11.6062075935
 30
0.0
  0
SPLINE
  5
4F7
100
AcDbEntity
  8
0
100
AcDbSpline
 62
9
  6
CONTINUOUS
 70
0
 71
3
 72
19
 73
15
 74
0
 42
0.0000001
 43
0.0000001
 44
0.0000000001
 40
0.0
 40
0.0
 40
0.0
 40
0.0
 40
0.1073608278
 40
0.1633004564
 40
0.2208787711
 40
0.2801720602
 40
0.3412203331
 40
0.4039555265
 40
0.4681780426
 40
0.5998701877
 40
0.6668772277
 40
0.7342240834
 40
0.8684833149
 40
1.0
 40
1.0
 40
1.0
 40
1.0
 10
20.5290686889
 20
11.5513688302
 30
0.0
 10
20.5304131824
 20
11.555596594
 30
0.0
 10
20.5334249226
 20
11.5617544944
 30
0.0
 10
20.5388956047
 20
11.5690754007
 30
0.0
 10
20.5438278542
 20
11.5742642791
 30
0.0
 10
20.5494736733
 20
11.5789964904
 30
0.0
 10
20.5557800535
 20
11.5832009947
 30
0.0
 10
20.5626618541
 20
11.5868340877
 30
0.0
 10
20.5725551112
 20
11.5909099148
 30
0.0
 10
20.5831353085
 20
11.5936642592
 30
0.0
 10
20.5940549894
 20
11.595026859
 30
0.0
 10
20.6051603177
 20
11.5954302701
 30
0.0
 10
20.6189355202
 20
11.5941881533
 30
0.0
 10
20.6296144986
 20
11.5913442325
 30
0.0
 10
20.6347078679
 20
11.5894489181
 30
0.0
  0
SPLINE
  5
4F8
100
AcDbEntity
  8
0
100
AcDbSpline
 62
7
  6
CONTINUOUS
 70
0
 71
3
 72
17
 73
13
 74
0
 42
0.0000001
 43
0.0000001
 44
0.0000000001
 40
0.0
 40
0.0
 40
0.0
 40
0.0
 40
0.1137824313
 40
0.2358809971
 40
0.3610004054
 40
0.4867783423
 40
0.5497539275
 40
0.612808818
 40
0.6761505771
 40
0.7399739931
 40
0.8694357037
 40
1.0
 40
1.0
 40
1.0
 40
1.0
 10
20.536123259
 20
11.5906676162
 30
0.0
 10
20.5380874461
 20
11.593884952
 30
0.0
 10
20.5426986355
 20
11.6002364202
 30
0.0
 10
20.5511193001
 20
11.6087954608
 30
0.0
 10
20.5611829547
 20
11.616076884
 30
0.0
 10
20.5706475105
 20
11.620544655
 30
0.0
 10
20.5786307315
 20
11.6230014021
 30
0.0
 10
20.5847837928
 20
11.624273425
 30
0.0
 10
20.591053051
 20
11.6249888694
 30
0.0
 10
20.5995599933
 20
11.6252338514
 30
0.0
 10
20.6102844882
 20
11.6243604793
 30
0.0
 10
20.6187673349
 20
11.6228306194
 30
0.0
 10
20.623009945
 20
11.6219879339
 30
0.0
  0
SPLINE
  5
4F9
100
AcDbEntity
  8
0
100
AcDbSpline
 62
7
  6
CONTINUOUS
 70
0
 71
3
 72
9
 73
5
 74
0
 42
0.0000001
 43
0.0000001
 44
0.0000000001
 40
0.0
 40
0.0
 40
0.0
 40
0.0
 40
0.5228887828
 40
1.0
 40
1.0
 40
1.0
 40
1.0
 10
20.5290687208
 20
11.5513689307
 30
0.0
 10
20.5290687208
 20
11.5564952376
 30
0.0
 10
20.5293985783
 20
11.5663037426
 30
0.0
 10
20.5305931078
 20
11.5760541175
 30
0.0
 10
20.531431839
 20
11.580655818
 30
0.0
  0
SPLINE
  5
4FA
100
AcDbEntity
  8
0
100
AcDbSpline
 62
7
  6
CONTINUOUS
 70
0
 71
3
 72
9
 73
5
 74
0
 42
0.0000001
 43
0.0000001
 44
0.0000000001
 40
0.0
 40
0.0
 40
0.0
 40
0.0
 40
0.2548778409
 40
1.0
 40
1.0
 40
1.0
 40
1.0
 10
20.6438650467
 20
11.6271788306
 30
0.0
 10
20.6431330328
 20
11.6264977118
 30
0.0
 10
20.6403235514
 20
11.6237594575
 30
0.0
 10
20.6377732079
 20
11.6207513631
 30
0.0
 10
20.6360707018
 20
11.6183752249
 30
0.0
  0
SPLINE
  5
4FB
100
AcDbEntity
  8
0
100
AcDbSpline
 62
7
  6
CONTINUOUS
 70
0
 71
3
 72
9
 73
5
 74
0
 42
0.0000001
 43
0.0000001
 44
0.0000000001
 40
0.0
 40
0.0
 40
0.0
 40
0.0
 40
0.2475513845
 40
1.0
 40
1.0
 40
1.0
 40
1.0
 10
20.6360707015
 20
11.6183752248
 30
0.0
 10
20.6350184035
 20
11.618755218
 30
0.0
 10
20.6307374364
 20
11.6202058626
 30
0.0
 10
20.6263454683
 20
11.6213254186
 30
0.0
 10
20.6230099449
 20
11.6219879347
 30
0.0
  0
SPLINE
  5
4FC
100
AcDbEntity
  8
0
100
AcDbSpline
 62
9
  6
CONTINUOUS
 70
0
 71
3
 72
24
 73
20
 74
0
 42
0.0000001
 43
0.0000001
 44
0.0000000001
 40
0.0
 40
0.0
 40
0.0
 40
0.0
 40
0.0319546134
 40
0.0495798803
 40
0.0684612703
 40
0.0886696535
 40
0.1102399289
 40
0.1331801724
 40
0.1574785083
 40
0.2100245922
 40
0.2675538768
 40
0.3296227711
 40
0.3957222909
 40
0.4653025426
 40
0.5377874815
 40
0.6125842934
 40
0.6890897251
 40
0.8447877814
 40
1.0
 40
1.0
 40
1.0
 40
1.0
 10
21.3717114805
 20
7.7958616075
 30
0.0
 10
21.3674342062
 20
7.8006635291
 30
0.0
 10
21.3596486648
 20
7.8071160897
 30
0.0
 10
21.3478267217
 20
7.8141978378
 30
0.0
 10
21.3375470249
 20
7.8191941807
 30
0.0
 10
21.3261997824
 20
7.8237167784
 30
0.0
 10
21.3138228617
 20
7.8277944606
 30
0.0
 10
21.3004613696
 20
7.8314495017
 30
0.0
 10
21.2808756015
 20
7.8359048983
 30
0.0
 10
21.2541929792
 20
7.8404223877
 30
0.0
 10
21.2197685462
 20
7.8443984233
 30
0.0
 10
21.1824977151
 20
7.8472263878
 30
0.0
 10
21.1427410208
 20
7.8490763593
 30
0.0
 10
21.1008597282
 20
7.850117877
 30
0.0
 10
21.0572182554
 20
7.8505219314
 30
0.0
 10
21.0121820019
 20
7.8504603564
 30
0.0
 10
20.9504016453
 20
7.8499834828
 30
0.0
 10
20.8724423608
 20
7.8490954754
 30
0.0
 10
20.8098697167
 20
7.8489725038
 30
0.0
 10
20.7786359591
 20
7.8493034393
 30
0.0
  0
SPLINE
  5
4FD
100
AcDbEntity
  8
0
100
AcDbSpline
 62
7
  6
CONTINUOUS
 70
0
 71
3
 72
9
 73
5
 74
0
 42
0.0000001
 43
0.0000001
 44
0.0000000001
 40
0.0
 40
0.0
 40
0.0
 40
0.0
 40
0.2539512707
 40
1.0
 40
1.0
 40
1.0
 40
1.0
 10
20.5361232592
 20
11.5906676172
 30
0.0
 10
20.5356349929
 20
11.5898678377
 30
0.0
 10
20.5337959526
 20
11.5866685749
 30
0.0
 10
20.5323044228
 20
11.5832665579
 30
0.0
 10
20.5314318046
 20
11.5806557118
 30
0.0
  0
SPLINE
  5
4FE
100
AcDbEntity
  8
0
100
AcDbSpline
 62
7
  6
CONTINUOUS
 70
0
 71
3
 72
9
 73
5
 74
0
 42
0.0000001
 43
0.0000001
 44
0.0000000001
 40
0.0
 40
0.0
 40
0.0
 40
0.0
 40
0.5021081259
 40
1.0
 40
1.0
 40
1.0
 40
1.0
 10
21.2567298276
 20
11.5830470496
 30
0.0
 10
21.2606524202
 20
11.5696663242
 30
0.0
 10
21.266623174
 20
11.5424385225
 30
0.0
 10
21.2686359587
 20
11.5146318682
 30
0.0
 10
21.2686359587
 20
11.5008051206
 30
0.0
  0
SPLINE
  5
4FF
100
AcDbEntity
  8
0
100
AcDbSpline
 62
9
  6
CONTINUOUS
 70
0
 71
3
 72
24
 73
20
 74
0
 42
0.0000001
 43
0.0000001
 44
0.0000000001
 40
0.0
 40
0.0
 40
0.0
 40
0.0
 40
0.0319545994
 40
0.0495798577
 40
0.0684612389
 40
0.0886696134
 40
0.1102398806
 40
0.1331801166
 40
0.1574784459
 40
0.2100245192
 40
0.2675537972
 40
0.3296226887
 40
0.3957222092
 40
0.4653024648
 40
0.5377874103
 40
0.6125842312
 40
0.6890896737
 40
0.844787755
 40
1.0
 40
1.0
 40
1.0
 40
1.0
 10
20.1855603736
 20
7.7958615365
 30
0.0
 10
20.1898376395
 20
7.8006634631
 30
0.0
 10
20.1976231709
 20
7.8071160318
 30
0.0
 10
20.209445104
 20
7.8141977886
 30
0.0
 10
20.219724794
 20
7.8191941375
 30
0.0
 10
20.2310720309
 20
7.8237167408
 30
0.0
 10
20.243448947
 20
7.8277944281
 30
0.0
 10
20.2568104354
 20
7.8314494738
 30
0.0
 10
20.2763962005
 20
7.8359048761
 30
0.0
 10
20.3030788212
 20
7.8404223715
 30
0.0
 10
20.3375032551
 20
7.8443984125
 30
0.0
 10
20.37477409
 20
7.8472263812
 30
0.0
 10
20.4145307908
 20
7.8490763557
 30
0.0
 10
20.4564120922
 20
7.8501178755
 30
0.0
 10
20.5000535759
 20
7.8505219312
 30
0.0
 10
20.5450898419
 20
7.8504603568
 30
0.0
 10
20.6068702172
 20
7.8499834834
 30
0.0
 10
20.6848295265
 20
7.8490954756
 30
0.0
 10
20.7474021909
 20
7.8489725037
 30
0.0
 10
20.7786359587
 20
7.8493034393
 30
0.0
  0
SPLINE
  5
500
100
AcDbEntity
  8
0
100
AcDbSpline
 62
9
  6
CONTINUOUS
 70
0
 71
3
 72
24
 73
20
 74
0
 42
0.0000001
 43
0.0000001
 44
0.0000000001
 40
0.0
 40
0.0
 40
0.0
 40
0.0
 40
0.0180874857
 40
0.0367329904
 40
0.0561309131
 40
0.0764297273
 40
0.120097559
 40
0.1682498549
 40
0.22098386
 40
0.2781590414
 40
0.3083280151
 40
0.3394892183
 40
0.4045771043
 40
0.472975796
 40
0.5441903233
 40
0.6176956454
 40
0.6929453977
 40
0.8464172598
 40
1.0
 40
1.0
 40
1.0
 40
1.0
 10
20.2920200361
 20
7.9445315481
 30
0.0
 10
20.2935371089
 20
7.9472080851
 30
0.0
 10
20.2969668536
 20
7.9524524111
 30
0.0
 10
20.3030920064
 20
7.9597995716
 30
0.0
 10
20.3102131951
 20
7.9667343202
 30
0.0
 10
20.3212488153
 20
7.9756645489
 30
0.0
 10
20.3374899839
 20
7.9857961146
 30
0.0
 10
20.3597996917
 20
7.9962275487
 30
0.0
 10
20.3851209145
 20
8.0053512804
 30
0.0
 10
20.4080659194
 20
8.0118306608
 30
0.0
 10
20.4276734872
 20
8.0165119625
 30
0.0
 10
20.4487085211
 20
8.0209835315
 30
0.0
 10
20.47629006
 20
8.025886333
 30
0.0
 10
20.5107700597
 20
8.0307686617
 30
0.0
 10
20.5467968992
 20
8.0348240507
 30
0.0
 10
20.584067463
 20
8.0381460336
 30
0.0
 10
20.6353509773
 20
8.0417434877
 30
0.0
 10
20.7003134804
 20
8.0448192148
 30
0.0
 10
20.7525205821
 20
8.0463433703
 30
0.0
 10
20.7786359583
 20
8.0469982335
 30
0.0
  0
SPLINE
  5
501
100
AcDbEntity
  8
0
100
AcDbSpline
 62
7
  6
CONTINUOUS
 70
0
 71
3
 72
9
 73
5
 74
0
 42
0.0000001
 43
0.0000001
 44
0.0000000001
 40
0.0
 40
0.0
 40
0.0
 40
0.0
 40
0.2387407059
 40
1.0
 40
1.0
 40
1.0
 40
1.0
 10
20.3086359587
 20
11.3531694093
 30
0.0
 10
20.3092075326
 20
11.3538061475
 30
0.0
 10
20.3116741379
 20
11.3564083716
 30
0.0
 10
20.3143963294
 20
11.3587587797
 30
0.0
 10
20.3165389675
 20
11.3604478697
 30
0.0
  0
SPLINE
  5
502
100
AcDbEntity
  8
0
100
AcDbSpline
 62
9
  6
CONTINUOUS
 70
0
 71
3
 72
24
 73
20
 74
0
 42
0.0000001
 43
0.0000001
 44
0.0000000001
 40
0.0
 40
0.0
 40
0.0
 40
0.0
 40
0.0180874857
 40
0.0367329904
 40
0.0561309131
 40
0.0764297272
 40
0.120097559
 40
0.1682498549
 40
0.22098386
 40
0.2781590414
 40
0.3083280151
 40
0.3394892183
 40
0.4045771043
 40
0.472975796
 40
0.5441903233
 40
0.6176956454
 40
0.6929453978
 40
0.8464172599
 40
1.0
 40
1.0
 40
1.0
 40
1.0
 10
21.2652518812
 20
7.9445315481
 30
0.0
 10
21.2637348085
 20
7.9472080851
 30
0.0
 10
21.2603050637
 20
7.9524524111
 30
0.0
 10
21.2541799109
 20
7.9597995716
 30
0.0
 10
21.2470587222
 20
7.9667343202
 30
0.0
 10
21.236023102
 20
7.975664549
 30
0.0
 10
21.2197819334
 20
7.9857961146
 30
0.0
 10
21.1974722256
 20
7.9962275487
 30
0.0
 10
21.1721510027
 20
8.0053512804
 30
0.0
 10
21.1492059978
 20
8.0118306608
 30
0.0
 10
21.12959843
 20
8.0165119625
 30
0.0
 10
21.1085633961
 20
8.0209835316
 30
0.0
 10
21.0809818572
 20
8.025886333
 30
0.0
 10
21.0465018575
 20
8.0307686617
 30
0.0
 10
21.0104750179
 20
8.0348240507
 30
0.0
 10
20.9732044541
 20
8.0381460336
 30
0.0
 10
20.9219209398
 20
8.0417434877
 30
0.0
 10
20.8569584366
 20
8.0448192148
 30
0.0
 10
20.8047513349
 20
8.0463433703
 30
0.0
 10
20.7786359587
 20
8.0469982335
 30
0.0
  0
SPLINE
  5
503
100
AcDbEntity
  8
0
100
AcDbSpline
 62
7
  6
CONTINUOUS
 70
0
 71
3
 72
11
 73
7
 74
0
 42
0.0000001
 43
0.0000001
 44
0.0000000001
 40
0.0
 40
0.0
 40
0.0
 40
0.0
 40
0.2437676197
 40
0.4896182582
 40
0.7408447175
 40
1.0
 40
1.0
 40
1.0
 40
1.0
 10
21.1744122408
 20
8.1778339133
 30
0.0
 10
21.1734330845
 20
8.1828757234
 30
0.0
 10
21.170749467
 20
8.1928767516
 30
0.0
 10
21.1646975955
 20
8.2073103504
 30
0.0
 10
21.1567383402
 20
8.2211557717
 30
0.0
 10
21.1503473181
 20
8.2298333705
 30
0.0
 10
21.1468955441
 20
8.2340641179
 30
0.0
  0
SPLINE
  5
504
100
AcDbEntity
  8
0
100
AcDbSpline
 62
7
  6
CONTINUOUS
 70
0
 71
3
 72
18
 73
14
 74
0
 42
0.0000001
 43
0.0000001
 44
0.0000000001
 40
0.0
 40
0.0
 40
0.0
 40
0.0
 40
0.0986828608
 40
0.1515875165
 40
0.2069005946
 40
0.2645702991
 40
0.3244833793
 40
0.3864802329
 40
0.4503664225
 40
0.5828754497
 40
0.7200797359
 40
0.8598490456
 40
1.0
 40
1.0
 40
1.0
 40
1.0
 10
21.1468955441
 20
8.2340641179
 30
0.0
 10
21.1385993778
 20
8.2442325076
 30
0.0
 10
21.1239794483
 20
8.2583662399
 30
0.0
 10
21.1019300988
 20
8.2748390677
 30
0.0
 10
21.083285764
 20
8.2866750005
 30
0.0
 10
21.0630790131
 20
8.2976744985
 30
0.0
 10
21.0414474869
 20
8.3078245242
 30
0.0
 10
21.0185366346
 20
8.3171050819
 30
0.0
 10
20.9860818696
 20
8.328429252
 30
0.0
 10
20.9432349094
 20
8.3401575393
 30
0.0
 10
20.8896817726
 20
8.3503092975
 30
0.0
 10
20.8345130245
 20
8.3565422934
 30
0.0
 10
20.7972739585
 20
8.357981236
 30
0.0
 10
20.7786359587
 20
8.357981236
 30
0.0
  0
SPLINE
  5
505
100
AcDbEntity
  8
0
100
AcDbSpline
 62
9
  6
CONTINUOUS
 70
0
 71
3
 72
22
 73
18
 74
0
 42
0.0000001
 43
0.0000001
 44
0.0000000001
 40
0.0
 40
0.0
 40
0.0
 40
0.0
 40
0.0200071952
 40
0.0403455834
 40
0.082682859
 40
0.1281497674
 40
0.1773459326
 40
0.2305094083
 40
0.2876275825
 40
0.3485188825
 40
0.4128879104
 40
0.4803616076
 40
0.5505129556
 40
0.6228766989
 40
0.6969599647
 40
0.8482061996
 40
1.0
 40
1.0
 40
1.0
 40
1.0
 10
21.2136613017
 20
8.0504472845
 30
0.0
 10
21.2124718786
 20
8.0533535937
 30
0.0
 10
21.2097386454
 20
8.0590830301
 30
0.0
 10
21.2029237004
 20
8.0701508112
 30
0.0
 10
21.1918884993
 20
8.0831853052
 30
0.0
 10
21.1754611027
 20
8.0971700876
 30
0.0
 10
21.1559566686
 20
8.1098330399
 30
0.0
 10
21.1336413178
 20
8.1212488613
 30
0.0
 10
21.1087733382
 20
8.1314826034
 30
0.0
 10
21.0816151372
 20
8.140585311
 30
0.0
 10
21.0524328197
 20
8.1486035092
 30
0.0
 10
21.0214958741
 20
8.155581099
 30
0.0
 10
20.9890761447
 20
8.1615609719
 30
0.0
 10
20.9554469646
 20
8.1665862684
 30
0.0
 10
20.9090432875
 20
8.1721064779
 30
0.0
 10
20.8500082458
 20
8.1767491683
 30
0.0
 10
20.8024583448
 20
8.1784091566
 30
0.0
 10
20.7786359587
 20
8.1787741959
 30
0.0
  0
SPLINE
  5
506
100
AcDbEntity
  8
0
100
AcDbSpline
 62
9
  6
CONTINUOUS
 70
0
 71
3
 72
22
 73
18
 74
0
 42
0.0000001
 43
0.0000001
 44
0.0000000001
 40
0.0
 40
0.0
 40
0.0
 40
0.0
 40
0.0200071952
 40
0.0403455834
 40
0.082682859
 40
0.1281497674
 40
0.1773459326
 40
0.2305094083
 40
0.2876275825
 40
0.3485188825
 40
0.4128879104
 40
0.4803616076
 40
0.5505129556
 40
0.6228766989
 40
0.6969599647
 40
0.8482061996
 40
1.0
 40
1.0
 40
1.0
 40
1.0
 10
20.3436106156
 20
8.0504472845
 30
0.0
 10
20.3448000387
 20
8.0533535937
 30
0.0
 10
20.3475332719
 20
8.0590830301
 30
0.0
 10
20.3543482169
 20
8.0701508111
 30
0.0
 10
20.365383418
 20
8.0831853052
 30
0.0
 10
20.3818108146
 20
8.0971700876
 30
0.0
 10
20.4013152487
 20
8.1098330399
 30
0.0
 10
20.4236305995
 20
8.1212488613
 30
0.0
 10
20.4484985791
 20
8.1314826034
 30
0.0
 10
20.4756567801
 20
8.140585311
 30
0.0
 10
20.5048390976
 20
8.1486035092
 30
0.0
 10
20.5357760432
 20
8.155581099
 30
0.0
 10
20.5681957726
 20
8.1615609719
 30
0.0
 10
20.6018249527
 20
8.1665862684
 30
0.0
 10
20.6482286298
 20
8.1721064779
 30
0.0
 10
20.7072636716
 20
8.1767491683
 30
0.0
 10
20.7548135726
 20
8.1784091566
 30
0.0
 10
20.7786359587
 20
8.1787741959
 30
0.0
  0
SPLINE
  5
507
100
AcDbEntity
  8
0
100
AcDbSpline
 62
7
  6
CONTINUOUS
 70
0
 71
3
 72
11
 73
7
 74
0
 42
0.0000001
 43
0.0000001
 44
0.0000000001
 40
0.0
 40
0.0
 40
0.0
 40
0.0
 40
0.2437676285
 40
0.489618272
 40
0.740844729
 40
1.0
 40
1.0
 40
1.0
 40
1.0
 10
20.3828596764
 20
8.177833913
 30
0.0
 10
20.383838832
 20
8.1828757198
 30
0.0
 10
20.3865224472
 20
8.1928767417
 30
0.0
 10
20.3925743127
 20
8.2073103318
 30
0.0
 10
20.4005335597
 20
8.2211557452
 30
0.0
 10
20.4069245751
 20
8.2298333395
 30
0.0
 10
20.4103763455
 20
8.2340640848
 30
0.0
  0
SPLINE
  5
508
100
AcDbEntity
  8
0
100
AcDbSpline
 62
7
  6
CONTINUOUS
 70
0
 71
3
 72
18
 73
14
 74
0
 42
0.0000001
 43
0.0000001
 44
0.0000000001
 40
0.0
 40
0.0
 40
0.0
 40
0.0
 40
0.0986828544
 40
0.1515875073
 40
0.2069005829
 40
0.2645702856
 40
0.3244833646
 40
0.3864802175
 40
0.4503664073
 40
0.5828754362
 40
0.720079726
 40
0.8598490404
 40
1.0
 40
1.0
 40
1.0
 40
1.0
 10
20.4103763455
 20
8.2340640848
 30
0.0
 10
20.4186725094
 20
8.2442324772
 30
0.0
 10
20.4332924367
 20
8.2583662134
 30
0.0
 10
20.4553417847
 20
8.2748390456
 30
0.0
 10
20.4739861192
 20
8.2866749816
 30
0.0
 10
20.4941928706
 20
8.2976744826
 30
0.0
 10
20.5158243978
 20
8.3078245112
 30
0.0
 10
20.5387352518
 20
8.3171050714
 30
0.0
 10
20.5711900199
 20
8.3284292446
 30
0.0
 10
20.614036985
 20
8.3401575352
 30
0.0
 10
20.6675901288
 20
8.3503092963
 30
0.0
 10
20.7227588846
 20
8.3565422939
 30
0.0
 10
20.7599979561
 20
8.357981237
 30
0.0
 10
20.7786359587
 20
8.357981237
 30
0.0
  0
SPLINE
  5
509
100
AcDbEntity
  8
0
100
AcDbSpline
 62
9
  6
CONTINUOUS
 70
0
 71
3
 72
22
 73
18
 74
0
 42
0.0000001
 43
0.0000001
 44
0.0000000001
 40
0.0
 40
0.0
 40
0.0
 40
0.0
 40
0.0703862305
 40
0.1405928949
 40
0.2789260211
 40
0.3466792528
 40
0.4131975971
 40
0.4783071964
 40
0.541879461
 40
0.6038509999
 40
0.6642093047
 40
0.7230086463
 40
0.7803593169
 40
0.8364592174
 40
0.8915792505
 40
0.9460081646
 40
1.0
 40
1.0
 40
1.0
 40
1.0
 10
20.7786359587
 20
12.102566366
 30
0.0
 10
20.7627096933
 20
12.102566366
 30
0.0
 10
20.7308821514
 20
12.101362845
 30
0.0
 10
20.668131279
 20
12.0942607082
 30
0.0
 10
20.6069130107
 20
12.0801512639
 30
0.0
 10
20.5488562119
 20
12.0591581829
 30
0.0
 10
20.5077920182
 20
12.0403420522
 30
0.0
 10
20.4693143771
 20
12.0185414827
 30
0.0
 10
20.4338038676
 20
11.993938929
 30
0.0
 10
20.4015881369
 20
11.9667893031
 30
0.0
 10
20.3729964961
 20
11.93732564
 30
0.0
 10
20.34829091
 20
11.9058470787
 30
0.0
 10
20.3277242177
 20
11.8726413399
 30
0.0
 10
20.3115015133
 20
11.8380220686
 30
0.0
 10
20.2997896886
 20
11.8023155857
 30
0.0
 10
20.2927259261
 20
11.7658964815
 30
0.0
 10
20.2911359587
 20
11.7413364119
 30
0.0
 10
20.2911359587
 20
11.7291197
 30
0.0
  0
SPLINE
  5
50A
100
AcDbEntity
  8
0
100
AcDbSpline
 62
9
  6
CONTINUOUS
 70
0
 71
3
 72
22
 73
18
 74
0
 42
0.0000001
 43
0.0000001
 44
0.0000000001
 40
0.0
 40
0.0
 40
0.0
 40
0.0
 40
0.0539918354
 40
0.1084207495
 40
0.1635407826
 40
0.2196406831
 40
0.2769913537
 40
0.3357906953
 40
0.3961490001
 40
0.458120539
 40
0.5216928036
 40
0.5868024029
 40
0.6533207472
 40
0.7210739789
 40
0.8594071051
 40
0.9296137695
 40
1.0
 40
1.0
 40
1.0
 40
1.0
 10
21.2661359587
 20
11.7291197
 30
0.0
 10
21.2661359587
 20
11.7413364119
 30
0.0
 10
21.2645459913
 20
11.7658964815
 30
0.0
 10
21.2574822287
 20
11.8023155857
 30
0.0
 10
21.245770404
 20
11.8380220686
 30
0.0
 10
21.2295476996
 20
11.8726413399
 30
0.0
 10
21.2089810073
 20
11.9058470787
 30
0.0
 10
21.1842754212
 20
11.93732564
 30
0.0
 10
21.1556837804
 20
11.9667893031
 30
0.0
 10
21.1234680498
 20
11.993938929
 30
0.0
 10
21.0879575402
 20
12.0185414827
 30
0.0
 10
21.0494798991
 20
12.0403420522
 30
0.0
 10
21.0084157055
 20
12.0591581829
 30
0.0
 10
20.9503589067
 20
12.0801512639
 30
0.0
 10
20.8891406383
 20
12.0942607082
 30
0.0
 10
20.826389766
 20
12.101362845
 30
0.0
 10
20.7945622241
 20
12.102566366
 30
0.0
 10
20.7786359587
 20
12.102566366
 30
0.0
  0
SPLINE
  5
50B
100
AcDbEntity
  8
0
100
AcDbSpline
 62
7
  6
CONTINUOUS
 70
0
 71
3
 72
9
 73
5
 74
0
 42
0.0000001
 43
0.0000001
 44
0.0000000001
 40
0.0
 40
0.0
 40
0.0
 40
0.0
 40
0.2530548744
 40
1.0
 40
1.0
 40
1.0
 40
1.0
 10
20.3922133272
 20
8.2506441208
 30
0.0
 10
20.3926650374
 20
8.2573427137
 30
0.0
 10
20.3939973775
 20
8.2838412732
 30
0.0
 10
20.3934703437
 20
8.3104406957
 30
0.0
 10
20.3919309111
 20
8.3301980344
 30
0.0
  0
SPLINE
  5
50C
100
AcDbEntity
  8
0
100
AcDbSpline
 62
7
  6
CONTINUOUS
 70
0
 71
3
 72
21
 73
17
 74
0
 42
0.0000001
 43
0.0000001
 44
0.0000000001
 40
0.0
 40
0.0
 40
0.0
 40
0.0
 40
0.0690474777
 40
0.1379863539
 40
0.2743267866
 40
0.4074463444
 40
0.4724779023
 40
0.536290093
 40
0.598788096
 40
0.659922223
 40
0.7196732508
 40
0.778065396
 40
0.8351608387
 40
0.8910630723
 40
0.9459401215
 40
1.0
 40
1.0
 40
1.0
 40
1.0
 10
20.7786359587
 20
11.9706699281
 30
0.0
 10
20.7925251603
 20
11.9706699281
 30
0.0
 10
20.8202913224
 20
11.9697538768
 30
0.0
 10
20.8752372456
 20
11.9643337579
 30
0.0
 10
20.9422005665
 20
11.9509528982
 30
0.0
 10
21.005987566
 20
11.9287950607
 30
0.0
 10
21.0536098737
 20
11.9061392939
 30
0.0
 10
21.0870596792
 20
11.8870197945
 30
0.0
 10
21.1182534243
 20
11.8657673959
 30
0.0
 10
21.1469755845
 20
11.8425517037
 30
0.0
 10
21.1730073434
 20
11.8175276101
 30
0.0
 10
21.1961558955
 20
11.7908781243
 30
0.0
 10
21.2162613793
 20
11.7628067903
 30
0.0
 10
21.2331565535
 20
11.7335018319
 30
0.0
 10
21.2467244666
 20
11.703184608
 30
0.0
 10
21.2535237006
 20
11.6823000227
 30
0.0
 10
21.2563165621
 20
11.6717904044
 30
0.0
  0
SPLINE
  5
50D
100
AcDbEntity
  8
0
100
AcDbSpline
 62
7
  6
CONTINUOUS
 70
0
 71
3
 72
21
 73
17
 74
0
 42
0.0000001
 43
0.0000001
 44
0.0000000001
 40
0.0
 40
0.0
 40
0.0
 40
0.0
 40
0.0540596774
 40
0.1089363784
 40
0.1648381709
 40
0.2219331472
 40
0.2803248587
 40
0.3400755163
 40
0.401209369
 40
0.4637072118
 40
0.5275193671
 40
0.592551024
 40
0.7256711284
 40
0.8620124836
 40
0.930951928
 40
1.0
 40
1.0
 40
1.0
 40
1.0
 10
20.3009472213
 20
11.6717597896
 30
0.0
 10
20.3037391008
 20
11.6822702166
 30
0.0
 10
20.3105365239
 20
11.7031564946
 30
0.0
 10
20.3241022861
 20
11.7334763811
 30
0.0
 10
20.3409957983
 20
11.7627840635
 30
0.0
 10
20.3611001304
 20
11.7908581286
 30
0.0
 10
20.3842480237
 20
11.8175103093
 30
0.0
 10
20.4102795848
 20
11.8425370376
 30
0.0
 10
20.4390020085
 20
11.865755237
 30
0.0
 10
20.470196433
 20
11.8870099944
 30
0.0
 10
20.503647307
 20
11.9061316664
 30
0.0
 10
20.5512715663
 20
11.9287900646
 30
0.0
 10
20.6150617683
 20
11.9509505331
 30
0.0
 10
20.6820288662
 20
11.9643329919
 30
0.0
 10
20.7369780575
 20
11.9697537653
 30
0.0
 10
20.7647459097
 20
11.9706699281
 30
0.0
 10
20.7786359587
 20
11.9706699281
 30
0.0
  0
SPLINE
  5
50E
100
AcDbEntity
  8
0
100
AcDbSpline
 62
7
  6
CONTINUOUS
 70
0
 71
3
 72
9
 73
5
 74
0
 42
0.0000001
 43
0.0000001
 44
0.0000000001
 40
0.0
 40
0.0
 40
0.0
 40
0.0
 40
0.2530516125
 40
1.0
 40
1.0
 40
1.0
 40
1.0
 10
21.1650587614
 20
8.2506439492
 30
0.0
 10
21.1646069442
 20
8.2573422463
 30
0.0
 10
21.1632741668
 20
8.2838399958
 30
0.0
 10
21.163801676
 20
8.3104386161
 30
0.0
 10
21.1653409249
 20
8.3301954595
 30
0.0
  0
SPLINE
  5
50F
100
AcDbEntity
  8
0
100
AcDbSpline
 62
7
  6
CONTINUOUS
 70
0
 71
3
 72
37
 73
33
 74
0
 42
0.0000001
 43
0.0000001
 44
0.0000000001
 40
0.0
 40
0.0
 40
0.0
 40
0.0
 40
0.0621428395
 40
0.093274396
 40
0.1244113568
 40
0.1555699215
 40
0.1867559572
 40
0.2179681743
 40
0.2492083377
 40
0.2804770482
 40
0.3117748188
 40
0.3430990896
 40
0.3744477771
 40
0.4058167846
 40
0.4372021964
 40
0.468598624
 40
0.5000007723
 40
0.5314029135
 40
0.5627992898
 40
0.5941846371
 40
0.6255535433
 40
0.6569021166
 40
0.688226251
 40
0.7195238789
 40
0.7507924415
 40
0.782032451
 40
0.81324452
 40
0.8444304242
 40
0.8755888828
 40
0.9067257373
 40
0.9378572058
 40
1.0
 40
1.0
 40
1.0
 40
1.0
 10
6.6311359587
 20
2.4682561228
 30
0.0
 10
6.6311359587
 20
2.4131415219
 30
0.0
 10
6.6228394177
 20
2.3301086811
 30
0.0
 10
6.5956438409
 20
2.2230462285
 30
0.0
 10
6.5673500108
 20
2.1450084447
 30
0.0
 10
6.5314418207
 20
2.0701320645
 30
0.0
 10
6.4882975712
 20
1.9990964163
 30
0.0
 10
6.4383135478
 20
1.9326060889
 30
0.0
 10
6.3819908176
 20
1.8712938864
 30
0.0
 10
6.319873303
 20
1.8157471025
 30
0.0
 10
6.25256206
 20
1.7664977227
 30
0.0
 10
6.1807128404
 20
1.7240028286
 30
0.0
 10
6.1050082375
 20
1.6886849957
 30
0.0
 10
6.0261868449
 20
1.6608502651
 30
0.0
 10
5.9449933233
 20
1.640795814
 30
0.0
 10
5.8622139149
 20
1.6286694096
 30
0.0
 10
5.7786338977
 20
1.6246306854
 30
0.0
 10
5.6950539588
 20
1.6286698683
 30
0.0
 10
5.6122746823
 20
1.6407964787
 30
0.0
 10
5.5310815069
 20
1.6608514969
 30
0.0
 10
5.4522603588
 20
1.6886861822
 30
0.0
 10
5.3765563224
 20
1.7240044842
 30
0.0
 10
5.3047073806
 20
1.7664991574
 30
0.0
 10
5.2373967812
 20
1.8157487782
 30
0.0
 10
5.1752795405
 20
1.8712952671
 30
0.0
 10
5.118957361
 20
1.9326074377
 30
0.0
 10
5.0689735605
 20
1.999097443
 30
0.0
 10
5.0258296666
 20
2.0701329117
 30
0.0
 10
4.9899216644
 20
2.1450090372
 30
0.0
 10
4.9616279658
 20
2.2230465856
 30
0.0
 10
4.9344324768
 20
2.33010884
 30
0.0
 10
4.9261359587
 20
2.4131415621
 30
0.0
 10
4.9261359587
 20
2.4682561228
 30
0.0
  0
SPLINE
  5
510
100
AcDbEntity
  8
0
100
AcDbSpline
 62
7
  6
CONTINUOUS
 70
0
 71
3
 72
26
 73
22
 74
0
 42
0.0000001
 43
0.0000001
 44
0.0000000001
 40
0.0
 40
0.0
 40
0.0
 40
0.0
 40
0.062099765
 40
0.1241692702
 40
0.1862422948
 40
0.2483486351
 40
0.3104986111
 40
0.3416071333
 40
0.3727354339
 40
0.4350396839
 40
0.4974430287
 40
0.5599424479
 40
0.6225502193
 40
0.68526907
 40
0.7480782285
 40
0.7795228041
 40
0.810985905
 40
0.842467585
 40
0.873965675
 40
0.9369725782
 40
1.0
 40
1.0
 40
1.0
 40
1.0
 10
4.9919848054
 20
2.6615158363
 30
0.0
 10
4.9856486478
 20
2.6327363281
 30
0.0
 10
4.9762003742
 20
2.5744270903
 30
0.0
 10
4.9719817978
 20
2.4859656687
 30
0.0
 10
4.9779068555
 20
2.3975870203
 30
0.0
 10
4.9937314678
 20
2.3104109557
 30
0.0
 10
5.0149949829
 20
2.239639519
 30
0.0
 10
5.0367260694
 20
2.1847292471
 30
0.0
 10
5.0615830612
 20
2.1310807368
 30
0.0
 10
5.0983133463
 20
2.0667034266
 30
0.0
 10
5.1507500903
 20
1.9947717506
 30
0.0
 10
5.2109697386
 20
1.929008225
 30
0.0
 10
5.278324428
 20
1.8703475933
 30
0.0
 10
5.3518524899
 20
1.8194015986
 30
0.0
 10
5.4175124211
 20
1.7838759744
 30
0.0
 10
5.472180016
 20
1.7599277858
 30
0.0
 10
5.5141691044
 20
1.7442645752
 30
0.0
 10
5.5569826759
 20
1.7309370669
 30
0.0
 10
5.6149795822
 20
1.7163176297
 30
0.0
 10
5.6888712377
 20
1.7040113276
 30
0.0
 10
5.7487270051
 20
1.7006840153
 30
0.0
 10
5.7786359601
 20
1.7006840158
 30
0.0
  0
SPLINE
  5
511
100
AcDbEntity
  8
0
100
AcDbSpline
 62
7
  6
CONTINUOUS
 70
0
 71
3
 72
26
 73
22
 74
0
 42
0.0000001
 43
0.0000001
 44
0.0000000001
 40
0.0
 40
0.0
 40
0.0
 40
0.0
 40
0.0630274218
 40
0.1260343251
 40
0.157532415
 40
0.189014095
 40
0.2204771959
 40
0.2519217716
 40
0.3147309301
 40
0.3774497808
 40
0.4400575522
 40
0.5025569714
 40
0.5649603162
 40
0.6272645662
 40
0.6583928668
 40
0.6895013889
 40
0.751651365
 40
0.8137577052
 40
0.8758307299
 40
0.937900235
 40
1.0
 40
1.0
 40
1.0
 40
1.0
 10
5.7786359601
 20
1.7006840244
 30
0.0
 10
5.8085449149
 20
1.700684024
 30
0.0
 10
5.8684006818
 20
1.7040113364
 30
0.0
 10
5.9422923368
 20
1.7163176387
 30
0.0
 10
6.0002892427
 20
1.730937076
 30
0.0
 10
6.0431028139
 20
1.7442645843
 30
0.0
 10
6.0850919019
 20
1.7599277948
 30
0.0
 10
6.1397594964
 20
1.7838759834
 30
0.0
 10
6.2054194271
 20
1.8194016074
 30
0.0
 10
6.2789474885
 20
1.8703476017
 30
0.0
 10
6.3463021775
 20
1.9290082329
 30
0.0
 10
6.4065218253
 20
1.9947717581
 30
0.0
 10
6.4589585691
 20
2.0667034335
 30
0.0
 10
6.4956888541
 20
2.1310807431
 30
0.0
 10
6.5205458458
 20
2.184729253
 30
0.0
 10
6.5422769322
 20
2.2396395245
 30
0.0
 10
6.5635404475
 20
2.3104109605
 30
0.0
 10
6.5793650599
 20
2.3975870245
 30
0.0
 10
6.585290118
 20
2.4859656722
 30
0.0
 10
6.5810715421
 20
2.5744270931
 30
0.0
 10
6.5716232688
 20
2.6327363306
 30
0.0
 10
6.5652871114
 20
2.6615158386
 30
0.0
  0
LINE
  5
512
100
AcDbEntity
  8
0
100
AcDbLine
 62
7
  6
CONTINUOUS
 10
5.7786347826
 20
6.517886054
 11
5.778634448
 21
1.7006844701
  0
LINE
  5
513
100
AcDbEntity
  8
0
100
AcDbLine
 62
7
  6
CONTINUOUS
 10
5.7786352567
 20
6.517886054
 11
5.7786351729
 21
8.4398990203
  0
SPLINE
  5
514
100
AcDbEntity
  8
0
100
AcDbSpline
 62
9
  6
CONTINUOUS
 70
0
 71
3
 72
25
 73
21
 74
0
 42
0.0000001
 43
0.0000001
 44
0.0000000001
 40
0.0
 40
0.0
 40
0.0
 40
0.0
 40
0.0804434618
 40
0.1603877203
 40
0.239238672
 40
0.3164144545
 40
0.3913742136
 40
0.4636545861
 40
0.5328298946
 40
0.598520876
 40
0.6604569988
 40
0.7185386852
 40
0.7727748222
 40
0.8233153617
 40
0.8705465048
 40
0.915125648
 40
0.9367008605
 40
0.9579474082
 40
0.9789994276
 40
1.0
 40
1.0
 40
1.0
 40
1.0
 10
5.7786351729
 20
8.4398990203
 30
0.0
 10
5.8020520093
 20
8.4392853392
 30
0.0
 10
5.848718003
 20
8.4368910051
 30
0.0
 10
5.9180551997
 20
8.429853988
 30
0.0
 10
5.9860073888
 20
8.4194427968
 30
0.0
 10
6.0518907162
 20
8.405723585
 30
0.0
 10
6.1150399826
 20
8.3887652707
 30
0.0
 10
6.1748470875
 20
8.3687721234
 30
0.0
 10
6.2307298781
 20
8.3459389875
 30
0.0
 10
6.2821203679
 20
8.3204476857
 30
0.0
 10
6.3284827911
 20
8.2924779305
 30
0.0
 10
6.369401864
 20
8.2623343284
 30
0.0
 10
6.4044962115
 20
8.2302888595
 30
0.0
 10
6.433379963
 20
8.19657425
 30
0.0
 10
6.4556774482
 20
8.1614482178
 30
0.0
 10
6.4687492286
 20
8.130937755
 30
0.0
 10
6.4755461937
 20
8.1063794301
 30
0.0
 10
6.4788399712
 20
8.0880447191
 30
0.0
 10
6.4803625329
 20
8.0696481102
 30
0.0
 10
6.4801825159
 20
8.0573810144
 30
0.0
 10
6.4797975506
 20
8.0512778446
 30
0.0
  0
LINE
  5
515
100
AcDbEntity
  8
0
100
AcDbLine
 62
7
  6
CONTINUOUS
 10
5.7786349789
 20
8.4398990253
 11
5.7786343895
 21
13.0061908136
  0
SPLINE
  5
516
100
AcDbEntity
  8
0
100
AcDbSpline
 62
9
  6
CONTINUOUS
 70
0
 71
3
 72
25
 73
21
 74
0
 42
0.0000001
 43
0.0000001
 44
0.0000000001
 40
0.0
 40
0.0
 40
0.0
 40
0.0
 40
0.0804434584
 40
0.1603877149
 40
0.2392386659
 40
0.3164144487
 40
0.391374209
 40
0.4636545831
 40
0.5328298936
 40
0.5985208771
 40
0.6604570018
 40
0.7185386896
 40
0.7727748275
 40
0.8233153673
 40
0.8705465099
 40
0.9151256518
 40
0.9367008635
 40
0.9579474103
 40
0.9789994287
 40
1.0
 40
1.0
 40
1.0
 40
1.0
 10
5.7786369384
 20
8.4398990253
 30
0.0
 10
5.7552200977
 20
8.4392853474
 30
0.0
 10
5.7085540949
 20
8.4368910191
 30
0.0
 10
5.6392168837
 20
8.4298540093
 30
0.0
 10
5.5712646789
 20
8.4194428241
 30
0.0
 10
5.505381335
 20
8.405723617
 30
0.0
 10
5.4422320517
 20
8.3887653061
 30
0.0
 10
5.3824249299
 20
8.3687721607
 30
0.0
 10
5.3265421228
 20
8.3459390254
 30
0.0
 10
5.2751516171
 20
8.320447723
 30
0.0
 10
5.2287891792
 20
8.2924779661
 30
0.0
 10
5.1878700928
 20
8.262334361
 30
0.0
 10
5.1527757335
 20
8.2302888884
 30
0.0
 10
5.1238919719
 20
8.1965742743
 30
0.0
 10
5.1015944787
 20
8.1614482367
 30
0.0
 10
5.0885226934
 20
8.1309377688
 30
0.0
 10
5.0817257257
 20
8.1063794396
 30
0.0
 10
5.0784319469
 20
8.0880447255
 30
0.0
 10
5.0769093844
 20
8.0696481134
 30
0.0
 10
5.0770894013
 20
8.0573810155
 30
0.0
 10
5.0774743667
 20
8.0512778446
 30
0.0
  0
ENDSEC
  0
SECTION
  2
OBJECTS
  0
DICTIONARY
  5
C
100
AcDbDictionary
280
0
281
1
  3
ACAD_GROUP
350
D
  3
ACAD_MLINESTYLE
350
17
  3
ACAD_LAYOUT
350
1A
  3
ACAD_PLOTSETTINGS
350
19
  3
ACAD_PLOTSTYLENAME
350
E
  0
DICTIONARY
  5
D
102
{ACAD_REACTORS
330
C
102
}
100
AcDbDictionary
280
0
281
1
  0
ACDBDICTIONARYWDFLT
  5
E
102
{ACAD_REACTORS
330
C
102
}
100
AcDbDictionary
281
1
  3
Normal
350
F
100
AcDbDictionaryWithDefault
340
F
  0
DICTIONARY
  5
17
102
{ACAD_REACTORS
330
C
102
}
100
AcDbDictionary
280
0
281
1
  3
Standard
350
18
  0
DICTIONARY
  5
19
102
{ACAD_REACTORS
330
C
102
}
100
AcDbDictionary
281
1
  0
DICTIONARY
  5
1A
102
{ACAD_REACTORS
330
C
102
}
100
AcDbDictionary
281
1
  3
Model
350
517
  3
Layout1
350
518
  0
ACDBPLACEHOLDER
  5
F
102
{ACAD_REACTORS
330
E
102
}
  0
MLINESTYLE
  5
18
102
{ACAD_REACTORS
330
17
102
}
100
AcDbMlineStyle
  2
STANDARD
 70
0
  3

 62
256
 51
90.0
 52
90.0
 71
2
 49
0.5
 62
256
  6
BYLAYER
 49
-0.5
 62
256
  6
BYLAYER
  0
LAYOUT
  5
517
102
{ACAD_REACTORS
330
1A
102
}
100
AcDbPlotSettings
  1

  2
none_device
  4
ANSI_C_(22.00_x_17.00_Inches)
  6

 40
0.0
 41
0.0
 42
0.0
 43
0.0
 44
558.8
 45
431.8
 46
0.0
 47
0.0
 48
0.0
 49
0.0
140
0.0
141
0.0
142
1.0
143
1.0
 70
1024
 72
0
 73
0
 74
0
  7

 75
0
147
1.0
148
0.0
149
0.0
100
AcDbLayout
  1
Model
 70
0
 71
0
 10
0.0
 20
0.0
 11
22.0
 21
17.0
 12
0.0
 22
0.0
 32
0.0
 14
0.0
 24
0.0
 34
0.0
 15
0.0
 25
0.0
 35
0.0
146
0.0
 13
0.0
 23
0.0
 33
0.0
 16
1.0
 26
0.0
 36
0.0
 17
0.0
 27
1.0
 37
0.0
 76
0
330
202
345
0
346
0
  0
LAYOUT
  5
518
102
{ACAD_REACTORS
330
1A
102
}
100
AcDbPlotSettings
  1

  2
none_device
  4
ANSI_C_(22.00_x_17.00_Inches)
  6

 40
0.0
 41
0.0
 42
0.0
 43
0.0
 44
558.8
 45
431.8
 46
0.0
 47
0.0
 48
0.0
 49
0.0
140
0.0
141
0.0
142
1.0
143
1.0
 70
0
 72
0
 73
0
 74
0
  7

 75
0
147
1.0
148
0.0
149
0.0
100
AcDbLayout
  1
Layout1
 70
0
 71
1
 10
0.0
 20
0.0
 11
22.0
 21
17.0
 12
0.0
 22
0.0
 32
0.0
 14
0.0
 24
0.0
 34
0.0
 15
0.0
 25
0.0
 35
0.0
146
0.0
 13
0.0
 23
0.0
 33
0.0
 16
1.0
 26
0.0
 36
0.0
 17
0.0
 27
1.0
 37
0.0
 76
0
330
203
345
0
346
0
  0
ENDSEC
  0
EOF
