999
DXF file: 3-911_front.dxf
999
Pro/ENGINEER 2018400 by Parametric Technology Corporation
  0
SECTION
  2
HEADER
  9
$ACADVER
  1
AC1027
  9
$DWGCODEPAGE
  3
ANSI_1252
  9
$EXTMAX
 10
11.0
 20
8.5
 30
0.0
  9
$EXTMIN
 10
0.0
 20
0.0
 30
0.0
  9
$LIMMIN
 10
0.0
 20
0.0
  9
$LIMMAX
 10
11.0
 20
8.5
  9
$VIEWCTR
 10
5.5
 20
4.25
  9
$VIEWSIZE
 40
8.5
  9
$CLAYER
  8
0
  9
$LTSCALE
 40
0.605
  9
$CELTYPE
  6
BYLAYER
  9
$DIMSCALE
 40
1.0
  9
$DIMASZ
 40
0.1
  9
$DIMEXO
 40
0.0625
  9
$DIMDLI
 40
0.418
  9
$DIMEXE
 40
0.125
  9
$DIMCEN
 40
0.099
  9
$DIMLFAC
 40
1.0
  9
$DIMBLK
  1
_FILLED
  9
$DIMALT
 70
1
  9
$DIMALTD
 70
2
  9
$DIMALTTD
 70
2
  9
$DIMALTF
 40
25.4
  9
$DIMTXT
 40
0.08
  9
$DIMTOL
 70
1
  9
$DIMLIM
 70
0
  9
$DIMTFAC
 40
1.0
  9
$DIMTP
 40
0.001
  9
$DIMTM
 40
0.001
  9
$DIMGAP
 40
0.09
  9
$DIMDSEP
 70
46
  9
$AUNITS
 70
0
  9
$PDMODE
 70
3
  9
$PDSIZE
 40
0.3125
  9
$HANDSEED
  5
2A6
  9
$TILEMODE
 70
1
  9
$MEASUREMENT
 70
0
  9
$INSUNITS
 70
1
  0
ENDSEC
  0
SECTION
  2
CLASSES
  0
CLASS
  1
ACDBDICTIONARYWDFLT
  2
AcDbDictionaryWithDefault
  3
AutoCAD 2000
 90
0
 91
1
280
0
281
0
  0
CLASS
  1
ACDBPLACEHOLDER
  2
AcDbPlaceHolder
  3
AutoCAD 2000
 90
0
 91
1
280
0
281
0
  0
CLASS
  1
LAYOUT
  2
AcDbLayout
  3
AutoCAD 2000
 90
0
 91
0
280
0
281
0
  0
ENDSEC
  0
SECTION
  2
TABLES
  0
TABLE
  2
VPORT
  5
8
100
AcDbSymbolTable
 70
2
  0
VPORT
  5
1F4
100
AcDbSymbolTableRecord
100
AcDbViewportTableRecord
  2
*ACTIVE
 70
0
 10
0.0
 20
0.0
 11
1.0
 21
1.0
 12
5.5
 22
4.25
 13
0.0
 23
0.0
 14
1.0
 24
1.0
 15
0.0
 25
0.0
 16
0.0
 26
0.0
 36
1.0
 17
0.0
 27
0.0
 37
0.0
 40
8.5
 41
1.2941176471
 42
50.0
 43
0.0
 44
0.0
 50
0.0
 51
0.0
 71
0
 72
100
 73
1
 74
1
 75
0
 76
0
 77
0
 78
0
  0
ENDTAB
  0
TABLE
  2
LTYPE
  5
5
100
AcDbSymbolTable
 70
6
  0
LTYPE
  5
14
100
AcDbSymbolTableRecord
100
AcDbLinetypeTableRecord
  2
BYBLOCK
 70
0
  3

 72
65
 73
0
 40
0.0
  0
LTYPE
  5
15
100
AcDbSymbolTableRecord
100
AcDbLinetypeTableRecord
  2
BYLAYER
 70
0
  3

 72
65
 73
0
 40
0.0
  0
LTYPE
  5
16
100
AcDbSymbolTableRecord
100
AcDbLinetypeTableRecord
  2
CONTINUOUS
 70
64
  3
Solid line
 72
65
 73
0
 40
0.0
  0
LTYPE
  5
1F5
100
AcDbSymbolTableRecord
100
AcDbLinetypeTableRecord
  2
CENTER
 70
64
  3
____ _ ____ _ ____ _ ____ _ ____ _ ____ _ ____
 72
65
 73
4
 40
0.6
 49
0.375
 74
0
 49
-0.075
 74
0
 49
0.075
 74
0
 49
-0.075
 74
0
  0
LTYPE
  5
1F6
100
AcDbSymbolTableRecord
100
AcDbLinetypeTableRecord
  2
HIDDEN
 70
64
  3
- - - - - - - - - - - - - - - - - - - -
 72
65
 73
2
 40
0.2
 49
0.1
 74
0
 49
-0.1
 74
0
  0
LTYPE
  5
1F7
100
AcDbSymbolTableRecord
100
AcDbLinetypeTableRecord
  2
PHANTOM
 70
64
  3
_____ _ _ _____ _ _ _____ _ _ _____
 72
65
 73
6
 40
0.8
 49
0.45
 74
0
 49
-0.05
 74
0
 49
0.1
 74
0
 49
-0.05
 74
0
 49
0.1
 74
0
 49
-0.05
 74
0
  0
LTYPE
  5
1F8
100
AcDbSymbolTableRecord
100
AcDbLinetypeTableRecord
  2
DOT
 70
64
  3
. . . . . . . . . . . . . . . . . . . .
 72
65
 73
2
 40
0.2
 49
0.1
 74
0
 49
-0.1
 74
0
  0
LTYPE
  5
1F9
100
AcDbSymbolTableRecord
100
AcDbLinetypeTableRecord
  2
DASHED
 70
64
  3
- - - - - - - - - - - - - - - - - - - -
 72
65
 73
2
 40
0.2
 49
0.1
 74
0
 49
-0.1
 74
0
  0
ENDTAB
  0
TABLE
  2
LAYER
  5
2
100
AcDbSymbolTable
 70
36
  0
LAYER
  5
10
100
AcDbSymbolTableRecord
100
AcDbLayerTableRecord
  2
0
 70
0
 62
7
  6
CONTINUOUS
370
-3
390
F
  0
LAYER
  5
1FA
100
AcDbSymbolTableRecord
100
AcDbLayerTableRecord
  2
DEFAULT_1
 70
0
 62
7
  6
CENTER
370
-3
390
F
  0
LAYER
  5
1FB
100
AcDbSymbolTableRecord
100
AcDbLayerTableRecord
  2
DEFAULT_2
 70
0
 62
8
  6
HIDDEN
370
-3
390
F
  0
LAYER
  5
1FC
100
AcDbSymbolTableRecord
100
AcDbLayerTableRecord
  2
DEFAULT_3
 70
0
 62
7
  6
PHANTOM
370
-3
390
F
  0
LAYER
  5
1FD
100
AcDbSymbolTableRecord
100
AcDbLayerTableRecord
  2
ALL_ASSEMBLY_MEMBERS
 70
0
 62
7
  6
CONTINUOUS
370
-3
390
F
  0
LAYER
  5
1FE
100
AcDbSymbolTableRecord
100
AcDbLayerTableRecord
  2
ALL_FEATURES
 70
0
 62
7
  6
CONTINUOUS
370
-3
390
F
  0
LAYER
  5
1FF
100
AcDbSymbolTableRecord
100
AcDbLayerTableRecord
  2
ASSY_DATUM_SHAPER
 70
0
 62
7
  6
CONTINUOUS
370
-3
390
F
  0
LAYER
  5
200
100
AcDbSymbolTableRecord
100
AcDbLayerTableRecord
  2
AXES_FEATURES
 70
0
 62
7
  6
CONTINUOUS
370
-3
390
F
  0
LAYER
  5
201
100
AcDbSymbolTableRecord
100
AcDbLayerTableRecord
  2
CHAMFER_FEATURES
 70
0
 62
7
  6
CONTINUOUS
370
-3
390
F
  0
LAYER
  5
202
100
AcDbSymbolTableRecord
100
AcDbLayerTableRecord
  2
CURVE
 70
0
 62
7
  6
CONTINUOUS
370
-3
390
F
  0
LAYER
  5
203
100
AcDbSymbolTableRecord
100
AcDbLayerTableRecord
  2
CURVES
 70
0
 62
7
  6
CONTINUOUS
370
-3
390
F
  0
LAYER
  5
204
100
AcDbSymbolTableRecord
100
AcDbLayerTableRecord
  2
CUT_FEATURES
 70
0
 62
7
  6
CONTINUOUS
370
-3
390
F
  0
LAYER
  5
205
100
AcDbSymbolTableRecord
100
AcDbLayerTableRecord
  2
DATUM_CURVES
 70
0
 62
7
  6
CONTINUOUS
370
-3
390
F
  0
LAYER
  5
206
100
AcDbSymbolTableRecord
100
AcDbLayerTableRecord
  2
DATUM_PLANES
 70
0
 62
7
  6
CONTINUOUS
370
-3
390
F
  0
LAYER
  5
207
100
AcDbSymbolTableRecord
100
AcDbLayerTableRecord
  2
DATUM_POINTS
 70
0
 62
7
  6
CONTINUOUS
370
-3
390
F
  0
LAYER
  5
208
100
AcDbSymbolTableRecord
100
AcDbLayerTableRecord
  2
DEFAULT_COORDINATE_SYSTEM
 70
0
 62
7
  6
CONTINUOUS
370
-3
390
F
  0
LAYER
  5
209
100
AcDbSymbolTableRecord
100
AcDbLayerTableRecord
  2
DEFAULT_DATUM_AXES
 70
0
 62
7
  6
CONTINUOUS
370
-3
390
F
  0
LAYER
  5
20A
100
AcDbSymbolTableRecord
100
AcDbLayerTableRecord
  2
DEFAULT_DATUM_CURVES
 70
0
 62
7
  6
CONTINUOUS
370
-3
390
F
  0
LAYER
  5
20B
100
AcDbSymbolTableRecord
100
AcDbLayerTableRecord
  2
DEFAULT_DATUM_PLANES
 70
0
 62
7
  6
CONTINUOUS
370
-3
390
F
  0
LAYER
  5
20C
100
AcDbSymbolTableRecord
100
AcDbLayerTableRecord
  2
DEFAULT_SURFACES
 70
0
 62
7
  6
CONTINUOUS
370
-3
390
F
  0
LAYER
  5
20D
100
AcDbSymbolTableRecord
100
AcDbLayerTableRecord
  2
DIMENSIONS
 70
0
 62
7
  6
CONTINUOUS
370
-3
390
F
  0
LAYER
  5
20E
100
AcDbSymbolTableRecord
100
AcDbLayerTableRecord
  2
HOLE_FEATURES
 70
0
 62
7
  6
CONTINUOUS
370
-3
390
F
  0
LAYER
  5
20F
100
AcDbSymbolTableRecord
100
AcDbLayerTableRecord
  2
NOTES
 70
0
 62
7
  6
CONTINUOUS
370
-3
390
F
  0
LAYER
  5
210
100
AcDbSymbolTableRecord
100
AcDbLayerTableRecord
  2
PART_REFERENCE_DIMENSIONS
 70
0
 62
7
  6
CONTINUOUS
370
-3
390
F
  0
LAYER
  5
211
100
AcDbSymbolTableRecord
100
AcDbLayerTableRecord
  2
PLATED_SURFACE_AREA
 70
0
 62
7
  6
CONTINUOUS
370
-3
390
F
  0
LAYER
  5
212
100
AcDbSymbolTableRecord
100
AcDbLayerTableRecord
  2
POINTS
 70
0
 62
7
  6
CONTINUOUS
370
-3
390
F
  0
LAYER
  5
213
100
AcDbSymbolTableRecord
100
AcDbLayerTableRecord
  2
PROTRUSION_FEATURES
 70
0
 62
7
  6
CONTINUOUS
370
-3
390
F
  0
LAYER
  5
214
100
AcDbSymbolTableRecord
100
AcDbLayerTableRecord
  2
QUILTS
 70
0
 62
7
  6
CONTINUOUS
370
-3
390
F
  0
LAYER
  5
215
100
AcDbSymbolTableRecord
100
AcDbLayerTableRecord
  2
REFERENCE_DIMENSIONS
 70
0
 62
7
  6
CONTINUOUS
370
-3
390
F
  0
LAYER
  5
216
100
AcDbSymbolTableRecord
100
AcDbLayerTableRecord
  2
ROUND_FEATURES
 70
0
 62
7
  6
CONTINUOUS
370
-3
390
F
  0
LAYER
  5
217
100
AcDbSymbolTableRecord
100
AcDbLayerTableRecord
  2
SURFACE_FEATURES
 70
0
 62
7
  6
CONTINUOUS
370
-3
390
F
  0
LAYER
  5
218
100
AcDbSymbolTableRecord
100
AcDbLayerTableRecord
  2
XSEC_DATUMS
 70
0
 62
7
  6
CONTINUOUS
370
-3
390
F
  0
ENDTAB
  0
TABLE
  2
STYLE
  5
3
100
AcDbSymbolTable
 70
1
  0
STYLE
  5
11
100
AcDbSymbolTableRecord
100
AcDbTextStyleTableRecord
  2
STANDARD
 70
0
 40
0.0
 41
0.8
 50
0.0
 71
0
 42
0.2
  3
txt
  4

  0
STYLE
  5
219
100
AcDbSymbolTableRecord
100
AcDbTextStyleTableRecord
  2
TEXTSTYLE_1
 70
0
 40
0.0
 41
0.8
 50
0.0
 71
0
 42
0.2
  3
gdt
  4

  0
ENDTAB
  0
TABLE
  2
VIEW
  5
6
100
AcDbSymbolTable
 70
0
  0
ENDTAB
  0
TABLE
  2
UCS
  5
7
100
AcDbSymbolTable
 70
0
  0
ENDTAB
  0
TABLE
  2
APPID
  5
9
100
AcDbSymbolTable
 70
1
  0
APPID
  5
21A
100
AcDbSymbolTableRecord
100
AcDbRegAppTableRecord
  2
ACAD
 70
0
  0
ENDTAB
  0
TABLE
  2
BLOCK_RECORD
  5
1
100
AcDbSymbolTable
 70
0
  0
BLOCK_RECORD
  5
21B
100
AcDbSymbolTableRecord
100
AcDbBlockTableRecord
  2
*Model_Space
  0
BLOCK_RECORD
  5
21C
100
AcDbSymbolTableRecord
100
AcDbBlockTableRecord
  2
*Paper_Space
  0
BLOCK_RECORD
  5
21D
100
AcDbSymbolTableRecord
100
AcDbBlockTableRecord
  2
_FILLED
  0
ENDTAB
  0
TABLE
  2
DIMSTYLE
  5
A
100
AcDbSymbolTable
 70
1
100
AcDbDimStyleTable
 71
0
  0
DIMSTYLE
105
21E
100
AcDbSymbolTableRecord
100
AcDbDimStyleTableRecord
  2
STANDARD
 70
0
  3

  4

 40
1.0
 41
0.1
 42
0.0625
 43
0.38
 44
0.125
 45
0.0
 46
0.0
 47
0.001
 48
0.001
140
0.08
141
0.09
142
0.0
143
25.4
144
1.0
145
0.0
146
1.0
147
0.09
 71
1.0
 72
0.0
 73
1
 74
1
 75
0
 76
0
 77
0
 78
4
 79
1
170
1
171
2
172
0
173
0
174
0
175
0
176
0
177
0
178
0
270
2
179
3
271
3
272
3
273
2
274
2
275
0
280
0
281
0
282
0
283
1
284
4
285
0
286
0
287
3
288
0
340
11
278
46
341
21D
342
21D
343
21D
344
21D
  0
ENDTAB
  0
ENDSEC
  0
SECTION
  2
BLOCKS
  0
BLOCK
  5
20
100
AcDbEntity
  8
0
100
AcDbBlockBegin
  2
*Model_Space
 70
0
 10
0.0
 20
0.0
 30
0.0
  3
*Model_Space
  1

  0
ENDBLK
  5
21
100
AcDbEntity
  8
0
100
AcDbBlockEnd
  0
BLOCK
  5
1C
100
AcDbEntity
  8
0
100
AcDbBlockBegin
  2
*Paper_Space
 70
0
 10
0.0
 20
0.0
 30
0.0
  3
*Paper_Space
  1

  0
ENDBLK
  5
1D
100
AcDbEntity
  8
0
100
AcDbBlockEnd
  0
BLOCK
  5
21F
100
AcDbEntity
  8
0
100
AcDbBlockBegin
  2
_FILLED
 70
64
 10
0.0
 20
0.0
  3
_FILLED
  1

  0
SOLID
  5
220
100
AcDbEntity
  8
0
  6
BYBLOCK
 62
0
100
AcDbTrace
 10
0.0
 20
0.0
 11
-1.0
 21
0.2
 12
-1.0
 22
-0.2
 13
-1.0
 23
-0.2
  0
ENDBLK
  5
221
100
AcDbEntity
  8
0
  6
BYBLOCK
 62
0
100
AcDbBlockEnd
  0
ENDSEC
  0
SECTION
  2
ENTITIES
  0
MTEXT
  5
222
100
AcDbEntity
  8
0
100
AcDbMText
 62
2
  6
CONTINUOUS
  7
STANDARD
 71
3
 72
1
 10
1.3205551242
 20
0.4605660656
 30
0.0
 11
1.0
 21
0.0
 31
0.0
 73
2
 44
0.9
  1
SCALE  .500
 40
0.08
 41
0.704
  0
LINE
  5
223
100
AcDbEntity
  8
0
100
AcDbLine
 62
7
  6
CONTINUOUS
 10
0.0
 20
0.0
 11
0.0
 21
8.5
  0
LINE
  5
224
100
AcDbEntity
  8
0
100
AcDbLine
 62
7
  6
CONTINUOUS
 10
0.0
 20
0.0
 11
11.0
 21
0.0
  0
LINE
  5
225
100
AcDbEntity
  8
0
100
AcDbLine
 62
7
  6
CONTINUOUS
 10
0.0
 20
8.5
 11
11.0
 21
8.5
  0
LINE
  5
226
100
AcDbEntity
  8
0
100
AcDbLine
 62
7
  6
CONTINUOUS
 10
11.0
 20
0.0
 11
11.0
 21
8.5
  0
LINE
  5
227
100
AcDbEntity
  8
ALL_ASSEMBLY_MEMBERS
100
AcDbLine
 62
7
  6
CONTINUOUS
 10
1.8701426863
 20
4.1932231022
 11
1.8701426863
 21
3.9346512264
  0
LINE
  5
228
100
AcDbEntity
  8
ALL_ASSEMBLY_MEMBERS
100
AcDbLine
 62
7
  6
CONTINUOUS
 10
1.8907466839
 20
3.9319911913
 11
1.8907466789
 21
4.1958831371
  0
LINE
  5
229
100
AcDbEntity
  8
ALL_FEATURES
100
AcDbLine
 62
7
  6
CONTINUOUS
 10
2.9802267974
 20
4.1749868446
 11
3.1056274605
 21
4.3921871643
  0
LINE
  5
22A
100
AcDbEntity
  8
ALL_FEATURES
100
AcDbLine
 62
7
  6
CONTINUOUS
 10
3.1056274605
 20
3.7356871643
 11
2.9802267974
 21
3.952887484
  0
LINE
  5
22B
100
AcDbEntity
  8
ALL_FEATURES
100
AcDbLine
 62
7
  6
CONTINUOUS
 10
3.6741731381
 20
4.0639371643
 11
3.4846579122
 21
3.7356871643
  0
LINE
  5
22C
100
AcDbEntity
  8
ALL_FEATURES
100
AcDbLine
 62
7
  6
CONTINUOUS
 10
3.4846579122
 20
4.3921871643
 11
3.6741731381
 21
4.0639371643
  0
LINE
  5
22D
100
AcDbEntity
  8
0
100
AcDbLine
 62
7
  6
CONTINUOUS
 10
5.505743141
 20
3.4387803513
 11
5.0207432426
 21
3.4390942391
  0
LINE
  5
22E
100
AcDbEntity
  8
0
100
AcDbLine
 62
7
  6
CONTINUOUS
 10
5.0208811702
 20
3.6532651805
 11
5.0207432426
 21
3.4390942391
  0
LINE
  5
22F
100
AcDbEntity
  8
0
100
AcDbLine
 62
7
  6
CONTINUOUS
 10
5.0618016514
 20
4.4140678706
 11
4.8595025825
 21
4.0641987236
  0
LINE
  5
230
100
AcDbEntity
  8
0
100
AcDbLine
 62
7
  6
CONTINUOUS
 10
5.1194719471
 20
4.314030526
 11
4.9749726122
 21
4.0641239924
  0
LINE
  5
231
100
AcDbEntity
  8
ALL_FEATURES
100
AcDbLine
 62
7
  6
CONTINUOUS
 10
7.4216629122
 20
3.7356871643
 11
7.0426324605
 21
3.7356871643
  0
LINE
  5
232
100
AcDbEntity
  8
ALL_FEATURES
100
AcDbLine
 62
7
  6
CONTINUOUS
 10
3.4846579122
 20
3.7356871643
 11
3.1056274605
 21
3.7356871643
  0
LINE
  5
233
100
AcDbEntity
  8
0
100
AcDbLine
 62
7
  6
CONTINUOUS
 10
5.5058806691
 20
3.6512803068
 11
5.0208807707
 21
3.6515941946
  0
LINE
  5
234
100
AcDbEntity
  8
0
100
AcDbLine
 62
7
  6
CONTINUOUS
 10
4.8595025825
 20
4.0641987236
 11
5.0165737823
 21
3.7917363484
  0
LINE
  5
235
100
AcDbEntity
  8
0
100
AcDbLine
 62
7
  6
CONTINUOUS
 10
4.9749726122
 20
4.0641239924
 11
4.9817042065
 21
4.0524470829
  0
LINE
  5
236
100
AcDbEntity
  8
0
100
AcDbLine
 62
7
  6
CONTINUOUS
 10
5.1421307453
 20
3.6515157227
 11
5.1419932172
 21
3.4390157672
  0
LINE
  5
237
100
AcDbEntity
  8
0
100
AcDbLine
 62
7
  6
CONTINUOUS
 10
5.5608554116
 20
4.5779475052
 11
5.4081470212
 21
4.313843698
  0
LINE
  5
238
100
AcDbEntity
  8
0
100
AcDbLine
 62
7
  6
CONTINUOUS
 10
4.9664399611
 20
3.5499268234
 11
5.0208759023
 21
3.6440718753
  0
LINE
  5
239
100
AcDbEntity
  8
ALL_ASSEMBLY_MEMBERS
100
AcDbLine
 62
7
  6
CONTINUOUS
 10
3.1103070058
 20
3.9574517018
 11
1.8908440091
 21
3.9146635265
  0
LINE
  5
23A
100
AcDbEntity
  8
0
100
AcDbLine
 62
7
  6
CONTINUOUS
 10
5.857397562
 20
4.0635528945
 11
5.5523227605
 21
4.0637503363
  0
LINE
  5
23B
100
AcDbEntity
  8
0
100
AcDbLine
 62
7
  6
CONTINUOUS
 10
4.6698978107
 20
4.0643214341
 11
4.9749726122
 21
4.0641239924
  0
LINE
  5
23C
100
AcDbEntity
  8
ALL_ASSEMBLY_MEMBERS
100
AcDbLine
 62
7
  6
CONTINUOUS
 10
7.4169833669
 20
3.9574517018
 11
8.6364463635
 21
3.9146635265
  0
LINE
  5
23D
100
AcDbEntity
  8
0
100
AcDbLine
 62
7
  6
CONTINUOUS
 10
4.9671055359
 20
4.578331775
 11
5.1194719471
 21
4.314030526
  0
LINE
  5
23E
100
AcDbEntity
  8
0
100
AcDbLine
 62
7
  6
CONTINUOUS
 10
5.5601898367
 20
3.5495425536
 11
5.5058758008
 21
3.6437579876
  0
LINE
  5
23F
100
AcDbEntity
  8
0
100
AcDbLine
 62
7
  6
CONTINUOUS
 10
5.3846306945
 20
3.6513587788
 11
5.3844931664
 21
3.4388588233
  0
LINE
  5
240
100
AcDbEntity
  8
0
100
AcDbLine
 62
7
  6
CONTINUOUS
 10
5.5058806691
 20
3.6512803068
 11
5.505743141
 21
3.4387803513
  0
LINE
  5
241
100
AcDbEntity
  8
0
100
AcDbLine
 62
7
  6
CONTINUOUS
 10
5.5455760574
 20
4.0520821499
 11
5.5523227605
 21
4.0637503363
  0
LINE
  5
242
100
AcDbEntity
  8
ALL_ASSEMBLY_MEMBERS
100
AcDbLine
 62
7
  6
CONTINUOUS
 10
7.4169833669
 20
4.1704226268
 11
8.6364463635
 21
4.2132108021
  0
LINE
  5
243
100
AcDbEntity
  8
ALL_ASSEMBLY_MEMBERS
100
AcDbLine
 62
7
  6
CONTINUOUS
 10
3.1103070058
 20
4.1704226268
 11
1.8908440091
 21
4.2132108021
  0
LINE
  5
244
100
AcDbEntity
  8
0
100
AcDbLine
 62
7
  6
CONTINUOUS
 10
5.5523227605
 20
4.0637503363
 11
5.4081470212
 21
4.313843698
  0
LINE
  5
245
100
AcDbEntity
  8
0
100
AcDbLine
 62
7
  6
CONTINUOUS
 10
5.5103690515
 20
3.7914167683
 11
5.6677927901
 21
4.0636756051
  0
LINE
  5
246
100
AcDbEntity
  8
ALL_FEATURES
100
AcDbLine
 62
7
  6
CONTINUOUS
 10
3.1056274605
 20
4.3921871643
 11
3.4846579122
 21
4.3921871643
  0
LINE
  5
247
100
AcDbEntity
  8
ALL_FEATURES
100
AcDbLine
 62
7
  6
CONTINUOUS
 10
7.0426324605
 20
4.3921871643
 11
7.4216629122
 21
4.3921871643
  0
LINE
  5
248
100
AcDbEntity
  8
0
100
AcDbLine
 62
7
  6
CONTINUOUS
 10
5.4081470212
 20
4.313843698
 11
5.1194719471
 21
4.314030526
  0
LINE
  5
249
100
AcDbEntity
  8
0
100
AcDbLine
 62
7
  6
CONTINUOUS
 10
5.4659467552
 20
4.4138063114
 11
5.0618016514
 21
4.4140678706
  0
LINE
  5
24A
100
AcDbEntity
  8
0
100
AcDbLine
 62
7
  6
CONTINUOUS
 10
5.6677927901
 20
4.0636756051
 11
5.4659467552
 21
4.4138063114
  0
LINE
  5
24B
100
AcDbEntity
  8
ALL_FEATURES
100
AcDbLine
 62
7
  6
CONTINUOUS
 10
6.8531172346
 20
4.0639371643
 11
7.0426324605
 21
4.3921871643
  0
LINE
  5
24C
100
AcDbEntity
  8
ALL_FEATURES
100
AcDbLine
 62
7
  6
CONTINUOUS
 10
7.0426324605
 20
3.7356871643
 11
6.8531172346
 21
4.0639371643
  0
LINE
  5
24D
100
AcDbEntity
  8
ALL_FEATURES
100
AcDbLine
 62
7
  6
CONTINUOUS
 10
7.5470635752
 20
3.952887484
 11
7.4216629122
 21
3.7356871643
  0
LINE
  5
24E
100
AcDbEntity
  8
ALL_FEATURES
100
AcDbLine
 62
7
  6
CONTINUOUS
 10
7.4216629122
 20
4.3921871643
 11
7.5470635752
 21
4.1749868446
  0
LINE
  5
24F
100
AcDbEntity
  8
ALL_ASSEMBLY_MEMBERS
100
AcDbLine
 62
7
  6
CONTINUOUS
 10
8.6365436888
 20
4.1958831373
 11
8.6365436938
 21
3.9319911915
  0
LINE
  5
250
100
AcDbEntity
  8
ALL_ASSEMBLY_MEMBERS
100
AcDbLine
 62
7
  6
CONTINUOUS
 10
8.6571476863
 20
4.1932231022
 11
8.6571476863
 21
3.9346512264
  0
ARC
  5
251
100
AcDbEntity
  8
ALL_ASSEMBLY_MEMBERS
100
AcDbCircle
 62
7
  6
CONTINUOUS
 10
3.1112713246
 20
3.9299686145
 40
0.0275
100
AcDbArc
 50
36.0770556093
 51
92.009553813
  0
ARC
  5
252
100
AcDbEntity
  8
ALL_ASSEMBLY_MEMBERS
100
AcDbCircle
 62
7
  6
CONTINUOUS
 10
1.8901426863
 20
3.9346512264
 40
0.02
100
AcDbArc
 50
180.0
 51
272.009553813
  0
ARC
  5
253
100
AcDbEntity
  8
ALL_ASSEMBLY_MEMBERS
100
AcDbCircle
 62
7
  6
CONTINUOUS
 10
1.8901426863
 20
4.1932231022
 40
0.02
100
AcDbArc
 50
87.990446187
 51
180.0
  0
ARC
  5
254
100
AcDbEntity
  8
ALL_FEATURES
100
AcDbCircle
 62
7
  6
CONTINUOUS
 10
3.2951426863
 20
4.0639371643
 40
0.59
100
AcDbArc
 50
191.762425946
 51
168.237574054
  0
ARC
  5
255
100
AcDbEntity
  8
ALL_FEATURES
100
AcDbCircle
 62
7
  6
CONTINUOUS
 10
3.2951426863
 20
4.0639371643
 40
0.5000013369
100
AcDbArc
 50
193.5397087744
 51
166.4602912256
  0
ARC
  5
256
100
AcDbEntity
  8
ALL_FEATURES
100
AcDbCircle
 62
7
  6
CONTINUOUS
 10
3.2951426863
 20
4.0639371643
 40
0.4065013369
100
AcDbArc
 50
196.2428911079
 51
163.7571088921
  0
ARC
  5
257
100
AcDbEntity
  8
ALL_FEATURES
100
AcDbCircle
 62
7
  6
CONTINUOUS
 10
3.2951426863
 20
4.0639371643
 40
0.3705
100
AcDbArc
 50
197.6589936754
 51
237.6237776714
  0
ARC
  5
258
100
AcDbEntity
  8
ALL_FEATURES
100
AcDbCircle
 62
7
  6
CONTINUOUS
 10
3.2951426863
 20
4.0639371643
 40
0.3705
100
AcDbArc
 50
242.3762223286
 51
297.6237776714
  0
ARC
  5
259
100
AcDbEntity
  8
ALL_FEATURES
100
AcDbCircle
 62
7
  6
CONTINUOUS
 10
3.2951426863
 20
4.0639371643
 40
0.3705
100
AcDbArc
 50
302.3762223286
 51
357.6235767921
  0
ARC
  5
25A
100
AcDbEntity
  8
ALL_FEATURES
100
AcDbCircle
 62
7
  6
CONTINUOUS
 10
3.2951426863
 20
4.0639371643
 40
0.3705
100
AcDbArc
 50
122.3762223286
 51
162.3410063246
  0
ARC
  5
25B
100
AcDbEntity
  8
ALL_FEATURES
100
AcDbCircle
 62
7
  6
CONTINUOUS
 10
3.2951426863
 20
4.0639371643
 40
0.3705
100
AcDbArc
 50
62.3762223286
 51
117.6237776714
  0
ARC
  5
25C
100
AcDbEntity
  8
ALL_FEATURES
100
AcDbCircle
 62
7
  6
CONTINUOUS
 10
3.2951426863
 20
4.0639371643
 40
0.3705
100
AcDbArc
 50
2.3764232079
 51
57.6237776714
  0
ARC
  5
25D
100
AcDbEntity
  8
ALL_FEATURES
100
AcDbCircle
 62
7
  6
CONTINUOUS
 10
3.2951426863
 20
4.0639371643
 40
0.32575
100
AcDbArc
 50
199.8801396015
 51
160.1198603985
  0
ARC
  5
25E
100
AcDbEntity
  8
ALL_FEATURES
100
AcDbCircle
 62
7
  6
CONTINUOUS
 10
3.2951426863
 20
4.0639371643
 40
0.3073169971
100
AcDbArc
 50
200.9916810722
 51
159.0083189278
  0
ARC
  5
25F
100
AcDbEntity
  8
ALL_FEATURES
100
AcDbCircle
 62
7
  6
CONTINUOUS
 10
3.2951426863
 20
4.0639371643
 40
0.27025
100
AcDbArc
 50
203.7189212088
 51
156.2810787912
  0
ARC
  5
260
100
AcDbEntity
  8
ALL_FEATURES
100
AcDbCircle
 62
7
  6
CONTINUOUS
 10
3.2951426863
 20
4.0639371643
 40
0.2148698637
100
AcDbArc
 50
209.7366154985
 51
150.2635869499
  0
CIRCLE
  5
261
100
AcDbEntity
  8
ALL_ASSEMBLY_MEMBERS
100
AcDbCircle
 62
7
  6
CONTINUOUS
 10
3.2951426863
 20
4.0639371643
 40
0.2
  0
CIRCLE
  5
262
100
AcDbEntity
  8
ALL_ASSEMBLY_MEMBERS
100
AcDbCircle
 62
7
  6
CONTINUOUS
 10
3.2951426863
 20
4.0639371643
 40
0.19375
  0
CIRCLE
  5
263
100
AcDbEntity
  8
ALL_ASSEMBLY_MEMBERS
100
AcDbCircle
 62
7
  6
CONTINUOUS
 10
3.2951426863
 20
4.0639371643
 40
0.15625
  0
CIRCLE
  5
264
100
AcDbEntity
  8
ALL_ASSEMBLY_MEMBERS
100
AcDbCircle
 62
7
  6
CONTINUOUS
 10
3.2951426863
 20
4.0639371643
 40
0.1412499922
  0
CIRCLE
  5
265
100
AcDbEntity
  8
ALL_ASSEMBLY_MEMBERS
100
AcDbCircle
 62
7
  6
CONTINUOUS
 10
3.2951426863
 20
4.0639371643
 40
0.13125
  0
ARC
  5
266
100
AcDbEntity
  8
ALL_ASSEMBLY_MEMBERS
100
AcDbCircle
 62
7
  6
CONTINUOUS
 10
3.1112713246
 20
4.1979057141
 40
0.0275
100
AcDbArc
 50
267.990446187
 51
323.9229443907
  0
ARC
  5
267
100
AcDbEntity
  8
ALL_ASSEMBLY_MEMBERS
100
AcDbCircle
 62
7
  6
CONTINUOUS
 10
7.4160190481
 20
3.9299686145
 40
0.0275
100
AcDbArc
 50
87.990446187
 51
143.9229443907
  0
ARC
  5
268
100
AcDbEntity
  8
ALL_ASSEMBLY_MEMBERS
100
AcDbCircle
 62
7
  6
CONTINUOUS
 10
8.6371476863
 20
3.9346512264
 40
0.02
100
AcDbArc
 50
267.990446187
 51
360.0
  0
ARC
  5
269
100
AcDbEntity
  8
0
100
AcDbCircle
 62
7
  6
CONTINUOUS
 10
5.2636476863
 20
4.0639371643
 40
0.59375
100
AcDbArc
 50
294.0769172297
 51
245.8489625609
  0
ARC
  5
26A
100
AcDbEntity
  8
ALL_FEATURES
100
AcDbCircle
 62
7
  6
CONTINUOUS
 10
7.2321476863
 20
4.0639371643
 40
0.59
100
AcDbArc
 50
11.762425946
 51
348.237574054
  0
ARC
  5
26B
100
AcDbEntity
  8
ALL_FEATURES
100
AcDbCircle
 62
7
  6
CONTINUOUS
 10
7.2321476863
 20
4.0639371643
 40
0.5000013369
100
AcDbArc
 50
13.5397087744
 51
346.4602912256
  0
ARC
  5
26C
100
AcDbEntity
  8
ALL_FEATURES
100
AcDbCircle
 62
7
  6
CONTINUOUS
 10
7.2321476863
 20
4.0639371643
 40
0.4065013369
100
AcDbArc
 50
16.2428911079
 51
343.7571088921
  0
ARC
  5
26D
100
AcDbEntity
  8
ALL_FEATURES
100
AcDbCircle
 62
7
  6
CONTINUOUS
 10
7.2321476863
 20
4.0639371643
 40
0.3705
100
AcDbArc
 50
17.6589936754
 51
57.6237776714
  0
ARC
  5
26E
100
AcDbEntity
  8
ALL_FEATURES
100
AcDbCircle
 62
7
  6
CONTINUOUS
 10
7.2321476863
 20
4.0639371643
 40
0.3705
100
AcDbArc
 50
62.3762223286
 51
117.6237776714
  0
ARC
  5
26F
100
AcDbEntity
  8
ALL_FEATURES
100
AcDbCircle
 62
7
  6
CONTINUOUS
 10
7.2321476863
 20
4.0639371643
 40
0.3705
100
AcDbArc
 50
122.3762223286
 51
177.6235767921
  0
ARC
  5
270
100
AcDbEntity
  8
ALL_FEATURES
100
AcDbCircle
 62
7
  6
CONTINUOUS
 10
7.2321476863
 20
4.0639371643
 40
0.3705
100
AcDbArc
 50
302.3762223286
 51
342.3410063246
  0
ARC
  5
271
100
AcDbEntity
  8
ALL_FEATURES
100
AcDbCircle
 62
7
  6
CONTINUOUS
 10
7.2321476863
 20
4.0639371643
 40
0.3705
100
AcDbArc
 50
242.3762223286
 51
297.6237776714
  0
ARC
  5
272
100
AcDbEntity
  8
ALL_FEATURES
100
AcDbCircle
 62
7
  6
CONTINUOUS
 10
7.2321476863
 20
4.0639371643
 40
0.3705
100
AcDbArc
 50
182.3764232079
 51
237.6237776714
  0
ARC
  5
273
100
AcDbEntity
  8
ALL_FEATURES
100
AcDbCircle
 62
7
  6
CONTINUOUS
 10
7.2321476863
 20
4.0639371643
 40
0.32575
100
AcDbArc
 50
19.8801396015
 51
340.1198603985
  0
ARC
  5
274
100
AcDbEntity
  8
ALL_FEATURES
100
AcDbCircle
 62
7
  6
CONTINUOUS
 10
7.2321476863
 20
4.0639371643
 40
0.3073169971
100
AcDbArc
 50
20.9916810722
 51
339.0083189278
  0
ARC
  5
275
100
AcDbEntity
  8
ALL_FEATURES
100
AcDbCircle
 62
7
  6
CONTINUOUS
 10
7.2321476863
 20
4.0639371643
 40
0.27025
100
AcDbArc
 50
23.7189212088
 51
336.2810787912
  0
ARC
  5
276
100
AcDbEntity
  8
ALL_FEATURES
100
AcDbCircle
 62
7
  6
CONTINUOUS
 10
7.2321476863
 20
4.0639371643
 40
0.2148698637
100
AcDbArc
 50
29.7366154985
 51
330.2635869499
  0
CIRCLE
  5
277
100
AcDbEntity
  8
ALL_ASSEMBLY_MEMBERS
100
AcDbCircle
 62
7
  6
CONTINUOUS
 10
7.2321476863
 20
4.0639371643
 40
0.2
  0
CIRCLE
  5
278
100
AcDbEntity
  8
ALL_ASSEMBLY_MEMBERS
100
AcDbCircle
 62
7
  6
CONTINUOUS
 10
7.2321476863
 20
4.0639371643
 40
0.19375
  0
CIRCLE
  5
279
100
AcDbEntity
  8
ALL_ASSEMBLY_MEMBERS
100
AcDbCircle
 62
7
  6
CONTINUOUS
 10
7.2321476863
 20
4.0639371643
 40
0.15625
  0
CIRCLE
  5
27A
100
AcDbEntity
  8
ALL_ASSEMBLY_MEMBERS
100
AcDbCircle
 62
7
  6
CONTINUOUS
 10
7.2321476863
 20
4.0639371643
 40
0.1412499922
  0
CIRCLE
  5
27B
100
AcDbEntity
  8
ALL_ASSEMBLY_MEMBERS
100
AcDbCircle
 62
7
  6
CONTINUOUS
 10
7.2321476863
 20
4.0639371643
 40
0.13125
  0
ARC
  5
27C
100
AcDbEntity
  8
ALL_ASSEMBLY_MEMBERS
100
AcDbCircle
 62
7
  6
CONTINUOUS
 10
7.4160190481
 20
4.1979057141
 40
0.0275
100
AcDbArc
 50
216.0770556093
 51
272.009553813
  0
ARC
  5
27D
100
AcDbEntity
  8
ALL_ASSEMBLY_MEMBERS
100
AcDbCircle
 62
7
  6
CONTINUOUS
 10
8.6371476863
 20
4.1932231022
 40
0.02
100
AcDbArc
 50
0.0
 51
92.009553813
  0
SPLINE
  5
27E
100
AcDbEntity
  8
ALL_ASSEMBLY_MEMBERS
100
AcDbSpline
 62
7
  6
CONTINUOUS
 70
0
 71
3
 72
11
 73
7
 74
0
 42
0.0000001
 43
0.0000001
 44
0.0000000001
 40
0.0
 40
0.0
 40
0.0
 40
0.0
 40
0.2503256273
 40
0.5005072785
 40
0.7504261236
 40
1.0
 40
1.0
 40
1.0
 40
1.0
 10
3.0668234433
 20
4.0639371643
 30
0.0
 10
3.0668240805
 20
4.0715866409
 30
0.0
 10
3.0676380342
 20
4.0868934004
 30
0.0
 10
3.0712787723
 20
4.1095760412
 30
0.0
 10
3.0772869517
 20
4.1317253951
 30
0.0
 10
3.0828205242
 20
4.1459858467
 30
0.0
 10
3.0859462587
 20
4.15294238
 30
0.0
  0
SPLINE
  5
27F
100
AcDbEntity
  8
ALL_ASSEMBLY_MEMBERS
100
AcDbSpline
 62
7
  6
CONTINUOUS
 70
0
 71
3
 72
11
 73
7
 74
0
 42
0.0000001
 43
0.0000001
 44
0.0000000001
 40
0.0
 40
0.0
 40
0.0
 40
0.0
 40
0.2495738405
 40
0.499492661
 40
0.7496743388
 40
1.0
 40
1.0
 40
1.0
 40
1.0
 10
3.0859462661
 20
3.9749319437
 30
0.0
 10
3.0828205186
 20
3.9818884704
 30
0.0
 10
3.0772869648
 20
3.996148928
 30
0.0
 10
3.0712787479
 20
4.0182982741
 30
0.0
 10
3.0676380868
 20
4.0409809278
 30
0.0
 10
3.066824066
 20
4.0562876863
 30
0.0
 10
3.0668234434
 20
4.0639371643
 30
0.0
  0
SPLINE
  5
280
100
AcDbEntity
  8
ALL_ASSEMBLY_MEMBERS
100
AcDbSpline
 62
7
  6
CONTINUOUS
 70
0
 71
3
 72
17
 73
13
 74
0
 42
0.0000001
 43
0.0000001
 44
0.0000000001
 40
0.0
 40
0.0
 40
0.0
 40
0.0
 40
0.2478618905
 40
0.3718851487
 40
0.4960520114
 40
0.558248445
 40
0.6205363097
 40
0.6829639473
 40
0.7455908446
 40
0.8717567302
 40
0.9356169944
 40
1.0
 40
1.0
 40
1.0
 40
1.0
 10
3.1334980442
 20
3.9461620852
 30
0.0
 10
3.1314744249
 20
3.9489394387
 30
0.0
 10
3.1282417123
 20
3.9529697222
 30
0.0
 10
3.1235408255
 20
3.9579928761
 30
0.0
 10
3.1204165113
 20
3.9609570449
 30
0.0
 10
3.1177947125
 20
3.9631964835
 30
0.0
 10
3.115757887
 20
3.9647997197
 30
0.0
 10
3.1136468463
 20
3.9663148162
 30
0.0
 10
3.1107187551
 20
3.9682021742
 30
0.0
 10
3.1076022605
 20
3.9698318748
 30
0.0
 10
3.1042982653
 20
3.9710775675
 30
0.0
 10
3.1025770081
 20
3.9715392993
 30
0.0
 10
3.1017031519
 20
3.9717213235
 30
0.0
  0
LINE
  5
281
100
AcDbEntity
  8
ALL_ASSEMBLY_MEMBERS
100
AcDbLine
 62
7
  6
CONTINUOUS
 10
3.1017032063
 20
3.9717213629
 11
3.0859462878
 21
3.9749319029
  0
SPLINE
  5
282
100
AcDbEntity
  8
ALL_ASSEMBLY_MEMBERS
100
AcDbSpline
 62
7
  6
CONTINUOUS
 70
0
 71
3
 72
18
 73
14
 74
0
 42
0.0000001
 43
0.0000001
 44
0.0000000001
 40
0.0
 40
0.0
 40
0.0
 40
0.0
 40
0.0383253644
 40
0.07789006
 40
0.1196510855
 40
0.1643879184
 40
0.2126965371
 40
0.2649559345
 40
0.3819280944
 40
0.5157297217
 40
0.6650983428
 40
0.8277758762
 40
1.0
 40
1.0
 40
1.0
 40
1.0
 10
3.1103070003
 20
3.9574518572
 30
0.0
 10
3.1100798308
 20
3.9574438695
 30
0.0
 10
3.1096154078
 20
3.9574734142
 30
0.0
 10
3.1089245938
 20
3.957651064
 30
0.0
 10
3.1082397357
 20
3.9579591761
 30
0.0
 10
3.1075662474
 20
3.9583949903
 30
0.0
 10
3.106908989
 20
3.9589557187
 30
0.0
 10
3.106025194
 20
3.959898676
 30
0.0
 10
3.1049939421
 20
3.9613819749
 30
0.0
 10
3.1039213097
 20
3.9635048768
 30
0.0
 10
3.102991595
 20
3.9659852639
 30
0.0
 10
3.1022330372
 20
3.9687588393
 30
0.0
 10
3.1018592754
 20
3.970711885
 30
0.0
 10
3.1017032063
 20
3.9717213629
 30
0.0
  0
SPLINE
  5
283
100
AcDbEntity
  8
ALL_ASSEMBLY_MEMBERS
100
AcDbSpline
 62
7
  6
CONTINUOUS
 70
0
 71
3
 72
13
 73
9
 74
0
 42
0.0000001
 43
0.0000001
 44
0.0000000001
 40
0.0
 40
0.0
 40
0.0
 40
0.0
 40
0.249998776
 40
0.3749973557
 40
0.4999961354
 40
0.6249954878
 40
0.7499957694
 40
1.0
 40
1.0
 40
1.0
 40
1.0
 10
3.0859462777
 20
3.9749319159
 30
0.0
 10
2.9863459554
 20
3.9713769417
 30
0.0
 10
2.8369487145
 20
3.96596284
 30
0.0
 10
2.6377539948
 20
3.9587043595
 30
0.0
 10
2.4883578628
 20
3.9532672259
 30
0.0
 10
2.3389600882
 20
3.94785659
 30
0.0
 10
2.139758347
 20
3.9407069044
 30
0.0
 10
1.9903529536
 20
3.9354404566
 30
0.0
 10
1.890746739
 20
3.9319911799
 30
0.0
  0
SPLINE
  5
284
100
AcDbEntity
  8
ALL_ASSEMBLY_MEMBERS
100
AcDbSpline
 62
7
  6
CONTINUOUS
 70
0
 71
3
 72
26
 73
22
 74
0
 42
0.0000001
 43
0.0000001
 44
0.0000000001
 40
0.0
 40
0.0
 40
0.0
 40
0.0
 40
0.0017950123
 40
0.0034171057
 40
0.0055859791
 40
0.011611793
 40
0.0199150563
 40
0.0304980504
 40
0.0433530446
 40
0.0584672709
 40
0.0758097124
 40
0.1169992842
 40
0.166556337
 40
0.2241019937
 40
0.289131753
 40
0.3610448085
 40
0.4392361053
 40
0.5230547708
 40
0.6117906269
 40
0.8010710808
 40
1.0
 40
1.0
 40
1.0
 40
1.0
 10
3.086055828
 20
3.9566007869
 30
0.0
 10
3.0860668034
 20
3.9566011709
 30
0.0
 10
3.0860811145
 20
3.9566232228
 30
0.0
 10
3.0860926839
 20
3.9566533694
 30
0.0
 10
3.0861091739
 20
3.956712175
 30
0.0
 10
3.0861263417
 20
3.9568111175
 30
0.0
 10
3.0861449961
 20
3.9569627028
 30
0.0
 10
3.0861619271
 20
3.9571560798
 30
0.0
 10
3.0861774211
 20
3.957391486
 30
0.0
 10
3.0861911763
 20
3.9576683626
 30
0.0
 10
3.0862081743
 20
3.9581186302
 30
0.0
 10
3.0862236981
 20
3.958779774
 30
0.0
 10
3.0862344253
 20
3.9596869908
 30
0.0
 10
3.0862377378
 20
3.9607401206
 30
0.0
 10
3.0862336207
 20
3.9619300208
 30
0.0
 10
3.0862220855
 20
3.9632461884
 30
0.0
 10
3.0862031551
 20
3.9646772326
 30
0.0
 10
3.0861769555
 20
3.9662111013
 30
0.0
 10
3.0861316638
 20
3.9684243857
 30
0.0
 10
3.0860582983
 20
3.9713414809
 30
0.0
 10
3.0859862181
 20
3.9737155036
 30
0.0
 10
3.0859462777
 20
3.9749319159
 30
0.0
  0
SPLINE
  5
285
100
AcDbEntity
  8
ALL_ASSEMBLY_MEMBERS
100
AcDbSpline
 62
7
  6
CONTINUOUS
 70
0
 71
3
 72
31
 73
27
 74
0
 42
0.0000001
 43
0.0000001
 44
0.0000000001
 40
0.0
 40
0.0
 40
0.0
 40
0.0
 40
0.0004819277
 40
0.0014773695
 40
0.0030352783
 40
0.0051633658
 40
0.007862393
 40
0.0111311402
 40
0.0193694426
 40
0.0298616135
 40
0.0425907195
 40
0.0575408473
 40
0.0746869385
 40
0.0939942811
 40
0.1154250363
 40
0.1644976379
 40
0.2215687158
 40
0.2861604366
 40
0.3577045095
 40
0.4356340461
 40
0.5193479154
 40
0.608194655
 40
0.7015173868
 40
0.7985646323
 40
0.8983785098
 40
1.0
 40
1.0
 40
1.0
 40
1.0
 10
1.8908440091
 20
3.9146635265
 30
0.0
 10
1.8908467938
 20
3.9146636242
 30
0.0
 10
1.8908529131
 20
3.914671707
 30
0.0
 10
1.8908595321
 20
3.9146868369
 30
0.0
 10
1.8908682588
 20
3.9147130634
 30
0.0
 10
1.8908775093
 20
3.914748579
 30
0.0
 10
1.8908876307
 20
3.9147943773
 30
0.0
 10
1.8909028655
 20
3.914875057
 30
0.0
 10
1.8909217632
 20
3.9150009081
 30
0.0
 10
1.8909424606
 20
3.915181634
 30
0.0
 10
1.8909609524
 20
3.9154015933
 30
0.0
 10
1.8909754357
 20
3.9156603822
 30
0.0
 10
1.8909860652
 20
3.9159574081
 30
0.0
 10
1.8909936356
 20
3.916292001
 30
0.0
 10
1.8910007973
 20
3.9168112201
 30
0.0
 10
1.8910047265
 20
3.9175488207
 30
0.0
 10
1.8910089448
 20
3.918535961
 30
0.0
 10
1.8910107068
 20
3.9196530393
 30
0.0
 10
1.8910049243
 20
3.9208907141
 30
0.0
 10
1.8909861056
 20
3.9222388365
 30
0.0
 10
1.8909549258
 20
3.9236867795
 30
0.0
 10
1.890919899
 20
3.9252236538
 30
0.0
 10
1.8908892717
 20
3.9268377346
 30
0.0
 10
1.8908655199
 20
3.9285153437
 30
0.0
 10
1.8908268914
 20
3.9302406988
 30
0.0
 10
1.8907793085
 20
3.9314045168
 30
0.0
 10
1.8907467399
 20
3.9319911646
 30
0.0
  0
SPLINE
  5
286
100
AcDbEntity
  8
ALL_ASSEMBLY_MEMBERS
100
AcDbSpline
 62
7
  6
CONTINUOUS
 70
0
 71
3
 72
26
 73
22
 74
0
 42
0.0000001
 43
0.0000001
 44
0.0000000001
 40
0.0
 40
0.0
 40
0.0
 40
0.0
 40
0.0072662054
 40
0.0147708368
 40
0.0233142438
 40
0.0334246669
 40
0.045404504
 40
0.0594214321
 40
0.0938313997
 40
0.1365788005
 40
0.1872759498
 40
0.2455101265
 40
0.3107607307
 40
0.382405436
 40
0.4597939791
 40
0.542198996
 40
0.6288185852
 40
0.7188584856
 40
0.811454308
 40
0.9055392836
 40
1.0
 40
1.0
 40
1.0
 40
1.0
 10
1.8701426863
 20
4.1932231021
 30
0.0
 10
1.8701426863
 20
4.1932742662
 30
0.0
 10
1.8701597332
 20
4.1933793359
 30
0.0
 10
1.8702414175
 20
4.193524806
 30
0.0
 10
1.870372755
 20
4.1936561563
 30
0.0
 10
1.8705511635
 20
4.1937787022
 30
0.0
 10
1.8707767884
 20
4.1938967402
 30
0.0
 10
1.8711683151
 20
4.1940636041
 30
0.0
 10
1.8717773066
 20
4.1942692408
 30
0.0
 10
1.8726466326
 20
4.1945045292
 30
0.0
 10
1.873690556
 20
4.194732112
 30
0.0
 10
1.8748992177
 20
4.1949420933
 30
0.0
 10
1.8762601439
 20
4.1951323794
 30
0.0
 10
1.8777592095
 20
4.1953049013
 30
0.0
 10
1.8793814087
 20
4.1954612995
 30
0.0
 10
1.8811111101
 20
4.1955990131
 30
0.0
 10
1.8829320417
 20
4.1957097023
 30
0.0
 10
1.8848266488
 20
4.1957845908
 30
0.0
 10
1.8867748663
 20
4.1958214447
 30
0.0
 10
1.8887543256
 20
4.1958454163
 30
0.0
 10
1.8900818016
 20
4.1958670499
 30
0.0
 10
1.8907467399
 20
4.195883164
 30
0.0
  0
SPLINE
  5
287
100
AcDbEntity
  8
ALL_ASSEMBLY_MEMBERS
100
AcDbSpline
 62
7
  6
CONTINUOUS
 70
0
 71
3
 72
26
 73
22
 74
0
 42
0.0000001
 43
0.0000001
 44
0.0000000001
 40
0.0
 40
0.0
 40
0.0
 40
0.0
 40
0.0072661882
 40
0.0147708052
 40
0.0233142014
 40
0.0334246167
 40
0.0454044483
 40
0.0594213724
 40
0.0938313353
 40
0.1365787348
 40
0.1872758852
 40
0.2455100649
 40
0.3107606737
 40
0.3824053847
 40
0.4597939342
 40
0.5421989581
 40
0.6288185549
 40
0.7188584631
 40
0.8114542933
 40
0.9055392765
 40
1.0
 40
1.0
 40
1.0
 40
1.0
 10
1.8701426863
 20
3.9346512266
 30
0.0
 10
1.8701426863
 20
3.9346000626
 30
0.0
 10
1.8701597332
 20
3.9344949931
 30
0.0
 10
1.8702414175
 20
3.9343495233
 30
0.0
 10
1.870372755
 20
3.9342181734
 30
0.0
 10
1.8705511636
 20
3.9340956279
 30
0.0
 10
1.8707767884
 20
3.9339775902
 30
0.0
 10
1.8711683151
 20
3.9338107266
 30
0.0
 10
1.8717773067
 20
3.9336050903
 30
0.0
 10
1.8726466326
 20
3.9333698022
 30
0.0
 10
1.873690556
 20
3.9331422197
 30
0.0
 10
1.8748992177
 20
3.9329322386
 30
0.0
 10
1.8762601439
 20
3.9327419525
 30
0.0
 10
1.8777592095
 20
3.9325694305
 30
0.0
 10
1.8793814087
 20
3.9324130322
 30
0.0
 10
1.8811111101
 20
3.9322753183
 30
0.0
 10
1.8829320417
 20
3.9321646288
 30
0.0
 10
1.8848266488
 20
3.9320897398
 30
0.0
 10
1.8867748663
 20
3.9320528853
 30
0.0
 10
1.8887543256
 20
3.9320289131
 30
0.0
 10
1.8900818016
 20
3.932007279
 30
0.0
 10
1.8907467399
 20
3.9319911646
 30
0.0
  0
SPLINE
  5
288
100
AcDbEntity
  8
ALL_ASSEMBLY_MEMBERS
100
AcDbSpline
 62
7
  6
CONTINUOUS
 70
0
 71
3
 72
18
 73
14
 74
0
 42
0.0000001
 43
0.0000001
 44
0.0000000001
 40
0.0
 40
0.0
 40
0.0
 40
0.0
 40
0.2478406332
 40
0.3718533398
 40
0.4960105276
 40
0.558201809
 40
0.6204842919
 40
0.6829067341
 40
0.7455277714
 40
0.8084226642
 40
0.87176579
 40
0.9356226139
 40
1.0
 40
1.0
 40
1.0
 40
1.0
 10
3.1334980332
 20
4.1817122402
 30
0.0
 10
3.131474466
 20
4.1789348876
 30
0.0
 10
3.1282417702
 20
4.1749046425
 30
0.0
 10
3.1235408856
 20
4.1698815604
 30
0.0
 10
3.120416622
 20
4.1669173588
 30
0.0
 10
3.1177948497
 20
4.1646779398
 30
0.0
 10
3.1157579627
 20
4.1630747245
 30
0.0
 10
3.1136471559
 20
4.1615597134
 30
0.0
 10
3.1114558125
 20
4.1601472431
 30
0.0
 10
3.1091712571
 20
4.1588637726
 30
0.0
 10
3.1067867085
 20
4.1577350198
 30
0.0
 10
3.1042982053
 20
4.1567967274
 30
0.0
 10
3.10257702
 20
4.1563349717
 30
0.0
 10
3.1017031631
 20
4.1561529978
 30
0.0
  0
LINE
  5
289
100
AcDbEntity
  8
ALL_ASSEMBLY_MEMBERS
100
AcDbLine
 62
7
  6
CONTINUOUS
 10
3.1017032317
 20
4.1561529482
 11
3.0859462792
 21
4.1529424133
  0
SPLINE
  5
28A
100
AcDbEntity
  8
ALL_ASSEMBLY_MEMBERS
100
AcDbSpline
 62
7
  6
CONTINUOUS
 70
0
 71
3
 72
18
 73
14
 74
0
 42
0.0000001
 43
0.0000001
 44
0.0000000001
 40
0.0
 40
0.0
 40
0.0
 40
0.0
 40
0.172223825
 40
0.3349011315
 40
0.4842696183
 40
0.6180712254
 40
0.7350434897
 40
0.7873029828
 40
0.8356117194
 40
0.8803486803
 40
0.9221098252
 40
0.961674608
 40
1.0
 40
1.0
 40
1.0
 40
1.0
 10
3.1017032317
 20
4.1561529482
 30
0.0
 10
3.1018592991
 20
4.1571624249
 30
0.0
 10
3.1022330578
 20
4.1591154688
 30
0.0
 10
3.1029916112
 20
4.1618890425
 30
0.0
 10
3.1039213219
 20
4.1643694297
 30
0.0
 10
3.1049939509
 20
4.166492334
 30
0.0
 10
3.1060252
 20
4.1679756368
 30
0.0
 10
3.1069089928
 20
4.1689185993
 30
0.0
 10
3.10756625
 20
4.1694793326
 30
0.0
 10
3.1082397373
 20
4.1699151529
 30
0.0
 10
3.1089245946
 20
4.1702232723
 30
0.0
 10
3.109615408
 20
4.1704009305
 30
0.0
 10
3.1100798313
 20
4.1704304818
 30
0.0
 10
3.1103070012
 20
4.1704224975
 30
0.0
  0
SPLINE
  5
28B
100
AcDbEntity
  8
ALL_ASSEMBLY_MEMBERS
100
AcDbSpline
 62
7
  6
CONTINUOUS
 70
0
 71
3
 72
26
 73
22
 74
0
 42
0.0000001
 43
0.0000001
 44
0.0000000001
 40
0.0
 40
0.0
 40
0.0
 40
0.0
 40
0.1989289258
 40
0.3882093883
 40
0.4769452487
 40
0.5607639181
 40
0.6389552181
 40
0.710868276
 40
0.7758980367
 40
0.8334436936
 40
0.8830007453
 40
0.9241903144
 40
0.941532754
 40
0.956646978
 40
0.9695019694
 40
0.9800849603
 40
0.9883882199
 40
0.9944140298
 40
0.996582901
 40
0.998204992
 40
1.0
 40
1.0
 40
1.0
 40
1.0
 10
3.0859462721
 20
4.1529424105
 30
0.0
 10
3.0859862125
 20
4.1541588231
 30
0.0
 10
3.0860582928
 20
4.1565328462
 30
0.0
 10
3.0861316585
 20
4.159449942
 30
0.0
 10
3.0861769502
 20
4.1616632268
 30
0.0
 10
3.0862031499
 20
4.1631970958
 30
0.0
 10
3.0862220804
 20
4.1646281403
 30
0.0
 10
3.0862336156
 20
4.1659443082
 30
0.0
 10
3.0862377329
 20
4.1671342085
 30
0.0
 10
3.0862344204
 20
4.1681873385
 30
0.0
 10
3.0862236932
 20
4.1690945554
 30
0.0
 10
3.0862081695
 20
4.1697556993
 30
0.0
 10
3.0861911716
 20
4.1702059669
 30
0.0
 10
3.0861774163
 20
4.1704828435
 30
0.0
 10
3.0861619224
 20
4.1707182497
 30
0.0
 10
3.0861449915
 20
4.1709116267
 30
0.0
 10
3.0861263371
 20
4.171063212
 30
0.0
 10
3.0861091693
 20
4.1711621544
 30
0.0
 10
3.0860926793
 20
4.17122096
 30
0.0
 10
3.08608111
 20
4.1712511065
 30
0.0
 10
3.0860667988
 20
4.1712731584
 30
0.0
 10
3.0860558235
 20
4.1712735423
 30
0.0
  0
SPLINE
  5
28C
100
AcDbEntity
  8
ALL_ASSEMBLY_MEMBERS
100
AcDbSpline
 62
7
  6
CONTINUOUS
 70
0
 71
3
 72
13
 73
9
 74
0
 42
0.0000001
 43
0.0000001
 44
0.0000000001
 40
0.0
 40
0.0
 40
0.0
 40
0.0
 40
0.249998776
 40
0.3749973558
 40
0.4999961355
 40
0.6249954879
 40
0.7499957694
 40
1.0
 40
1.0
 40
1.0
 40
1.0
 10
3.0859462721
 20
4.1529424105
 30
0.0
 10
2.9863459502
 20
4.156497384
 30
0.0
 10
2.83694871
 20
4.1619114872
 30
0.0
 10
2.6377539913
 20
4.1691699702
 30
0.0
 10
2.4883578599
 20
4.1746071035
 30
0.0
 10
2.338960086
 20
4.1800177385
 30
0.0
 10
2.1397583458
 20
4.1871674239
 30
0.0
 10
1.9903529531
 20
4.1924338718
 30
0.0
 10
1.890746739
 20
4.1958831484
 30
0.0
  0
SPLINE
  5
28D
100
AcDbEntity
  8
ALL_ASSEMBLY_MEMBERS
100
AcDbSpline
 62
7
  6
CONTINUOUS
 70
0
 71
3
 72
31
 73
27
 74
0
 42
0.0000001
 43
0.0000001
 44
0.0000000001
 40
0.0
 40
0.0
 40
0.0
 40
0.0
 40
0.1016214903
 40
0.2014353677
 40
0.2984826133
 40
0.391805345
 40
0.4806520847
 40
0.5643659539
 40
0.6422954905
 40
0.7138395635
 40
0.7784312842
 40
0.8355023621
 40
0.8845749638
 40
0.9060057189
 40
0.9253130615
 40
0.9424591527
 40
0.9574092806
 40
0.9701383865
 40
0.9806305574
 40
0.9888688599
 40
0.992137607
 40
0.9948366343
 40
0.9969647217
 40
0.9985226305
 40
0.9995180723
 40
1.0
 40
1.0
 40
1.0
 40
1.0
 10
1.8907467399
 20
4.195883164
 30
0.0
 10
1.8907793085
 20
4.1964698119
 30
0.0
 10
1.8908268914
 20
4.1976336298
 30
0.0
 10
1.8908655199
 20
4.199358985
 30
0.0
 10
1.8908892717
 20
4.2010365941
 30
0.0
 10
1.890919899
 20
4.2026506748
 30
0.0
 10
1.8909549258
 20
4.2041875491
 30
0.0
 10
1.8909861056
 20
4.2056354921
 30
0.0
 10
1.8910049243
 20
4.2069836146
 30
0.0
 10
1.8910107068
 20
4.2082212893
 30
0.0
 10
1.8910089448
 20
4.2093383677
 30
0.0
 10
1.8910047265
 20
4.2103255079
 30
0.0
 10
1.8910007973
 20
4.2110631085
 30
0.0
 10
1.8909936356
 20
4.2115823276
 30
0.0
 10
1.8909860652
 20
4.2119169206
 30
0.0
 10
1.8909754357
 20
4.2122139465
 30
0.0
 10
1.8909609524
 20
4.2124727353
 30
0.0
 10
1.8909424606
 20
4.2126926947
 30
0.0
 10
1.8909217632
 20
4.2128734205
 30
0.0
 10
1.8909028655
 20
4.2129992716
 30
0.0
 10
1.8908876307
 20
4.2130799514
 30
0.0
 10
1.8908775093
 20
4.2131257496
 30
0.0
 10
1.8908682588
 20
4.2131612653
 30
0.0
 10
1.8908595321
 20
4.2131874917
 30
0.0
 10
1.8908529131
 20
4.2132026217
 30
0.0
 10
1.8908467938
 20
4.2132107044
 30
0.0
 10
1.8908440091
 20
4.2132108021
 30
0.0
  0
SPLINE
  5
28E
100
AcDbEntity
  8
ALL_ASSEMBLY_MEMBERS
100
AcDbSpline
 62
7
  6
CONTINUOUS
 70
0
 71
3
 72
11
 73
7
 74
0
 42
0.0000001
 43
0.0000001
 44
0.0000000001
 40
0.0
 40
0.0
 40
0.0
 40
0.0
 40
0.2503256273
 40
0.5005072785
 40
0.7504261236
 40
1.0
 40
1.0
 40
1.0
 40
1.0
 10
7.4604669294
 20
4.0639371643
 30
0.0
 10
7.4604662922
 20
4.0562876878
 30
0.0
 10
7.4596523385
 20
4.0409809282
 30
0.0
 10
7.4560116004
 20
4.0182982874
 30
0.0
 10
7.450003421
 20
3.9961489335
 30
0.0
 10
7.4444698485
 20
3.9818884819
 30
0.0
 10
7.441344114
 20
3.9749319487
 30
0.0
  0
SPLINE
  5
28F
100
AcDbEntity
  8
ALL_ASSEMBLY_MEMBERS
100
AcDbSpline
 62
7
  6
CONTINUOUS
 70
0
 71
3
 72
11
 73
7
 74
0
 42
0.0000001
 43
0.0000001
 44
0.0000000001
 40
0.0
 40
0.0
 40
0.0
 40
0.0
 40
0.2495738405
 40
0.499492661
 40
0.7496743388
 40
1.0
 40
1.0
 40
1.0
 40
1.0
 10
7.4413441066
 20
4.1529423849
 30
0.0
 10
7.444469854
 20
4.1459858582
 30
0.0
 10
7.4500034079
 20
4.1317254007
 30
0.0
 10
7.4560116247
 20
4.1095760546
 30
0.0
 10
7.4596522859
 20
4.0868934008
 30
0.0
 10
7.4604663066
 20
4.0715866424
 30
0.0
 10
7.4604669293
 20
4.0639371643
 30
0.0
  0
SPLINE
  5
290
100
AcDbEntity
  8
ALL_ASSEMBLY_MEMBERS
100
AcDbSpline
 62
7
  6
CONTINUOUS
 70
0
 71
3
 72
17
 73
13
 74
0
 42
0.0000001
 43
0.0000001
 44
0.0000000001
 40
0.0
 40
0.0
 40
0.0
 40
0.0
 40
0.2478618905
 40
0.3718851487
 40
0.4960520114
 40
0.558248445
 40
0.6205363097
 40
0.6829639473
 40
0.7455908446
 40
0.8717567302
 40
0.9356169944
 40
1.0
 40
1.0
 40
1.0
 40
1.0
 10
7.3937923284
 20
4.1817122435
 30
0.0
 10
7.3958159478
 20
4.17893489
 30
0.0
 10
7.3990486604
 20
4.1749046064
 30
0.0
 10
7.4037495472
 20
4.1698814526
 30
0.0
 10
7.4068738614
 20
4.1669172838
 30
0.0
 10
7.4094956601
 20
4.1646778452
 30
0.0
 10
7.4115324857
 20
4.1630746089
 30
0.0
 10
7.4136435263
 20
4.1615595125
 30
0.0
 10
7.4165716176
 20
4.1596721544
 30
0.0
 10
7.4196881121
 20
4.1580424539
 30
0.0
 10
7.4229921074
 20
4.1567967612
 30
0.0
 10
7.4247133646
 20
4.1563350293
 30
0.0
 10
7.4255872207
 20
4.1561530051
 30
0.0
  0
LINE
  5
291
100
AcDbEntity
  8
ALL_ASSEMBLY_MEMBERS
100
AcDbLine
 62
7
  6
CONTINUOUS
 10
7.4255871663
 20
4.1561529658
 11
7.4413440849
 21
4.1529424258
  0
SPLINE
  5
292
100
AcDbEntity
  8
ALL_ASSEMBLY_MEMBERS
100
AcDbSpline
 62
7
  6
CONTINUOUS
 70
0
 71
3
 72
18
 73
14
 74
0
 42
0.0000001
 43
0.0000001
 44
0.0000000001
 40
0.0
 40
0.0
 40
0.0
 40
0.0
 40
0.0383253644
 40
0.07789006
 40
0.1196510855
 40
0.1643879184
 40
0.2126965371
 40
0.2649559345
 40
0.3819280944
 40
0.5157297217
 40
0.6650983428
 40
0.8277758762
 40
1.0
 40
1.0
 40
1.0
 40
1.0
 10
7.4169833724
 20
4.1704224714
 30
0.0
 10
7.4172105419
 20
4.1704304591
 30
0.0
 10
7.4176749648
 20
4.1704009145
 30
0.0
 10
7.4183657789
 20
4.1702232647
 30
0.0
 10
7.419050637
 20
4.1699151525
 30
0.0
 10
7.4197241253
 20
4.1694793383
 30
0.0
 10
7.4203813837
 20
4.16891861
 30
0.0
 10
7.4212651787
 20
4.1679756527
 30
0.0
 10
7.4222964306
 20
4.1664923538
 30
0.0
 10
7.423369063
 20
4.1643694518
 30
0.0
 10
7.4242987777
 20
4.1618890648
 30
0.0
 10
7.4250573355
 20
4.1591154894
 30
0.0
 10
7.4254310973
 20
4.1571624437
 30
0.0
 10
7.4255871663
 20
4.1561529658
 30
0.0
  0
SPLINE
  5
293
100
AcDbEntity
  8
ALL_ASSEMBLY_MEMBERS
100
AcDbSpline
 62
7
  6
CONTINUOUS
 70
0
 71
3
 72
13
 73
9
 74
0
 42
0.0000001
 43
0.0000001
 44
0.0000000001
 40
0.0
 40
0.0
 40
0.0
 40
0.0
 40
0.249998776
 40
0.3749973557
 40
0.4999961354
 40
0.6249954878
 40
0.7499957694
 40
1.0
 40
1.0
 40
1.0
 40
1.0
 10
7.441344095
 20
4.1529424127
 30
0.0
 10
7.5409444173
 20
4.1564973869
 30
0.0
 10
7.6903416582
 20
4.1619114887
 30
0.0
 10
7.8895363779
 20
4.1691699691
 30
0.0
 10
8.0389325099
 20
4.1746071028
 30
0.0
 10
8.1883302845
 20
4.1800177386
 30
0.0
 10
8.3875320256
 20
4.1871674242
 30
0.0
 10
8.536937419
 20
4.192433872
 30
0.0
 10
8.6365436337
 20
4.1958831487
 30
0.0
  0
SPLINE
  5
294
100
AcDbEntity
  8
ALL_ASSEMBLY_MEMBERS
100
AcDbSpline
 62
7
  6
CONTINUOUS
 70
0
 71
3
 72
26
 73
22
 74
0
 42
0.0000001
 43
0.0000001
 44
0.0000000001
 40
0.0
 40
0.0
 40
0.0
 40
0.0
 40
0.0017950123
 40
0.0034171057
 40
0.0055859791
 40
0.011611793
 40
0.0199150563
 40
0.0304980504
 40
0.0433530446
 40
0.0584672709
 40
0.0758097124
 40
0.1169992842
 40
0.166556337
 40
0.2241019937
 40
0.289131753
 40
0.3610448085
 40
0.4392361053
 40
0.5230547708
 40
0.6117906269
 40
0.8010710808
 40
1.0
 40
1.0
 40
1.0
 40
1.0
 10
7.4412345447
 20
4.1712735417
 30
0.0
 10
7.4412235693
 20
4.1712731577
 30
0.0
 10
7.4412092581
 20
4.1712511058
 30
0.0
 10
7.4411976888
 20
4.1712209593
 30
0.0
 10
7.4411811987
 20
4.1711621536
 30
0.0
 10
7.441164031
 20
4.1710632112
 30
0.0
 10
7.4411453765
 20
4.1709116259
 30
0.0
 10
7.4411284456
 20
4.1707182488
 30
0.0
 10
7.4411129516
 20
4.1704828427
 30
0.0
 10
7.4410991964
 20
4.1702059661
 30
0.0
 10
7.4410821984
 20
4.1697556985
 30
0.0
 10
7.4410666746
 20
4.1690945546
 30
0.0
 10
7.4410559473
 20
4.1681873378
 30
0.0
 10
7.4410526348
 20
4.167134208
 30
0.0
 10
7.441056752
 20
4.1659443079
 30
0.0
 10
7.4410682872
 20
4.1646281403
 30
0.0
 10
7.4410872176
 20
4.163197096
 30
0.0
 10
7.4411134172
 20
4.1616632273
 30
0.0
 10
7.4411587088
 20
4.159449943
 30
0.0
 10
7.4412320744
 20
4.1565328478
 30
0.0
 10
7.4413041546
 20
4.1541588251
 30
0.0
 10
7.441344095
 20
4.1529424127
 30
0.0
  0
SPLINE
  5
295
100
AcDbEntity
  8
ALL_ASSEMBLY_MEMBERS
100
AcDbSpline
 62
7
  6
CONTINUOUS
 70
0
 71
3
 72
31
 73
27
 74
0
 42
0.0000001
 43
0.0000001
 44
0.0000000001
 40
0.0
 40
0.0
 40
0.0
 40
0.0
 40
0.0004819277
 40
0.0014773695
 40
0.0030352783
 40
0.0051633658
 40
0.007862393
 40
0.0111311402
 40
0.0193694426
 40
0.0298616135
 40
0.0425907195
 40
0.0575408473
 40
0.0746869385
 40
0.0939942811
 40
0.1154250363
 40
0.1644976379
 40
0.2215687158
 40
0.2861604366
 40
0.3577045095
 40
0.4356340461
 40
0.5193479154
 40
0.608194655
 40
0.7015173868
 40
0.7985646323
 40
0.8983785098
 40
1.0
 40
1.0
 40
1.0
 40
1.0
 10
8.6364463635
 20
4.2132108021
 30
0.0
 10
8.6364435789
 20
4.2132107044
 30
0.0
 10
8.6364374595
 20
4.2132026217
 30
0.0
 10
8.6364308406
 20
4.2131874917
 30
0.0
 10
8.6364221139
 20
4.2131612653
 30
0.0
 10
8.6364128634
 20
4.2131257496
 30
0.0
 10
8.636402742
 20
4.2130799514
 30
0.0
 10
8.6363875072
 20
4.2129992716
 30
0.0
 10
8.6363686095
 20
4.2128734205
 30
0.0
 10
8.636347912
 20
4.2126926947
 30
0.0
 10
8.6363294203
 20
4.2124727353
 30
0.0
 10
8.6363149369
 20
4.2122139465
 30
0.0
 10
8.6363043075
 20
4.2119169206
 30
0.0
 10
8.6362967371
 20
4.2115823276
 30
0.0
 10
8.6362895754
 20
4.2110631085
 30
0.0
 10
8.6362856462
 20
4.2103255079
 30
0.0
 10
8.6362814279
 20
4.2093383677
 30
0.0
 10
8.6362796658
 20
4.2082212893
 30
0.0
 10
8.6362854483
 20
4.2069836146
 30
0.0
 10
8.636304267
 20
4.2056354921
 30
0.0
 10
8.6363354469
 20
4.2041875491
 30
0.0
 10
8.6363704737
 20
4.2026506748
 30
0.0
 10
8.636401101
 20
4.2010365941
 30
0.0
 10
8.6364248527
 20
4.199358985
 30
0.0
 10
8.6364634813
 20
4.1976336298
 30
0.0
 10
8.6365110642
 20
4.1964698119
 30
0.0
 10
8.6365436328
 20
4.195883164
 30
0.0
  0
SPLINE
  5
296
100
AcDbEntity
  8
ALL_ASSEMBLY_MEMBERS
100
AcDbSpline
 62
7
  6
CONTINUOUS
 70
0
 71
3
 72
26
 73
22
 74
0
 42
0.0000001
 43
0.0000001
 44
0.0000000001
 40
0.0
 40
0.0
 40
0.0
 40
0.0
 40
0.0072662054
 40
0.0147708368
 40
0.0233142438
 40
0.0334246669
 40
0.045404504
 40
0.0594214321
 40
0.0938313997
 40
0.1365788005
 40
0.1872759498
 40
0.2455101265
 40
0.3107607307
 40
0.382405436
 40
0.4597939791
 40
0.542198996
 40
0.6288185852
 40
0.7188584856
 40
0.811454308
 40
0.9055392836
 40
1.0
 40
1.0
 40
1.0
 40
1.0
 10
8.6571476863
 20
3.9346512266
 30
0.0
 10
8.6571476863
 20
3.9346000625
 30
0.0
 10
8.6571306395
 20
3.9344949928
 30
0.0
 10
8.6570489552
 20
3.9343495226
 30
0.0
 10
8.6569176177
 20
3.9342181723
 30
0.0
 10
8.6567392092
 20
3.9340956265
 30
0.0
 10
8.6565135843
 20
3.9339775885
 30
0.0
 10
8.6561220576
 20
3.9338107245
 30
0.0
 10
8.6555130661
 20
3.9336050879
 30
0.0
 10
8.6546437401
 20
3.9333697994
 30
0.0
 10
8.6535998167
 20
3.9331422166
 30
0.0
 10
8.652391155
 20
3.9329322353
 30
0.0
 10
8.6510302288
 20
3.9327419493
 30
0.0
 10
8.6495311632
 20
3.9325694273
 30
0.0
 10
8.647908964
 20
3.9324130292
 30
0.0
 10
8.6461792625
 20
3.9322753156
 30
0.0
 10
8.644358331
 20
3.9321646264
 30
0.0
 10
8.6424637238
 20
3.9320897379
 30
0.0
 10
8.6405155064
 20
3.9320528839
 30
0.0
 10
8.6385360471
 20
3.9320289123
 30
0.0
 10
8.6372085711
 20
3.9320072788
 30
0.0
 10
8.6365436328
 20
3.9319911646
 30
0.0
  0
SPLINE
  5
297
100
AcDbEntity
  8
ALL_ASSEMBLY_MEMBERS
100
AcDbSpline
 62
7
  6
CONTINUOUS
 70
0
 71
3
 72
26
 73
22
 74
0
 42
0.0000001
 43
0.0000001
 44
0.0000000001
 40
0.0
 40
0.0
 40
0.0
 40
0.0
 40
0.0072661882
 40
0.0147708052
 40
0.0233142014
 40
0.0334246167
 40
0.0454044483
 40
0.0594213724
 40
0.0938313353
 40
0.1365787348
 40
0.1872758852
 40
0.2455100649
 40
0.3107606737
 40
0.3824053847
 40
0.4597939342
 40
0.5421989581
 40
0.6288185549
 40
0.7188584631
 40
0.8114542933
 40
0.9055392765
 40
1.0
 40
1.0
 40
1.0
 40
1.0
 10
8.6571476863
 20
4.1932231021
 30
0.0
 10
8.6571476863
 20
4.1932742661
 30
0.0
 10
8.6571306395
 20
4.1933793355
 30
0.0
 10
8.6570489551
 20
4.1935248053
 30
0.0
 10
8.6569176177
 20
4.1936561552
 30
0.0
 10
8.6567392091
 20
4.1937787008
 30
0.0
 10
8.6565135842
 20
4.1938967385
 30
0.0
 10
8.6561220576
 20
4.1940636021
 30
0.0
 10
8.655513066
 20
4.1942692383
 30
0.0
 10
8.6546437401
 20
4.1945045264
 30
0.0
 10
8.6535998167
 20
4.1947321089
 30
0.0
 10
8.652391155
 20
4.1949420901
 30
0.0
 10
8.6510302288
 20
4.1951323761
 30
0.0
 10
8.6495311632
 20
4.1953048981
 30
0.0
 10
8.647908964
 20
4.1954612964
 30
0.0
 10
8.6461792625
 20
4.1955990103
 30
0.0
 10
8.644358331
 20
4.1957096999
 30
0.0
 10
8.6424637238
 20
4.1957845888
 30
0.0
 10
8.6405155064
 20
4.1958214434
 30
0.0
 10
8.6385360471
 20
4.1958454155
 30
0.0
 10
8.6372085711
 20
4.1958670496
 30
0.0
 10
8.6365436328
 20
4.195883164
 30
0.0
  0
SPLINE
  5
298
100
AcDbEntity
  8
ALL_ASSEMBLY_MEMBERS
100
AcDbSpline
 62
7
  6
CONTINUOUS
 70
0
 71
3
 72
18
 73
14
 74
0
 42
0.0000001
 43
0.0000001
 44
0.0000000001
 40
0.0
 40
0.0
 40
0.0
 40
0.0
 40
0.2478406332
 40
0.3718533398
 40
0.4960105276
 40
0.558201809
 40
0.6204842919
 40
0.6829067341
 40
0.7455277714
 40
0.8084226642
 40
0.87176579
 40
0.9356226139
 40
1.0
 40
1.0
 40
1.0
 40
1.0
 10
7.3937923394
 20
3.9461620884
 30
0.0
 10
7.3958159066
 20
3.948939441
 30
0.0
 10
7.3990486024
 20
3.9529696862
 30
0.0
 10
7.4037494871
 20
3.9579927682
 30
0.0
 10
7.4068737507
 20
3.9609569698
 30
0.0
 10
7.409495523
 20
3.9631963888
 30
0.0
 10
7.4115324099
 20
3.9647996042
 30
0.0
 10
7.4136432168
 20
3.9663146153
 30
0.0
 10
7.4158345601
 20
3.9677270856
 30
0.0
 10
7.4181191156
 20
3.969010556
 30
0.0
 10
7.4205036642
 20
3.9701393089
 30
0.0
 10
7.4229921674
 20
3.9710776013
 30
0.0
 10
7.4247133527
 20
3.9715393569
 30
0.0
 10
7.4255872096
 20
3.9717213308
 30
0.0
  0
LINE
  5
299
100
AcDbEntity
  8
ALL_ASSEMBLY_MEMBERS
100
AcDbLine
 62
7
  6
CONTINUOUS
 10
7.425587141
 20
3.9717213804
 11
7.4413440935
 21
3.9749319154
  0
SPLINE
  5
29A
100
AcDbEntity
  8
ALL_ASSEMBLY_MEMBERS
100
AcDbSpline
 62
7
  6
CONTINUOUS
 70
0
 71
3
 72
18
 73
14
 74
0
 42
0.0000001
 43
0.0000001
 44
0.0000000001
 40
0.0
 40
0.0
 40
0.0
 40
0.0
 40
0.172223825
 40
0.3349011315
 40
0.4842696183
 40
0.6180712254
 40
0.7350434897
 40
0.7873029828
 40
0.8356117194
 40
0.8803486803
 40
0.9221098252
 40
0.961674608
 40
1.0
 40
1.0
 40
1.0
 40
1.0
 10
7.425587141
 20
3.9717213804
 30
0.0
 10
7.4254310736
 20
3.9707119037
 30
0.0
 10
7.4250573149
 20
3.9687588598
 30
0.0
 10
7.4242987615
 20
3.9659852861
 30
0.0
 10
7.4233690507
 20
3.963504899
 30
0.0
 10
7.4222964217
 20
3.9613819946
 30
0.0
 10
7.4212651727
 20
3.9598986918
 30
0.0
 10
7.4203813798
 20
3.9589557293
 30
0.0
 10
7.4197241226
 20
3.9583949961
 30
0.0
 10
7.4190506354
 20
3.9579591758
 30
0.0
 10
7.4183657781
 20
3.9576510564
 30
0.0
 10
7.4176749646
 20
3.9574733981
 30
0.0
 10
7.4172105413
 20
3.9574438469
 30
0.0
 10
7.4169833714
 20
3.9574518311
 30
0.0
  0
SPLINE
  5
29B
100
AcDbEntity
  8
ALL_ASSEMBLY_MEMBERS
100
AcDbSpline
 62
7
  6
CONTINUOUS
 70
0
 71
3
 72
26
 73
22
 74
0
 42
0.0000001
 43
0.0000001
 44
0.0000000001
 40
0.0
 40
0.0
 40
0.0
 40
0.0
 40
0.1989289258
 40
0.3882093883
 40
0.4769452487
 40
0.5607639181
 40
0.6389552181
 40
0.710868276
 40
0.7758980367
 40
0.8334436936
 40
0.8830007453
 40
0.9241903144
 40
0.941532754
 40
0.956646978
 40
0.9695019694
 40
0.9800849603
 40
0.9883882199
 40
0.9944140298
 40
0.996582901
 40
0.998204992
 40
1.0
 40
1.0
 40
1.0
 40
1.0
 10
7.4413441006
 20
3.9749319181
 30
0.0
 10
7.4413041602
 20
3.9737155055
 30
0.0
 10
7.4412320799
 20
3.9713414824
 30
0.0
 10
7.4411587142
 20
3.9684243866
 30
0.0
 10
7.4411134225
 20
3.9662111019
 30
0.0
 10
7.4410872228
 20
3.9646772329
 30
0.0
 10
7.4410682923
 20
3.9632461883
 30
0.0
 10
7.441056757
 20
3.9619300205
 30
0.0
 10
7.4410526398
 20
3.9607401201
 30
0.0
 10
7.4410559522
 20
3.9596869902
 30
0.0
 10
7.4410666794
 20
3.9587797732
 30
0.0
 10
7.4410822031
 20
3.9581186293
 30
0.0
 10
7.4410992011
 20
3.9576683617
 30
0.0
 10
7.4411129563
 20
3.9573914851
 30
0.0
 10
7.4411284503
 20
3.9571560789
 30
0.0
 10
7.4411453812
 20
3.956962702
 30
0.0
 10
7.4411640356
 20
3.9568111167
 30
0.0
 10
7.4411812034
 20
3.9567121743
 30
0.0
 10
7.4411976934
 20
3.9566533687
 30
0.0
 10
7.4412092627
 20
3.9566232222
 30
0.0
 10
7.4412235739
 20
3.9566011703
 30
0.0
 10
7.4412345492
 20
3.9566007864
 30
0.0
  0
SPLINE
  5
29C
100
AcDbEntity
  8
ALL_ASSEMBLY_MEMBERS
100
AcDbSpline
 62
7
  6
CONTINUOUS
 70
0
 71
3
 72
13
 73
9
 74
0
 42
0.0000001
 43
0.0000001
 44
0.0000000001
 40
0.0
 40
0.0
 40
0.0
 40
0.0
 40
0.249998776
 40
0.3749973558
 40
0.4999961355
 40
0.6249954879
 40
0.7499957694
 40
1.0
 40
1.0
 40
1.0
 40
1.0
 10
7.4413441006
 20
3.9749319181
 30
0.0
 10
7.5409444225
 20
3.9713769446
 30
0.0
 10
7.6903416627
 20
3.9659628415
 30
0.0
 10
7.8895363814
 20
3.9587043584
 30
0.0
 10
8.0389325127
 20
3.9532672251
 30
0.0
 10
8.1883302866
 20
3.9478565901
 30
0.0
 10
8.3875320269
 20
3.9407069048
 30
0.0
 10
8.5369374195
 20
3.9354404568
 30
0.0
 10
8.6365436337
 20
3.9319911802
 30
0.0
  0
SPLINE
  5
29D
100
AcDbEntity
  8
ALL_ASSEMBLY_MEMBERS
100
AcDbSpline
 62
7
  6
CONTINUOUS
 70
0
 71
3
 72
31
 73
27
 74
0
 42
0.0000001
 43
0.0000001
 44
0.0000000001
 40
0.0
 40
0.0
 40
0.0
 40
0.0
 40
0.1016214903
 40
0.2014353677
 40
0.2984826133
 40
0.391805345
 40
0.4806520847
 40
0.5643659539
 40
0.6422954905
 40
0.7138395635
 40
0.7784312842
 40
0.8355023621
 40
0.8845749638
 40
0.9060057189
 40
0.9253130615
 40
0.9424591527
 40
0.9574092806
 40
0.9701383865
 40
0.9806305574
 40
0.9888688599
 40
0.992137607
 40
0.9948366343
 40
0.9969647217
 40
0.9985226305
 40
0.9995180723
 40
1.0
 40
1.0
 40
1.0
 40
1.0
 10
8.6365436328
 20
3.9319911646
 30
0.0
 10
8.6365110642
 20
3.9314045168
 30
0.0
 10
8.6364634813
 20
3.9302406988
 30
0.0
 10
8.6364248527
 20
3.9285153437
 30
0.0
 10
8.636401101
 20
3.9268377346
 30
0.0
 10
8.6363704737
 20
3.9252236538
 30
0.0
 10
8.6363354469
 20
3.9236867795
 30
0.0
 10
8.636304267
 20
3.9222388365
 30
0.0
 10
8.6362854483
 20
3.9208907141
 30
0.0
 10
8.6362796658
 20
3.9196530393
 30
0.0
 10
8.6362814279
 20
3.918535961
 30
0.0
 10
8.6362856462
 20
3.9175488207
 30
0.0
 10
8.6362895754
 20
3.9168112201
 30
0.0
 10
8.6362967371
 20
3.916292001
 30
0.0
 10
8.6363043075
 20
3.9159574081
 30
0.0
 10
8.6363149369
 20
3.9156603822
 30
0.0
 10
8.6363294203
 20
3.9154015933
 30
0.0
 10
8.636347912
 20
3.915181634
 30
0.0
 10
8.6363686095
 20
3.9150009081
 30
0.0
 10
8.6363875072
 20
3.914875057
 30
0.0
 10
8.636402742
 20
3.9147943773
 30
0.0
 10
8.6364128634
 20
3.914748579
 30
0.0
 10
8.6364221139
 20
3.9147130634
 30
0.0
 10
8.6364308406
 20
3.9146868369
 30
0.0
 10
8.6364374595
 20
3.914671707
 30
0.0
 10
8.6364435789
 20
3.9146636242
 30
0.0
 10
8.6364463635
 20
3.9146635265
 30
0.0
  0
SPLINE
  5
29E
100
AcDbEntity
  8
0
100
AcDbSpline
 62
7
  6
CONTINUOUS
 70
0
 71
3
 72
24
 73
20
 74
0
 42
0.0000001
 43
0.0000001
 44
0.0000000001
 40
0.0
 40
0.0
 40
0.0
 40
0.0
 40
0.0074814426
 40
0.0168765854
 40
0.0281925162
 40
0.0414198141
 40
0.0565422812
 40
0.0735372717
 40
0.1130059841
 40
0.1595294196
 40
0.2127449079
 40
0.2722401381
 40
0.3375478253
 40
0.4081605804
 40
0.4835239857
 40
0.6460998641
 40
0.8201185148
 40
0.9097261775
 40
1.0
 40
1.0
 40
1.0
 40
1.0
 10
5.5490256835
 20
4.0604126219
 30
0.0
 10
5.5485278023
 20
4.0595117947
 30
0.0
 10
5.547535323
 20
4.057408238
 30
0.0
 10
5.5461257244
 20
4.0537934788
 30
0.0
 10
5.5446392894
 20
4.049365728
 30
0.0
 10
5.5430852429
 20
4.0441338901
 30
0.0
 10
5.5414726646
 20
4.0381069366
 30
0.0
 10
5.5391383088
 20
4.0285384843
 30
0.0
 10
5.5361701982
 20
4.0146816443
 30
0.0
 10
5.5326575724
 20
3.9958534536
 30
0.0
 10
5.5291062567
 20
3.9742350559
 30
0.0
 10
5.5255814713
 20
3.9499979422
 30
0.0
 10
5.5221481785
 20
3.9233326491
 30
0.0
 10
5.5188712442
 20
3.8944494978
 30
0.0
 10
5.5146907077
 20
3.8522055634
 30
0.0
 10
5.5103114324
 20
3.7956921812
 30
0.0
 10
5.5074158676
 20
3.7371198246
 30
0.0
 10
5.5061301353
 20
3.6884472959
 30
0.0
 10
5.5058887069
 20
3.6636997276
 30
0.0
 10
5.5058806691
 20
3.6512803068
 30
0.0
  0
SPLINE
  5
29F
100
AcDbEntity
  8
0
100
AcDbSpline
 62
7
  6
CONTINUOUS
 70
0
 71
3
 72
23
 73
19
 74
0
 42
0.0000001
 43
0.0000001
 44
0.0000000001
 40
0.0
 40
0.0
 40
0.0
 40
0.0
 40
0.0074891165
 40
0.0168888743
 40
0.028206414
 40
0.0414324139
 40
0.0565507909
 40
0.0735391323
 40
0.1129877963
 40
0.1594836002
 40
0.2126664259
 40
0.2721262503
 40
0.3373990385
 40
0.407980173
 40
0.4833189453
 40
0.6458809192
 40
0.8199567868
 40
1.0
 40
1.0
 40
1.0
 40
1.0
 10
4.9782660768
 20
4.0607807232
 30
0.0
 10
4.9787612243
 20
4.0598819571
 30
0.0
 10
4.9797479563
 20
4.0577842851
 30
0.0
 10
4.9811487217
 20
4.0541809378
 30
0.0
 10
4.982624871
 20
4.049769022
 30
0.0
 10
4.98416727
 20
4.0445573723
 30
0.0
 10
4.9857669357
 20
4.0385548845
 30
0.0
 10
4.9880813897
 20
4.0290270658
 30
0.0
 10
4.991022225
 20
4.0152308188
 30
0.0
 10
4.9945000168
 20
3.996486406
 30
0.0
 10
4.9980135286
 20
3.9749651983
 30
0.0
 10
5.0014983731
 20
3.9508369855
 30
0.0
 10
5.0048903093
 20
3.9242904731
 30
0.0
 10
5.0081253574
 20
3.8955338682
 30
0.0
 10
5.0122492377
 20
3.8534671801
 30
0.0
 10
5.0165622991
 20
3.7971763976
 30
0.0
 10
5.0200023302
 20
3.7264573035
 30
0.0
 10
5.0208769545
 20
3.6779341104
 30
0.0
 10
5.0208811682
 20
3.6532651805
 30
0.0
  0
SPLINE
  5
2A0
100
AcDbEntity
  8
0
100
AcDbSpline
 62
7
  6
CONTINUOUS
 70
0
 71
3
 72
13
 73
9
 74
0
 42
0.0000001
 43
0.0000001
 44
0.0000000001
 40
0.0
 40
0.0
 40
0.0
 40
0.0
 40
0.0762542598
 40
0.160943432
 40
0.2581867902
 40
0.3707064546
 40
0.6476694641
 40
1.0
 40
1.0
 40
1.0
 40
1.0
 10
5.5523227605
 20
4.0637503363
 30
0.0
 10
5.5521992033
 20
4.0637504163
 30
0.0
 10
5.5519375106
 20
4.0637103765
 30
0.0
 10
5.5515502274
 20
4.0635439635
 30
0.0
 10
5.5511540014
 20
4.0632742324
 30
0.0
 10
5.5505711603
 20
4.0627400366
 30
0.0
 10
5.5498278283
 20
4.0617870847
 30
0.0
 10
5.5493018397
 20
4.0609122774
 30
0.0
 10
5.5490256835
 20
4.0604126219
 30
0.0
  0
SPLINE
  5
2A1
100
AcDbEntity
  8
0
100
AcDbSpline
 62
7
  6
CONTINUOUS
 70
0
 71
3
 72
30
 73
26
 74
0
 42
0.0000001
 43
0.0000001
 44
0.0000000001
 40
0.0
 40
0.0
 40
0.0
 40
0.0
 40
0.0015520342
 40
0.0036414851
 40
0.0062813919
 40
0.0094768671
 40
0.0132297381
 40
0.0175402428
 40
0.0278305509
 40
0.0403296886
 40
0.0550075541
 40
0.0718320015
 40
0.0907669879
 40
0.1117646755
 40
0.1347742423
 40
0.1866152431
 40
0.245793266
 40
0.3117545516
 40
0.3838722438
 40
0.4614782692
 40
0.5438544437
 40
0.6302439623
 40
0.7198515088
 40
0.8118925562
 40
1.0
 40
1.0
 40
1.0
 40
1.0
 10
5.4081470212
 20
4.313843698
 30
0.0
 10
5.4079752294
 20
4.31354659
 30
0.0
 10
5.4076529243
 20
4.3128044364
 30
0.0
 10
5.4072254549
 20
4.3114825903
 30
0.0
 10
5.4067889987
 20
4.3097842965
 30
0.0
 10
5.4063447534
 20
4.3077108638
 30
0.0
 10
5.4058940385
 20
4.3052620377
 30
0.0
 10
5.4052468166
 20
4.3012552314
 30
0.0
 10
5.4044466452
 20
4.2953154188
 30
0.0
 10
5.4035147159
 20
4.2870825837
 30
0.0
 10
5.4025688346
 20
4.2773983741
 30
0.0
 10
5.40161248
 20
4.2662861489
 30
0.0
 10
5.4006497166
 20
4.2537723696
 30
0.0
 10
5.3996836453
 20
4.2398875094
 30
0.0
 10
5.3983418889
 20
4.2187351304
 30
0.0
 10
5.3967024376
 20
4.1891424968
 30
0.0
 10
5.3948416544
 20
4.1500510772
 30
0.0
 10
5.3930469495
 20
4.106468597
 30
0.0
 10
5.3913462644
 20
4.058804608
 30
0.0
 10
5.3897690507
 20
4.0075047435
 30
0.0
 10
5.3883448475
 20
3.9530433579
 30
0.0
 10
5.387103732
 20
3.8959229637
 30
0.0
 10
5.386075716
 20
3.836660784
 30
0.0
 10
5.3850231351
 20
3.7549037898
 30
0.0
 10
5.3846576151
 20
3.6929546959
 30
0.0
 10
5.3846306945
 20
3.6513587788
 30
0.0
  0
SPLINE
  5
2A2
100
AcDbEntity
  8
0
100
AcDbSpline
 62
7
  6
CONTINUOUS
 70
0
 71
3
 72
30
 73
26
 74
0
 42
0.0000001
 43
0.0000001
 44
0.0000000001
 40
0.0
 40
0.0
 40
0.0
 40
0.0
 40
0.0015520342
 40
0.0036414851
 40
0.0062813919
 40
0.0094768671
 40
0.0132297381
 40
0.0175402428
 40
0.0278305509
 40
0.0403296886
 40
0.0550075541
 40
0.0718320015
 40
0.0907669879
 40
0.1117646755
 40
0.1347742423
 40
0.1866152431
 40
0.245793266
 40
0.3117545516
 40
0.3838722438
 40
0.4614782692
 40
0.5438544437
 40
0.6302439623
 40
0.7198515088
 40
0.8118925562
 40
1.0
 40
1.0
 40
1.0
 40
1.0
 10
5.1194719471
 20
4.314030526
 30
0.0
 10
5.1196433542
 20
4.3137331959
 30
0.0
 10
5.1199646984
 20
4.3129906258
 30
0.0
 10
5.1203904564
 20
4.3116682274
 30
0.0
 10
5.1208247141
 20
4.3099693701
 30
0.0
 10
5.1212662752
 20
4.3078953642
 30
0.0
 10
5.12171382
 20
4.3054459567
 30
0.0
 10
5.122355855
 20
4.301438316
 30
0.0
 10
5.1231483373
 20
4.2954974726
 30
0.0
 10
5.1240696094
 20
4.2872634382
 30
0.0
 10
5.1250029548
 20
4.2775780124
 30
0.0
 10
5.1259449252
 20
4.2664645585
 30
0.0
 10
5.1268914902
 20
4.2539495436
 30
0.0
 10
5.1278395884
 20
4.2400634445
 30
0.0
 10
5.1291539643
 20
4.2189093465
 30
0.0
 10
5.1307551101
 20
4.1893146157
 30
0.0
 10
5.1325652925
 20
4.1502208202
 30
0.0
 10
5.1343035835
 20
4.1066360535
 30
0.0
 10
5.1359425718
 20
4.0589699031
 30
0.0
 10
5.1374533825
 20
4.00766804
 30
0.0
 10
5.1388070906
 20
3.9532048565
 30
0.0
 10
5.1399742695
 20
3.8960829038
 30
0.0
 10
5.1409255767
 20
3.8368194431
 30
0.0
 10
5.1418723319
 20
3.7550611549
 30
0.0
 10
5.1421576658
 20
3.6931116398
 30
0.0
 10
5.1421307453
 20
3.6515157227
 30
0.0
  0
SPLINE
  5
2A3
100
AcDbEntity
  8
0
100
AcDbSpline
 62
7
  6
CONTINUOUS
 70
0
 71
3
 72
13
 73
9
 74
0
 42
0.0000001
 43
0.0000001
 44
0.0000000001
 40
0.0
 40
0.0
 40
0.0
 40
0.0
 40
0.0762465054
 40
0.1609295582
 40
0.2581691331
 40
0.3706875409
 40
0.6476554392
 40
1.0
 40
1.0
 40
1.0
 40
1.0
 10
4.9749726122
 20
4.0641239924
 30
0.0
 10
4.9750961941
 20
4.0641239124
 30
0.0
 10
4.9753578915
 20
4.0640835168
 30
0.0
 10
4.9757450386
 20
4.0639165359
 30
0.0
 10
4.9761409971
 20
4.063646187
 30
0.0
 10
4.9767232757
 20
4.0631110249
 30
0.0
 10
4.9774655371
 20
4.0621567399
 30
0.0
 10
4.9779905061
 20
4.061280925
 30
0.0
 10
4.9782660768
 20
4.0607807232
 30
0.0
  0
ENDSEC
  0
SECTION
  2
OBJECTS
  0
DICTIONARY
  5
C
100
AcDbDictionary
280
0
281
1
  3
ACAD_GROUP
350
D
  3
ACAD_MLINESTYLE
350
17
  3
ACAD_LAYOUT
350
1A
  3
ACAD_PLOTSETTINGS
350
19
  3
ACAD_PLOTSTYLENAME
350
E
  0
DICTIONARY
  5
D
102
{ACAD_REACTORS
330
C
102
}
100
AcDbDictionary
280
0
281
1
  0
ACDBDICTIONARYWDFLT
  5
E
102
{ACAD_REACTORS
330
C
102
}
100
AcDbDictionary
281
1
  3
Normal
350
F
100
AcDbDictionaryWithDefault
340
F
  0
DICTIONARY
  5
17
102
{ACAD_REACTORS
330
C
102
}
100
AcDbDictionary
280
0
281
1
  3
Standard
350
18
  0
DICTIONARY
  5
19
102
{ACAD_REACTORS
330
C
102
}
100
AcDbDictionary
281
1
  0
DICTIONARY
  5
1A
102
{ACAD_REACTORS
330
C
102
}
100
AcDbDictionary
281
1
  3
Model
350
2A4
  3
Layout1
350
2A5
  0
ACDBPLACEHOLDER
  5
F
102
{ACAD_REACTORS
330
E
102
}
  0
MLINESTYLE
  5
18
102
{ACAD_REACTORS
330
17
102
}
100
AcDbMlineStyle
  2
STANDARD
 70
0
  3

 62
256
 51
90.0
 52
90.0
 71
2
 49
0.5
 62
256
  6
BYLAYER
 49
-0.5
 62
256
  6
BYLAYER
  0
LAYOUT
  5
2A4
102
{ACAD_REACTORS
330
1A
102
}
100
AcDbPlotSettings
  1

  2
none_device
  4
ANSI_A_(11.00_x_8.50_Inches)
  6

 40
0.0
 41
0.0
 42
0.0
 43
0.0
 44
279.4
 45
215.9
 46
0.0
 47
0.0
 48
0.0
 49
0.0
140
0.0
141
0.0
142
1.0
143
1.0
 70
1024
 72
0
 73
0
 74
0
  7

 75
0
147
1.0
148
0.0
149
0.0
100
AcDbLayout
  1
Model
 70
0
 71
0
 10
0.0
 20
0.0
 11
11.0
 21
8.5
 12
0.0
 22
0.0
 32
0.0
 14
0.0
 24
0.0
 34
0.0
 15
0.0
 25
0.0
 35
0.0
146
0.0
 13
0.0
 23
0.0
 33
0.0
 16
1.0
 26
0.0
 36
0.0
 17
0.0
 27
1.0
 37
0.0
 76
0
330
21B
345
0
346
0
  0
LAYOUT
  5
2A5
102
{ACAD_REACTORS
330
1A
102
}
100
AcDbPlotSettings
  1

  2
none_device
  4
ANSI_A_(11.00_x_8.50_Inches)
  6

 40
0.0
 41
0.0
 42
0.0
 43
0.0
 44
279.4
 45
215.9
 46
0.0
 47
0.0
 48
0.0
 49
0.0
140
0.0
141
0.0
142
1.0
143
1.0
 70
0
 72
0
 73
0
 74
0
  7

 75
0
147
1.0
148
0.0
149
0.0
100
AcDbLayout
  1
Layout1
 70
0
 71
1
 10
0.0
 20
0.0
 11
11.0
 21
8.5
 12
0.0
 22
0.0
 32
0.0
 14
0.0
 24
0.0
 34
0.0
 15
0.0
 25
0.0
 35
0.0
146
0.0
 13
0.0
 23
0.0
 33
0.0
 16
1.0
 26
0.0
 36
0.0
 17
0.0
 27
1.0
 37
0.0
 76
0
330
21C
345
0
346
0
  0
ENDSEC
  0
EOF
