999
DXF file: 3-911_right.dxf
999
Pro/ENGINEER 2018400 by Parametric Technology Corporation
  0
SECTION
  2
HEADER
  9
$ACADVER
  1
AC1027
  9
$DWGCODEPAGE
  3
ANSI_1252
  9
$EXTMAX
 10
11.0
 20
8.5
 30
0.0
  9
$EXTMIN
 10
0.0
 20
0.0
 30
0.0
  9
$LIMMIN
 10
0.0
 20
0.0
  9
$LIMMAX
 10
11.0
 20
8.5
  9
$VIEWCTR
 10
5.5
 20
4.25
  9
$VIEWSIZE
 40
8.5
  9
$CLAYER
  8
0
  9
$LTSCALE
 40
0.605
  9
$CELTYPE
  6
BYLAYER
  9
$DIMSCALE
 40
1.0
  9
$DIMASZ
 40
0.1
  9
$DIMEXO
 40
0.0625
  9
$DIMDLI
 40
0.418
  9
$DIMEXE
 40
0.125
  9
$DIMCEN
 40
0.099
  9
$DIMLFAC
 40
1.0
  9
$DIMBLK
  1
_FILLED
  9
$DIMALT
 70
1
  9
$DIMALTD
 70
2
  9
$DIMALTTD
 70
2
  9
$DIMALTF
 40
25.4
  9
$DIMTXT
 40
0.08
  9
$DIMTOL
 70
1
  9
$DIMLIM
 70
0
  9
$DIMTFAC
 40
1.0
  9
$DIMTP
 40
0.001
  9
$DIMTM
 40
0.001
  9
$DIMGAP
 40
0.09
  9
$DIMDSEP
 70
46
  9
$AUNITS
 70
0
  9
$PDMODE
 70
3
  9
$PDSIZE
 40
0.3125
  9
$HANDSEED
  5
2AF
  9
$TILEMODE
 70
1
  9
$MEASUREMENT
 70
0
  9
$INSUNITS
 70
1
  0
ENDSEC
  0
SECTION
  2
CLASSES
  0
CLASS
  1
ACDBDICTIONARYWDFLT
  2
AcDbDictionaryWithDefault
  3
AutoCAD 2000
 90
0
 91
1
280
0
281
0
  0
CLASS
  1
ACDBPLACEHOLDER
  2
AcDbPlaceHolder
  3
AutoCAD 2000
 90
0
 91
1
280
0
281
0
  0
CLASS
  1
LAYOUT
  2
AcDbLayout
  3
AutoCAD 2000
 90
0
 91
0
280
0
281
0
  0
ENDSEC
  0
SECTION
  2
TABLES
  0
TABLE
  2
VPORT
  5
8
100
AcDbSymbolTable
 70
2
  0
VPORT
  5
1F4
100
AcDbSymbolTableRecord
100
AcDbViewportTableRecord
  2
*ACTIVE
 70
0
 10
0.0
 20
0.0
 11
1.0
 21
1.0
 12
5.5
 22
4.25
 13
0.0
 23
0.0
 14
1.0
 24
1.0
 15
0.0
 25
0.0
 16
0.0
 26
0.0
 36
1.0
 17
0.0
 27
0.0
 37
0.0
 40
8.5
 41
1.2941176471
 42
50.0
 43
0.0
 44
0.0
 50
0.0
 51
0.0
 71
0
 72
100
 73
1
 74
1
 75
0
 76
0
 77
0
 78
0
  0
ENDTAB
  0
TABLE
  2
LTYPE
  5
5
100
AcDbSymbolTable
 70
6
  0
LTYPE
  5
14
100
AcDbSymbolTableRecord
100
AcDbLinetypeTableRecord
  2
BYBLOCK
 70
0
  3

 72
65
 73
0
 40
0.0
  0
LTYPE
  5
15
100
AcDbSymbolTableRecord
100
AcDbLinetypeTableRecord
  2
BYLAYER
 70
0
  3

 72
65
 73
0
 40
0.0
  0
LTYPE
  5
16
100
AcDbSymbolTableRecord
100
AcDbLinetypeTableRecord
  2
CONTINUOUS
 70
64
  3
Solid line
 72
65
 73
0
 40
0.0
  0
LTYPE
  5
1F5
100
AcDbSymbolTableRecord
100
AcDbLinetypeTableRecord
  2
CENTER
 70
64
  3
____ _ ____ _ ____ _ ____ _ ____ _ ____ _ ____
 72
65
 73
4
 40
0.6
 49
0.375
 74
0
 49
-0.075
 74
0
 49
0.075
 74
0
 49
-0.075
 74
0
  0
LTYPE
  5
1F6
100
AcDbSymbolTableRecord
100
AcDbLinetypeTableRecord
  2
HIDDEN
 70
64
  3
- - - - - - - - - - - - - - - - - - - -
 72
65
 73
2
 40
0.2
 49
0.1
 74
0
 49
-0.1
 74
0
  0
LTYPE
  5
1F7
100
AcDbSymbolTableRecord
100
AcDbLinetypeTableRecord
  2
PHANTOM
 70
64
  3
_____ _ _ _____ _ _ _____ _ _ _____
 72
65
 73
6
 40
0.8
 49
0.45
 74
0
 49
-0.05
 74
0
 49
0.1
 74
0
 49
-0.05
 74
0
 49
0.1
 74
0
 49
-0.05
 74
0
  0
LTYPE
  5
1F8
100
AcDbSymbolTableRecord
100
AcDbLinetypeTableRecord
  2
DOT
 70
64
  3
. . . . . . . . . . . . . . . . . . . .
 72
65
 73
2
 40
0.2
 49
0.1
 74
0
 49
-0.1
 74
0
  0
LTYPE
  5
1F9
100
AcDbSymbolTableRecord
100
AcDbLinetypeTableRecord
  2
DASHED
 70
64
  3
- - - - - - - - - - - - - - - - - - - -
 72
65
 73
2
 40
0.2
 49
0.1
 74
0
 49
-0.1
 74
0
  0
ENDTAB
  0
TABLE
  2
LAYER
  5
2
100
AcDbSymbolTable
 70
36
  0
LAYER
  5
10
100
AcDbSymbolTableRecord
100
AcDbLayerTableRecord
  2
0
 70
0
 62
7
  6
CONTINUOUS
370
-3
390
F
  0
LAYER
  5
1FA
100
AcDbSymbolTableRecord
100
AcDbLayerTableRecord
  2
DEFAULT_1
 70
0
 62
7
  6
CENTER
370
-3
390
F
  0
LAYER
  5
1FB
100
AcDbSymbolTableRecord
100
AcDbLayerTableRecord
  2
DEFAULT_2
 70
0
 62
8
  6
HIDDEN
370
-3
390
F
  0
LAYER
  5
1FC
100
AcDbSymbolTableRecord
100
AcDbLayerTableRecord
  2
DEFAULT_3
 70
0
 62
7
  6
PHANTOM
370
-3
390
F
  0
LAYER
  5
1FD
100
AcDbSymbolTableRecord
100
AcDbLayerTableRecord
  2
ALL_ASSEMBLY_MEMBERS
 70
0
 62
7
  6
CONTINUOUS
370
-3
390
F
  0
LAYER
  5
1FE
100
AcDbSymbolTableRecord
100
AcDbLayerTableRecord
  2
ALL_FEATURES
 70
0
 62
7
  6
CONTINUOUS
370
-3
390
F
  0
LAYER
  5
1FF
100
AcDbSymbolTableRecord
100
AcDbLayerTableRecord
  2
ASSY_DATUM_SHAPER
 70
0
 62
7
  6
CONTINUOUS
370
-3
390
F
  0
LAYER
  5
200
100
AcDbSymbolTableRecord
100
AcDbLayerTableRecord
  2
AXES_FEATURES
 70
0
 62
7
  6
CONTINUOUS
370
-3
390
F
  0
LAYER
  5
201
100
AcDbSymbolTableRecord
100
AcDbLayerTableRecord
  2
CHAMFER_FEATURES
 70
0
 62
7
  6
CONTINUOUS
370
-3
390
F
  0
LAYER
  5
202
100
AcDbSymbolTableRecord
100
AcDbLayerTableRecord
  2
CURVE
 70
0
 62
7
  6
CONTINUOUS
370
-3
390
F
  0
LAYER
  5
203
100
AcDbSymbolTableRecord
100
AcDbLayerTableRecord
  2
CURVES
 70
0
 62
7
  6
CONTINUOUS
370
-3
390
F
  0
LAYER
  5
204
100
AcDbSymbolTableRecord
100
AcDbLayerTableRecord
  2
CUT_FEATURES
 70
0
 62
7
  6
CONTINUOUS
370
-3
390
F
  0
LAYER
  5
205
100
AcDbSymbolTableRecord
100
AcDbLayerTableRecord
  2
DATUM_CURVES
 70
0
 62
7
  6
CONTINUOUS
370
-3
390
F
  0
LAYER
  5
206
100
AcDbSymbolTableRecord
100
AcDbLayerTableRecord
  2
DATUM_PLANES
 70
0
 62
7
  6
CONTINUOUS
370
-3
390
F
  0
LAYER
  5
207
100
AcDbSymbolTableRecord
100
AcDbLayerTableRecord
  2
DATUM_POINTS
 70
0
 62
7
  6
CONTINUOUS
370
-3
390
F
  0
LAYER
  5
208
100
AcDbSymbolTableRecord
100
AcDbLayerTableRecord
  2
DEFAULT_COORDINATE_SYSTEM
 70
0
 62
7
  6
CONTINUOUS
370
-3
390
F
  0
LAYER
  5
209
100
AcDbSymbolTableRecord
100
AcDbLayerTableRecord
  2
DEFAULT_DATUM_AXES
 70
0
 62
7
  6
CONTINUOUS
370
-3
390
F
  0
LAYER
  5
20A
100
AcDbSymbolTableRecord
100
AcDbLayerTableRecord
  2
DEFAULT_DATUM_CURVES
 70
0
 62
7
  6
CONTINUOUS
370
-3
390
F
  0
LAYER
  5
20B
100
AcDbSymbolTableRecord
100
AcDbLayerTableRecord
  2
DEFAULT_DATUM_PLANES
 70
0
 62
7
  6
CONTINUOUS
370
-3
390
F
  0
LAYER
  5
20C
100
AcDbSymbolTableRecord
100
AcDbLayerTableRecord
  2
DEFAULT_SURFACES
 70
0
 62
7
  6
CONTINUOUS
370
-3
390
F
  0
LAYER
  5
20D
100
AcDbSymbolTableRecord
100
AcDbLayerTableRecord
  2
DIMENSIONS
 70
0
 62
7
  6
CONTINUOUS
370
-3
390
F
  0
LAYER
  5
20E
100
AcDbSymbolTableRecord
100
AcDbLayerTableRecord
  2
HOLE_FEATURES
 70
0
 62
7
  6
CONTINUOUS
370
-3
390
F
  0
LAYER
  5
20F
100
AcDbSymbolTableRecord
100
AcDbLayerTableRecord
  2
NOTES
 70
0
 62
7
  6
CONTINUOUS
370
-3
390
F
  0
LAYER
  5
210
100
AcDbSymbolTableRecord
100
AcDbLayerTableRecord
  2
PART_REFERENCE_DIMENSIONS
 70
0
 62
7
  6
CONTINUOUS
370
-3
390
F
  0
LAYER
  5
211
100
AcDbSymbolTableRecord
100
AcDbLayerTableRecord
  2
PLATED_SURFACE_AREA
 70
0
 62
7
  6
CONTINUOUS
370
-3
390
F
  0
LAYER
  5
212
100
AcDbSymbolTableRecord
100
AcDbLayerTableRecord
  2
POINTS
 70
0
 62
7
  6
CONTINUOUS
370
-3
390
F
  0
LAYER
  5
213
100
AcDbSymbolTableRecord
100
AcDbLayerTableRecord
  2
PROTRUSION_FEATURES
 70
0
 62
7
  6
CONTINUOUS
370
-3
390
F
  0
LAYER
  5
214
100
AcDbSymbolTableRecord
100
AcDbLayerTableRecord
  2
QUILTS
 70
0
 62
7
  6
CONTINUOUS
370
-3
390
F
  0
LAYER
  5
215
100
AcDbSymbolTableRecord
100
AcDbLayerTableRecord
  2
REFERENCE_DIMENSIONS
 70
0
 62
7
  6
CONTINUOUS
370
-3
390
F
  0
LAYER
  5
216
100
AcDbSymbolTableRecord
100
AcDbLayerTableRecord
  2
ROUND_FEATURES
 70
0
 62
7
  6
CONTINUOUS
370
-3
390
F
  0
LAYER
  5
217
100
AcDbSymbolTableRecord
100
AcDbLayerTableRecord
  2
SURFACE_FEATURES
 70
0
 62
7
  6
CONTINUOUS
370
-3
390
F
  0
LAYER
  5
218
100
AcDbSymbolTableRecord
100
AcDbLayerTableRecord
  2
XSEC_DATUMS
 70
0
 62
7
  6
CONTINUOUS
370
-3
390
F
  0
ENDTAB
  0
TABLE
  2
STYLE
  5
3
100
AcDbSymbolTable
 70
1
  0
STYLE
  5
11
100
AcDbSymbolTableRecord
100
AcDbTextStyleTableRecord
  2
STANDARD
 70
0
 40
0.0
 41
0.8
 50
0.0
 71
0
 42
0.2
  3
txt
  4

  0
STYLE
  5
219
100
AcDbSymbolTableRecord
100
AcDbTextStyleTableRecord
  2
TEXTSTYLE_1
 70
0
 40
0.0
 41
0.8
 50
0.0
 71
0
 42
0.2
  3
gdt
  4

  0
ENDTAB
  0
TABLE
  2
VIEW
  5
6
100
AcDbSymbolTable
 70
0
  0
ENDTAB
  0
TABLE
  2
UCS
  5
7
100
AcDbSymbolTable
 70
0
  0
ENDTAB
  0
TABLE
  2
APPID
  5
9
100
AcDbSymbolTable
 70
1
  0
APPID
  5
21A
100
AcDbSymbolTableRecord
100
AcDbRegAppTableRecord
  2
ACAD
 70
0
  0
ENDTAB
  0
TABLE
  2
BLOCK_RECORD
  5
1
100
AcDbSymbolTable
 70
0
  0
BLOCK_RECORD
  5
21B
100
AcDbSymbolTableRecord
100
AcDbBlockTableRecord
  2
*Model_Space
  0
BLOCK_RECORD
  5
21C
100
AcDbSymbolTableRecord
100
AcDbBlockTableRecord
  2
*Paper_Space
  0
BLOCK_RECORD
  5
21D
100
AcDbSymbolTableRecord
100
AcDbBlockTableRecord
  2
_FILLED
  0
ENDTAB
  0
TABLE
  2
DIMSTYLE
  5
A
100
AcDbSymbolTable
 70
1
100
AcDbDimStyleTable
 71
0
  0
DIMSTYLE
105
21E
100
AcDbSymbolTableRecord
100
AcDbDimStyleTableRecord
  2
STANDARD
 70
0
  3

  4

 40
1.0
 41
0.1
 42
0.0625
 43
0.38
 44
0.125
 45
0.0
 46
0.0
 47
0.001
 48
0.001
140
0.08
141
0.09
142
0.0
143
25.4
144
1.0
145
0.0
146
1.0
147
0.09
 71
1.0
 72
0.0
 73
1
 74
1
 75
0
 76
0
 77
0
 78
4
 79
1
170
1
171
2
172
0
173
0
174
0
175
0
176
0
177
0
178
0
270
2
179
3
271
3
272
3
273
2
274
2
275
0
280
0
281
0
282
0
283
1
284
4
285
0
286
0
287
3
288
0
340
11
278
46
341
21D
342
21D
343
21D
344
21D
  0
ENDTAB
  0
ENDSEC
  0
SECTION
  2
BLOCKS
  0
BLOCK
  5
20
100
AcDbEntity
  8
0
100
AcDbBlockBegin
  2
*Model_Space
 70
0
 10
0.0
 20
0.0
 30
0.0
  3
*Model_Space
  1

  0
ENDBLK
  5
21
100
AcDbEntity
  8
0
100
AcDbBlockEnd
  0
BLOCK
  5
1C
100
AcDbEntity
  8
0
100
AcDbBlockBegin
  2
*Paper_Space
 70
0
 10
0.0
 20
0.0
 30
0.0
  3
*Paper_Space
  1

  0
ENDBLK
  5
1D
100
AcDbEntity
  8
0
100
AcDbBlockEnd
  0
BLOCK
  5
21F
100
AcDbEntity
  8
0
100
AcDbBlockBegin
  2
_FILLED
 70
64
 10
0.0
 20
0.0
  3
_FILLED
  1

  0
SOLID
  5
220
100
AcDbEntity
  8
0
  6
BYBLOCK
 62
0
100
AcDbTrace
 10
0.0
 20
0.0
 11
-1.0
 21
0.2
 12
-1.0
 22
-0.2
 13
-1.0
 23
-0.2
  0
ENDBLK
  5
221
100
AcDbEntity
  8
0
  6
BYBLOCK
 62
0
100
AcDbBlockEnd
  0
ENDSEC
  0
SECTION
  2
ENTITIES
  0
MTEXT
  5
222
100
AcDbEntity
  8
0
100
AcDbMText
 62
2
  6
CONTINUOUS
  7
STANDARD
 71
3
 72
1
 10
2.7178077834
 20
0.4605660656
 30
0.0
 11
1.0
 21
0.0
 31
0.0
 73
2
 44
0.9
  1
SCALE  .500
 40
0.08
 41
0.704
  0
LINE
  5
223
100
AcDbEntity
  8
0
100
AcDbLine
 62
7
  6
CONTINUOUS
 10
0.0
 20
0.0
 11
0.0
 21
8.5
  0
LINE
  5
224
100
AcDbEntity
  8
0
100
AcDbLine
 62
7
  6
CONTINUOUS
 10
0.0
 20
0.0
 11
11.0
 21
0.0
  0
LINE
  5
225
100
AcDbEntity
  8
0
100
AcDbLine
 62
7
  6
CONTINUOUS
 10
0.0
 20
8.5
 11
11.0
 21
8.5
  0
LINE
  5
226
100
AcDbEntity
  8
0
100
AcDbLine
 62
7
  6
CONTINUOUS
 10
11.0
 20
0.0
 11
11.0
 21
8.5
  0
LINE
  5
227
100
AcDbEntity
  8
0
100
AcDbLine
 62
7
  6
CONTINUOUS
 10
3.2673953455
 20
3.6514372507
 11
3.2673953455
 21
3.4389372952
  0
LINE
  5
228
100
AcDbEntity
  8
0
100
AcDbLine
 62
7
  6
CONTINUOUS
 10
3.2998838667
 20
3.6513587788
 11
3.2998838667
 21
3.4388588233
  0
LINE
  5
229
100
AcDbEntity
  8
0
100
AcDbLine
 62
7
  6
CONTINUOUS
 10
3.5098950271
 20
3.6512803068
 11
3.5098950271
 21
3.4387803513
  0
LINE
  5
22A
100
AcDbEntity
  8
0
100
AcDbLine
 62
7
  6
CONTINUOUS
 10
3.7199061876
 20
3.6513587788
 11
3.7199061876
 21
3.4388588233
  0
LINE
  5
22B
100
AcDbEntity
  8
0
100
AcDbLine
 62
7
  6
CONTINUOUS
 10
3.7523947088
 20
3.4389372952
 11
3.7523947088
 21
3.6514372507
  0
LWPOLYLINE
  5
22C
100
AcDbEntity
  8
0
100
AcDbPolyline
 62
7
  6
CONTINUOUS
 90
22
 70
0
 10
3.7523947088
 20
3.651437251
 10
3.7524768207
 20
3.6565104409
 10
3.7533673373
 20
3.6688906754
 10
3.7552381876
 20
3.6812201914
 10
3.7580840949
 20
3.6934144486
 10
3.7618935444
 20
3.7053946748
 10
3.7666507836
 20
3.7170879167
 10
3.7723323258
 20
3.7284168968
 10
3.7789070478
 20
3.7393047196
 10
3.7863402486
 20
3.7496817834
 10
3.7945906453
 20
3.7594797282
 10
3.8036095453
 20
3.7686319674
 10
3.8133434781
 20
3.7770773429
 10
3.8237367226
 20
3.784761502
 10
3.8347260911
 20
3.791632599
 10
3.8462400729
 20
3.797642761
 10
3.8582085912
 20
3.8027538787
 10
3.8705633786
 20
3.8069354043
 10
3.8832318591
 20
3.8101612418
 10
3.8961414772
 20
3.8124118401
 10
3.9092205496
 20
3.813673432
 10
3.9188084802
 20
3.8138654037
  0
LINE
  5
22D
100
AcDbEntity
  8
0
100
AcDbLine
 62
7
  6
CONTINUOUS
 10
3.9223950271
 20
3.8138438027
 11
3.9223950271
 21
4.313843698
  0
LINE
  5
22E
100
AcDbEntity
  8
0
100
AcDbLine
 62
7
  6
CONTINUOUS
 10
3.7523947088
 20
3.4389372952
 11
3.7199061876
 21
3.4388588233
  0
LINE
  5
22F
100
AcDbEntity
  8
0
100
AcDbLine
 62
7
  6
CONTINUOUS
 10
3.7199061876
 20
3.4388588233
 11
3.6060961537
 21
3.4387933877
  0
LINE
  5
230
100
AcDbEntity
  8
0
100
AcDbLine
 62
7
  6
CONTINUOUS
 10
3.6060961537
 20
3.4387933877
 11
3.5473950329
 21
3.4387823582
  0
LINE
  5
231
100
AcDbEntity
  8
0
100
AcDbLine
 62
7
  6
CONTINUOUS
 10
7.2598950271
 20
3.4701871643
 11
7.0236927573
 21
3.4701871643
  0
LINE
  5
232
100
AcDbEntity
  8
0
100
AcDbLine
 62
7
  6
CONTINUOUS
 10
3.464117912
 20
3.4387832645
 11
3.4136939006
 21
3.4387933877
  0
LINE
  5
233
100
AcDbEntity
  8
0
100
AcDbLine
 62
7
  6
CONTINUOUS
 10
3.4675773899
 20
3.4387827687
 11
3.464117912
 21
3.4387832645
  0
LINE
  5
234
100
AcDbEntity
  8
0
100
AcDbLine
 62
7
  6
CONTINUOUS
 10
3.4723950214
 20
3.4387823582
 11
3.4675773899
 21
3.4387827687
  0
LINE
  5
235
100
AcDbEntity
  8
0
100
AcDbLine
 62
7
  6
CONTINUOUS
 10
3.5473950329
 20
3.4387823582
 11
3.4723950214
 21
3.4387823582
  0
LINE
  5
236
100
AcDbEntity
  8
0
100
AcDbLine
 62
7
  6
CONTINUOUS
 10
3.4136939006
 20
3.4387933877
 11
3.2998838667
 21
3.4388588233
  0
LINE
  5
237
100
AcDbEntity
  8
0
100
AcDbLine
 62
7
  6
CONTINUOUS
 10
3.2998838667
 20
3.4388588233
 11
3.2673953455
 21
3.4389372952
  0
LINE
  5
238
100
AcDbEntity
  8
0
100
AcDbLine
 62
7
  6
CONTINUOUS
 10
3.2998838667
 20
3.6513587788
 11
3.2673953455
 21
3.6514372507
  0
LINE
  5
239
100
AcDbEntity
  8
0
100
AcDbLine
 62
7
  6
CONTINUOUS
 10
3.7523947088
 20
3.6514372507
 11
3.7199061876
 21
3.6513587788
  0
LINE
  5
23A
100
AcDbEntity
  8
0
100
AcDbLine
 62
7
  6
CONTINUOUS
 10
3.7199061876
 20
3.6513587788
 11
3.5098950271
 21
3.6512803068
  0
LINE
  5
23B
100
AcDbEntity
  8
ALL_FEATURES
100
AcDbLine
 62
7
  6
CONTINUOUS
 10
7.0413950271
 20
3.6934371643
 11
7.0723950271
 21
3.6934371643
  0
LINE
  5
23C
100
AcDbEntity
  8
ALL_FEATURES
100
AcDbLine
 62
7
  6
CONTINUOUS
 10
7.0413950271
 20
3.7356871643
 11
6.8657912181
 21
3.7356871643
  0
LINE
  5
23D
100
AcDbEntity
  8
0
100
AcDbLine
 62
7
  6
CONTINUOUS
 10
3.5098950271
 20
3.6512803068
 11
3.2998838667
 21
3.6513587788
  0
LINE
  5
23E
100
AcDbEntity
  8
0
100
AcDbLine
 62
7
  6
CONTINUOUS
 10
3.9223950271
 20
3.8138438027
 11
3.9198211213
 21
3.8139553469
  0
LINE
  5
23F
100
AcDbEntity
  8
ALL_ASSEMBLY_MEMBERS
100
AcDbLine
 62
7
  6
CONTINUOUS
 10
6.0198950271
 20
3.8639371643
 11
6.2573950271
 21
3.8639371643
  0
LINE
  5
240
100
AcDbEntity
  8
ALL_ASSEMBLY_MEMBERS
100
AcDbLine
 62
7
  6
CONTINUOUS
 10
6.2673950271
 20
3.9076871643
 11
6.4138950271
 21
3.9076871643
  0
LINE
  5
241
100
AcDbEntity
  8
ALL_ASSEMBLY_MEMBERS
100
AcDbLine
 62
7
  6
CONTINUOUS
 10
6.0403930566
 20
3.9146512264
 11
6.207558907
 21
3.9146512264
  0
LINE
  5
242
100
AcDbEntity
  8
0
100
AcDbLine
 62
7
  6
CONTINUOUS
 10
6.5564075712
 20
3.7089647067
 11
6.5595112697
 21
3.7085368819
  0
LWPOLYLINE
  5
243
100
AcDbEntity
  8
0
100
AcDbPolyline
 62
7
  6
CONTINUOUS
 90
60
 70
0
 10
6.5595112697
 20
3.7085368819
 10
6.5625369477
 20
3.7081050353
 10
6.5643146227
 20
3.7078446753
 10
6.5662699007
 20
3.7075527126
 10
6.568422769
 20
3.7072245347
 10
6.5709012175
 20
3.7068380863
 10
6.5736850386
 20
3.7063930716
 10
6.5767923065
 20
3.7058827426
 10
6.580406717
 20
3.7052711377
 10
6.5845532282
 20
3.7045457474
 10
6.5892028974
 20
3.7037022113
 10
6.5944566899
 20
3.7027107796
 10
6.6004018584
 20
3.701539849
 10
6.6069449899
 20
3.7001908722
 10
6.6139159079
 20
3.6986840261
 10
6.6213144991
 20
3.6970058297
 10
6.6291357412
 20
3.6951430483
 10
6.6372039546
 20
3.6931254483
 10
6.6455045164
 20
3.6909474761
 10
6.6540487751
 20
3.6885966273
 10
6.6627020598
 20
3.6861024938
 10
6.6714323967
 20
3.6834699233
 10
6.6802702023
 20
3.6806853047
 10
6.6891756118
 20
3.6777568595
 10
6.6981307381
 20
3.6746872448
 10
6.7071523735
 20
3.6714674418
 10
6.7162528972
 20
3.6680890834
 10
6.7254408822
 20
3.6645445033
 10
6.7347063539
 20
3.6608330044
 10
6.7440339018
 20
3.6569566919
 10
6.753422708
 20
3.6529121281
 10
6.7628724074
 20
3.6486956497
 10
6.7723684736
 20
3.6443101961
 10
6.7819108684
 20
3.6397525237
 10
6.7914986217
 20
3.6350198029
 10
6.8011160218
 20
3.6301168451
 10
6.810763114
 20
3.6250410181
 10
6.8204390543
 20
3.6197901357
 10
6.8301270332
 20
3.614371091
 10
6.8398262484
 20
3.6087825149
 10
6.8495369484
 20
3.6030224341
 10
6.8592441383
 20
3.5970982673
 10
6.8689458341
 20
3.5910101682
 10
6.8786436965
 20
3.5847560322
 10
6.8883283837
 20
3.5783410104
 10
6.8979999861
 20
3.5717644023
 10
6.9076582223
 20
3.5650257563
 10
6.9172933408
 20
3.5581314941
 10
6.926905219
 20
3.5510815824
 10
6.936493943
 20
3.5438758362
 10
6.9460502257
 20
3.536521362
 10
6.9555740111
 20
3.5290185866
 10
6.9650654668
 20
3.5213677619
 10
6.9745157872
 20
3.513576612
 10
6.9839249853
 20
3.5056460011
 10
6.9932933015
 20
3.4975766022
 10
7.00261241
 20
3.4893766955
 10
7.0118796949
 20
3.4810500063
 10
7.0210981739
 20
3.4725952465
 10
7.0236232175
 20
3.470249295
  0
LINE
  5
244
100
AcDbEntity
  8
ALL_ASSEMBLY_MEMBERS
100
AcDbLine
 62
7
  6
CONTINUOUS
 10
5.9573950271
 20
3.9326871643
 11
5.9723950271
 21
3.9326871643
  0
LINE
  5
245
100
AcDbEntity
  8
ALL_ASSEMBLY_MEMBERS
100
AcDbLine
 62
7
  6
CONTINUOUS
 10
6.0403961264
 20
3.9346512264
 11
6.2075558448
 21
3.9346512264
  0
LINE
  5
246
100
AcDbEntity
  8
ALL_ASSEMBLY_MEMBERS
100
AcDbLine
 62
7
  6
CONTINUOUS
 10
6.2494989942
 20
3.946162615
 11
6.2290688356
 21
3.946162615
  0
LINE
  5
247
100
AcDbEntity
  8
0
100
AcDbLine
 62
7
  6
CONTINUOUS
 10
5.9573950181
 20
4.0637005154
 11
3.9223950271
 21
4.0637503363
  0
LINE
  5
248
100
AcDbEntity
  8
ALL_FEATURES
100
AcDbLine
 62
7
  6
CONTINUOUS
 10
7.0413950271
 20
4.0639371643
 11
6.9164227561
 21
4.0639371643
  0
LINE
  5
249
100
AcDbEntity
  8
0
100
AcDbLine
 62
7
  6
CONTINUOUS
 10
6.416395014
 20
4.0636804048
 11
6.4138950271
 21
4.0636805331
  0
LINE
  5
24A
100
AcDbEntity
  8
ALL_ASSEMBLY_MEMBERS
100
AcDbLine
 62
7
  6
CONTINUOUS
 10
6.2290688188
 20
4.1817117136
 11
6.2494976997
 21
4.1817117136
  0
LINE
  5
24B
100
AcDbEntity
  8
ALL_ASSEMBLY_MEMBERS
100
AcDbLine
 62
7
  6
CONTINUOUS
 10
6.2075566554
 20
4.1932231022
 11
6.0403953241
 21
4.1932231022
  0
LINE
  5
24C
100
AcDbEntity
  8
ALL_ASSEMBLY_MEMBERS
100
AcDbLine
 62
7
  6
CONTINUOUS
 10
5.9573950271
 20
4.1951871643
 11
5.9723950271
 21
4.1951871643
  0
LINE
  5
24D
100
AcDbEntity
  8
0
100
AcDbLine
 62
7
  6
CONTINUOUS
 10
6.5646454999
 20
4.4200786499
 11
6.5611177565
 21
4.4195649493
  0
LINE
  5
24E
100
AcDbEntity
  8
0
100
AcDbLine
 62
7
  6
CONTINUOUS
 10
6.5611177565
 20
4.4195649493
 11
6.5582263159
 21
4.4191584307
  0
LINE
  5
24F
100
AcDbEntity
  8
0
100
AcDbLine
 62
7
  6
CONTINUOUS
 10
6.5582263159
 20
4.4191584307
 11
6.556404399
 21
4.4189091927
  0
LINE
  5
250
100
AcDbEntity
  8
0
100
AcDbLine
 62
7
  6
CONTINUOUS
 10
6.5098950271
 20
4.4138063114
 11
6.3712488428
 21
4.4041055463
  0
LINE
  5
251
100
AcDbEntity
  8
ALL_ASSEMBLY_MEMBERS
100
AcDbLine
 62
7
  6
CONTINUOUS
 10
6.207558907
 20
4.2132231022
 11
6.0403930566
 21
4.2132231022
  0
LINE
  5
252
100
AcDbEntity
  8
ALL_ASSEMBLY_MEMBERS
100
AcDbLine
 62
7
  6
CONTINUOUS
 10
6.2673950271
 20
4.2201871643
 11
6.4138950271
 21
4.2201871643
  0
LINE
  5
253
100
AcDbEntity
  8
ALL_ASSEMBLY_MEMBERS
100
AcDbLine
 62
7
  6
CONTINUOUS
 10
6.0198950271
 20
4.2639371643
 11
6.2573950271
 21
4.2639371643
  0
LINE
  5
254
100
AcDbEntity
  8
0
100
AcDbLine
 62
7
  6
CONTINUOUS
 10
3.9255850895
 20
4.3139950473
 11
3.9223950271
 21
4.313843698
  0
LWPOLYLINE
  5
255
100
AcDbEntity
  8
0
100
AcDbPolyline
 62
7
  6
CONTINUOUS
 90
31
 70
0
 10
3.9191607125
 20
4.3137949787
 10
3.8874460084
 20
4.3124014268
 10
3.8526529769
 20
4.3090572746
 10
3.8181095909
 20
4.3039159043
 10
3.7839062126
 20
4.2969930283
 10
3.7501338824
 20
4.2883091157
 10
3.7168840524
 20
4.2778896764
 10
3.6842442347
 20
4.2657641823
 10
3.6523010121
 20
4.2519667167
 10
3.6211418244
 20
4.2365371384
 10
3.59084914
 20
4.2195185634
 10
3.5615027437
 20
4.2009579842
 10
3.533182263
 20
4.1809080407
 10
3.505962475
 20
4.1594241184
 10
3.4799150612
 20
4.1365651622
 10
3.4551102606
 20
4.1123953215
 10
3.4316135811
 20
4.0869811608
 10
3.4094865437
 20
4.0603919269
 10
3.3887879179
 20
4.032701001
 10
3.3695720834
 20
4.0039840368
 10
3.35188939
 20
3.9743192152
 10
3.3357864961
 20
3.94378789
 10
3.3213055632
 20
3.9124733153
 10
3.3084842969
 20
3.880460498
 10
3.2973561255
 20
3.8478365821
 10
3.2879499549
 20
3.8146903692
 10
3.2802900115
 20
3.7811117547
 10
3.2743958702
 20
3.7471916094
 10
3.2702824794
 20
3.7130219464
 10
3.2679600545
 20
3.6786956924
 10
3.2673953455
 20
3.6514372507
  0
LINE
  5
256
100
AcDbEntity
  8
ALL_FEATURES
100
AcDbLine
 62
7
  6
CONTINUOUS
 10
6.8657912181
 20
4.3921871643
 11
7.0413950271
 21
4.3921871643
  0
LINE
  5
257
100
AcDbEntity
  8
ALL_FEATURES
100
AcDbLine
 62
7
  6
CONTINUOUS
 10
7.0413950271
 20
4.4344371643
 11
7.0723950271
 21
4.4344371643
  0
LINE
  5
258
100
AcDbEntity
  8
ALL_FEATURES
100
AcDbLine
 62
7
  6
CONTINUOUS
 10
6.5835868077
 20
4.3341871643
 11
6.6365456214
 21
4.3712541614
  0
LINE
  5
259
100
AcDbEntity
  8
ALL_FEATURES
100
AcDbLine
 62
7
  6
CONTINUOUS
 10
6.5835868077
 20
3.7936871643
 11
6.6365456214
 21
3.7566201672
  0
LINE
  5
25A
100
AcDbEntity
  8
ALL_ASSEMBLY_MEMBERS
100
AcDbLine
 62
7
  6
CONTINUOUS
 10
5.9573950271
 20
3.9326930617
 11
5.9573950271
 21
4.195181267
  0
LINE
  5
25B
100
AcDbEntity
  8
ALL_ASSEMBLY_MEMBERS
100
AcDbLine
 62
7
  6
CONTINUOUS
 10
5.9723950271
 20
4.1951871643
 11
5.9723950271
 21
3.9326871643
  0
LINE
  5
25C
100
AcDbEntity
  8
0
100
AcDbLine
 62
7
  6
CONTINUOUS
 10
7.2598950271
 20
4.6576871643
 11
7.0236927573
 21
4.6576871643
  0
LINE
  5
25D
100
AcDbEntity
  8
ALL_ASSEMBLY_MEMBERS
100
AcDbLine
 62
7
  6
CONTINUOUS
 10
5.9823950271
 20
3.9076871643
 11
5.9823950271
 21
4.2201871643
  0
LINE
  5
25E
100
AcDbEntity
  8
ALL_ASSEMBLY_MEMBERS
100
AcDbLine
 62
7
  6
CONTINUOUS
 10
6.0198950271
 20
3.9376165223
 11
6.0198950271
 21
3.8639387934
  0
LINE
  5
25F
100
AcDbEntity
  8
ALL_ASSEMBLY_MEMBERS
100
AcDbLine
 62
7
  6
CONTINUOUS
 10
6.0198950271
 20
4.190263149
 11
6.0198950271
 21
4.2639355352
  0
LINE
  5
260
100
AcDbEntity
  8
ALL_ASSEMBLY_MEMBERS
100
AcDbLine
 62
7
  6
CONTINUOUS
 10
6.0403930566
 20
3.9346512264
 11
6.0403930566
 21
3.9146512264
  0
LINE
  5
261
100
AcDbEntity
  8
ALL_ASSEMBLY_MEMBERS
100
AcDbLine
 62
7
  6
CONTINUOUS
 10
6.0403930566
 20
4.1932231022
 11
6.0403930566
 21
4.2132231022
  0
LWPOLYLINE
  5
262
100
AcDbEntity
  8
ALL_ASSEMBLY_MEMBERS
100
AcDbPolyline
 62
7
  6
CONTINUOUS
 90
10
 70
0
 10
6.0205709897
 20
4.1958834768
 10
6.0173293142
 20
4.1689303876
 10
6.0146068287
 20
4.1390311074
 10
6.01279043
 20
4.1090639143
 10
6.0118804924
 20
4.0790580028
 10
6.0118771285
 20
4.0490390248
 10
6.0127803445
 20
4.0190328096
 10
6.0145900414
 20
3.989064988
 10
6.0173058599
 20
3.9591647029
 10
6.0205709915
 20
3.9319908518
  0
LWPOLYLINE
  5
263
100
AcDbEntity
  8
0
100
AcDbPolyline
 62
7
  6
CONTINUOUS
 90
58
 70
0
 10
7.0236232191
 20
4.6576250351
 10
7.0212425427
 20
4.6554128616
 10
7.0121614444
 20
4.6470801826
 10
7.0030244936
 20
4.6388642295
 10
6.9938282762
 20
4.6307637734
 10
6.9845756847
 20
4.6227832049
 10
6.9752760019
 20
4.6149320269
 10
6.9659288896
 20
4.6072111941
 10
6.9565343269
 20
4.5996219289
 10
6.9471022267
 20
4.5921732007
 10
6.9376323327
 20
4.5848654983
 10
6.9281247
 20
4.5776995545
 10
6.9185898719
 20
4.570683716
 10
6.9090276789
 20
4.5638179767
 10
6.8994382565
 20
4.5571025522
 10
6.8898327767
 20
4.550545085
 10
6.8802114706
 20
4.5441452539
 10
6.8705742495
 20
4.5379025223
 10
6.8609319766
 20
4.5318231764
 10
6.8512830761
 20
4.5259052409
 10
6.8416294224
 20
4.5201488884
 10
6.8319872607
 20
4.5145623814
 10
6.8223561679
 20
4.5091436708
 10
6.8127371131
 20
4.503891509
 10
6.8031486887
 20
4.4988137976
 10
6.7935917139
 20
4.4939082782
 10
6.7840661865
 20
4.4891722798
 10
6.7745897289
 20
4.4846115155
 10
6.7651633246
 20
4.4802230203
 10
6.7557870417
 20
4.4760034221
 10
6.7464773669
 20
4.4719564156
 10
6.7372348527
 20
4.4680781963
 10
6.7280601961
 20
4.46436506
 10
6.7189703257
 20
4.4608195496
 10
6.7099742734
 20
4.4574404022
 10
6.7010644823
 20
4.4542200615
 10
6.6922330631
 20
4.4511513816
 10
6.6834771923
 20
4.4482293955
 10
6.6748009749
 20
4.4454515408
 10
6.6662069162
 20
4.4428146332
 10
6.6576601308
 20
4.4403047012
 10
6.6491966857
 20
4.4379291123
 10
6.6409263212
 20
4.4357127262
 10
6.6328301581
 20
4.4336430057
 10
6.6249296819
 20
4.431718168
 10
6.617397069
 20
4.4299697817
 10
6.6102337467
 20
4.4283853899
 10
6.603442856
 20
4.4269535682
 10
6.5972011958
 20
4.4256976206
 10
6.5915741383
 20
4.4246145579
 10
6.5865022924
 20
4.4236783027
 10
6.5819757682
 20
4.4228746995
 10
6.5780558359
 20
4.4222031961
 10
6.5746859284
 20
4.4216440762
 10
6.5716778222
 20
4.421159226
 10
6.5690170209
 20
4.4207416114
 10
6.5667205462
 20
4.4203897312
 10
6.5646454999
 20
4.4200786499
  0
LINE
  5
264
100
AcDbEntity
  8
0
100
AcDbLine
 62
7
  6
CONTINUOUS
 10
7.0236927469
 20
4.6576871643
 11
7.0236240851
 21
4.657625035
  0
LINE
  5
265
100
AcDbEntity
  8
0
100
AcDbLine
 62
7
  6
CONTINUOUS
 10
7.0236927469
 20
3.4701871643
 11
7.0236240835
 21
3.4702492952
  0
LINE
  5
266
100
AcDbEntity
  8
ALL_ASSEMBLY_MEMBERS
100
AcDbLine
 62
7
  6
CONTINUOUS
 10
6.207558907
 20
3.9346512264
 11
6.207558907
 21
3.9146512264
  0
LINE
  5
267
100
AcDbEntity
  8
ALL_ASSEMBLY_MEMBERS
100
AcDbLine
 62
7
  6
CONTINUOUS
 10
6.207558907
 20
4.1932231022
 11
6.207558907
 21
4.2132231022
  0
LINE
  5
268
100
AcDbEntity
  8
ALL_FEATURES
100
AcDbLine
 62
7
  6
CONTINUOUS
 10
6.8581450271
 20
4.3845188842
 11
6.865791218
 21
4.3921871643
  0
LINE
  5
269
100
AcDbEntity
  8
ALL_FEATURES
100
AcDbLine
 62
7
  6
CONTINUOUS
 10
6.8581450271
 20
3.7433554445
 11
6.865791218
 21
3.7356871643
  0
LINE
  5
26A
100
AcDbEntity
  8
ALL_ASSEMBLY_MEMBERS
100
AcDbLine
 62
7
  6
CONTINUOUS
 10
6.2573950271
 20
3.8639371727
 11
6.2573950271
 21
4.2639371559
  0
LINE
  5
26B
100
AcDbEntity
  8
ALL_ASSEMBLY_MEMBERS
100
AcDbLine
 62
7
  6
CONTINUOUS
 10
6.2673950271
 20
4.2201871643
 11
6.2673950271
 21
3.9076871643
  0
LINE
  5
26C
100
AcDbEntity
  8
ALL_ASSEMBLY_MEMBERS
100
AcDbLine
 62
7
  6
CONTINUOUS
 10
6.4138950271
 20
3.9076871643
 11
6.4138950271
 21
4.2201871643
  0
LINE
  5
26D
100
AcDbEntity
  8
ALL_FEATURES
100
AcDbLine
 62
7
  6
CONTINUOUS
 10
6.4163950271
 20
4.2633616086
 11
6.4163950271
 21
3.8645127201
  0
LINE
  5
26E
100
AcDbEntity
  8
ALL_FEATURES
100
AcDbLine
 62
7
  6
CONTINUOUS
 10
6.4305954057
 20
3.8490673005
 11
6.4305954057
 21
4.2788070281
  0
LINE
  5
26F
100
AcDbEntity
  8
0
100
AcDbLine
 62
7
  6
CONTINUOUS
 10
6.5098950271
 20
3.713806458
 11
6.5098950271
 21
3.8318003006
  0
LINE
  5
270
100
AcDbEntity
  8
0
100
AcDbLine
 62
7
  6
CONTINUOUS
 10
6.5098950271
 20
4.296074028
 11
6.5098950271
 21
4.4138063114
  0
LINE
  5
271
100
AcDbEntity
  8
ALL_FEATURES
100
AcDbLine
 62
7
  6
CONTINUOUS
 10
6.5835868077
 20
3.7936871643
 11
6.5835868077
 21
4.3341871643
  0
LINE
  5
272
100
AcDbEntity
  8
ALL_FEATURES
100
AcDbLine
 62
7
  6
CONTINUOUS
 10
6.6365456214
 20
3.7566201672
 11
6.6365456214
 21
4.3712541614
  0
LINE
  5
273
100
AcDbEntity
  8
ALL_FEATURES
100
AcDbLine
 62
7
  6
CONTINUOUS
 10
6.7506450271
 20
3.7546871643
 11
6.7506450271
 21
4.3731871643
  0
LINE
  5
274
100
AcDbEntity
  8
ALL_FEATURES
100
AcDbLine
 62
7
  6
CONTINUOUS
 10
6.8581450271
 20
3.7433554445
 11
6.8581450271
 21
4.3845188842
  0
LINE
  5
275
100
AcDbEntity
  8
ALL_FEATURES
100
AcDbLine
 62
7
  6
CONTINUOUS
 10
7.0413950271
 20
3.6934387542
 11
7.0413950271
 21
4.4344355745
  0
LINE
  5
276
100
AcDbEntity
  8
ALL_FEATURES
100
AcDbLine
 62
7
  6
CONTINUOUS
 10
7.0723950271
 20
4.4704385012
 11
7.0723950271
 21
3.6574358274
  0
LINE
  5
277
100
AcDbEntity
  8
ALL_FEATURES
100
AcDbLine
 62
7
  6
CONTINUOUS
 10
7.1663950271
 20
3.5639371643
 11
7.1663950271
 21
4.5639371643
  0
LINE
  5
278
100
AcDbEntity
  8
0
100
AcDbLine
 62
7
  6
CONTINUOUS
 10
7.2598950271
 20
3.4701871672
 11
7.2598950271
 21
3.4791409557
  0
LINE
  5
279
100
AcDbEntity
  8
ALL_FEATURES
100
AcDbLine
 62
7
  6
CONTINUOUS
 10
7.2598950271
 20
3.4739371643
 11
7.2598950271
 21
4.6539371643
  0
ARC
  5
27A
100
AcDbEntity
  8
ALL_ASSEMBLY_MEMBERS
100
AcDbCircle
 62
7
  6
CONTINUOUS
 10
5.2433394224
 20
4.0639398999
 40
0.9728462662
100
AcDbArc
 50
352.3629456647
 51
7.6367286228
  0
ARC
  5
27B
100
AcDbEntity
  8
ALL_ASSEMBLY_MEMBERS
100
AcDbCircle
 62
7
  6
CONTINUOUS
 10
7.0043910813
 20
4.063939868
 40
0.9726267569
100
AcDbArc
 50
172.3615357075
 51
187.6387862896
  0
ARC
  5
27C
100
AcDbEntity
  8
0
100
AcDbCircle
 62
7
  6
CONTINUOUS
 10
6.4543925522
 20
2.9547854465
 40
0.761047581
100
AcDbArc
 50
82.2965694133
 51
85.8177604805
  0
ARC
  5
27D
100
AcDbEntity
  8
ALL_FEATURES
100
AcDbCircle
 62
7
  6
CONTINUOUS
 10
6.4043933629
 20
3.5376677133
 40
0.3125
100
AcDbArc
 50
55.0110095298
 51
85.1903004544
  0
ARC
  5
27E
100
AcDbEntity
  8
ALL_FEATURES
100
AcDbCircle
 62
7
  6
CONTINUOUS
 10
6.4043933629
 20
4.5902066154
 40
0.3125
100
AcDbArc
 50
274.8096995456
 51
304.9889904702
  0
ARC
  5
27F
100
AcDbEntity
  8
ALL_FEATURES
100
AcDbCircle
 62
7
  6
CONTINUOUS
 10
6.6950272288
 20
3.8401747249
 40
0.1019875605
100
AcDbArc
 50
235.0110095298
 51
303.0478355064
  0
ARC
  5
280
100
AcDbEntity
  8
ALL_FEATURES
100
AcDbCircle
 62
7
  6
CONTINUOUS
 10
6.6950272288
 20
4.2876996038
 40
0.1019875605
100
AcDbArc
 50
56.9521644936
 51
124.9889904702
  0
ARC
  5
281
100
AcDbEntity
  8
ALL_FEATURES
100
AcDbCircle
 62
7
  6
CONTINUOUS
 10
7.2598950271
 20
3.5675052199
 40
0.0935680556
100
AcDbArc
 50
182.1854050713
 51
270.0
  0
ARC
  5
282
100
AcDbEntity
  8
ALL_FEATURES
100
AcDbCircle
 62
7
  6
CONTINUOUS
 10
7.2598950271
 20
4.5603691088
 40
0.0935680556
100
AcDbArc
 50
90.0
 51
177.8145949287
  0
ARC
  5
283
100
AcDbEntity
  8
ALL_FEATURES
100
AcDbCircle
 62
7
  6
CONTINUOUS
 10
7.1658950271
 20
3.6574358274
 40
0.0935
100
AcDbArc
 50
180.0
 51
270.3063960032
  0
ARC
  5
284
100
AcDbEntity
  8
ALL_FEATURES
100
AcDbCircle
 62
7
  6
CONTINUOUS
 10
7.1658950271
 20
4.4704385012
 40
0.0935
100
AcDbArc
 50
89.6936039968
 51
180.0
  0
ARC
  5
285
100
AcDbEntity
  8
ALL_FEATURES
100
AcDbCircle
 62
7
  6
CONTINUOUS
 10
6.7974145394
 20
3.6827998975
 40
0.0857622668
100
AcDbArc
 50
44.9173576842
 51
123.0478355064
  0
ARC
  5
286
100
AcDbEntity
  8
ALL_FEATURES
100
AcDbCircle
 62
7
  6
CONTINUOUS
 10
6.7974145394
 20
4.4450744311
 40
0.0857622668
100
AcDbArc
 50
236.9521644936
 51
315.0826423158
  0
ARC
  5
287
100
AcDbEntity
  8
ALL_ASSEMBLY_MEMBERS
100
AcDbCircle
 62
7
  6
CONTINUOUS
 10
5.9823950271
 20
4.2576871643
 40
0.0375
100
AcDbArc
 50
270.0
 51
360.0
  0
ARC
  5
288
100
AcDbEntity
  8
ALL_ASSEMBLY_MEMBERS
100
AcDbCircle
 62
7
  6
CONTINUOUS
 10
5.9823950271
 20
3.8701871643
 40
0.0375
100
AcDbArc
 50
0.0
 51
90.0
  0
ARC
  5
289
100
AcDbEntity
  8
ALL_ASSEMBLY_MEMBERS
100
AcDbCircle
 62
7
  6
CONTINUOUS
 10
6.0403930566
 20
4.1932231022
 40
0.02
100
AcDbArc
 50
90.0
 51
172.3955733961
  0
ARC
  5
28A
100
AcDbEntity
  8
ALL_ASSEMBLY_MEMBERS
100
AcDbCircle
 62
7
  6
CONTINUOUS
 10
6.207558907
 20
4.1932231022
 40
0.02
100
AcDbArc
 50
7.6385372688
 51
90.0
  0
ARC
  5
28B
100
AcDbEntity
  8
ALL_ASSEMBLY_MEMBERS
100
AcDbCircle
 62
7
  6
CONTINUOUS
 10
6.207558907
 20
3.9346512264
 40
0.02
100
AcDbArc
 50
270.0
 51
352.3614627122
  0
ARC
  5
28C
100
AcDbEntity
  8
ALL_ASSEMBLY_MEMBERS
100
AcDbCircle
 62
7
  6
CONTINUOUS
 10
6.0403930566
 20
3.9346512264
 40
0.02
100
AcDbArc
 50
187.6044272673
 51
270.0
  0
ARC
  5
28D
100
AcDbEntity
  8
ALL_FEATURES
100
AcDbCircle
 62
7
  6
CONTINUOUS
 10
6.4318950271
 20
3.8645127201
 40
0.0155
100
AcDbArc
 50
180.0
 51
265.1903004544
  0
ARC
  5
28E
100
AcDbEntity
  8
ALL_FEATURES
100
AcDbCircle
 62
7
  6
CONTINUOUS
 10
6.4318950271
 20
4.2633616086
 40
0.0155
100
AcDbArc
 50
94.8096995456
 51
180.0
  0
ARC
  5
28F
100
AcDbEntity
  8
ALL_ASSEMBLY_MEMBERS
100
AcDbCircle
 62
7
  6
CONTINUOUS
 10
5.9723950271
 20
4.2051871643
 40
0.01
100
AcDbArc
 50
270.0
 51
360.0
  0
ARC
  5
290
100
AcDbEntity
  8
ALL_ASSEMBLY_MEMBERS
100
AcDbCircle
 62
7
  6
CONTINUOUS
 10
5.9723950271
 20
3.9226871643
 40
0.01
100
AcDbArc
 50
0.0
 51
90.0
  0
ARC
  5
291
100
AcDbEntity
  8
ALL_ASSEMBLY_MEMBERS
100
AcDbCircle
 62
7
  6
CONTINUOUS
 10
6.2673950271
 20
4.2301871643
 40
0.01
100
AcDbArc
 50
180.0
 51
270.0
  0
ARC
  5
292
100
AcDbEntity
  8
ALL_ASSEMBLY_MEMBERS
100
AcDbCircle
 62
7
  6
CONTINUOUS
 10
6.2673950271
 20
3.8976871643
 40
0.01
100
AcDbArc
 50
90.0
 51
180.0
  0
SPLINE
  5
293
100
AcDbEntity
  8
ALL_ASSEMBLY_MEMBERS
100
AcDbSpline
 62
7
  6
CONTINUOUS
 70
0
 71
3
 72
9
 73
5
 74
0
 42
0.0000001
 43
0.0000001
 44
0.0000000001
 40
0.0
 40
0.0
 40
0.0
 40
0.0
 40
0.4999999912
 40
1.0
 40
1.0
 40
1.0
 40
1.0
 10
6.2273807602
 20
3.9319905917
 30
0.0
 10
6.2332448082
 20
3.9756787813
 30
0.0
 10
6.2391243562
 20
4.0639371636
 30
0.0
 10
6.2332448081
 20
4.1521955458
 30
0.0
 10
6.2273807608
 20
4.195883737
 30
0.0
  0
LINE
  5
294
100
AcDbEntity
  8
ALL_ASSEMBLY_MEMBERS
100
AcDbLine
 62
7
  6
CONTINUOUS
 10
6.207558907
 20
3.9346512266
 11
6.2273814304
 21
3.9319927585
  0
LINE
  5
295
100
AcDbEntity
  8
ALL_ASSEMBLY_MEMBERS
100
AcDbLine
 62
7
  6
CONTINUOUS
 10
6.207558907
 20
4.1932231021
 11
6.2273814304
 21
4.1958815702
  0
SPLINE
  5
296
100
AcDbEntity
  8
ALL_ASSEMBLY_MEMBERS
100
AcDbSpline
 62
7
  6
CONTINUOUS
 70
0
 71
3
 72
10
 73
6
 74
0
 42
0.0000001
 43
0.0000001
 44
0.0000000001
 40
0.0
 40
0.0
 40
0.0
 40
0.0
 40
0.5099298019
 40
0.7580150505
 40
1.0
 40
1.0
 40
1.0
 40
1.0
 10
6.2494989942
 20
3.946162615
 30
0.0
 10
6.2462630567
 20
3.9476687367
 30
0.0
 10
6.2413897382
 20
3.9497768434
 30
0.0
 10
6.2348446715
 20
3.9522600803
 30
0.0
 10
6.231598017
 20
3.9533700823
 30
0.0
 10
6.2299852492
 20
3.9538876505
 30
0.0
  0
SPLINE
  5
297
100
AcDbEntity
  8
ALL_ASSEMBLY_MEMBERS
100
AcDbSpline
 62
7
  6
CONTINUOUS
 70
0
 71
3
 72
16
 73
12
 74
0
 42
0.0000001
 43
0.0000001
 44
0.0000000001
 40
0.0
 40
0.0
 40
0.0
 40
0.0
 40
0.2793018132
 40
0.4138727654
 40
0.5443215033
 40
0.6698508406
 40
0.7891238723
 40
0.8458648569
 40
0.9002444937
 40
0.9517760704
 40
1.0
 40
1.0
 40
1.0
 40
1.0
 10
6.2494990018
 20
3.9461626728
 30
0.0
 10
6.2480196642
 20
3.9485244752
 30
0.0
 10
6.2457765295
 20
3.9519927647
 30
0.0
 10
6.2427175641
 20
3.9564808328
 30
0.0
 10
6.2404622
 20
3.9596590919
 30
0.0
 10
6.2382237782
 20
3.9626610247
 30
0.0
 10
6.2363517694
 20
3.9650174799
 30
0.0
 10
6.2348649654
 20
3.9667710411
 30
0.0
 10
6.2337838274
 20
3.9679817584
 30
0.0
 10
6.2327216771
 20
3.9690944475
 30
0.0
 10
6.2320039501
 20
3.9697848015
 30
0.0
 10
6.2316475348
 20
3.9701080619
 30
0.0
  0
SPLINE
  5
298
100
AcDbEntity
  8
ALL_ASSEMBLY_MEMBERS
100
AcDbSpline
 62
7
  6
CONTINUOUS
 70
0
 71
3
 72
10
 73
6
 74
0
 42
0.0000001
 43
0.0000001
 44
0.0000000001
 40
0.0
 40
0.0
 40
0.0
 40
0.0
 40
0.2666000778
 40
0.5246334621
 40
1.0
 40
1.0
 40
1.0
 40
1.0
 10
6.2573950271
 20
4.0910315458
 30
0.0
 10
6.2571338221
 20
4.0991197199
 30
0.0
 10
6.2563877589
 20
4.1150298672
 30
0.0
 10
6.2541035592
 20
4.1453003595
 30
0.0
 10
6.2515407862
 20
4.1674276071
 30
0.0
 10
6.2494989927
 20
4.1817117136
 30
0.0
  0
SPLINE
  5
299
100
AcDbEntity
  8
ALL_ASSEMBLY_MEMBERS
100
AcDbSpline
 62
7
  6
CONTINUOUS
 70
0
 71
3
 72
13
 73
9
 74
0
 42
0.0000001
 43
0.0000001
 44
0.0000000001
 40
0.0
 40
0.0
 40
0.0
 40
0.0
 40
0.2852101292
 40
0.5560467177
 40
0.6814824813
 40
0.7982041533
 40
0.9048033007
 40
1.0
 40
1.0
 40
1.0
 40
1.0
 10
6.2573950271
 20
4.091031519
 30
0.0
 10
6.2553257955
 20
4.0909737775
 30
0.0
 10
6.2512896654
 20
4.0909225481
 30
0.0
 10
6.2463433128
 20
4.0910157359
 30
0.0
 10
6.2426240442
 20
4.0911933636
 30
0.0
 10
6.2400986213
 20
4.0913685983
 30
0.0
 10
6.2377969075
 20
4.0915867658
 30
0.0
 10
6.23634333
 20
4.0917692437
 30
0.0
 10
6.2356597438
 20
4.0918697249
 30
0.0
  0
SPLINE
  5
29A
100
AcDbEntity
  8
ALL_ASSEMBLY_MEMBERS
100
AcDbSpline
 62
7
  6
CONTINUOUS
 70
0
 71
3
 72
16
 73
12
 74
0
 42
0.0000001
 43
0.0000001
 44
0.0000000001
 40
0.0
 40
0.0
 40
0.0
 40
0.0
 40
0.2792979464
 40
0.4138667922
 40
0.5443128807
 40
0.6698460426
 40
0.7891174749
 40
0.8458630421
 40
0.9002406486
 40
0.9517701724
 40
1.0
 40
1.0
 40
1.0
 40
1.0
 10
6.2494990112
 20
4.1817122566
 30
0.0
 10
6.2480196915
 20
4.1793503888
 30
0.0
 10
6.2457765969
 20
4.175881998
 30
0.0
 10
6.2427178304
 20
4.1713936971
 30
0.0
 10
6.2404623334
 20
4.1682153988
 30
0.0
 10
6.2382239066
 20
4.1652133322
 30
0.0
 10
6.2363517228
 20
4.162856814
 30
0.0
 10
6.2348649198
 20
4.1611031475
 30
0.0
 10
6.2337836506
 20
4.1598924725
 30
0.0
 10
6.2327213431
 20
4.1587798451
 30
0.0
 10
6.2320035755
 20
4.158089438
 30
0.0
 10
6.2316471283
 20
4.1577661033
 30
0.0
  0
SPLINE
  5
29B
100
AcDbEntity
  8
ALL_ASSEMBLY_MEMBERS
100
AcDbSpline
 62
7
  6
CONTINUOUS
 70
0
 71
3
 72
10
 73
6
 74
0
 42
0.0000001
 43
0.0000001
 44
0.0000000001
 40
0.0
 40
0.0
 40
0.0
 40
0.0
 40
0.5099257667
 40
0.7580098061
 40
1.0
 40
1.0
 40
1.0
 40
1.0
 10
6.2494976997
 20
4.1817117136
 30
0.0
 10
6.2462620496
 20
4.1802051863
 30
0.0
 10
6.2413888602
 20
4.1780970531
 30
0.0
 10
6.2348438522
 20
4.1756140089
 30
0.0
 10
6.2315972371
 20
4.174503989
 30
0.0
 10
6.2299844696
 20
4.1739863946
 30
0.0
  0
LINE
  5
29C
100
AcDbEntity
  8
ALL_ASSEMBLY_MEMBERS
100
AcDbLine
 62
7
  6
CONTINUOUS
 10
6.0403930566
 20
3.9346512266
 11
6.0205691103
 21
3.9320043672
  0
SPLINE
  5
29D
100
AcDbEntity
  8
ALL_ASSEMBLY_MEMBERS
100
AcDbSpline
 62
7
  6
CONTINUOUS
 70
0
 71
3
 72
10
 73
6
 74
0
 42
0.0000001
 43
0.0000001
 44
0.0000000001
 40
0.0
 40
0.0
 40
0.0
 40
0.0
 40
0.4753663985
 40
0.7333997728
 40
1.0
 40
1.0
 40
1.0
 40
1.0
 10
6.2494990015
 20
3.946162615
 30
0.0
 10
6.2515407853
 20
3.9604467185
 30
0.0
 10
6.2541035616
 20
3.9825739605
 30
0.0
 10
6.2563877577
 20
4.0128444531
 30
0.0
 10
6.2571338122
 20
4.0287546046
 30
0.0
 10
6.2573950271
 20
4.0368427828
 30
0.0
  0
LINE
  5
29E
100
AcDbEntity
  8
ALL_ASSEMBLY_MEMBERS
100
AcDbLine
 62
7
  6
CONTINUOUS
 10
6.0403930566
 20
4.1932231021
 11
6.0205691103
 21
4.1958699611
  0
SPLINE
  5
29F
100
AcDbEntity
  8
ALL_ASSEMBLY_MEMBERS
100
AcDbSpline
 62
7
  6
CONTINUOUS
 70
0
 71
3
 72
13
 73
9
 74
0
 42
0.0000001
 43
0.0000001
 44
0.0000000001
 40
0.0
 40
0.0
 40
0.0
 40
0.0
 40
0.2852083554
 40
0.5560440207
 40
0.6814798185
 40
0.79820193
 40
0.9048019557
 40
1.0
 40
1.0
 40
1.0
 40
1.0
 10
6.2573950271
 20
4.0368428103
 30
0.0
 10
6.2553258098
 20
4.0369005555
 30
0.0
 10
6.251289702
 20
4.0369517925
 30
0.0
 10
6.2463433717
 20
4.0368586156
 30
0.0
 10
6.2426241083
 20
4.0366809978
 30
0.0
 10
6.2400986767
 20
4.0365057704
 30
0.0
 10
6.2377969443
 20
4.0362876101
 30
0.0
 10
6.2363433508
 20
4.0361051377
 30
0.0
 10
6.2356597548
 20
4.0360046595
 30
0.0
  0
SPLINE
  5
2A0
100
AcDbEntity
  8
ALL_FEATURES
100
AcDbSpline
 62
7
  6
CONTINUOUS
 70
0
 71
3
 72
25
 73
21
 74
0
 42
0.0000001
 43
0.0000001
 44
0.0000000001
 40
0.0
 40
0.0
 40
0.0
 40
0.0
 40
0.0635253978
 40
0.1267547334
 40
0.1896640856
 40
0.2522470013
 40
0.3145182375
 40
0.3765167444
 40
0.407438486
 40
0.4383204987
 40
0.5000000481
 40
0.5616795889
 40
0.5925616021
 40
0.6234833358
 40
0.6854818246
 40
0.7477530398
 40
0.8103359414
 40
0.873245272
 40
0.9364746008
 40
1.0
 40
1.0
 40
1.0
 40
1.0
 10
6.916422756
 20
4.3921871643
 30
0.0
 10
6.9127515101
 20
4.38581001
 30
0.0
 10
6.9056652404
 20
4.3729453297
 30
0.0
 10
6.8959186796
 20
4.3532473326
 30
0.0
 10
6.8872224384
 20
4.3331793453
 30
0.0
 10
6.8797507862
 20
4.3127384873
 30
0.0
 10
6.8736780587
 20
4.2919459378
 30
0.0
 10
6.8699298352
 20
4.2743442604
 30
0.0
 10
6.8677954204
 20
4.2601597671
 30
0.0
 10
6.8662605981
 20
4.245935151
 30
0.0
 10
6.8654784385
 20
4.2280621484
 30
0.0
 10
6.8662606047
 20
4.2101891464
 30
0.0
 10
6.8677954242
 20
4.1959645319
 30
0.0
 10
6.869929835
 20
4.1817800409
 30
0.0
 10
6.8736780669
 20
4.1641783708
 30
0.0
 10
6.8797507896
 20
4.1433858265
 30
0.0
 10
6.8872224423
 20
4.1229449756
 30
0.0
 10
6.895918681
 20
4.1028769927
 30
0.0
 10
6.9056652412
 20
4.0831789988
 30
0.0
 10
6.9127515102
 20
4.0703143188
 30
0.0
 10
6.9164227561
 20
4.0639371643
 30
0.0
  0
SPLINE
  5
2A1
100
AcDbEntity
  8
ALL_FEATURES
100
AcDbSpline
 62
7
  6
CONTINUOUS
 70
0
 71
3
 72
27
 73
23
 74
0
 42
0.0000001
 43
0.0000001
 44
0.0000000001
 40
0.0
 40
0.0
 40
0.0
 40
0.0
 40
0.063526287
 40
0.126755342
 40
0.1896625936
 40
0.2522456035
 40
0.2834220586
 40
0.3145250828
 40
0.3765202951
 40
0.4383092689
 40
0.4691615986
 40
0.5000001397
 40
0.5308386817
 40
0.5616910098
 40
0.6234799716
 40
0.6854751625
 40
0.7165781812
 40
0.7477546301
 40
0.8103376155
 40
0.8732448541
 40
0.9364738239
 40
1.0
 40
1.0
 40
1.0
 40
1.0
 10
6.9164237186
 20
4.0639371643
 30
0.0
 10
6.9127523372
 20
4.0575597744
 30
0.0
 10
6.9056659862
 20
4.0446947155
 30
0.0
 10
6.8959181445
 20
4.0249968576
 30
0.0
 10
6.8872222851
 20
4.0049288558
 30
0.0
 10
6.8809874379
 20
3.9878718575
 30
0.0
 10
6.8767032222
 20
3.974054498
 30
0.0
 10
6.872926143
 20
3.9601606345
 30
0.0
 10
6.8691821525
 20
3.9425947804
 30
0.0
 10
6.8668756928
 20
3.9248086091
 30
0.0
 10
6.8659463588
 20
3.9105315391
 30
0.0
 10
6.8657146124
 20
3.8998122842
 30
0.0
 10
6.8659463521
 20
3.8890930295
 30
0.0
 10
6.8668756623
 20
3.8748159594
 30
0.0
 10
6.8691821112
 20
3.8570297902
 30
0.0
 10
6.8729260921
 20
3.839463939
 30
0.0
 10
6.87670315
 20
3.8255700739
 30
0.0
 10
6.8809873304
 20
3.8117527081
 30
0.0
 10
6.8872221849
 20
3.7946957136
 30
0.0
 10
6.8959181762
 20
3.7746277896
 30
0.0
 10
6.9056655876
 20
3.7549297562
 30
0.0
 10
6.9127516286
 20
3.7420645456
 30
0.0
 10
6.9164229992
 20
3.7356871643
 30
0.0
  0
SPLINE
  5
2A2
100
AcDbEntity
  8
0
100
AcDbSpline
 62
7
  6
CONTINUOUS
 70
0
 71
3
 72
21
 73
17
 74
0
 42
0.0000001
 43
0.0000001
 44
0.0000000001
 40
0.0
 40
0.0
 40
0.0
 40
0.0
 40
0.0697733453
 40
0.1376588387
 40
0.2038563974
 40
0.2685647171
 40
0.3319812992
 40
0.3943025196
 40
0.4557237397
 40
0.5164394619
 40
0.6365293097
 40
0.7561189988
 40
0.8162098399
 40
0.8767567602
 40
0.937954797
 40
1.0
 40
1.0
 40
1.0
 40
1.0
 10
6.5098950271
 20
3.713806458
 30
0.0
 10
6.4498262147
 20
3.7182081712
 30
0.0
 10
6.331276449
 20
3.726390019
 30
0.0
 10
6.1556259947
 20
3.7370727382
 30
0.0
 10
5.9842655978
 20
3.7461865353
 30
0.0
 10
5.8166999815
 20
3.7539328913
 30
0.0
 10
5.6524336013
 20
3.7605133954
 30
0.0
 10
5.4909708965
 20
3.7661298107
 30
0.0
 10
5.3318162371
 20
3.7709837836
 30
0.0
 10
5.122798345
 20
3.7766881728
 30
0.0
 10
4.8635663359
 20
3.7829572784
 30
0.0
 10
4.6048775348
 20
3.7893911862
 30
0.0
 10
4.3975949619
 20
3.7954116544
 30
0.0
 10
4.2407151222
 20
3.8005860352
 30
0.0
 10
4.0821772767
 20
3.8066144466
 30
0.0
 10
3.975893356
 20
3.8113000576
 30
0.0
 10
3.9223950271
 20
3.8138438027
 30
0.0
  0
SPLINE
  5
2A3
100
AcDbEntity
  8
0
100
AcDbSpline
 62
7
  6
CONTINUOUS
 70
0
 71
3
 72
14
 73
10
 74
0
 42
0.0000001
 43
0.0000001
 44
0.0000000001
 40
0.0
 40
0.0
 40
0.0
 40
0.0
 40
0.1358675719
 40
0.2657842854
 40
0.3911864354
 40
0.5134957775
 40
0.7544763201
 40
0.8759627343
 40
1.0
 40
1.0
 40
1.0
 40
1.0
 10
6.3712488428
 20
4.4041055463
 30
0.0
 10
6.260650577
 20
4.3967250446
 30
0.0
 10
6.044183837
 20
4.3839528412
 30
0.0
 10
5.7253626075
 20
4.3695276905
 30
0.0
 10
5.4174613592
 20
4.3589411284
 30
0.0
 10
5.0189191495
 20
4.3481324306
 30
0.0
 10
4.6235233209
 20
4.3392563483
 30
0.0
 10
4.2268077883
 20
4.3269535731
 30
0.0
 10
4.0266645045
 20
4.3187837319
 30
0.0
 10
3.9255850895
 20
4.3139950473
 30
0.0
  0
SPLINE
  5
2A4
100
AcDbEntity
  8
0
100
AcDbSpline
 62
7
  6
CONTINUOUS
 70
0
 71
3
 72
36
 73
32
 74
0
 42
0.0000001
 43
0.0000001
 44
0.0000000001
 40
0.0
 40
0.0
 40
0.0
 40
0.0
 40
0.2213871922
 40
0.3235039753
 40
0.4194607928
 40
0.5089297319
 40
0.5916457611
 40
0.6673682648
 40
0.7358536524
 40
0.7968618808
 40
0.850194655
 40
0.8739262583
 40
0.895671065
 40
0.9154063015
 40
0.9331091348
 40
0.9487578567
 40
0.9623401233
 40
0.9738480778
 40
0.9788217405
 40
0.9832738867
 40
0.9872035366
 40
0.9906097104
 40
0.9934914287
 40
0.9958477135
 40
0.9976775905
 40
0.9983948246
 40
0.9989800972
 40
0.9994332941
 40
0.9997543123
 40
0.9999430904
 40
1.0
 40
1.0
 40
1.0
 40
1.0
 10
6.9334615642
 20
4.5779475052
 30
0.0
 10
6.9404408714
 20
4.5834546016
 30
0.0
 10
6.9505314485
 20
4.5916400598
 30
0.0
 10
6.9634131395
 20
4.6024939859
 30
0.0
 10
6.9721611805
 20
4.6100312849
 30
0.0
 10
6.9802498909
 20
4.617139331
 30
0.0
 10
6.9876687939
 20
4.6237779879
 30
0.0
 10
6.9944094125
 20
4.6299104785
 30
0.0
 10
7.0004642484
 20
4.6355009935
 30
0.0
 10
7.0058279706
 20
4.6405143866
 30
0.0
 10
7.0098576707
 20
4.6443229485
 30
0.0
 10
7.0127306035
 20
4.6470598869
 30
0.0
 10
7.0146223772
 20
4.6488706938
 30
0.0
 10
7.0163356961
 20
4.6505178051
 30
0.0
 10
7.0178697011
 20
4.6519981996
 30
0.0
 10
7.0192239498
 20
4.6533090369
 30
0.0
 10
7.0203977887
 20
4.6544485673
 30
0.0
 10
7.0212626888
 20
4.6552908891
 30
0.0
 10
7.0218640863
 20
4.6558782685
 30
0.0
 10
7.0222473899
 20
4.6562533938
 30
0.0
 10
7.0225853412
 20
4.6565848754
 30
0.0
 10
7.0228778777
 20
4.6568725624
 30
0.0
 10
7.0231250475
 20
4.65711637
 30
0.0
 10
7.023326588
 20
4.6573160174
 30
0.0
 10
7.0234664022
 20
4.6574551371
 30
0.0
 10
7.0235547925
 20
4.6575439346
 30
0.0
 10
7.0236053026
 20
4.657594603
 30
0.0
 10
7.0236412625
 20
4.6576320768
 30
0.0
 10
7.0236732242
 20
4.6576632226
 30
0.0
 10
7.0236800972
 20
4.6576741557
 30
0.0
 10
7.0236950422
 20
4.6576871824
 30
0.0
 10
7.0236927569
 20
4.6576871631
 30
0.0
  0
SPLINE
  5
2A5
100
AcDbEntity
  8
0
100
AcDbSpline
 62
7
  6
CONTINUOUS
 70
0
 71
3
 72
15
 73
11
 74
0
 42
0.0000001
 43
0.0000001
 44
0.0000000001
 40
0.0
 40
0.0
 40
0.0
 40
0.0
 40
0.1322010312
 40
0.2611230439
 40
0.3873372276
 40
0.5114521622
 40
0.6341076794
 40
0.7559666015
 40
0.8777047628
 40
1.0
 40
1.0
 40
1.0
 40
1.0
 10
6.9334615642
 20
4.5779475052
 30
0.0
 10
6.9171945868
 20
4.565814885
 30
0.0
 10
6.8843253581
 20
4.5428193762
 30
0.0
 10
6.8334582145
 20
4.5119530854
 30
0.0
 10
6.7817046172
 20
4.485191132
 30
0.0
 10
6.7290681264
 20
4.4625395541
 30
0.0
 10
6.6755510345
 20
4.444001997
 30
0.0
 10
6.6211562945
 20
4.4295817877
 30
0.0
 10
6.5658925477
 20
4.4192812852
 30
0.0
 10
6.5286175619
 20
4.4151772335
 30
0.0
 10
6.5098950271
 20
4.4138063114
 30
0.0
  0
SPLINE
  5
2A6
100
AcDbEntity
  8
0
100
AcDbSpline
 62
7
  6
CONTINUOUS
 70
0
 71
3
 72
26
 73
22
 74
0
 42
0.0000001
 43
0.0000001
 44
0.0000000001
 40
0.0
 40
0.0
 40
0.0
 40
0.0
 40
0.062538972
 40
0.1250768337
 40
0.1875482695
 40
0.2499778925
 40
0.2811939847
 40
0.312405441
 40
0.3436125716
 40
0.3748165748
 40
0.4372034512
 40
0.4995984024
 40
0.5620127723
 40
0.6244570412
 40
0.6869407147
 40
0.7182090189
 40
0.7494878781
 40
0.8120556632
 40
0.8746718098
 40
0.9373474701
 40
1.0
 40
1.0
 40
1.0
 40
1.0
 10
3.9223950271
 20
4.0637503363
 30
0.0
 10
3.9088926288
 20
4.0637508159
 30
0.0
 10
3.8818696401
 20
4.0624195394
 30
0.0
 10
3.8417534079
 20
4.0564722323
 30
0.0
 10
3.8024357404
 20
4.046620091
 30
0.0
 10
3.7706445962
 20
4.0352447211
 30
0.0
 10
3.7459914313
 20
4.0243182715
 30
0.0
 10
3.7279242906
 20
4.0152294907
 30
0.0
 10
3.710326636
 20
4.0052671858
 30
0.0
 10
3.6875510826
 20
3.9908537054
 30
0.0
 10
3.6604426497
 20
3.9707712306
 30
0.0
 10
3.6304346837
 20
3.9436030503
 30
0.0
 10
3.6032156422
 20
3.9136211061
 30
0.0
 10
3.579056968
 20
3.8811015607
 30
0.0
 10
3.5616624685
 20
3.8521416734
 30
0.0
 10
3.5495019813
 20
3.8280307218
 30
0.0
 10
3.5385288423
 20
3.8033368451
 30
0.0
 10
3.5271027641
 20
3.7714844009
 30
0.0
 10
3.5172058714
 20
3.7320837723
 30
0.0
 10
3.5112326285
 20
3.6918845302
 30
0.0
 10
3.5098950271
 20
3.6648072228
 30
0.0
 10
3.5098950271
 20
3.6512803068
 30
0.0
  0
SPLINE
  5
2A7
100
AcDbEntity
  8
0
100
AcDbSpline
 62
7
  6
CONTINUOUS
 70
0
 71
3
 72
27
 73
23
 74
0
 42
0.0000001
 43
0.0000001
 44
0.0000000001
 40
0.0
 40
0.0
 40
0.0
 40
0.0
 40
0.0624708127
 40
0.1249798834
 40
0.1874647819
 40
0.2499438167
 40
0.2811948225
 40
0.3124467677
 40
0.3436989487
 40
0.3749514727
 40
0.4374398649
 40
0.4999300042
 40
0.562422108
 40
0.6249167568
 40
0.6561748721
 40
0.6874344398
 40
0.7186953584
 40
0.749956679
 40
0.8124590332
 40
0.8749707328
 40
0.9375047909
 40
1.0
 40
1.0
 40
1.0
 40
1.0
 10
3.9223950271
 20
4.313843698
 30
0.0
 10
3.901524993
 20
4.3128521083
 30
0.0
 10
3.8598411859
 20
4.3088296049
 30
0.0
 10
3.7982149304
 20
4.2967848041
 30
0.0
 10
3.7380397869
 20
4.278824753
 30
0.0
 10
3.6895704687
 20
4.2590846555
 30
0.0
 10
3.6520872553
 20
4.2405531675
 30
0.0
 10
3.6246680353
 20
4.2253144722
 30
0.0
 10
3.5980151607
 20
4.2087708613
 30
0.0
 10
3.5635885897
 20
4.1850322609
 30
0.0
 10
3.5227475751
 20
4.1522993086
 30
0.0
 10
3.477741915
 20
4.1085085932
 30
0.0
 10
3.4371144305
 20
4.0606260105
 30
0.0
 10
3.4072092171
 20
4.0176676826
 30
0.0
 10
3.3858125035
 20
3.9817316659
 30
0.0
 10
3.3710583352
 20
3.9540402107
 30
0.0
 10
3.3576290031
 20
3.9256816217
 30
0.0
 10
3.3415246992
 20
3.887078434
 30
0.0
 10
3.3248283161
 20
3.837462039
 30
0.0
 10
3.3104422187
 20
3.7763153215
 30
0.0
 10
3.3018056161
 20
3.714102175
 30
0.0
 10
3.2998838667
 20
3.6722605156
 30
0.0
 10
3.2998838667
 20
3.6513587788
 30
0.0
  0
SPLINE
  5
2A8
100
AcDbEntity
  8
0
100
AcDbSpline
 62
7
  6
CONTINUOUS
 70
0
 71
3
 72
23
 73
19
 74
0
 42
0.0000001
 43
0.0000001
 44
0.0000000001
 40
0.0
 40
0.0
 40
0.0
 40
0.0
 40
0.0626344507
 40
0.1252188948
 40
0.1877264804
 40
0.2501452127
 40
0.3124992425
 40
0.3748308425
 40
0.4371539773
 40
0.4994983314
 40
0.5618728825
 40
0.6242970862
 40
0.6867727592
 40
0.7493063559
 40
0.811892666
 40
0.874548783
 40
0.9373002805
 40
1.0
 40
1.0
 40
1.0
 40
1.0
 10
3.9198211185
 20
3.8139552609
 30
0.0
 10
3.9137973341
 20
3.8141903981
 30
0.0
 10
3.901736412
 20
3.8142982394
 30
0.0
 10
3.8836844229
 20
3.8132341342
 30
0.0
 10
3.8657832716
 20
3.8107942809
 30
0.0
 10
3.8481635332
 20
3.8068901224
 30
0.0
 10
3.8309711733
 20
3.8014475776
 30
0.0
 10
3.814368975
 20
3.7944249999
 30
0.0
 10
3.7985255119
 20
3.7858238994
 30
0.0
 10
3.7836247283
 20
3.7756661096
 30
0.0
 10
3.7698462783
 20
3.7640134975
 30
0.0
 10
3.7573776828
 20
3.7509488316
 30
0.0
 10
3.7463966099
 20
3.7365898219
 30
0.0
 10
3.7370793289
 20
3.7210789405
 30
0.0
 10
3.7295875239
 20
3.7045877625
 30
0.0
 10
3.7240731318
 20
3.6873088455
 30
0.0
 10
3.7206844322
 20
3.6694805495
 30
0.0
 10
3.7199061876
 20
3.6573934327
 30
0.0
 10
3.7199061876
 20
3.6513587788
 30
0.0
  0
SPLINE
  5
2A9
100
AcDbEntity
  8
0
100
AcDbSpline
 62
7
  6
CONTINUOUS
 70
0
 71
3
 72
15
 73
11
 74
0
 42
0.0000001
 43
0.0000001
 44
0.0000000001
 40
0.0
 40
0.0
 40
0.0
 40
0.0
 40
0.1162869319
 40
0.2327063732
 40
0.3506121772
 40
0.471285193
 40
0.595861913
 40
0.7252112793
 40
0.8598336733
 40
1.0
 40
1.0
 40
1.0
 40
1.0
 10
6.9334615642
 20
3.5495425536
 30
0.0
 10
6.9399319011
 20
3.5546366082
 30
0.0
 10
6.952315464
 20
3.5655740774
 30
0.0
 10
6.9689239102
 20
3.5841035497
 30
0.0
 10
6.9834321525
 20
3.6047039449
 30
0.0
 10
6.9957848213
 20
3.6273200722
 30
0.0
 10
7.0059432044
 20
3.6518774144
 30
0.0
 10
7.0138736001
 20
3.678269934
 30
0.0
 10
7.0195543556
 20
3.7063566684
 30
0.0
 10
7.021777305
 20
3.7257142055
 30
0.0
 10
7.022531243
 20
3.7356115374
 30
0.0
  0
SPLINE
  5
2AA
100
AcDbEntity
  8
0
100
AcDbSpline
 62
7
  6
CONTINUOUS
 70
0
 71
3
 72
15
 73
11
 74
0
 42
0.0000001
 43
0.0000001
 44
0.0000000001
 40
0.0
 40
0.0
 40
0.0
 40
0.0
 40
0.1320745719
 40
0.2611608077
 40
0.3877118094
 40
0.5122083625
 40
0.635155357
 40
0.7570769349
 40
0.8785105169
 40
1.0
 40
1.0
 40
1.0
 40
1.0
 10
6.9334615642
 20
3.5495425536
 30
0.0
 10
6.9188618097
 20
3.560439827
 30
0.0
 10
6.8893974166
 20
3.5812057658
 30
0.0
 10
6.8439448008
 20
3.6094447224
 30
0.0
 10
6.797783034
 20
3.6343860686
 30
0.0
 10
6.7509143053
 20
3.6560260608
 30
0.0
 10
6.7033396198
 20
3.6743625425
 30
0.0
 10
6.6550602226
 20
3.689393379
 30
0.0
 10
6.6060814654
 20
3.7011165539
 30
0.0
 10
6.573014354
 20
3.7067176235
 30
0.0
 10
6.5564075712
 20
3.7089647067
 30
0.0
  0
SPLINE
  5
2AB
100
AcDbEntity
  8
0
100
AcDbSpline
 62
7
  6
CONTINUOUS
 70
0
 71
3
 72
19
 73
15
 74
0
 42
0.0000001
 43
0.0000001
 44
0.0000000001
 40
0.0
 40
0.0
 40
0.0
 40
0.0
 40
0.0075272265
 40
0.0230026849
 40
0.0463692478
 40
0.0775678629
 40
0.1164885275
 40
0.1629665616
 40
0.2168353414
 40
0.277928388
 40
0.4209857288
 40
0.5903847571
 40
0.7841818689
 40
1.0
 40
1.0
 40
1.0
 40
1.0
 10
7.0236231134
 20
3.4702497091
 30
0.0
 10
7.0234030313
 20
3.4704556186
 30
0.0
 10
7.0227405739
 20
3.4710955552
 30
0.0
 10
7.0214010011
 20
3.4723810249
 30
0.0
 10
7.0193792165
 20
3.4743245249
 30
0.0
 10
7.0166761709
 20
3.4769138639
 30
0.0
 10
7.0132973882
 20
3.4801355188
 30
0.0
 10
7.0092464697
 20
3.4839675725
 30
0.0
 10
7.0045300831
 20
3.4883879216
 30
0.0
 10
6.996956309
 20
3.4954142086
 30
0.0
 10
6.9858946125
 20
3.5054820282
 30
0.0
 10
6.9706869959
 20
3.5188855324
 30
0.0
 10
6.9530059804
 20
3.5338833272
 30
0.0
 10
6.9402511665
 20
3.5441971434
 30
0.0
 10
6.9334615642
 20
3.5495425536
 30
0.0
  0
SPLINE
  5
2AC
100
AcDbEntity
  8
0
100
AcDbSpline
 62
7
  6
CONTINUOUS
 70
0
 71
3
 72
15
 73
11
 74
0
 42
0.0000001
 43
0.0000001
 44
0.0000000001
 40
0.0
 40
0.0
 40
0.0
 40
0.0
 40
0.1400900027
 40
0.2746635973
 40
0.4039927588
 40
0.5285747596
 40
0.6492750915
 40
0.7672204916
 40
0.8836813296
 40
1.0
 40
1.0
 40
1.0
 40
1.0
 10
7.0224817629
 20
4.392265177
 30
0.0
 10
7.021713949
 20
4.4021361941
 30
0.0
 10
7.0194669102
 20
4.4214428492
 30
0.0
 10
7.0137619169
 20
4.4494557243
 30
0.0
 10
7.0058199855
 20
4.4757824633
 30
0.0
 10
6.9956622401
 20
4.5002833655
 30
0.0
 10
6.9833227138
 20
4.5228535518
 30
0.0
 10
6.9688394828
 20
4.5434190075
 30
0.0
 10
6.9522678529
 20
4.5619250438
 30
0.0
 10
6.9399152246
 20
4.5728551761
 30
0.0
 10
6.9334615642
 20
4.5779475052
 30
0.0
  0
ENDSEC
  0
SECTION
  2
OBJECTS
  0
DICTIONARY
  5
C
100
AcDbDictionary
280
0
281
1
  3
ACAD_GROUP
350
D
  3
ACAD_MLINESTYLE
350
17
  3
ACAD_LAYOUT
350
1A
  3
ACAD_PLOTSETTINGS
350
19
  3
ACAD_PLOTSTYLENAME
350
E
  0
DICTIONARY
  5
D
102
{ACAD_REACTORS
330
C
102
}
100
AcDbDictionary
280
0
281
1
  0
ACDBDICTIONARYWDFLT
  5
E
102
{ACAD_REACTORS
330
C
102
}
100
AcDbDictionary
281
1
  3
Normal
350
F
100
AcDbDictionaryWithDefault
340
F
  0
DICTIONARY
  5
17
102
{ACAD_REACTORS
330
C
102
}
100
AcDbDictionary
280
0
281
1
  3
Standard
350
18
  0
DICTIONARY
  5
19
102
{ACAD_REACTORS
330
C
102
}
100
AcDbDictionary
281
1
  0
DICTIONARY
  5
1A
102
{ACAD_REACTORS
330
C
102
}
100
AcDbDictionary
281
1
  3
Model
350
2AD
  3
Layout1
350
2AE
  0
ACDBPLACEHOLDER
  5
F
102
{ACAD_REACTORS
330
E
102
}
  0
MLINESTYLE
  5
18
102
{ACAD_REACTORS
330
17
102
}
100
AcDbMlineStyle
  2
STANDARD
 70
0
  3

 62
256
 51
90.0
 52
90.0
 71
2
 49
0.5
 62
256
  6
BYLAYER
 49
-0.5
 62
256
  6
BYLAYER
  0
LAYOUT
  5
2AD
102
{ACAD_REACTORS
330
1A
102
}
100
AcDbPlotSettings
  1

  2
none_device
  4
ANSI_A_(11.00_x_8.50_Inches)
  6

 40
0.0
 41
0.0
 42
0.0
 43
0.0
 44
279.4
 45
215.9
 46
0.0
 47
0.0
 48
0.0
 49
0.0
140
0.0
141
0.0
142
1.0
143
1.0
 70
1024
 72
0
 73
0
 74
0
  7

 75
0
147
1.0
148
0.0
149
0.0
100
AcDbLayout
  1
Model
 70
0
 71
0
 10
0.0
 20
0.0
 11
11.0
 21
8.5
 12
0.0
 22
0.0
 32
0.0
 14
0.0
 24
0.0
 34
0.0
 15
0.0
 25
0.0
 35
0.0
146
0.0
 13
0.0
 23
0.0
 33
0.0
 16
1.0
 26
0.0
 36
0.0
 17
0.0
 27
1.0
 37
0.0
 76
0
330
21B
345
0
346
0
  0
LAYOUT
  5
2AE
102
{ACAD_REACTORS
330
1A
102
}
100
AcDbPlotSettings
  1

  2
none_device
  4
ANSI_A_(11.00_x_8.50_Inches)
  6

 40
0.0
 41
0.0
 42
0.0
 43
0.0
 44
279.4
 45
215.9
 46
0.0
 47
0.0
 48
0.0
 49
0.0
140
0.0
141
0.0
142
1.0
143
1.0
 70
0
 72
0
 73
0
 74
0
  7

 75
0
147
1.0
148
0.0
149
0.0
100
AcDbLayout
  1
Layout1
 70
0
 71
1
 10
0.0
 20
0.0
 11
11.0
 21
8.5
 12
0.0
 22
0.0
 32
0.0
 14
0.0
 24
0.0
 34
0.0
 15
0.0
 25
0.0
 35
0.0
146
0.0
 13
0.0
 23
0.0
 33
0.0
 16
1.0
 26
0.0
 36
0.0
 17
0.0
 27
1.0
 37
0.0
 76
0
330
21C
345
0
346
0
  0
ENDSEC
  0
EOF
