999
DXF file: 3-911_top.dxf
999
Pro/ENGINEER 2018400 by Parametric Technology Corporation
  0
SECTION
  2
HEADER
  9
$ACADVER
  1
AC1027
  9
$DWGCODEPAGE
  3
ANSI_1252
  9
$EXTMAX
 10
11.0
 20
8.5
 30
0.0
  9
$EXTMIN
 10
0.0
 20
0.0
 30
0.0
  9
$LIMMIN
 10
0.0
 20
0.0
  9
$LIMMAX
 10
11.0
 20
8.5
  9
$VIEWCTR
 10
5.5
 20
4.25
  9
$VIEWSIZE
 40
8.5
  9
$CLAYER
  8
0
  9
$LTSCALE
 40
0.605
  9
$CELTYPE
  6
BYLAYER
  9
$DIMSCALE
 40
1.0
  9
$DIMASZ
 40
0.1
  9
$DIMEXO
 40
0.0625
  9
$DIMDLI
 40
0.418
  9
$DIMEXE
 40
0.125
  9
$DIMCEN
 40
0.099
  9
$DIMLFAC
 40
1.0
  9
$DIMBLK
  1
_FILLED
  9
$DIMALT
 70
1
  9
$DIMALTD
 70
2
  9
$DIMALTTD
 70
2
  9
$DIMALTF
 40
25.4
  9
$DIMTXT
 40
0.08
  9
$DIMTOL
 70
1
  9
$DIMLIM
 70
0
  9
$DIMTFAC
 40
1.0
  9
$DIMTP
 40
0.001
  9
$DIMTM
 40
0.001
  9
$DIMGAP
 40
0.09
  9
$DIMDSEP
 70
46
  9
$AUNITS
 70
0
  9
$PDMODE
 70
3
  9
$PDSIZE
 40
0.3125
  9
$HANDSEED
  5
383
  9
$TILEMODE
 70
1
  9
$MEASUREMENT
 70
0
  9
$INSUNITS
 70
1
  0
ENDSEC
  0
SECTION
  2
CLASSES
  0
CLASS
  1
ACDBDICTIONARYWDFLT
  2
AcDbDictionaryWithDefault
  3
AutoCAD 2000
 90
0
 91
1
280
0
281
0
  0
CLASS
  1
ACDBPLACEHOLDER
  2
AcDbPlaceHolder
  3
AutoCAD 2000
 90
0
 91
1
280
0
281
0
  0
CLASS
  1
LAYOUT
  2
AcDbLayout
  3
AutoCAD 2000
 90
0
 91
0
280
0
281
0
  0
ENDSEC
  0
SECTION
  2
TABLES
  0
TABLE
  2
VPORT
  5
8
100
AcDbSymbolTable
 70
2
  0
VPORT
  5
1F4
100
AcDbSymbolTableRecord
100
AcDbViewportTableRecord
  2
*ACTIVE
 70
0
 10
0.0
 20
0.0
 11
1.0
 21
1.0
 12
5.5
 22
4.25
 13
0.0
 23
0.0
 14
1.0
 24
1.0
 15
0.0
 25
0.0
 16
0.0
 26
0.0
 36
1.0
 17
0.0
 27
0.0
 37
0.0
 40
8.5
 41
1.2941176471
 42
50.0
 43
0.0
 44
0.0
 50
0.0
 51
0.0
 71
0
 72
100
 73
1
 74
1
 75
0
 76
0
 77
0
 78
0
  0
ENDTAB
  0
TABLE
  2
LTYPE
  5
5
100
AcDbSymbolTable
 70
6
  0
LTYPE
  5
14
100
AcDbSymbolTableRecord
100
AcDbLinetypeTableRecord
  2
BYBLOCK
 70
0
  3

 72
65
 73
0
 40
0.0
  0
LTYPE
  5
15
100
AcDbSymbolTableRecord
100
AcDbLinetypeTableRecord
  2
BYLAYER
 70
0
  3

 72
65
 73
0
 40
0.0
  0
LTYPE
  5
16
100
AcDbSymbolTableRecord
100
AcDbLinetypeTableRecord
  2
CONTINUOUS
 70
64
  3
Solid line
 72
65
 73
0
 40
0.0
  0
LTYPE
  5
1F5
100
AcDbSymbolTableRecord
100
AcDbLinetypeTableRecord
  2
CENTER
 70
64
  3
____ _ ____ _ ____ _ ____ _ ____ _ ____ _ ____
 72
65
 73
4
 40
0.6
 49
0.375
 74
0
 49
-0.075
 74
0
 49
0.075
 74
0
 49
-0.075
 74
0
  0
LTYPE
  5
1F6
100
AcDbSymbolTableRecord
100
AcDbLinetypeTableRecord
  2
HIDDEN
 70
64
  3
- - - - - - - - - - - - - - - - - - - -
 72
65
 73
2
 40
0.2
 49
0.1
 74
0
 49
-0.1
 74
0
  0
LTYPE
  5
1F7
100
AcDbSymbolTableRecord
100
AcDbLinetypeTableRecord
  2
PHANTOM
 70
64
  3
_____ _ _ _____ _ _ _____ _ _ _____
 72
65
 73
6
 40
0.8
 49
0.45
 74
0
 49
-0.05
 74
0
 49
0.1
 74
0
 49
-0.05
 74
0
 49
0.1
 74
0
 49
-0.05
 74
0
  0
LTYPE
  5
1F8
100
AcDbSymbolTableRecord
100
AcDbLinetypeTableRecord
  2
DOT
 70
64
  3
. . . . . . . . . . . . . . . . . . . .
 72
65
 73
2
 40
0.2
 49
0.1
 74
0
 49
-0.1
 74
0
  0
LTYPE
  5
1F9
100
AcDbSymbolTableRecord
100
AcDbLinetypeTableRecord
  2
DASHED
 70
64
  3
- - - - - - - - - - - - - - - - - - - -
 72
65
 73
2
 40
0.2
 49
0.1
 74
0
 49
-0.1
 74
0
  0
ENDTAB
  0
TABLE
  2
LAYER
  5
2
100
AcDbSymbolTable
 70
36
  0
LAYER
  5
10
100
AcDbSymbolTableRecord
100
AcDbLayerTableRecord
  2
0
 70
0
 62
7
  6
CONTINUOUS
370
-3
390
F
  0
LAYER
  5
1FA
100
AcDbSymbolTableRecord
100
AcDbLayerTableRecord
  2
DEFAULT_1
 70
0
 62
7
  6
CENTER
370
-3
390
F
  0
LAYER
  5
1FB
100
AcDbSymbolTableRecord
100
AcDbLayerTableRecord
  2
DEFAULT_2
 70
0
 62
8
  6
HIDDEN
370
-3
390
F
  0
LAYER
  5
1FC
100
AcDbSymbolTableRecord
100
AcDbLayerTableRecord
  2
DEFAULT_3
 70
0
 62
7
  6
PHANTOM
370
-3
390
F
  0
LAYER
  5
1FD
100
AcDbSymbolTableRecord
100
AcDbLayerTableRecord
  2
ALL_ASSEMBLY_MEMBERS
 70
0
 62
7
  6
CONTINUOUS
370
-3
390
F
  0
LAYER
  5
1FE
100
AcDbSymbolTableRecord
100
AcDbLayerTableRecord
  2
ALL_FEATURES
 70
0
 62
7
  6
CONTINUOUS
370
-3
390
F
  0
LAYER
  5
1FF
100
AcDbSymbolTableRecord
100
AcDbLayerTableRecord
  2
ASSY_DATUM_SHAPER
 70
0
 62
7
  6
CONTINUOUS
370
-3
390
F
  0
LAYER
  5
200
100
AcDbSymbolTableRecord
100
AcDbLayerTableRecord
  2
AXES_FEATURES
 70
0
 62
7
  6
CONTINUOUS
370
-3
390
F
  0
LAYER
  5
201
100
AcDbSymbolTableRecord
100
AcDbLayerTableRecord
  2
CHAMFER_FEATURES
 70
0
 62
7
  6
CONTINUOUS
370
-3
390
F
  0
LAYER
  5
202
100
AcDbSymbolTableRecord
100
AcDbLayerTableRecord
  2
CURVE
 70
0
 62
7
  6
CONTINUOUS
370
-3
390
F
  0
LAYER
  5
203
100
AcDbSymbolTableRecord
100
AcDbLayerTableRecord
  2
CURVES
 70
0
 62
7
  6
CONTINUOUS
370
-3
390
F
  0
LAYER
  5
204
100
AcDbSymbolTableRecord
100
AcDbLayerTableRecord
  2
CUT_FEATURES
 70
0
 62
7
  6
CONTINUOUS
370
-3
390
F
  0
LAYER
  5
205
100
AcDbSymbolTableRecord
100
AcDbLayerTableRecord
  2
DATUM_CURVES
 70
0
 62
7
  6
CONTINUOUS
370
-3
390
F
  0
LAYER
  5
206
100
AcDbSymbolTableRecord
100
AcDbLayerTableRecord
  2
DATUM_PLANES
 70
0
 62
7
  6
CONTINUOUS
370
-3
390
F
  0
LAYER
  5
207
100
AcDbSymbolTableRecord
100
AcDbLayerTableRecord
  2
DATUM_POINTS
 70
0
 62
7
  6
CONTINUOUS
370
-3
390
F
  0
LAYER
  5
208
100
AcDbSymbolTableRecord
100
AcDbLayerTableRecord
  2
DEFAULT_COORDINATE_SYSTEM
 70
0
 62
7
  6
CONTINUOUS
370
-3
390
F
  0
LAYER
  5
209
100
AcDbSymbolTableRecord
100
AcDbLayerTableRecord
  2
DEFAULT_DATUM_AXES
 70
0
 62
7
  6
CONTINUOUS
370
-3
390
F
  0
LAYER
  5
20A
100
AcDbSymbolTableRecord
100
AcDbLayerTableRecord
  2
DEFAULT_DATUM_CURVES
 70
0
 62
7
  6
CONTINUOUS
370
-3
390
F
  0
LAYER
  5
20B
100
AcDbSymbolTableRecord
100
AcDbLayerTableRecord
  2
DEFAULT_DATUM_PLANES
 70
0
 62
7
  6
CONTINUOUS
370
-3
390
F
  0
LAYER
  5
20C
100
AcDbSymbolTableRecord
100
AcDbLayerTableRecord
  2
DEFAULT_SURFACES
 70
0
 62
7
  6
CONTINUOUS
370
-3
390
F
  0
LAYER
  5
20D
100
AcDbSymbolTableRecord
100
AcDbLayerTableRecord
  2
DIMENSIONS
 70
0
 62
7
  6
CONTINUOUS
370
-3
390
F
  0
LAYER
  5
20E
100
AcDbSymbolTableRecord
100
AcDbLayerTableRecord
  2
HOLE_FEATURES
 70
0
 62
7
  6
CONTINUOUS
370
-3
390
F
  0
LAYER
  5
20F
100
AcDbSymbolTableRecord
100
AcDbLayerTableRecord
  2
NOTES
 70
0
 62
7
  6
CONTINUOUS
370
-3
390
F
  0
LAYER
  5
210
100
AcDbSymbolTableRecord
100
AcDbLayerTableRecord
  2
PART_REFERENCE_DIMENSIONS
 70
0
 62
7
  6
CONTINUOUS
370
-3
390
F
  0
LAYER
  5
211
100
AcDbSymbolTableRecord
100
AcDbLayerTableRecord
  2
PLATED_SURFACE_AREA
 70
0
 62
7
  6
CONTINUOUS
370
-3
390
F
  0
LAYER
  5
212
100
AcDbSymbolTableRecord
100
AcDbLayerTableRecord
  2
POINTS
 70
0
 62
7
  6
CONTINUOUS
370
-3
390
F
  0
LAYER
  5
213
100
AcDbSymbolTableRecord
100
AcDbLayerTableRecord
  2
PROTRUSION_FEATURES
 70
0
 62
7
  6
CONTINUOUS
370
-3
390
F
  0
LAYER
  5
214
100
AcDbSymbolTableRecord
100
AcDbLayerTableRecord
  2
QUILTS
 70
0
 62
7
  6
CONTINUOUS
370
-3
390
F
  0
LAYER
  5
215
100
AcDbSymbolTableRecord
100
AcDbLayerTableRecord
  2
REFERENCE_DIMENSIONS
 70
0
 62
7
  6
CONTINUOUS
370
-3
390
F
  0
LAYER
  5
216
100
AcDbSymbolTableRecord
100
AcDbLayerTableRecord
  2
ROUND_FEATURES
 70
0
 62
7
  6
CONTINUOUS
370
-3
390
F
  0
LAYER
  5
217
100
AcDbSymbolTableRecord
100
AcDbLayerTableRecord
  2
SURFACE_FEATURES
 70
0
 62
7
  6
CONTINUOUS
370
-3
390
F
  0
LAYER
  5
218
100
AcDbSymbolTableRecord
100
AcDbLayerTableRecord
  2
XSEC_DATUMS
 70
0
 62
7
  6
CONTINUOUS
370
-3
390
F
  0
ENDTAB
  0
TABLE
  2
STYLE
  5
3
100
AcDbSymbolTable
 70
1
  0
STYLE
  5
11
100
AcDbSymbolTableRecord
100
AcDbTextStyleTableRecord
  2
STANDARD
 70
0
 40
0.0
 41
0.8
 50
0.0
 71
0
 42
0.2
  3
txt
  4

  0
STYLE
  5
219
100
AcDbSymbolTableRecord
100
AcDbTextStyleTableRecord
  2
TEXTSTYLE_1
 70
0
 40
0.0
 41
0.8
 50
0.0
 71
0
 42
0.2
  3
gdt
  4

  0
ENDTAB
  0
TABLE
  2
VIEW
  5
6
100
AcDbSymbolTable
 70
0
  0
ENDTAB
  0
TABLE
  2
UCS
  5
7
100
AcDbSymbolTable
 70
0
  0
ENDTAB
  0
TABLE
  2
APPID
  5
9
100
AcDbSymbolTable
 70
1
  0
APPID
  5
21A
100
AcDbSymbolTableRecord
100
AcDbRegAppTableRecord
  2
ACAD
 70
0
  0
ENDTAB
  0
TABLE
  2
BLOCK_RECORD
  5
1
100
AcDbSymbolTable
 70
0
  0
BLOCK_RECORD
  5
21B
100
AcDbSymbolTableRecord
100
AcDbBlockTableRecord
  2
*Model_Space
  0
BLOCK_RECORD
  5
21C
100
AcDbSymbolTableRecord
100
AcDbBlockTableRecord
  2
*Paper_Space
  0
BLOCK_RECORD
  5
21D
100
AcDbSymbolTableRecord
100
AcDbBlockTableRecord
  2
_FILLED
  0
ENDTAB
  0
TABLE
  2
DIMSTYLE
  5
A
100
AcDbSymbolTable
 70
1
100
AcDbDimStyleTable
 71
0
  0
DIMSTYLE
105
21E
100
AcDbSymbolTableRecord
100
AcDbDimStyleTableRecord
  2
STANDARD
 70
0
  3

  4

 40
1.0
 41
0.1
 42
0.0625
 43
0.38
 44
0.125
 45
0.0
 46
0.0
 47
0.001
 48
0.001
140
0.08
141
0.09
142
0.0
143
25.4
144
1.0
145
0.0
146
1.0
147
0.09
 71
1.0
 72
0.0
 73
1
 74
1
 75
0
 76
0
 77
0
 78
4
 79
1
170
1
171
2
172
0
173
0
174
0
175
0
176
0
177
0
178
0
270
2
179
3
271
3
272
3
273
2
274
2
275
0
280
0
281
0
282
0
283
1
284
4
285
0
286
0
287
3
288
0
340
11
278
46
341
21D
342
21D
343
21D
344
21D
  0
ENDTAB
  0
ENDSEC
  0
SECTION
  2
BLOCKS
  0
BLOCK
  5
20
100
AcDbEntity
  8
0
100
AcDbBlockBegin
  2
*Model_Space
 70
0
 10
0.0
 20
0.0
 30
0.0
  3
*Model_Space
  1

  0
ENDBLK
  5
21
100
AcDbEntity
  8
0
100
AcDbBlockEnd
  0
BLOCK
  5
1C
100
AcDbEntity
  8
0
100
AcDbBlockBegin
  2
*Paper_Space
 70
0
 10
0.0
 20
0.0
 30
0.0
  3
*Paper_Space
  1

  0
ENDBLK
  5
1D
100
AcDbEntity
  8
0
100
AcDbBlockEnd
  0
BLOCK
  5
21F
100
AcDbEntity
  8
0
100
AcDbBlockBegin
  2
_FILLED
 70
64
 10
0.0
 20
0.0
  3
_FILLED
  1

  0
SOLID
  5
220
100
AcDbEntity
  8
0
  6
BYBLOCK
 62
0
100
AcDbTrace
 10
0.0
 20
0.0
 11
-1.0
 21
0.2
 12
-1.0
 22
-0.2
 13
-1.0
 23
-0.2
  0
ENDBLK
  5
221
100
AcDbEntity
  8
0
  6
BYBLOCK
 62
0
100
AcDbBlockEnd
  0
ENDSEC
  0
SECTION
  2
ENTITIES
  0
MTEXT
  5
222
100
AcDbEntity
  8
0
100
AcDbMText
 62
2
  6
CONTINUOUS
  7
STANDARD
 71
3
 72
1
 10
1.3205551242
 20
-0.9262304309
 30
0.0
 11
1.0
 21
0.0
 31
0.0
 73
2
 44
0.9
  1
SCALE  .500
 40
0.08
 41
0.704
  0
LINE
  5
223
100
AcDbEntity
  8
0
100
AcDbLine
 62
7
  6
CONTINUOUS
 10
0.0
 20
0.0
 11
0.0
 21
8.5
  0
LINE
  5
224
100
AcDbEntity
  8
0
100
AcDbLine
 62
7
  6
CONTINUOUS
 10
0.0
 20
0.0
 11
11.0
 21
0.0
  0
LINE
  5
225
100
AcDbEntity
  8
0
100
AcDbLine
 62
7
  6
CONTINUOUS
 10
0.0
 20
8.5
 11
11.0
 21
8.5
  0
LINE
  5
226
100
AcDbEntity
  8
0
100
AcDbLine
 62
7
  6
CONTINUOUS
 10
11.0
 20
0.0
 11
11.0
 21
8.5
  0
LINE
  5
227
100
AcDbEntity
  8
ALL_ASSEMBLY_MEMBERS
100
AcDbLine
 62
7
  6
CONTINUOUS
 10
1.8701426863
 20
4.8163584234
 11
1.8701426863
 21
5.0007685998
  0
LINE
  5
228
100
AcDbEntity
  8
ALL_ASSEMBLY_MEMBERS
100
AcDbLine
 62
7
  6
CONTINUOUS
 10
1.8906749236
 20
4.7963610717
 11
1.8907466789
 21
4.8051686593
  0
LINE
  5
229
100
AcDbEntity
  8
ALL_ASSEMBLY_MEMBERS
100
AcDbLine
 62
7
  6
CONTINUOUS
 10
1.8902266872
 20
5.0119692695
 11
1.8901500493
 21
5.0207730424
  0
LINE
  5
22A
100
AcDbEntity
  8
ALL_ASSEMBLY_MEMBERS
100
AcDbLine
 62
7
  6
CONTINUOUS
 10
1.8908440091
 20
4.8249877221
 11
1.8908440091
 21
4.9921414577
  0
LINE
  5
22B
100
AcDbEntity
  8
ALL_FEATURES
100
AcDbLine
 62
7
  6
CONTINUOUS
 10
2.9161122346
 20
5.8259835365
 11
2.9161122346
 21
5.7010112654
  0
LINE
  5
22C
100
AcDbEntity
  8
ALL_FEATURES
100
AcDbLine
 62
7
  6
CONTINUOUS
 10
2.9246426863
 20
5.8569835365
 11
2.9246426863
 21
5.8259835365
  0
LWPOLYLINE
  5
22D
100
AcDbEntity
  8
ALL_ASSEMBLY_MEMBERS
100
AcDbPolyline
 62
7
  6
CONTINUOUS
 90
18
 70
0
 10
3.0947362052
 20
5.0376907329
 10
3.0942167799
 20
5.0353325588
 10
3.0934859634
 20
5.0330110962
 10
3.0925511768
 20
5.0307599618
 10
3.0914188505
 20
5.0285972207
 10
3.0900970304
 20
5.0265403761
 10
3.0886052817
 20
5.0246179319
 10
3.086957813
 20
5.0228431447
 10
3.0851695701
 20
5.0212275828
 10
3.083268654
 20
5.0197898899
 10
3.0812733231
 20
5.018535258
 10
3.0792020351
 20
5.0174672641
 10
3.0770874213
 20
5.0165929365
 10
3.0749467356
 20
5.0159082272
 10
3.07279876
 20
5.0154084915
 10
3.070679502
 20
5.0150892745
 10
3.068610699
 20
5.0149383944
 10
3.0675490052
 20
5.0149216496
  0
LINE
  5
22E
100
AcDbEntity
  8
ALL_ASSEMBLY_MEMBERS
100
AcDbLine
 62
7
  6
CONTINUOUS
 10
3.0951426863
 20
4.8055882939
 11
3.0951426863
 21
4.8044835365
  0
LINE
  5
22F
100
AcDbEntity
  8
ALL_FEATURES
100
AcDbLine
 62
7
  6
CONTINUOUS
 10
3.1056274605
 20
5.8259835365
 11
3.1056274605
 21
5.7010115085
  0
LINE
  5
230
100
AcDbEntity
  8
ALL_ASSEMBLY_MEMBERS
100
AcDbLine
 62
7
  6
CONTINUOUS
 10
3.1103070058
 20
4.9963176209
 11
3.1103070058
 21
4.8522978208
  0
LINE
  5
231
100
AcDbEntity
  8
ALL_ASSEMBLY_MEMBERS
100
AcDbLine
 62
7
  6
CONTINUOUS
 10
3.1334975332
 20
5.0340875035
 11
3.1334975332
 21
4.8150683725
  0
LINE
  5
232
100
AcDbEntity
  8
ALL_ASSEMBLY_MEMBERS
100
AcDbLine
 62
7
  6
CONTINUOUS
 10
3.1388926863
 20
5.1984835365
 11
3.1388926863
 21
5.0519835365
  0
LINE
  5
233
100
AcDbEntity
  8
ALL_ASSEMBLY_MEMBERS
100
AcDbLine
 62
7
  6
CONTINUOUS
 10
3.1638926863
 20
4.7569835365
 11
3.1638926863
 21
4.7419835365
  0
LINE
  5
234
100
AcDbEntity
  8
ALL_ASSEMBLY_MEMBERS
100
AcDbLine
 62
7
  6
CONTINUOUS
 10
3.0951426775
 20
5.0419835365
 11
3.0950385118
 21
5.0399905646
  0
LWPOLYLINE
  5
235
100
AcDbEntity
  8
ALL_ASSEMBLY_MEMBERS
100
AcDbPolyline
 62
7
  6
CONTINUOUS
 90
18
 70
0
 10
3.0950446948
 20
5.0400612527
 10
3.0947176208
 20
5.037585529
 10
3.0941793461
 20
5.0351937171
 10
3.0934234551
 20
5.0328412043
 10
3.0924588034
 20
5.0305646911
 10
3.0912928183
 20
5.0283827357
 10
3.0899345819
 20
5.0263131872
 10
3.0884064826
 20
5.0243865169
 10
3.0867243258
 20
5.0226155591
 10
3.0849044114
 20
5.0210111163
 10
3.0829780628
 20
5.019592033
 10
3.0809646705
 20
5.0183618017
 10
3.0788838988
 20
5.0173223965
 10
3.0767719238
 20
5.0164797937
 10
3.0746462557
 20
5.0158273235
 10
3.0725261308
 20
5.015357922
 10
3.0704512066
 20
5.0150649143
 10
3.0684439683
 20
5.0149330634
  0
LINE
  5
236
100
AcDbEntity
  8
ALL_ASSEMBLY_MEMBERS
100
AcDbLine
 62
7
  6
CONTINUOUS
 10
3.4192729942
 20
5.1404835365
 11
3.4134994915
 21
5.1204835365
  0
LINE
  5
237
100
AcDbEntity
  8
ALL_FEATURES
100
AcDbLine
 62
7
  6
CONTINUOUS
 10
3.6024596834
 20
5.4211341307
 11
3.5653926863
 21
5.3681753171
  0
LINE
  5
238
100
AcDbEntity
  8
ALL_ASSEMBLY_MEMBERS
100
AcDbLine
 62
7
  6
CONTINUOUS
 10
3.4339954261
 20
5.0951721425
 11
3.432884931
 21
5.0936016652
  0
LINE
  5
239
100
AcDbEntity
  8
ALL_ASSEMBLY_MEMBERS
100
AcDbLine
 62
7
  6
CONTINUOUS
 10
3.4328144332
 20
5.0936591862
 11
3.4327957661
 21
5.0936363078
  0
LINE
  5
23A
100
AcDbEntity
  8
ALL_ASSEMBLY_MEMBERS
100
AcDbLine
 62
7
  6
CONTINUOUS
 10
3.4328147905
 20
5.0936579523
 11
3.4327958435
 21
5.0936360397
  0
LINE
  5
23B
100
AcDbEntity
  8
ALL_FEATURES
100
AcDbLine
 62
7
  6
CONTINUOUS
 10
3.6741705315
 20
5.7010113015
 11
3.6157244062
 21
5.6427335365
  0
LINE
  5
23C
100
AcDbEntity
  8
ALL_ASSEMBLY_MEMBERS
100
AcDbLine
 62
7
  6
CONTINUOUS
 10
3.4263926863
 20
4.7569835365
 11
3.4263926863
 21
4.7419835365
  0
LINE
  5
23D
100
AcDbEntity
  8
ALL_ASSEMBLY_MEMBERS
100
AcDbLine
 62
7
  6
CONTINUOUS
 10
3.4513926863
 20
5.1984835365
 11
3.4513926863
 21
5.0519835365
  0
LINE
  5
23E
100
AcDbEntity
  8
ALL_ASSEMBLY_MEMBERS
100
AcDbLine
 62
7
  6
CONTINUOUS
 10
3.4308199996
 20
5.1004835365
 11
3.4365935023
 21
5.1204835365
  0
LINE
  5
23F
100
AcDbEntity
  8
0
100
AcDbLine
 62
7
  6
CONTINUOUS
 10
5.1421307453
 20
2.084472376
 11
5.1419932172
 21
2.084472376
  0
LINE
  5
240
100
AcDbEntity
  8
ALL_FEATURES
100
AcDbLine
 62
7
  6
CONTINUOUS
 10
3.4846579122
 20
5.8259835365
 11
3.4846579122
 21
5.7010112654
  0
LINE
  5
241
100
AcDbEntity
  8
ALL_ASSEMBLY_MEMBERS
100
AcDbLine
 62
7
  6
CONTINUOUS
 10
3.4951426863
 20
5.0419835365
 11
3.4951426863
 21
4.8044835365
  0
LINE
  5
242
100
AcDbEntity
  8
ALL_FEATURES
100
AcDbLine
 62
7
  6
CONTINUOUS
 10
3.6656426863
 20
5.8569835365
 11
3.6656426863
 21
5.8259835365
  0
LINE
  5
243
100
AcDbEntity
  8
ALL_FEATURES
100
AcDbLine
 62
7
  6
CONTINUOUS
 10
3.6741731381
 20
5.8259835365
 11
3.6741731381
 21
5.701012228
  0
LINE
  5
244
100
AcDbEntity
  8
0
100
AcDbLine
 62
7
  6
CONTINUOUS
 10
5.5523227605
 20
2.7069835365
 11
4.9749726122
 21
2.7069835365
  0
LINE
  5
245
100
AcDbEntity
  8
ALL_ASSEMBLY_MEMBERS
100
AcDbLine
 62
7
  6
CONTINUOUS
 10
3.4134994915
 20
5.1204835365
 11
3.4192729942
 21
5.1004835365
  0
LINE
  5
246
100
AcDbEntity
  8
ALL_ASSEMBLY_MEMBERS
100
AcDbLine
 62
7
  6
CONTINUOUS
 10
3.4365935023
 20
5.1204835365
 11
3.4308199996
 21
5.1404835365
  0
LINE
  5
247
100
AcDbEntity
  8
ALL_FEATURES
100
AcDbLine
 62
7
  6
CONTINUOUS
 10
2.9878256892
 20
5.4211341307
 11
3.0248926863
 21
5.3681753171
  0
LINE
  5
248
100
AcDbEntity
  8
ALL_ASSEMBLY_MEMBERS
100
AcDbLine
 62
7
  6
CONTINUOUS
 10
3.4339954261
 20
5.1457949305
 11
3.4289048987
 21
5.1529940234
  0
LINE
  5
249
100
AcDbEntity
  8
0
100
AcDbLine
 62
7
  6
CONTINUOUS
 10
4.6698978107
 20
6.0444835365
 11
4.6698978107
 21
5.7180500735
  0
LWPOLYLINE
  5
24A
100
AcDbEntity
  8
0
100
AcDbPolyline
 62
7
  6
CONTINUOUS
 90
7
 70
0
 10
5.0120837126
 20
2.3471464537
 10
5.0126553753
 20
2.3433834205
 10
5.0141147508
 20
2.3334659018
 10
5.015439465
 20
2.3240580132
 10
5.0166362186
 20
2.3152090139
 10
5.0177128471
 20
2.3069515267
 10
5.0186744234
 20
2.2993302756
  0
LINE
  5
24B
100
AcDbEntity
  8
0
100
AcDbLine
 62
7
  6
CONTINUOUS
 10
5.0221499067
 20
2.2697477709
 11
5.0225231459
 21
2.2663094042
  0
LINE
  5
24C
100
AcDbEntity
  8
ALL_FEATURES
100
AcDbLine
 62
7
  6
CONTINUOUS
 10
2.9161163132
 20
5.7010098336
 11
2.9745609665
 21
5.6427335365
  0
LINE
  5
24D
100
AcDbEntity
  8
0
100
AcDbLine
 62
7
  6
CONTINUOUS
 10
5.0186744234
 20
2.2993302756
 11
5.0195230269
 21
2.292406354
  0
LINE
  5
24E
100
AcDbEntity
  8
0
100
AcDbLine
 62
7
  6
CONTINUOUS
 10
5.0195230269
 20
2.292406354
 11
5.0202606787
 21
2.2862342438
  0
LWPOLYLINE
  5
24F
100
AcDbEntity
  8
0
100
AcDbPolyline
 62
7
  6
CONTINUOUS
 90
5
 70
0
 10
5.0202606787
 20
2.2862342438
 10
5.020882749
 20
2.2809172026
 10
5.0213958836
 20
2.2764530194
 10
5.0218169404
 20
2.2727328567
 10
5.0221499067
 20
2.2697477709
  0
LINE
  5
250
100
AcDbEntity
  8
0
100
AcDbLine
 62
7
  6
CONTINUOUS
 10
5.0225231459
 20
2.2663094042
 11
5.0225137366
 21
2.2663899789
  0
LINE
  5
251
100
AcDbEntity
  8
0
100
AcDbLine
 62
7
  6
CONTINUOUS
 10
5.5059179711
 20
2.2802755723
 11
5.5066157703
 21
2.2860601054
  0
LINE
  5
252
100
AcDbEntity
  8
0
100
AcDbLine
 62
7
  6
CONTINUOUS
 10
5.5066157703
 20
2.2860601054
 11
5.5076270978
 21
2.2942644937
  0
LINE
  5
253
100
AcDbEntity
  8
0
100
AcDbLine
 62
7
  6
CONTINUOUS
 10
5.5076270978
 20
2.2942644937
 11
5.5083145724
 21
2.2997457315
  0
LWPOLYLINE
  5
254
100
AcDbEntity
  8
0
100
AcDbPolyline
 62
7
  6
CONTINUOUS
 90
7
 70
0
 10
5.5083145724
 20
2.2997457315
 10
5.5093317948
 20
2.3076421379
 10
5.5104671707
 20
2.3161845002
 10
5.5117243456
 20
2.3253128003
 10
5.5131114749
 20
2.3349925794
 10
5.5146352997
 20
2.3451711267
 10
5.5150752301
 20
2.3480243295
  0
LWPOLYLINE
  5
255
100
AcDbEntity
  8
0
100
AcDbPolyline
 62
7
  6
CONTINUOUS
 90
4
 70
0
 10
5.5042383703
 20
2.2663096398
 10
5.5043120272
 20
2.2668401635
 10
5.504519745
 20
2.268538253
 10
5.5059179711
 20
2.2802755723
  0
LINE
  5
256
100
AcDbEntity
  8
ALL_FEATURES
100
AcDbLine
 62
7
  6
CONTINUOUS
 10
7.6111740595
 20
5.7010098336
 11
7.5527294062
 21
5.6427335365
  0
LINE
  5
257
100
AcDbEntity
  8
ALL_ASSEMBLY_MEMBERS
100
AcDbLine
 62
7
  6
CONTINUOUS
 10
7.459741714
 20
5.0149216509
 11
7.4576473437
 21
5.0144941435
  0
LINE
  5
258
100
AcDbEntity
  8
ALL_ASSEMBLY_MEMBERS
100
AcDbLine
 62
7
  6
CONTINUOUS
 10
7.4597416761
 20
5.0149216185
 11
7.4576473437
 21
5.0144941435
  0
LINE
  5
259
100
AcDbEntity
  8
ALL_ASSEMBLY_MEMBERS
100
AcDbLine
 62
7
  6
CONTINUOUS
 10
3.0696430287
 20
5.014494054
 11
3.0675487139
 21
5.0149216659
  0
LINE
  5
25A
100
AcDbEntity
  8
ALL_ASSEMBLY_MEMBERS
100
AcDbLine
 62
7
  6
CONTINUOUS
 10
3.0696430287
 20
5.014494054
 11
3.0675487695
 21
5.0149216194
  0
LINE
  5
25B
100
AcDbEntity
  8
0
100
AcDbLine
 62
7
  6
CONTINUOUS
 10
5.857397562
 20
6.0444835365
 11
5.857397562
 21
5.7180500735
  0
LWPOLYLINE
  5
25C
100
AcDbEntity
  8
0
100
AcDbPolyline
 62
7
  6
CONTINUOUS
 90
3
 70
0
 10
5.4996566202
 20
2.239894206
 10
5.5023612855
 20
2.2533173357
 10
5.504238395
 20
2.2663098508
  0
LINE
  5
25D
100
AcDbEntity
  8
ALL_ASSEMBLY_MEMBERS
100
AcDbLine
 62
7
  6
CONTINUOUS
 10
7.3633976863
 20
4.7419835365
 11
7.1008976863
 21
4.7419835365
  0
LINE
  5
25E
100
AcDbEntity
  8
ALL_ASSEMBLY_MEMBERS
100
AcDbLine
 62
7
  6
CONTINUOUS
 10
3.1638926863
 20
4.7419835365
 11
3.4263926863
 21
4.7419835365
  0
LINE
  5
25F
100
AcDbEntity
  8
ALL_ASSEMBLY_MEMBERS
100
AcDbLine
 62
7
  6
CONTINUOUS
 10
3.1638926863
 20
4.7569835365
 11
3.4263926863
 21
4.7569835365
  0
LINE
  5
260
100
AcDbEntity
  8
ALL_ASSEMBLY_MEMBERS
100
AcDbLine
 62
7
  6
CONTINUOUS
 10
7.1008976863
 20
4.7569835365
 11
7.3633976863
 21
4.7569835365
  0
LINE
  5
261
100
AcDbEntity
  8
ALL_ASSEMBLY_MEMBERS
100
AcDbLine
 62
7
  6
CONTINUOUS
 10
7.3883976863
 20
4.7669835365
 11
7.0758976863
 21
4.7669835365
  0
LINE
  5
262
100
AcDbEntity
  8
ALL_ASSEMBLY_MEMBERS
100
AcDbLine
 62
7
  6
CONTINUOUS
 10
3.1388926863
 20
4.7669835365
 11
3.4513926863
 21
4.7669835365
  0
LINE
  5
263
100
AcDbEntity
  8
ALL_ASSEMBLY_MEMBERS
100
AcDbLine
 62
7
  6
CONTINUOUS
 10
7.4321476863
 20
4.8044835365
 11
7.0321476863
 21
4.8044835365
  0
LINE
  5
264
100
AcDbEntity
  8
ALL_ASSEMBLY_MEMBERS
100
AcDbLine
 62
7
  6
CONTINUOUS
 10
3.0951426863
 20
4.8044835365
 11
3.4951426863
 21
4.8044835365
  0
LINE
  5
265
100
AcDbEntity
  8
ALL_ASSEMBLY_MEMBERS
100
AcDbLine
 62
7
  6
CONTINUOUS
 10
8.6571476863
 20
4.8249815659
 11
8.6364463635
 21
4.8249815659
  0
LINE
  5
266
100
AcDbEntity
  8
ALL_ASSEMBLY_MEMBERS
100
AcDbLine
 62
7
  6
CONTINUOUS
 10
1.8701426863
 20
4.8249815659
 11
1.8908440091
 21
4.8249815659
  0
LINE
  5
267
100
AcDbEntity
  8
ALL_FEATURES
100
AcDbLine
 62
7
  6
CONTINUOUS
 10
7.5394646834
 20
5.4211341307
 11
7.5023976863
 21
5.3681753171
  0
LINE
  5
268
100
AcDbEntity
  8
ALL_ASSEMBLY_MEMBERS
100
AcDbLine
 62
7
  6
CONTINUOUS
 10
7.0932949466
 20
5.1457949305
 11
7.0972650165
 21
5.1514094572
  0
LWPOLYLINE
  5
269
100
AcDbEntity
  8
ALL_ASSEMBLY_MEMBERS
100
AcDbPolyline
 62
7
  6
CONTINUOUS
 90
10
 70
0
 10
1.8906748689
 20
4.7963616373
 10
2.0046620757
 20
4.7995066239
 10
2.1256029499
 20
4.803056593
 10
2.2506966059
 20
4.806911196
 10
2.3799413241
 20
4.8110353007
 10
2.5133388242
 20
4.8153838254
 10
2.6508942651
 20
4.8199008767
 10
2.7926093665
 20
4.8245186104
 10
2.9384824086
 20
4.829156294
 10
3.0668236565
 20
4.8330760947
  0
LWPOLYLINE
  5
26A
100
AcDbEntity
  8
ALL_ASSEMBLY_MEMBERS
100
AcDbPolyline
 62
7
  6
CONTINUOUS
 90
10
 70
0
 10
8.6371403608
 20
5.0207724753
 10
8.523044869
 20
5.0206196687
 10
8.4019863404
 20
5.0202438448
 10
8.2767672772
 20
5.019671884
 10
8.1473879061
 20
5.0189389628
 10
8.0138480004
 20
5.0180903529
 10
7.8761468801
 20
5.0171822956
 10
7.7342843186
 20
5.0162829129
 10
7.5882605425
 20
5.0154731412
 10
7.4597418551
 20
5.0149216151
  0
LINE
  5
26B
100
AcDbEntity
  8
ALL_ASSEMBLY_MEMBERS
100
AcDbLine
 62
7
  6
CONTINUOUS
 10
8.6571476863
 20
4.9921474163
 11
8.6364463635
 21
4.9921474163
  0
LINE
  5
26C
100
AcDbEntity
  8
ALL_ASSEMBLY_MEMBERS
100
AcDbLine
 62
7
  6
CONTINUOUS
 10
1.8701426863
 20
4.9921474163
 11
1.8908440091
 21
4.9921474163
  0
LINE
  5
26D
100
AcDbEntity
  8
ALL_ASSEMBLY_MEMBERS
100
AcDbLine
 62
7
  6
CONTINUOUS
 10
7.4321476887
 20
5.0419835365
 11
7.0321476863
 21
5.0419835365
  0
LINE
  5
26E
100
AcDbEntity
  8
ALL_ASSEMBLY_MEMBERS
100
AcDbLine
 62
7
  6
CONTINUOUS
 10
3.0951426825
 20
5.0419835365
 11
3.4951426863
 21
5.0419835365
  0
LINE
  5
26F
100
AcDbEntity
  8
ALL_ASSEMBLY_MEMBERS
100
AcDbLine
 62
7
  6
CONTINUOUS
 10
3.1388926863
 20
5.0519835365
 11
3.4513926863
 21
5.0519835365
  0
LINE
  5
270
100
AcDbEntity
  8
ALL_ASSEMBLY_MEMBERS
100
AcDbLine
 62
7
  6
CONTINUOUS
 10
7.0758976863
 20
5.0519835365
 11
7.3883976863
 21
5.0519835365
  0
LINE
  5
271
100
AcDbEntity
  8
ALL_ASSEMBLY_MEMBERS
100
AcDbLine
 62
7
  6
CONTINUOUS
 10
7.1084113551
 20
5.0879385365
 11
7.1088061798
 21
5.0879385365
  0
LINE
  5
272
100
AcDbEntity
  8
ALL_ASSEMBLY_MEMBERS
100
AcDbLine
 62
7
  6
CONTINUOUS
 10
3.4192729942
 20
5.1004835365
 11
3.4308199996
 21
5.1004835365
  0
LINE
  5
273
100
AcDbEntity
  8
ALL_ASSEMBLY_MEMBERS
100
AcDbLine
 62
7
  6
CONTINUOUS
 10
7.0964703731
 20
5.1004835365
 11
7.1080173785
 21
5.1004835365
  0
LINE
  5
274
100
AcDbEntity
  8
ALL_ASSEMBLY_MEMBERS
100
AcDbLine
 62
7
  6
CONTINUOUS
 10
3.4365935023
 20
5.1204835365
 11
3.4134994915
 21
5.1204835365
  0
LINE
  5
275
100
AcDbEntity
  8
ALL_ASSEMBLY_MEMBERS
100
AcDbLine
 62
7
  6
CONTINUOUS
 10
7.0906968704
 20
5.1204835365
 11
7.1137908812
 21
5.1204835365
  0
LWPOLYLINE
  5
276
100
AcDbEntity
  8
ALL_ASSEMBLY_MEMBERS
100
AcDbPolyline
 62
7
  6
CONTINUOUS
 90
10
 70
0
 10
3.0675485176
 20
5.0149216151
 10
2.9390298302
 20
5.0154731412
 10
2.7930060541
 20
5.0162829129
 10
2.6511434926
 20
5.0171822956
 10
2.5134423723
 20
5.0180903529
 10
2.3799024666
 20
5.0189389628
 10
2.2505230954
 20
5.019671884
 10
2.1253040323
 20
5.0202438448
 10
2.0042455037
 20
5.0206196687
 10
1.8901500119
 20
5.0207724753
  0
LWPOLYLINE
  5
277
100
AcDbEntity
  8
ALL_ASSEMBLY_MEMBERS
100
AcDbPolyline
 62
7
  6
CONTINUOUS
 90
18
 70
0
 10
7.459741153
 20
5.0149216641
 10
7.4586796736
 20
5.0149383944
 10
7.4566108706
 20
5.0150892745
 10
7.4544916126
 20
5.0154084915
 10
7.4523436371
 20
5.0159082272
 10
7.4502029514
 20
5.0165929365
 10
7.4480883376
 20
5.0174672641
 10
7.4460170495
 20
5.018535258
 10
7.4440217187
 20
5.0197898899
 10
7.4421208025
 20
5.0212275828
 10
7.4403325597
 20
5.0228431447
 10
7.438685091
 20
5.0246179319
 10
7.4371933423
 20
5.0265403761
 10
7.4358715221
 20
5.0285972207
 10
7.4347391959
 20
5.0307599618
 10
7.4338044093
 20
5.0330110962
 10
7.4330735928
 20
5.0353325588
 10
7.4325541675
 20
5.0376907329
  0
LWPOLYLINE
  5
278
100
AcDbEntity
  8
ALL_ASSEMBLY_MEMBERS
100
AcDbPolyline
 62
7
  6
CONTINUOUS
 90
10
 70
0
 10
7.4604667162
 20
4.8330760947
 10
7.588807964
 20
4.829156294
 10
7.7346810062
 20
4.8245186104
 10
7.8763961075
 20
4.8199008767
 10
8.0139515484
 20
4.8153838254
 10
8.1473490485
 20
4.8110353007
 10
8.2765937668
 20
4.806911196
 10
8.4016874228
 20
4.803056593
 10
8.5226282969
 20
4.7995066239
 10
8.6366155038
 20
4.7963616373
  0
LINE
  5
279
100
AcDbEntity
  8
ALL_ASSEMBLY_MEMBERS
100
AcDbLine
 62
7
  6
CONTINUOUS
 10
3.0951426863
 20
4.8055882939
 11
3.0953127308
 21
4.8056351187
  0
LINE
  5
27A
100
AcDbEntity
  8
ALL_ASSEMBLY_MEMBERS
100
AcDbLine
 62
7
  6
CONTINUOUS
 10
3.0951426863
 20
4.8055882939
 11
3.0966792431
 21
4.8059995809
  0
LINE
  5
27B
100
AcDbEntity
  8
ALL_ASSEMBLY_MEMBERS
100
AcDbLine
 62
7
  6
CONTINUOUS
 10
7.1080173785
 20
5.1404835365
 11
7.0964703731
 21
5.1404835365
  0
LINE
  5
27C
100
AcDbEntity
  8
ALL_ASSEMBLY_MEMBERS
100
AcDbLine
 62
7
  6
CONTINUOUS
 10
3.4308199996
 20
5.1404835365
 11
3.4192729942
 21
5.1404835365
  0
LINE
  5
27D
100
AcDbEntity
  8
ALL_ASSEMBLY_MEMBERS
100
AcDbLine
 62
7
  6
CONTINUOUS
 10
7.3883976863
 20
5.1984835365
 11
7.0758976863
 21
5.1984835365
  0
LINE
  5
27E
100
AcDbEntity
  8
ALL_ASSEMBLY_MEMBERS
100
AcDbLine
 62
7
  6
CONTINUOUS
 10
3.1388926863
 20
5.1984835365
 11
3.4513926863
 21
5.1984835365
  0
LINE
  5
27F
100
AcDbEntity
  8
ALL_FEATURES
100
AcDbLine
 62
7
  6
CONTINUOUS
 10
7.4315721306
 20
5.2009835365
 11
7.0327232421
 21
5.2009835365
  0
LINE
  5
280
100
AcDbEntity
  8
ALL_FEATURES
100
AcDbLine
 62
7
  6
CONTINUOUS
 10
3.4945671306
 20
5.2009835365
 11
3.0957182421
 21
5.2009835365
  0
LINE
  5
281
100
AcDbEntity
  8
ALL_FEATURES
100
AcDbLine
 62
7
  6
CONTINUOUS
 10
7.4470175501
 20
5.2151839151
 11
7.0172778226
 21
5.2151839151
  0
LINE
  5
282
100
AcDbEntity
  8
ALL_FEATURES
100
AcDbLine
 62
7
  6
CONTINUOUS
 10
3.5100125501
 20
5.2151839151
 11
3.0802728226
 21
5.2151839151
  0
LINE
  5
283
100
AcDbEntity
  8
0
100
AcDbLine
 62
7
  6
CONTINUOUS
 10
5.6677927901
 20
5.2944835365
 11
4.8595025825
 21
5.2944835365
  0
LINE
  5
284
100
AcDbEntity
  8
ALL_FEATURES
100
AcDbLine
 62
7
  6
CONTINUOUS
 10
7.5023976863
 20
5.3681753171
 11
6.9618976863
 21
5.3681753171
  0
LINE
  5
285
100
AcDbEntity
  8
ALL_FEATURES
100
AcDbLine
 62
7
  6
CONTINUOUS
 10
3.0248926863
 20
5.3681753171
 11
3.5653926863
 21
5.3681753171
  0
LWPOLYLINE
  5
286
100
AcDbEntity
  8
ALL_ASSEMBLY_MEMBERS
100
AcDbPolyline
 62
7
  6
CONTINUOUS
 90
17
 70
0
 10
7.4588464044
 20
5.0149330634
 10
7.4568391661
 20
5.0150649143
 10
7.4547642419
 20
5.015357922
 10
7.452644117
 20
5.0158273235
 10
7.4505184489
 20
5.0164797937
 10
7.4484064739
 20
5.0173223965
 10
7.4463257022
 20
5.0183618017
 10
7.4443123099
 20
5.019592033
 10
7.4423859613
 20
5.0210111163
 10
7.4405660469
 20
5.0226155591
 10
7.43888389
 20
5.0243865169
 10
7.4373557908
 20
5.0263131872
 10
7.4359975544
 20
5.0283827357
 10
7.4348315693
 20
5.0305646911
 10
7.4338669176
 20
5.0328412043
 10
7.4331110265
 20
5.0351937171
 10
7.4325727519
 20
5.037585529
  0
LINE
  5
287
100
AcDbEntity
  8
ALL_FEATURES
100
AcDbLine
 62
7
  6
CONTINUOUS
 10
6.8531172346
 20
5.8259835365
 11
6.8531172346
 21
5.701012228
  0
LINE
  5
288
100
AcDbEntity
  8
ALL_FEATURES
100
AcDbLine
 62
7
  6
CONTINUOUS
 10
6.8616476863
 20
5.8569835365
 11
6.8616476863
 21
5.8259835365
  0
LINE
  5
289
100
AcDbEntity
  8
ALL_ASSEMBLY_MEMBERS
100
AcDbLine
 62
7
  6
CONTINUOUS
 10
7.0964703731
 20
5.1404835365
 11
7.0906968704
 21
5.1204835365
  0
LINE
  5
28A
100
AcDbEntity
  8
ALL_ASSEMBLY_MEMBERS
100
AcDbLine
 62
7
  6
CONTINUOUS
 10
7.1080173785
 20
5.1004835365
 11
7.1137908812
 21
5.1204835365
  0
LINE
  5
28B
100
AcDbEntity
  8
ALL_FEATURES
100
AcDbLine
 62
7
  6
CONTINUOUS
 10
7.5394646834
 20
5.4211341307
 11
6.9248306892
 21
5.4211341307
  0
LINE
  5
28C
100
AcDbEntity
  8
ALL_FEATURES
100
AcDbLine
 62
7
  6
CONTINUOUS
 10
2.9878256892
 20
5.4211341307
 11
3.6024596834
 21
5.4211341307
  0
LINE
  5
28D
100
AcDbEntity
  8
ALL_FEATURES
100
AcDbLine
 62
7
  6
CONTINUOUS
 10
7.5413976863
 20
5.5352335365
 11
6.9228976863
 21
5.5352335365
  0
LINE
  5
28E
100
AcDbEntity
  8
ALL_FEATURES
100
AcDbLine
 62
7
  6
CONTINUOUS
 10
2.9858926863
 20
5.5352335365
 11
3.6043926863
 21
5.5352335365
  0
LINE
  5
28F
100
AcDbEntity
  8
ALL_FEATURES
100
AcDbLine
 62
7
  6
CONTINUOUS
 10
7.5527294062
 20
5.6427335365
 11
6.9115659665
 21
5.6427335365
  0
LINE
  5
290
100
AcDbEntity
  8
ALL_FEATURES
100
AcDbLine
 62
7
  6
CONTINUOUS
 10
2.9745609665
 20
5.6427335365
 11
3.6157244062
 21
5.6427335365
  0
LINE
  5
291
100
AcDbEntity
  8
ALL_ASSEMBLY_MEMBERS
100
AcDbLine
 62
7
  6
CONTINUOUS
 10
7.0321476863
 20
5.0419835365
 11
7.0321476863
 21
4.8044835365
  0
LINE
  5
292
100
AcDbEntity
  8
ALL_FEATURES
100
AcDbLine
 62
7
  6
CONTINUOUS
 10
7.0426324605
 20
5.8259835365
 11
7.0426324605
 21
5.7010115085
  0
LINE
  5
293
100
AcDbEntity
  8
ALL_ASSEMBLY_MEMBERS
100
AcDbLine
 62
7
  6
CONTINUOUS
 10
7.0758976863
 20
5.1984835365
 11
7.0758976863
 21
5.0519835365
  0
LINE
  5
294
100
AcDbEntity
  8
ALL_ASSEMBLY_MEMBERS
100
AcDbLine
 62
7
  6
CONTINUOUS
 10
7.1008976863
 20
4.7569835365
 11
7.1008976863
 21
4.7419835365
  0
LWPOLYLINE
  5
295
100
AcDbEntity
  8
0
100
AcDbPolyline
 62
7
  6
CONTINUOUS
 90
13
 70
0
 10
5.3920505112
 20
2.0889348315
 10
5.4050915526
 20
2.0976989064
 10
5.4177157066
 20
2.1074355163
 10
5.4299047247
 20
2.1182000014
 10
5.4415018251
 20
2.1299260801
 10
5.4522524775
 20
2.1423862044
 10
5.4621137822
 20
2.1555178663
 10
5.4710450193
 20
2.1692568826
 10
5.4788898617
 20
2.18329865
 10
5.485665212
 20
2.1975513038
 10
5.4913964799
 20
2.2119301708
 10
5.4960399602
 20
2.226101698
 10
5.4996566202
 20
2.239894206
  0
LINE
  5
296
100
AcDbEntity
  8
0
100
AcDbLine
 62
7
  6
CONTINUOUS
 10
5.3846308679
 20
2.0844724266
 11
5.3920505112
 21
2.0889348315
  0
LINE
  5
297
100
AcDbEntity
  8
ALL_FEATURES
100
AcDbLine
 62
7
  6
CONTINUOUS
 10
7.6111781381
 20
5.8259835365
 11
6.8531172346
 21
5.8259835365
  0
LINE
  5
298
100
AcDbEntity
  8
ALL_FEATURES
100
AcDbLine
 62
7
  6
CONTINUOUS
 10
2.9161122346
 20
5.8259835365
 11
3.6741731381
 21
5.8259835365
  0
LINE
  5
299
100
AcDbEntity
  8
ALL_FEATURES
100
AcDbLine
 62
7
  6
CONTINUOUS
 10
7.6386490232
 20
5.8569835365
 11
6.8256463494
 21
5.8569835365
  0
LINE
  5
29A
100
AcDbEntity
  8
ALL_FEATURES
100
AcDbLine
 62
7
  6
CONTINUOUS
 10
2.8886413494
 20
5.8569835365
 11
3.7016440232
 21
5.8569835365
  0
LINE
  5
29B
100
AcDbEntity
  8
ALL_ASSEMBLY_MEMBERS
100
AcDbLine
 62
7
  6
CONTINUOUS
 10
7.3633976863
 20
4.7569835365
 11
7.3633976863
 21
4.7419835365
  0
LINE
  5
29C
100
AcDbEntity
  8
ALL_ASSEMBLY_MEMBERS
100
AcDbLine
 62
7
  6
CONTINUOUS
 10
7.3883976863
 20
5.1984835365
 11
7.3883976863
 21
5.0519835365
  0
LINE
  5
29D
100
AcDbEntity
  8
ALL_ASSEMBLY_MEMBERS
100
AcDbLine
 62
7
  6
CONTINUOUS
 10
7.3937928395
 20
4.8150683879
 11
7.3937928395
 21
5.034086209
  0
LINE
  5
29E
100
AcDbEntity
  8
ALL_FEATURES
100
AcDbLine
 62
7
  6
CONTINUOUS
 10
7.7321476863
 20
5.9509835365
 11
6.7321476863
 21
5.9509835365
  0
LINE
  5
29F
100
AcDbEntity
  8
ALL_FEATURES
100
AcDbLine
 62
7
  6
CONTINUOUS
 10
2.7951426863
 20
5.9509835365
 11
3.7951426863
 21
5.9509835365
  0
LINE
  5
2A0
100
AcDbEntity
  8
ALL_FEATURES
100
AcDbLine
 62
7
  6
CONTINUOUS
 10
7.8221476863
 20
6.0444835365
 11
6.6421476863
 21
6.0444835365
  0
LINE
  5
2A1
100
AcDbEntity
  8
0
100
AcDbLine
 62
7
  6
CONTINUOUS
 10
5.857397562
 20
6.0444835365
 11
4.6698978107
 21
6.0444835365
  0
LINE
  5
2A2
100
AcDbEntity
  8
ALL_FEATURES
100
AcDbLine
 62
7
  6
CONTINUOUS
 10
2.7051426863
 20
6.0444835365
 11
3.8851426863
 21
6.0444835365
  0
LINE
  5
2A3
100
AcDbEntity
  8
ALL_ASSEMBLY_MEMBERS
100
AcDbLine
 62
7
  6
CONTINUOUS
 10
7.0932949466
 20
5.0951721425
 11
7.095525899
 21
5.0920170994
  0
LINE
  5
2A4
100
AcDbEntity
  8
ALL_ASSEMBLY_MEMBERS
100
AcDbLine
 62
7
  6
CONTINUOUS
 10
7.0906968704
 20
5.1204835365
 11
7.0964703731
 21
5.1004835365
  0
LINE
  5
2A5
100
AcDbEntity
  8
ALL_ASSEMBLY_MEMBERS
100
AcDbLine
 62
7
  6
CONTINUOUS
 10
7.1137908812
 20
5.1204835365
 11
7.1080173785
 21
5.1404835365
  0
LINE
  5
2A6
100
AcDbEntity
  8
ALL_ASSEMBLY_MEMBERS
100
AcDbLine
 62
7
  6
CONTINUOUS
 10
7.4322518609
 20
5.0399905646
 11
7.4321476968
 21
5.0419835365
  0
LINE
  5
2A7
100
AcDbEntity
  8
ALL_ASSEMBLY_MEMBERS
100
AcDbLine
 62
7
  6
CONTINUOUS
 10
7.4169833669
 20
4.8522978315
 11
7.4169833669
 21
4.9963176109
  0
LINE
  5
2A8
100
AcDbEntity
  8
ALL_FEATURES
100
AcDbLine
 62
7
  6
CONTINUOUS
 10
7.4216629122
 20
5.8259835365
 11
7.4216629122
 21
5.7010112654
  0
LINE
  5
2A9
100
AcDbEntity
  8
ALL_ASSEMBLY_MEMBERS
100
AcDbLine
 62
7
  6
CONTINUOUS
 10
7.4321476863
 20
4.8055882939
 11
7.4321476863
 21
4.8044835365
  0
LINE
  5
2AA
100
AcDbEntity
  8
ALL_FEATURES
100
AcDbLine
 62
7
  6
CONTINUOUS
 10
7.6026476863
 20
5.8569835365
 11
7.6026476863
 21
5.8259835365
  0
LINE
  5
2AB
100
AcDbEntity
  8
ALL_FEATURES
100
AcDbLine
 62
7
  6
CONTINUOUS
 10
7.6111781381
 20
5.8259835365
 11
7.6111781381
 21
5.7010112654
  0
LINE
  5
2AC
100
AcDbEntity
  8
ALL_FEATURES
100
AcDbLine
 62
7
  6
CONTINUOUS
 10
6.8531198411
 20
5.7010113015
 11
6.9115659665
 21
5.6427335365
  0
LINE
  5
2AD
100
AcDbEntity
  8
ALL_FEATURES
100
AcDbLine
 62
7
  6
CONTINUOUS
 10
6.9248306892
 20
5.4211341307
 11
6.9618976863
 21
5.3681753171
  0
LINE
  5
2AE
100
AcDbEntity
  8
ALL_ASSEMBLY_MEMBERS
100
AcDbLine
 62
7
  6
CONTINUOUS
 10
7.4325727519
 20
5.037585529
 11
7.4322456779
 21
5.0400612527
  0
LINE
  5
2AF
100
AcDbEntity
  8
ALL_ASSEMBLY_MEMBERS
100
AcDbLine
 62
7
  6
CONTINUOUS
 10
8.6365436888
 20
4.8051686577
 11
8.6366154491
 21
4.7963610717
  0
LINE
  5
2B0
100
AcDbEntity
  8
ALL_ASSEMBLY_MEMBERS
100
AcDbLine
 62
7
  6
CONTINUOUS
 10
8.6364463635
 20
4.992141382
 11
8.6364463635
 21
4.8249876467
  0
LINE
  5
2B1
100
AcDbEntity
  8
ALL_ASSEMBLY_MEMBERS
100
AcDbLine
 62
7
  6
CONTINUOUS
 10
8.6571476863
 20
5.0007685998
 11
8.6571476863
 21
4.8163584234
  0
LINE
  5
2B2
100
AcDbEntity
  8
ALL_ASSEMBLY_MEMBERS
100
AcDbLine
 62
7
  6
CONTINUOUS
 10
8.6371403233
 20
5.0207730424
 11
8.6370636814
 21
5.0119692701
  0
ARC
  5
2B3
100
AcDbEntity
  8
ALL_ASSEMBLY_MEMBERS
100
AcDbCircle
 62
7
  6
CONTINUOUS
 10
3.3515160539
 20
3.8505345689
 40
0.9888656073
100
AcDbArc
 50
102.7368370785
 51
104.9340003573
  0
ARC
  5
2B4
100
AcDbEntity
  8
0
100
AcDbCircle
 62
7
  6
CONTINUOUS
 10
5.2632431442
 20
2.2946922642
 40
0.2427084093
100
AcDbArc
 50
268.4156957555
 51
270.0160796606
  0
ARC
  5
2B5
100
AcDbEntity
  8
0
100
AcDbCircle
 62
7
  6
CONTINUOUS
 10
5.2633360707
 20
2.2945464957
 40
0.2425768364
100
AcDbArc
 50
300.0016925321
 51
304.2022962904
  0
ARC
  5
2B6
100
AcDbEntity
  8
0
100
AcDbCircle
 62
7
  6
CONTINUOUS
 10
5.2633807227
 20
2.2944833681
 40
0.2424997108
100
AcDbArc
 50
186.6717709931
 51
299.9997252558
  0
ARC
  5
2B7
100
AcDbEntity
  8
0
100
AcDbCircle
 62
7
  6
CONTINUOUS
 10
5.2633819052
 20
2.2944830714
 40
0.2424986165
100
AcDbArc
 50
304.2017632625
 51
350.1097840625
  0
ARC
  5
2B8
100
AcDbEntity
  8
0
100
AcDbCircle
 62
7
  6
CONTINUOUS
 10
5.2632419173
 20
2.2944820625
 40
0.2424980736
100
AcDbArc
 50
188.1730983824
 51
260.0177729128
  0
ARC
  5
2B9
100
AcDbEntity
  8
0
100
AcDbCircle
 62
7
  6
CONTINUOUS
 10
5.2635559667
 20
2.294456869
 40
0.2423226413
100
AcDbArc
 50
350.1088184344
 51
353.3297595566
  0
ARC
  5
2BA
100
AcDbEntity
  8
ALL_ASSEMBLY_MEMBERS
100
AcDbCircle
 62
7
  6
CONTINUOUS
 10
3.3217708078
 20
6.258163714
 40
1.268968765
100
AcDbArc
 50
258.5398028048
 51
259.3220872992
  0
ARC
  5
2BB
100
AcDbEntity
  8
ALL_ASSEMBLY_MEMBERS
100
AcDbCircle
 62
7
  6
CONTINUOUS
 10
3.3198299785
 20
5.9840449382
 40
0.9680592551
100
AcDbArc
 50
256.6913802833
 51
258.9024272486
  0
ARC
  5
2BC
100
AcDbEntity
  8
ALL_FEATURES
100
AcDbCircle
 62
7
  6
CONTINUOUS
 10
3.8214121374
 20
5.1889818722
 40
0.3125
100
AcDbArc
 50
145.0110095298
 51
175.1903004544
  0
ARC
  5
2BD
100
AcDbEntity
  8
ALL_FEATURES
100
AcDbCircle
 62
7
  6
CONTINUOUS
 10
2.7688732353
 20
5.1889818722
 40
0.3125
100
AcDbArc
 50
4.8096995456
 51
34.9889904702
  0
ARC
  5
2BE
100
AcDbEntity
  8
ALL_ASSEMBLY_MEMBERS
100
AcDbCircle
 62
7
  6
CONTINUOUS
 10
3.2452407995
 20
5.1205147468
 40
0.2011874111
100
AcDbArc
 50
359.9911116561
 51
2.4803164085
  0
ARC
  5
2BF
100
AcDbEntity
  8
ALL_FEATURES
100
AcDbCircle
 62
7
  6
CONTINUOUS
 10
3.0713802469
 20
5.4796157381
 40
0.1019875605
100
AcDbArc
 50
146.9521644936
 51
214.9889904702
  0
ARC
  5
2C0
100
AcDbEntity
  8
ALL_FEATURES
100
AcDbCircle
 62
7
  6
CONTINUOUS
 10
3.5189051258
 20
5.4796157381
 40
0.1019875605
100
AcDbArc
 50
325.0110095298
 51
33.0478355064
  0
ARC
  5
2C1
100
AcDbEntity
  8
ALL_FEATURES
100
AcDbCircle
 62
7
  6
CONTINUOUS
 10
2.7987107419
 20
6.0444835365
 40
0.0935680556
100
AcDbArc
 50
180.0
 51
267.8145949287
  0
ARC
  5
2C2
100
AcDbEntity
  8
ALL_FEATURES
100
AcDbCircle
 62
7
  6
CONTINUOUS
 10
3.7915746308
 20
6.0444835365
 40
0.0935680556
100
AcDbArc
 50
272.1854050713
 51
360.0
  0
ARC
  5
2C3
100
AcDbEntity
  8
ALL_FEATURES
100
AcDbCircle
 62
7
  6
CONTINUOUS
 10
2.8886413494
 20
5.9504835365
 40
0.0935
100
AcDbArc
 50
179.6936039968
 51
270.0
  0
ARC
  5
2C4
100
AcDbEntity
  8
ALL_FEATURES
100
AcDbCircle
 62
7
  6
CONTINUOUS
 10
3.7016440232
 20
5.9504835365
 40
0.0935
100
AcDbArc
 50
270.0
 51
0.3063960032
  0
ARC
  5
2C5
100
AcDbEntity
  8
ALL_FEATURES
100
AcDbCircle
 62
7
  6
CONTINUOUS
 10
2.9140054195
 20
5.5820030487
 40
0.0857622668
100
AcDbArc
 50
326.9521644936
 51
45.0826423158
  0
ARC
  5
2C6
100
AcDbEntity
  8
ALL_FEATURES
100
AcDbCircle
 62
7
  6
CONTINUOUS
 10
3.6762799531
 20
5.5820030487
 40
0.0857622668
100
AcDbArc
 50
134.9173576842
 51
213.0478355064
  0
ARC
  5
2C7
100
AcDbEntity
  8
ALL_ASSEMBLY_MEMBERS
100
AcDbCircle
 62
7
  6
CONTINUOUS
 10
3.3638955492
 20
5.1247744109
 40
0.0810944351
100
AcDbArc
 50
356.9669452706
 51
2.9894394528
  0
ARC
  5
2C8
100
AcDbEntity
  8
ALL_ASSEMBLY_MEMBERS
100
AcDbCircle
 62
7
  6
CONTINUOUS
 10
3.4725305812
 20
5.1212946892
 40
0.0678212653
100
AcDbArc
 50
162.5952565401
 51
166.1227794598
  0
ARC
  5
2C9
100
AcDbEntity
  8
ALL_ASSEMBLY_MEMBERS
100
AcDbCircle
 62
7
  6
CONTINUOUS
 10
3.3872959896
 20
5.1162984808
 40
0.0530275739
100
AcDbArc
 50
335.6134717331
 51
336.4783292421
  0
ARC
  5
2CA
100
AcDbEntity
  8
ALL_ASSEMBLY_MEMBERS
100
AcDbCircle
 62
7
  6
CONTINUOUS
 10
3.4551269595
 20
5.1295394068
 40
0.0485016371
100
AcDbArc
 50
146.949397218
 51
148.1857259327
  0
ARC
  5
2CB
100
AcDbEntity
  8
ALL_ASSEMBLY_MEMBERS
100
AcDbCircle
 62
7
  6
CONTINUOUS
 10
3.4529571633
 20
5.1309677568
 40
0.0459039466
100
AcDbArc
 50
144.7402420457
 51
146.9667031968
  0
ARC
  5
2CC
100
AcDbEntity
  8
ALL_ASSEMBLY_MEMBERS
100
AcDbCircle
 62
7
  6
CONTINUOUS
 10
3.4512693262
 20
5.1321572811
 40
0.043839061
100
AcDbArc
 50
143.9321500419
 51
144.7362378872
  0
ARC
  5
2CD
100
AcDbEntity
  8
ALL_ASSEMBLY_MEMBERS
100
AcDbCircle
 62
7
  6
CONTINUOUS
 10
3.1013926863
 20
4.7669835365
 40
0.0375
100
AcDbArc
 50
0.0
 51
90.0
  0
ARC
  5
2CE
100
AcDbEntity
  8
ALL_ASSEMBLY_MEMBERS
100
AcDbCircle
 62
7
  6
CONTINUOUS
 10
3.4888926863
 20
4.7669835365
 40
0.0375
100
AcDbArc
 50
90.0
 51
180.0
  0
ARC
  5
2CF
100
AcDbEntity
  8
ALL_ASSEMBLY_MEMBERS
100
AcDbCircle
 62
7
  6
CONTINUOUS
 10
3.0676461715
 20
5.0424214462
 40
0.0274999954
100
AcDbArc
 50
269.7965413965
 51
359.0875840874
  0
ARC
  5
2D0
100
AcDbEntity
  8
ALL_ASSEMBLY_MEMBERS
100
AcDbCircle
 62
7
  6
CONTINUOUS
 10
3.0676429171
 20
4.8055883841
 40
0.0274999721
100
AcDbArc
 50
359.9998120894
 51
91.7076154102
  0
ARC
  5
2D1
100
AcDbEntity
  8
ALL_ASSEMBLY_MEMBERS
100
AcDbCircle
 62
7
  6
CONTINUOUS
 10
3.4155212872
 20
5.1327345635
 40
0.0226244745
100
AcDbArc
 50
33.1317531741
 51
35.2585488326
  0
ARC
  5
2D2
100
AcDbEntity
  8
ALL_ASSEMBLY_MEMBERS
100
AcDbCircle
 62
7
  6
CONTINUOUS
 10
3.4286443701
 20
5.1019096581
 40
0.0213473014
100
AcDbArc
 50
223.0433018994
 51
226.8752205325
  0
ARC
  5
2D3
100
AcDbEntity
  8
ALL_ASSEMBLY_MEMBERS
100
AcDbCircle
 62
7
  6
CONTINUOUS
 10
1.8901426863
 20
5.0007730123
 40
0.02
100
AcDbArc
 50
89.9790132873
 51
180.0
  0
ARC
  5
2D4
100
AcDbEntity
  8
ALL_ASSEMBLY_MEMBERS
100
AcDbCircle
 62
7
  6
CONTINUOUS
 10
1.8901426863
 20
4.8163540199
 40
0.02
100
AcDbArc
 50
180.0
 51
271.5248114949
  0
ARC
  5
2D5
100
AcDbEntity
  8
ALL_FEATURES
100
AcDbCircle
 62
7
  6
CONTINUOUS
 10
3.0957182421
 20
5.2164835365
 40
0.0155
100
AcDbArc
 50
184.8096995457
 51
270.0
  0
ARC
  5
2D6
100
AcDbEntity
  8
ALL_FEATURES
100
AcDbCircle
 62
7
  6
CONTINUOUS
 10
3.4945671306
 20
5.2164835365
 40
0.0155
100
AcDbArc
 50
270.0
 51
355.1903004543
  0
ARC
  5
2D7
100
AcDbEntity
  8
ALL_ASSEMBLY_MEMBERS
100
AcDbCircle
 62
7
  6
CONTINUOUS
 10
3.1288926863
 20
5.0519835365
 40
0.01
100
AcDbArc
 50
270.000000002
 51
360.0
  0
ARC
  5
2D8
100
AcDbEntity
  8
ALL_ASSEMBLY_MEMBERS
100
AcDbCircle
 62
7
  6
CONTINUOUS
 10
3.4613926863
 20
5.0519835365
 40
0.01
100
AcDbArc
 50
180.0
 51
269.999999998
  0
ARC
  5
2D9
100
AcDbEntity
  8
ALL_ASSEMBLY_MEMBERS
100
AcDbCircle
 62
7
  6
CONTINUOUS
 10
3.1538926863
 20
4.7569835365
 40
0.01
100
AcDbArc
 50
0.0
 51
89.9999999968
  0
ARC
  5
2DA
100
AcDbEntity
  8
ALL_ASSEMBLY_MEMBERS
100
AcDbCircle
 62
7
  6
CONTINUOUS
 10
3.4363926863
 20
4.7569835365
 40
0.01
100
AcDbArc
 50
90.0000000032
 51
180.0
  0
ARC
  5
2DB
100
AcDbEntity
  8
ALL_ASSEMBLY_MEMBERS
100
AcDbCircle
 62
7
  6
CONTINUOUS
 10
7.2080078844
 20
6.2454453912
 40
1.2560096164
100
AcDbArc
 50
280.6738668616
 51
281.4642232374
  0
ARC
  5
2DC
100
AcDbEntity
  8
ALL_ASSEMBLY_MEMBERS
100
AcDbCircle
 62
7
  6
CONTINUOUS
 10
7.2069652084
 20
5.9863452554
 40
0.9704119701
100
AcDbArc
 50
281.1001209518
 51
283.3058071017
  0
ARC
  5
2DD
100
AcDbEntity
  8
ALL_FEATURES
100
AcDbCircle
 62
7
  6
CONTINUOUS
 10
6.7058782353
 20
5.1889818722
 40
0.3125
100
AcDbArc
 50
4.8096995456
 51
34.9889904702
  0
ARC
  5
2DE
100
AcDbEntity
  8
ALL_FEATURES
100
AcDbCircle
 62
7
  6
CONTINUOUS
 10
7.7584171374
 20
5.1889818722
 40
0.3125
100
AcDbArc
 50
145.0110095298
 51
175.1903004544
  0
ARC
  5
2DF
100
AcDbEntity
  8
ALL_FEATURES
100
AcDbCircle
 62
7
  6
CONTINUOUS
 10
7.4559101258
 20
5.4796157381
 40
0.1019875605
100
AcDbArc
 50
325.0110095298
 51
33.0478355064
  0
ARC
  5
2E0
100
AcDbEntity
  8
ALL_FEATURES
100
AcDbCircle
 62
7
  6
CONTINUOUS
 10
7.0083852469
 20
5.4796157381
 40
0.1019875605
100
AcDbArc
 50
146.9521644936
 51
214.9889904702
  0
ARC
  5
2E1
100
AcDbEntity
  8
ALL_FEATURES
100
AcDbCircle
 62
7
  6
CONTINUOUS
 10
7.7285796308
 20
6.0444835365
 40
0.0935680556
100
AcDbArc
 50
272.1854050713
 51
360.0
  0
ARC
  5
2E2
100
AcDbEntity
  8
ALL_FEATURES
100
AcDbCircle
 62
7
  6
CONTINUOUS
 10
6.7357157419
 20
6.0444835365
 40
0.0935680556
100
AcDbArc
 50
180.0
 51
267.8145949287
  0
ARC
  5
2E3
100
AcDbEntity
  8
ALL_FEATURES
100
AcDbCircle
 62
7
  6
CONTINUOUS
 10
7.6386490232
 20
5.9504835365
 40
0.0935
100
AcDbArc
 50
270.0
 51
0.3063960032
  0
ARC
  5
2E4
100
AcDbEntity
  8
ALL_FEATURES
100
AcDbCircle
 62
7
  6
CONTINUOUS
 10
6.8256463494
 20
5.9504835365
 40
0.0935
100
AcDbArc
 50
179.6936039968
 51
270.0
  0
ARC
  5
2E5
100
AcDbEntity
  8
ALL_FEATURES
100
AcDbCircle
 62
7
  6
CONTINUOUS
 10
7.6132849531
 20
5.5820030487
 40
0.0857622668
100
AcDbArc
 50
134.9173576842
 51
213.0478355064
  0
ARC
  5
2E6
100
AcDbEntity
  8
ALL_FEATURES
100
AcDbCircle
 62
7
  6
CONTINUOUS
 10
6.8510104195
 20
5.5820030487
 40
0.0857622668
100
AcDbArc
 50
326.9521644936
 51
45.0826423158
  0
ARC
  5
2E7
100
AcDbEntity
  8
ALL_ASSEMBLY_MEMBERS
100
AcDbCircle
 62
7
  6
CONTINUOUS
 10
7.0686500043
 20
5.113560515
 40
0.0526119382
100
AcDbArc
 50
329.0535042613
 51
331.8096655559
  0
ARC
  5
2E8
100
AcDbEntity
  8
ALL_ASSEMBLY_MEMBERS
100
AcDbCircle
 62
7
  6
CONTINUOUS
 10
7.0721231124
 20
5.1295141421
 40
0.0485491909
100
AcDbArc
 50
32.0465222264
 51
33.1391435922
  0
ARC
  5
2E9
100
AcDbEntity
  8
ALL_ASSEMBLY_MEMBERS
100
AcDbCircle
 62
7
  6
CONTINUOUS
 10
7.0732689093
 20
5.1107332533
 40
0.0471966864
100
AcDbArc
 50
324.7585879913
 51
329.1136949041
  0
ARC
  5
2EA
100
AcDbEntity
  8
ALL_ASSEMBLY_MEMBERS
100
AcDbCircle
 62
7
  6
CONTINUOUS
 10
7.0739507452
 20
5.1307086471
 40
0.046365826
100
AcDbArc
 50
33.137792026
 51
35.2483689106
  0
ARC
  5
2EB
100
AcDbEntity
  8
ALL_ASSEMBLY_MEMBERS
100
AcDbCircle
 62
7
  6
CONTINUOUS
 10
7.135367602
 20
5.1114629643
 40
0.0457892083
100
AcDbArc
 50
197.3798489396
 51
198.9472339011
  0
ARC
  5
2EC
100
AcDbEntity
  8
ALL_ASSEMBLY_MEMBERS
100
AcDbCircle
 62
7
  6
CONTINUOUS
 10
7.130786098
 20
5.1098415858
 40
0.040929508
100
AcDbArc
 50
198.8829419003
 51
202.5693643091
  0
ARC
  5
2ED
100
AcDbEntity
  8
ALL_ASSEMBLY_MEMBERS
100
AcDbCircle
 62
7
  6
CONTINUOUS
 10
7.4258976863
 20
4.7669835365
 40
0.0375
100
AcDbArc
 50
90.0
 51
180.0
  0
ARC
  5
2EE
100
AcDbEntity
  8
ALL_ASSEMBLY_MEMBERS
100
AcDbCircle
 62
7
  6
CONTINUOUS
 10
7.0383976863
 20
4.7669835365
 40
0.0375
100
AcDbArc
 50
0.0
 51
90.0
  0
ARC
  5
2EF
100
AcDbEntity
  8
ALL_ASSEMBLY_MEMBERS
100
AcDbCircle
 62
7
  6
CONTINUOUS
 10
7.1253640606
 20
5.1075527697
 40
0.035044278
100
AcDbArc
 50
202.5161603774
 51
206.6079617052
  0
ARC
  5
2F0
100
AcDbEntity
  8
ALL_ASSEMBLY_MEMBERS
100
AcDbCircle
 62
7
  6
CONTINUOUS
 10
7.4596442012
 20
5.0424214462
 40
0.0274999954
100
AcDbArc
 50
180.9124159126
 51
270.2034586035
  0
ARC
  5
2F1
100
AcDbEntity
  8
ALL_ASSEMBLY_MEMBERS
100
AcDbCircle
 62
7
  6
CONTINUOUS
 10
7.4596474556
 20
4.8055883841
 40
0.0274999721
100
AcDbArc
 50
88.2923845898
 51
180.0001879106
  0
ARC
  5
2F2
100
AcDbEntity
  8
ALL_ASSEMBLY_MEMBERS
100
AcDbCircle
 62
7
  6
CONTINUOUS
 10
8.6371476863
 20
5.0007730123
 40
0.02
100
AcDbArc
 50
0.0
 51
90.0209867127
  0
ARC
  5
2F3
100
AcDbEntity
  8
ALL_ASSEMBLY_MEMBERS
100
AcDbCircle
 62
7
  6
CONTINUOUS
 10
8.6371476863
 20
4.8163540199
 40
0.02
100
AcDbArc
 50
268.4751885051
 51
360.0
  0
ARC
  5
2F4
100
AcDbEntity
  8
ALL_FEATURES
100
AcDbCircle
 62
7
  6
CONTINUOUS
 10
7.4315721306
 20
5.2164835365
 40
0.0155
100
AcDbArc
 50
270.0
 51
355.1903004543
  0
ARC
  5
2F5
100
AcDbEntity
  8
ALL_FEATURES
100
AcDbCircle
 62
7
  6
CONTINUOUS
 10
7.0327232421
 20
5.2164835365
 40
0.0155
100
AcDbArc
 50
184.8096995457
 51
270.0
  0
ARC
  5
2F6
100
AcDbEntity
  8
ALL_ASSEMBLY_MEMBERS
100
AcDbCircle
 62
7
  6
CONTINUOUS
 10
7.1032587908
 20
5.1419213111
 40
0.0148228365
100
AcDbArc
 50
77.5930057384
 51
93.5962482016
  0
ARC
  5
2F7
100
AcDbEntity
  8
ALL_ASSEMBLY_MEMBERS
100
AcDbCircle
 62
7
  6
CONTINUOUS
 10
7.1061400474
 20
5.0987244463
 40
0.0115669673
100
AcDbArc
 50
309.4040646098
 51
313.6989158794
  0
ARC
  5
2F8
100
AcDbEntity
  8
ALL_ASSEMBLY_MEMBERS
100
AcDbCircle
 62
7
  6
CONTINUOUS
 10
7.1027019675
 20
5.0967705323
 40
0.0105218023
100
AcDbArc
 50
302.8678611463
 51
304.6359984163
  0
ARC
  5
2F9
100
AcDbEntity
  8
ALL_ASSEMBLY_MEMBERS
100
AcDbCircle
 62
7
  6
CONTINUOUS
 10
7.3983976863
 20
5.0519835365
 40
0.01
100
AcDbArc
 50
180.0
 51
269.999999998
  0
ARC
  5
2FA
100
AcDbEntity
  8
ALL_ASSEMBLY_MEMBERS
100
AcDbCircle
 62
7
  6
CONTINUOUS
 10
7.0658976863
 20
5.0519835365
 40
0.01
100
AcDbArc
 50
270.000000002
 51
360.0
  0
ARC
  5
2FB
100
AcDbEntity
  8
ALL_ASSEMBLY_MEMBERS
100
AcDbCircle
 62
7
  6
CONTINUOUS
 10
7.3733976863
 20
4.7569835365
 40
0.01
100
AcDbArc
 50
90.0000000032
 51
180.0
  0
ARC
  5
2FC
100
AcDbEntity
  8
ALL_ASSEMBLY_MEMBERS
100
AcDbCircle
 62
7
  6
CONTINUOUS
 10
7.0908976863
 20
4.7569835365
 40
0.01
100
AcDbArc
 50
0.0
 51
89.9999999968
  0
ARC
  5
2FD
100
AcDbEntity
  8
ALL_ASSEMBLY_MEMBERS
100
AcDbCircle
 62
7
  6
CONTINUOUS
 10
7.1022452663
 20
5.1436981946
 40
0.007785342
100
AcDbArc
 50
90.0102333133
 51
95.9856797068
  0
LINE
  5
2FE
100
AcDbEntity
  8
ALL_ASSEMBLY_MEMBERS
100
AcDbLine
 62
7
  6
CONTINUOUS
 10
3.409247452
 20
5.0953143772
 11
3.4114620262
 21
5.0922233115
  0
LINE
  5
2FF
100
AcDbEntity
  8
ALL_ASSEMBLY_MEMBERS
100
AcDbLine
 62
7
  6
CONTINUOUS
 10
3.4114620262
 20
5.0922233115
 11
3.4130041342
 21
5.0905520092
  0
SPLINE
  5
300
100
AcDbEntity
  8
ALL_ASSEMBLY_MEMBERS
100
AcDbSpline
 62
7
  6
CONTINUOUS
 70
0
 71
3
 72
31
 73
27
 74
0
 42
0.0000001
 43
0.0000001
 44
0.0000000001
 40
0.0
 40
0.0
 40
0.0
 40
0.0
 40
0.0675955829
 40
0.10024958
 40
0.1321770178
 40
0.1939957714
 40
0.224005946
 40
0.2534853555
 40
0.2824996787
 40
0.3111200373
 40
0.3394227325
 40
0.3674890891
 40
0.3954043373
 40
0.4232559848
 40
0.4511330541
 40
0.4791249752
 40
0.5357720679
 40
0.5938953658
 40
0.6540892188
 40
0.7168536445
 40
0.7493376196
 40
0.7826030619
 40
0.8166839109
 40
0.8516073216
 40
0.9240367482
 40
1.0
 40
1.0
 40
1.0
 40
1.0
 10
3.4130041342
 20
5.0905520092
 30
0.0
 10
3.4133846977
 20
5.0901821498
 30
0.0
 10
3.4139718515
 20
5.0896560501
 30
0.0
 10
3.4147912621
 20
5.0890188117
 30
0.0
 10
3.415603303
 20
5.0884479271
 30
0.0
 10
3.4164395662
 20
5.0879490692
 30
0.0
 10
3.4172957019
 20
5.0875309288
 30
0.0
 10
3.4179369085
 20
5.0872621934
 30
0.0
 10
3.4185826567
 20
5.0870356557
 30
0.0
 10
3.4192322191
 20
5.086851661
 30
0.0
 10
3.419884837
 20
5.0867105762
 30
0.0
 10
3.4205397394
 20
5.0866127328
 30
0.0
 10
3.4211961216
 20
5.0865582535
 30
0.0
 10
3.4218531818
 20
5.0865472661
 30
0.0
 10
3.4225101519
 20
5.0865799142
 30
0.0
 10
3.4233881144
 20
5.0866820719
 30
0.0
 10
3.4244865641
 20
5.0869213921
 30
0.0
 10
3.4257842271
 20
5.0873820405
 30
0.0
 10
3.4270608444
 20
5.088014587
 30
0.0
 10
3.4280901268
 20
5.088674706
 30
0.0
 10
3.428896576
 20
5.0892815202
 30
0.0
 10
3.4294996948
 20
5.0897825189
 30
0.0
 10
3.4300932894
 20
5.0903235691
 30
0.0
 10
3.4308805764
 20
5.0911070174
 30
0.0
 10
3.4318357178
 20
5.0921857422
 30
0.0
 10
3.432540614
 20
5.0931147249
 30
0.0
 10
3.4328849306
 20
5.0936016653
 30
0.0
  0
SPLINE
  5
301
100
AcDbEntity
  8
ALL_ASSEMBLY_MEMBERS
100
AcDbSpline
 62
7
  6
CONTINUOUS
 70
0
 71
3
 72
21
 73
17
 74
0
 42
0.0000001
 43
0.0000001
 44
0.0000000001
 40
0.0
 40
0.0
 40
0.0
 40
0.0
 40
0.0697308383
 40
0.1393243434
 40
0.2771865865
 40
0.4120853488
 40
0.4780180745
 40
0.5427142836
 40
0.6060179606
 40
0.6677893778
 40
0.7278972869
 40
0.7862254717
 40
0.8426740382
 40
0.8971565679
 40
0.9496121506
 40
1.0
 40
1.0
 40
1.0
 40
1.0
 10
3.4405464969
 20
5.1204835365
 30
0.0
 10
3.4405464969
 20
5.1198671429
 30
0.0
 10
3.4405280718
 20
5.1186354804
 30
0.0
 10
3.4404183542
 20
5.1161874329
 30
0.0
 10
3.4401468212
 20
5.1131713684
 30
0.0
 10
3.4396937003
 20
5.110209718
 30
0.0
 10
3.439224226
 20
5.1079096012
 30
0.0
 10
3.4388244456
 20
5.1062422137
 30
0.0
 10
3.4383755916
 20
5.1046254968
 30
0.0
 10
3.4378794545
 20
5.1030651342
 30
0.0
 10
3.4373376776
 20
5.1015666749
 30
0.0
 10
3.4367521578
 20
5.1001354307
 30
0.0
 10
3.4361251154
 20
5.0987764135
 30
0.0
 10
3.4354585326
 20
5.0974945033
 30
0.0
 10
3.4347549356
 20
5.096294225
 30
0.0
 10
3.4342525893
 20
5.0955358158
 30
0.0
 10
3.4339954248
 20
5.0951721462
 30
0.0
  0
SPLINE
  5
302
100
AcDbEntity
  8
ALL_ASSEMBLY_MEMBERS
100
AcDbSpline
 62
7
  6
CONTINUOUS
 70
0
 71
3
 72
21
 73
17
 74
0
 42
0.0000001
 43
0.0000001
 44
0.0000000001
 40
0.0
 40
0.0
 40
0.0
 40
0.0
 40
0.0512381848
 40
0.1044250032
 40
0.1595137161
 40
0.2164352173
 40
0.2751033436
 40
0.3354211718
 40
0.3972751437
 40
0.460542547
 40
0.5250911937
 40
0.5907747068
 40
0.7249257436
 40
0.8617983556
 40
0.9308381316
 40
1.0
 40
1.0
 40
1.0
 40
1.0
 10
3.4344673828
 20
5.1451003352
 30
0.0
 10
3.4347072364
 20
5.1447331436
 30
0.0
 10
3.4351754211
 20
5.1439711394
 30
0.0
 10
3.4358311614
 20
5.1427729335
 30
0.0
 10
3.4364514265
 20
5.1415016337
 30
0.0
 10
3.4370342635
 20
5.1401614853
 30
0.0
 10
3.4375778496
 20
5.138756871
 30
0.0
 10
3.4380802361
 20
5.1372923243
 30
0.0
 10
3.4385399451
 20
5.1357726758
 30
0.0
 10
3.4389554241
 20
5.1342028763
 30
0.0
 10
3.4393252128
 20
5.1325880509
 30
0.0
 10
3.4397589626
 20
5.130366607
 30
0.0
 10
3.4401774387
 20
5.1275130614
 30
0.0
 10
3.4404282311
 20
5.1246112537
 30
0.0
 10
3.4405294973
 20
5.1222586035
 30
0.0
 10
3.4405464969
 20
5.1210755474
 30
0.0
 10
3.4405464969
 20
5.1204835365
 30
0.0
  0
SPLINE
  5
303
100
AcDbEntity
  8
ALL_ASSEMBLY_MEMBERS
100
AcDbSpline
 62
7
  6
CONTINUOUS
 70
0
 71
3
 72
41
 73
37
 74
0
 42
0.0000001
 43
0.0000001
 44
0.0000000001
 40
0.0
 40
0.0
 40
0.0
 40
0.0
 40
0.0435772512
 40
0.087032409
 40
0.1301794658
 40
0.1728637099
 40
0.2149494797
 40
0.2563016289
 40
0.2967851582
 40
0.3362721018
 40
0.3746484794
 40
0.4118091565
 40
0.4476645394
 40
0.4821379769
 40
0.5151720746
 40
0.5467305404
 40
0.5767995781
 40
0.6053961315
 40
0.6325657955
 40
0.6456445495
 40
0.658401932
 40
0.6830127929
 40
0.7065750712
 40
0.7293011481
 40
0.7514436909
 40
0.773287342
 40
0.7951336257
 40
0.8172838908
 40
0.8400223739
 40
0.8636010599
 40
0.888231643
 40
0.9009998568
 40
0.9140899692
 40
0.9412836486
 40
0.9699053259
 40
1.0
 40
1.0
 40
1.0
 40
1.0
 10
3.4095464969
 20
5.1204835365
 30
0.0
 10
3.4095464969
 20
5.1211887955
 30
0.0
 10
3.4095706015
 20
5.1225974551
 30
0.0
 10
3.4096785296
 20
5.1247019222
 30
0.0
 10
3.4098580131
 20
5.1267870286
 30
0.0
 10
3.4101081216
 20
5.1288425282
 30
0.0
 10
3.4104276641
 20
5.1308589992
 30
0.0
 10
3.4108152004
 20
5.1328272482
 30
0.0
 10
3.4112687866
 20
5.1347381648
 30
0.0
 10
3.4117865706
 20
5.1365827612
 30
0.0
 10
3.4123658634
 20
5.1383525258
 30
0.0
 10
3.4130042379
 20
5.1400392116
 30
0.0
 10
3.4136985442
 20
5.1416350751
 30
0.0
 10
3.4144457046
 20
5.1431327098
 30
0.0
 10
3.415242311
 20
5.1445251852
 30
0.0
 10
3.4160846203
 20
5.1458061536
 30
0.0
 10
3.4169690902
 20
5.1469695844
 30
0.0
 10
3.4178914385
 20
5.1480102288
 30
0.0
 10
3.4186986473
 20
5.148780551
 30
0.0
 10
3.4193595047
 20
5.1493280013
 30
0.0
 10
3.4200130138
 20
5.1498178234
 30
0.0
 10
3.4208463449
 20
5.1503488187
 30
0.0
 10
3.4218793567
 20
5.1508542258
 30
0.0
 10
3.4229287427
 20
5.1512173848
 30
0.0
 10
3.4239893776
 20
5.1514356676
 30
0.0
 10
3.4250557066
 20
5.1515079276
 30
0.0
 10
3.4261219847
 20
5.1514331347
 30
0.0
 10
3.4271824729
 20
5.1512123422
 30
0.0
 10
3.428231617
 20
5.1508466999
 30
0.0
 10
3.4292643066
 20
5.1503388652
 30
0.0
 10
3.4300972876
 20
5.1498059186
 30
0.0
 10
3.4307504949
 20
5.1493145657
 30
0.0
 10
3.43141103
 20
5.1487655592
 30
0.0
 10
3.4322177807
 20
5.1479933294
 30
0.0
 10
3.4331394775
 20
5.1469505688
 30
0.0
 10
3.4337142149
 20
5.1461926001
 30
0.0
 10
3.4339954248
 20
5.1457949267
 30
0.0
  0
LINE
  5
304
100
AcDbEntity
  8
ALL_ASSEMBLY_MEMBERS
100
AcDbLine
 62
7
  6
CONTINUOUS
 10
3.4339954248
 20
5.0951721462
 11
3.4328147905
 21
5.0936579523
  0
SPLINE
  5
305
100
AcDbEntity
  8
ALL_ASSEMBLY_MEMBERS
100
AcDbSpline
 62
7
  6
CONTINUOUS
 70
0
 71
3
 72
38
 73
34
 74
0
 42
0.0000001
 43
0.0000001
 44
0.0000000001
 40
0.0
 40
0.0
 40
0.0
 40
0.0
 40
0.0280967383
 40
0.0548485182
 40
0.0803434138
 40
0.1047028387
 40
0.1280895771
 40
0.150703182
 40
0.1727786017
 40
0.1945777887
 40
0.2163771291
 40
0.2384529994
 40
0.2610673305
 40
0.2844550332
 40
0.3088156226
 40
0.3343118378
 40
0.3475283274
 40
0.3610713219
 40
0.3891695716
 40
0.4186649977
 40
0.4495816122
 40
0.4819180829
 40
0.5156484259
 40
0.5507303861
 40
0.5871011582
 40
0.624685842
 40
0.6633961402
 40
0.7031326507
 40
0.7437874541
 40
0.82735435
 40
0.9131230974
 40
0.9565069902
 40
1.0
 40
1.0
 40
1.0
 40
1.0
 10
3.4327958435
 20
5.0936360397
 30
0.0
 10
3.4325101058
 20
5.0933061163
 30
0.0
 10
3.4319285577
 20
5.0926820259
 30
0.0
 10
3.4310042852
 20
5.0918411251
 30
0.0
 10
3.4300537239
 20
5.0911221891
 30
0.0
 10
3.4290805162
 20
5.0905288783
 30
0.0
 10
3.4280888059
 20
5.0900638675
 30
0.0
 10
3.4270827403
 20
5.0897297067
 30
0.0
 10
3.4260668337
 20
5.0895284878
 30
0.0
 10
3.4250459362
 20
5.0894611657
 30
0.0
 10
3.4240250417
 20
5.0895286354
 30
0.0
 10
3.4230091428
 20
5.089730001
 30
0.0
 10
3.4220030921
 20
5.0900643058
 30
0.0
 10
3.4210113939
 20
5.0905294627
 30
0.0
 10
3.4200382321
 20
5.0911228972
 30
0.0
 10
3.4192555775
 20
5.0917149637
 30
0.0
 10
3.4186423972
 20
5.092247196
 30
0.0
 10
3.4180234393
 20
5.092833277
 30
0.0
 10
3.4172693115
 20
5.0936427169
 30
0.0
 10
3.4164088913
 20
5.0947165699
 30
0.0
 10
3.4155856447
 20
5.0959002105
 30
0.0
 10
3.414803076
 20
5.0971885862
 30
0.0
 10
3.4140642373
 20
5.0985761728
 30
0.0
 10
3.4133724918
 20
5.1000572025
 30
0.0
 10
3.4127304872
 20
5.1016252814
 30
0.0
 10
3.4121411281
 20
5.1032738233
 30
0.0
 10
3.4116068456
 20
5.1049957941
 30
0.0
 10
3.4111298542
 20
5.1067838932
 30
0.0
 10
3.4105681123
 20
5.1092686533
 30
0.0
 10
3.410025406
 20
5.1124881984
 30
0.0
 10
3.4097002554
 20
5.1157792005
 30
0.0
 10
3.4095686209
 20
5.1184582374
 30
0.0
 10
3.4095464969
 20
5.1198079111
 30
0.0
 10
3.4095464969
 20
5.1204835365
 30
0.0
  0
SPLINE
  5
306
100
AcDbEntity
  8
ALL_ASSEMBLY_MEMBERS
100
AcDbSpline
 62
7
  6
CONTINUOUS
 70
0
 71
3
 72
11
 73
7
 74
0
 42
0.0000001
 43
0.0000001
 44
0.0000000001
 40
0.0
 40
0.0
 40
0.0
 40
0.0
 40
0.2435219719
 40
0.4908629285
 40
0.7427899528
 40
1.0
 40
1.0
 40
1.0
 40
1.0
 10
3.4159530472
 20
5.088246844
 30
0.0
 10
3.4156930405
 20
5.0883104489
 30
0.0
 10
3.415173413
 20
5.0884576641
 30
0.0
 10
3.4144047222
 20
5.0887346421
 30
0.0
 10
3.4136426705
 20
5.089068791
 30
0.0
 10
3.4131453946
 20
5.0893264608
 30
0.0
 10
3.4128984626
 20
5.0894641367
 30
0.0
  0
LINE
  5
307
100
AcDbEntity
  8
ALL_ASSEMBLY_MEMBERS
100
AcDbLine
 62
7
  6
CONTINUOUS
 10
3.4128984626
 20
5.0894641367
 11
3.4114313842
 21
5.0904013161
  0
SPLINE
  5
308
100
AcDbEntity
  8
ALL_ASSEMBLY_MEMBERS
100
AcDbSpline
 62
7
  6
CONTINUOUS
 70
0
 71
3
 72
21
 73
17
 74
0
 42
0.0000001
 43
0.0000001
 44
0.0000000001
 40
0.0
 40
0.0
 40
0.0
 40
0.0
 40
0.0697308383
 40
0.1393243434
 40
0.2771865865
 40
0.4120853488
 40
0.4780180745
 40
0.5427142836
 40
0.6060179606
 40
0.6677893778
 40
0.7278972869
 40
0.7862254717
 40
0.8426740382
 40
0.8971565679
 40
0.9496121506
 40
1.0
 40
1.0
 40
1.0
 40
1.0
 10
7.0867438758
 20
5.1204835365
 30
0.0
 10
7.0867438758
 20
5.12109993
 30
0.0
 10
7.0867623008
 20
5.1223315926
 30
0.0
 10
7.0868720185
 20
5.12477964
 30
0.0
 10
7.0871435515
 20
5.1277957046
 30
0.0
 10
7.0875966723
 20
5.1307573549
 30
0.0
 10
7.0880661466
 20
5.1330574717
 30
0.0
 10
7.0884659271
 20
5.1347248592
 30
0.0
 10
7.0889147811
 20
5.1363415762
 30
0.0
 10
7.0894109182
 20
5.1379019387
 30
0.0
 10
7.089952695
 20
5.1394003981
 30
0.0
 10
7.0905382149
 20
5.1408316422
 30
0.0
 10
7.0911652573
 20
5.1421906594
 30
0.0
 10
7.0918318401
 20
5.1434725697
 30
0.0
 10
7.0925354371
 20
5.1446728479
 30
0.0
 10
7.0930377834
 20
5.1454312571
 30
0.0
 10
7.0932949479
 20
5.1457949267
 30
0.0
  0
LINE
  5
309
100
AcDbEntity
  8
ALL_ASSEMBLY_MEMBERS
100
AcDbLine
 62
7
  6
CONTINUOUS
 10
7.0932949479
 20
5.0951721462
 11
7.0916797877
 21
5.0977987681
  0
SPLINE
  5
30A
100
AcDbEntity
  8
ALL_ASSEMBLY_MEMBERS
100
AcDbSpline
 62
7
  6
CONTINUOUS
 70
0
 71
3
 72
15
 73
11
 74
0
 42
0.0000001
 43
0.0000001
 44
0.0000000001
 40
0.0
 40
0.0
 40
0.0
 40
0.0
 40
0.1120921143
 40
0.2283780086
 40
0.3486470159
 40
0.4726573678
 40
0.600123635
 40
0.7307356775
 40
0.8641520134
 40
1.0
 40
1.0
 40
1.0
 40
1.0
 10
7.0916797877
 20
5.0977987681
 30
0.0
 10
7.091435624
 20
5.0982535592
 30
0.0
 10
7.0909630682
 20
5.0991937113
 30
0.0
 10
7.0903128564
 20
5.1006622993
 30
0.0
 10
7.08971025
 20
5.1022100966
 30
0.0
 10
7.0891579004
 20
5.1038309606
 30
0.0
 10
7.0886577809
 20
5.105518393
 30
0.0
 10
7.0882120252
 20
5.1072657063
 30
0.0
 10
7.0878224206
 20
5.1090658515
 30
0.0
 10
7.0876028246
 20
5.1102865211
 30
0.0
 10
7.0875024998
 20
5.1109040096
 30
0.0
  0
SPLINE
  5
30B
100
AcDbEntity
  8
ALL_ASSEMBLY_MEMBERS
100
AcDbSpline
 62
7
  6
CONTINUOUS
 70
0
 71
3
 72
11
 73
7
 74
0
 42
0.0000001
 43
0.0000001
 44
0.0000000001
 40
0.0
 40
0.0
 40
0.0
 40
0.0
 40
0.2459354179
 40
0.4953660283
 40
0.747181397
 40
1.0
 40
1.0
 40
1.0
 40
1.0
 10
7.0875024998
 20
5.1109040096
 30
0.0
 10
7.0873760379
 20
5.1116823689
 30
0.0
 10
7.0871547265
 20
5.1132557591
 30
0.0
 10
7.0869180774
 20
5.115640427
 30
0.0
 10
7.0867756846
 20
5.1180546698
 30
0.0
 10
7.0867438758
 20
5.1196729007
 30
0.0
 10
7.0867438758
 20
5.1204835365
 30
0.0
  0
SPLINE
  5
30C
100
AcDbEntity
  8
ALL_ASSEMBLY_MEMBERS
100
AcDbSpline
 62
7
  6
CONTINUOUS
 70
0
 71
3
 72
24
 73
20
 74
0
 42
0.0000001
 43
0.0000001
 44
0.0000000001
 40
0.0
 40
0.0
 40
0.0
 40
0.0
 40
0.0781693173
 40
0.1529937796
 40
0.2245571843
 40
0.292989255
 40
0.3584816656
 40
0.390210634
 40
0.4213056288
 40
0.4817491955
 40
0.5402238236
 40
0.597189495
 40
0.6531657713
 40
0.7087160733
 40
0.7644255879
 40
0.8208775192
 40
0.8786268011
 40
0.9381855809
 40
1.0
 40
1.0
 40
1.0
 40
1.0
 10
7.0955259048
 20
5.0920171169
 30
0.0
 10
7.0957539344
 20
5.0916946183
 30
0.0
 10
7.0962176528
 20
5.0910754586
 30
0.0
 10
7.0969524268
 20
5.0902099103
 30
0.0
 10
7.0977089747
 20
5.0894303273
 30
0.0
 10
7.0984852004
 20
5.0887392956
 30
0.0
 10
7.0991536197
 20
5.088233729
 30
0.0
 10
7.0996955438
 20
5.0878774416
 30
0.0
 10
7.1002311358
 20
5.0875591734
 30
0.0
 10
7.1009095514
 20
5.0872181794
 30
0.0
 10
7.1017415744
 20
5.0869013247
 30
0.0
 10
7.1025813499
 20
5.0866820592
 30
0.0
 10
7.1034260695
 20
5.0865617177
 30
0.0
 10
7.1042727676
 20
5.0865408104
 30
0.0
 10
7.1051184373
 20
5.0866199049
 30
0.0
 10
7.1059600114
 20
5.0867988595
 30
0.0
 10
7.106794615
 20
5.0870770514
 30
0.0
 10
7.1076192401
 20
5.0874538103
 30
0.0
 10
7.1081498393
 20
5.0877635225
 30
0.0
 10
7.1084121854
 20
5.0879330136
 30
0.0
  0
SPLINE
  5
30D
100
AcDbEntity
  8
ALL_ASSEMBLY_MEMBERS
100
AcDbSpline
 62
7
  6
CONTINUOUS
 70
0
 71
3
 72
15
 73
11
 74
0
 42
0.0000001
 43
0.0000001
 44
0.0000000001
 40
0.0
 40
0.0
 40
0.0
 40
0.0
 40
0.1006428617
 40
0.2076929173
 40
0.3216744901
 40
0.442878316
 40
0.5714189859
 40
0.7072720442
 40
0.850274985
 40
1.0
 40
1.0
 40
1.0
 40
1.0
 10
7.1086821475
 20
5.0881134097
 30
0.0
 10
7.1090511695
 20
5.0883682378
 30
0.0
 10
7.1097803527
 20
5.0889420632
 30
0.0
 10
7.1108065038
 20
5.0899460948
 30
0.0
 10
7.1117909806
 20
5.091113484
 30
0.0
 10
7.1127280794
 20
5.0924379481
 30
0.0
 10
7.1136120996
 20
5.0939130012
 30
0.0
 10
7.1144377523
 20
5.0955311407
 30
0.0
 10
7.1151993275
 20
5.0972836054
 30
0.0
 10
7.115651245
 20
5.0985079918
 30
0.0
 10
7.1158661552
 20
5.099139595
 30
0.0
  0
SPLINE
  5
30E
100
AcDbEntity
  8
ALL_ASSEMBLY_MEMBERS
100
AcDbSpline
 62
7
  6
CONTINUOUS
 70
0
 71
3
 72
11
 73
7
 74
0
 42
0.0000001
 43
0.0000001
 44
0.0000000001
 40
0.0
 40
0.0
 40
0.0
 40
0.0
 40
0.252818603
 40
0.5046339717
 40
0.7540645821
 40
1.0
 40
1.0
 40
1.0
 40
1.0
 10
7.1177438758
 20
5.1204835365
 30
0.0
 10
7.1177438758
 20
5.1196729007
 30
0.0
 10
7.117712067
 20
5.1180546698
 30
0.0
 10
7.1175696742
 20
5.115640427
 30
0.0
 10
7.117333025
 20
5.1132557591
 30
0.0
 10
7.1171117137
 20
5.1116823689
 30
0.0
 10
7.1169852518
 20
5.1109040096
 30
0.0
  0
SPLINE
  5
30F
100
AcDbEntity
  8
ALL_ASSEMBLY_MEMBERS
100
AcDbSpline
 62
7
  6
CONTINUOUS
 70
0
 71
3
 72
36
 73
32
 74
0
 42
0.0000001
 43
0.0000001
 44
0.0000000001
 40
0.0
 40
0.0
 40
0.0
 40
0.0
 40
0.0883659062
 40
0.1738167203
 40
0.2152577632
 40
0.2557454775
 40
0.2952155776
 40
0.3336128646
 40
0.3708876993
 40
0.4069979218
 40
0.4419140732
 40
0.4756151735
 40
0.5080911802
 40
0.539348623
 40
0.5982682604
 40
0.6260532115
 40
0.6528033939
 40
0.6786130939
 40
0.7036006779
 40
0.7279040429
 40
0.7516809524
 40
0.7751070287
 40
0.7983686425
 40
0.8216585045
 40
0.8451680487
 40
0.8690809976
 40
0.8935685577
 40
0.9187825232
 40
0.9448552781
 40
0.9718985881
 40
1.0
 40
1.0
 40
1.0
 40
1.0
 10
7.1169852518
 20
5.1109040096
 30
0.0
 10
7.11681937
 20
5.1098830255
 30
0.0
 10
7.1164369359
 20
5.107883352
 30
0.0
 10
7.1158159865
 20
5.1054395573
 30
0.0
 10
7.1152409029
 20
5.1035662526
 30
0.0
 10
7.1147780339
 20
5.1022223991
 30
0.0
 10
7.1142803783
 20
5.1009291265
 30
0.0
 10
7.1137494335
 20
5.0996899453
 30
0.0
 10
7.113186655
 20
5.0985082755
 30
0.0
 10
7.1125934583
 20
5.0973874449
 30
0.0
 10
7.1119715991
 20
5.0963304656
 30
0.0
 10
7.1113227859
 20
5.0953402721
 30
0.0
 10
7.1106485658
 20
5.0944195838
 30
0.0
 10
7.1097366086
 20
5.0933101253
 30
0.0
 10
7.108765332
 20
5.0923219549
 30
0.0
 10
7.1077368249
 20
5.0914801317
 30
0.0
 10
7.1069647727
 20
5.0909412781
 30
0.0
 10
7.106179087
 20
5.0904844623
 30
0.0
 10
7.1053819804
 20
5.0901108682
 30
0.0
 10
7.1045756205
 20
5.0898217265
 30
0.0
 10
7.1037622487
 20
5.0896182123
 30
0.0
 10
7.1029443189
 20
5.0895008113
 30
0.0
 10
7.102124244
 20
5.0894700144
 30
0.0
 10
7.101304541
 20
5.0895261328
 30
0.0
 10
7.1004876913
 20
5.089668692
 30
0.0
 10
7.0996761129
 20
5.0898972528
 30
0.0
 10
7.098872232
 20
5.0902111684
 30
0.0
 10
7.0980782292
 20
5.090609151
 30
0.0
 10
7.0972962887
 20
5.0910900432
 30
0.0
 10
7.0965286521
 20
5.0916524587
 30
0.0
 10
7.0960374289
 20
5.0920722344
 30
0.0
 10
7.0957947518
 20
5.0922942954
 30
0.0
  0
SPLINE
  5
310
100
AcDbEntity
  8
ALL_ASSEMBLY_MEMBERS
100
AcDbSpline
 62
7
  6
CONTINUOUS
 70
0
 71
3
 72
10
 73
6
 74
0
 42
0.0000001
 43
0.0000001
 44
0.0000000001
 40
0.0
 40
0.0
 40
0.0
 40
0.0
 40
0.482662079
 40
0.7369502828
 40
1.0
 40
1.0
 40
1.0
 40
1.0
 10
7.0957947518
 20
5.0922942954
 30
0.0
 10
7.0953415755
 20
5.092708973
 30
0.0
 10
7.0946891823
 20
5.093386531
 30
0.0
 10
7.0938807965
 20
5.0943698023
 30
0.0
 10
7.0934882361
 20
5.0948988074
 30
0.0
 10
7.0932949479
 20
5.0951721462
 30
0.0
  0
SPLINE
  5
311
100
AcDbEntity
  8
ALL_ASSEMBLY_MEMBERS
100
AcDbSpline
 62
7
  6
CONTINUOUS
 70
0
 71
3
 72
15
 73
11
 74
0
 42
0.0000001
 43
0.0000001
 44
0.0000000001
 40
0.0
 40
0.0
 40
0.0
 40
0.0
 40
0.1121665338
 40
0.2292643196
 40
0.3507151327
 40
0.4759214496
 40
0.6041974547
 40
0.7348077954
 40
0.8670170328
 40
1.0
 40
1.0
 40
1.0
 40
1.0
 10
7.1158661552
 20
5.099139595
 30
0.0
 10
7.1161917289
 20
5.0998891163
 30
0.0
 10
7.1168057208
 20
5.1014438696
 30
0.0
 10
7.1176006301
 20
5.1038735564
 30
0.0
 10
7.1182842358
 20
5.1064353051
 30
0.0
 10
7.118851151
 20
5.1091085393
 30
0.0
 10
7.1192967992
 20
5.1118721813
 30
0.0
 10
7.1196177386
 20
5.1147043736
 30
0.0
 10
7.1198112732
 20
5.1175823899
 30
0.0
 10
7.119854385
 20
5.119514702
 30
0.0
 10
7.119854385
 20
5.1204835365
 30
0.0
  0
SPLINE
  5
312
100
AcDbEntity
  8
ALL_ASSEMBLY_MEMBERS
100
AcDbSpline
 62
7
  6
CONTINUOUS
 70
0
 71
3
 72
12
 73
8
 74
0
 42
0.0000001
 43
0.0000001
 44
0.0000000001
 40
0.0
 40
0.0
 40
0.0
 40
0.0
 40
0.265078517
 40
0.394029641
 40
0.5204689132
 40
0.7655544429
 40
1.0
 40
1.0
 40
1.0
 40
1.0
 10
7.1207755443
 20
5.1367606531
 30
0.0
 10
7.1203139057
 20
5.1375738478
 30
0.0
 10
7.1195877396
 20
5.1387608436
 30
0.0
 10
7.1185432606
 20
5.1402712425
 30
0.0
 10
7.1174829238
 20
5.1416833431
 30
0.0
 10
7.1160952969
 20
5.1433128732
 30
0.0
 10
7.1148820419
 20
5.1444962876
 30
0.0
 10
7.1142600318
 20
5.1450413406
 30
0.0
  0
SPLINE
  5
313
100
AcDbEntity
  8
ALL_ASSEMBLY_MEMBERS
100
AcDbSpline
 62
7
  6
CONTINUOUS
 70
0
 71
3
 72
18
 73
14
 74
0
 42
0.0000001
 43
0.0000001
 44
0.0000000001
 40
0.0
 40
0.0
 40
0.0
 40
0.0
 40
0.136454386
 40
0.2717543332
 40
0.4047383481
 40
0.5343241107
 40
0.6594861088
 40
0.7201250916
 40
0.7793211774
 40
0.8369835643
 40
0.8930359242
 40
0.9474020501
 40
1.0
 40
1.0
 40
1.0
 40
1.0
 10
7.119854385
 20
5.1204835365
 30
0.0
 10
7.119854385
 20
5.121641145
 30
0.0
 10
7.1197929701
 20
5.1239470501
 30
0.0
 10
7.1195173487
 20
5.1273711676
 30
0.0
 10
7.1190613833
 20
5.1307173822
 30
0.0
 10
7.1184304097
 20
5.1339474869
 30
0.0
 10
7.1177576627
 20
5.1365391744
 30
0.0
 10
7.1171352623
 20
5.1385225849
 30
0.0
 10
7.1166347507
 20
5.1399431126
 30
0.0
 10
7.1160970335
 20
5.1413082527
 30
0.0
 10
7.1155235999
 20
5.1426141952
 30
0.0
 10
7.1149161328
 20
5.1438570093
 30
0.0
 10
7.1144824434
 20
5.1446545074
 30
0.0
 10
7.1142600318
 20
5.1450413406
 30
0.0
  0
SPLINE
  5
314
100
AcDbEntity
  8
ALL_ASSEMBLY_MEMBERS
100
AcDbSpline
 62
7
  6
CONTINUOUS
 70
0
 71
3
 72
14
 73
10
 74
0
 42
0.0000001
 43
0.0000001
 44
0.0000000001
 40
0.0
 40
0.0
 40
0.0
 40
0.0
 40
0.1418216731
 40
0.2784938949
 40
0.5366596529
 40
0.6586647875
 40
0.7762863728
 40
0.8899057234
 40
1.0
 40
1.0
 40
1.0
 40
1.0
 10
7.0932949479
 20
5.1457949267
 30
0.0
 10
7.0935052245
 20
5.1460922897
 30
0.0
 10
7.0939328266
 20
5.146666107
 30
0.0
 10
7.0948154665
 20
5.1477250046
 30
0.0
 10
7.0957530457
 20
5.1486705437
 30
0.0
 10
7.0967434805
 20
5.1494801967
 30
0.0
 10
7.0974869481
 20
5.1500015812
 30
0.0
 10
7.0982430639
 20
5.1504468265
 30
0.0
 10
7.0987617829
 20
5.1506957845
 30
0.0
 10
7.0990219756
 20
5.1508063829
 30
0.0
  0
LINE
  5
315
100
AcDbEntity
  8
ALL_ASSEMBLY_MEMBERS
100
AcDbLine
 62
7
  6
CONTINUOUS
 10
7.0990219756
 20
5.1508063829
 11
7.1014334116
 21
5.1514410908
  0
SPLINE
  5
316
100
AcDbEntity
  8
ALL_ASSEMBLY_MEMBERS
100
AcDbSpline
 62
7
  6
CONTINUOUS
 70
0
 71
3
 72
32
 73
28
 74
0
 42
0.0000001
 43
0.0000001
 44
0.0000000001
 40
0.0
 40
0.0
 40
0.0
 40
0.0
 40
0.0202860603
 40
0.040717733
 40
0.0614358214
 40
0.0825735989
 40
0.104251914
 40
0.1265774551
 40
0.1496434788
 40
0.1735269164
 40
0.223951588
 40
0.2506012714
 40
0.2782326727
 40
0.3068569452
 40
0.3364756321
 40
0.3670785829
 40
0.3986489743
 40
0.4311638834
 40
0.4645910881
 40
0.5340193879
 40
0.5699416144
 40
0.6065983569
 40
0.6818863591
 40
0.7594036527
 40
0.8386317495
 40
0.9190435147
 40
1.0
 40
1.0
 40
1.0
 40
1.0
 10
7.1022438758
 20
5.1514835365
 30
0.0
 10
7.1024976974
 20
5.1514835365
 30
0.0
 10
7.1030075112
 20
5.1514583757
 30
0.0
 10
7.1037690381
 20
5.1513456056
 30
0.0
 10
7.1045267077
 20
5.1511581352
 30
0.0
 10
7.1052784517
 20
5.1508963299
 30
0.0
 10
7.1060224721
 20
5.150561083
 30
0.0
 10
7.1067570112
 20
5.1501533918
 30
0.0
 10
7.1074802841
 20
5.1496741567
 30
0.0
 10
7.1084446381
 20
5.1489281384
 30
0.0
 10
7.1093612987
 20
5.1480530807
 30
0.0
 10
7.1102274209
 20
5.1470696128
 30
0.0
 10
7.1108698408
 20
5.1462544664
 30
0.0
 10
7.1114913581
 20
5.1453774861
 30
0.0
 10
7.1120905066
 20
5.1444406471
 30
0.0
 10
7.1126659701
 20
5.1434462973
 30
0.0
 10
7.1132163625
 20
5.1423967921
 30
0.0
 10
7.1137402762
 20
5.1412945764
 30
0.0
 10
7.1144104241
 20
5.1397386882
 30
0.0
 10
7.1150121048
 20
5.1381082019
 30
0.0
 10
7.1155479295
 20
5.1364139066
 30
0.0
 10
7.1160517293
 20
5.1346334151
 30
0.0
 10
7.1165953382
 20
5.1323245759
 30
0.0
 10
7.1171049894
 20
5.1294650766
 30
0.0
 10
7.1174725632
 20
5.1265192536
 30
0.0
 10
7.1176943654
 20
5.1235158847
 30
0.0
 10
7.1177438758
 20
5.1214964737
 30
0.0
 10
7.1177438758
 20
5.1204835365
 30
0.0
  0
SPLINE
  5
317
100
AcDbEntity
  8
ALL_ASSEMBLY_MEMBERS
100
AcDbSpline
 62
7
  6
CONTINUOUS
 70
0
 71
3
 72
36
 73
32
 74
0
 42
0.0000001
 43
0.0000001
 44
0.0000000001
 40
0.0
 40
0.0
 40
0.0
 40
0.0
 40
0.0288780075
 40
0.0587517632
 40
0.0895609277
 40
0.1212476963
 40
0.1537539027
 40
0.1870108015
 40
0.2554320693
 40
0.325804985
 40
0.3614831106
 40
0.3973471649
 40
0.4332906874
 40
0.4692054175
 40
0.5049824351
 40
0.540513217
 40
0.5756894061
 40
0.6104049617
 40
0.6780310965
 40
0.7107544008
 40
0.7426231639
 40
0.7735525311
 40
0.8034627135
 40
0.8322833297
 40
0.8599531003
 40
0.8864208594
 40
0.9116501496
 40
0.935616755
 40
0.9583167889
 40
0.979764586
 40
1.0
 40
1.0
 40
1.0
 40
1.0
 10
7.1142600318
 20
5.1450413406
 30
0.0
 10
7.1145715904
 20
5.144580317
 30
0.0
 10
7.1151788855
 20
5.1436241881
 30
0.0
 10
7.1160280745
 20
5.1421211395
 30
0.0
 10
7.1168280384
 20
5.1405305124
 30
0.0
 10
7.1175759502
 20
5.1388591201
 30
0.0
 10
7.1182694839
 20
5.1371136159
 30
0.0
 10
7.1191267344
 20
5.1346737553
 30
0.0
 10
7.120043764
 20
5.1314846247
 30
0.0
 10
7.1207440965
 20
5.1281938417
 30
0.0
 10
7.1211801956
 20
5.1254939888
 30
0.0
 10
7.1214438054
 20
5.1234393943
 30
0.0
 10
7.1216418133
 20
5.1213728971
 30
0.0
 10
7.1217741518
 20
5.119302837
 30
0.0
 10
7.1218406356
 20
5.117237574
 30
0.0
 10
7.1218417452
 20
5.115185482
 30
0.0
 10
7.1217778986
 20
5.1131547995
 30
0.0
 10
7.1216087918
 20
5.1105101586
 30
0.0
 10
7.1213151901
 20
5.107921871
 30
0.0
 10
7.12089371
 20
5.1054089223
 30
0.0
 10
7.1205226375
 20
5.1036057265
 30
0.0
 10
7.1200954351
 20
5.1018707647
 30
0.0
 10
7.1196142394
 20
5.100211011
 30
0.0
 10
7.1190815887
 20
5.0986331502
 30
0.0
 10
7.1185002371
 20
5.0971434915
 30
0.0
 10
7.1178729054
 20
5.0957480628
 30
0.0
 10
7.1172028589
 20
5.094452355
 30
0.0
 10
7.1164930497
 20
5.0932616497
 30
0.0
 10
7.1157469706
 20
5.0921805591
 30
0.0
 10
7.1149680014
 20
5.091213561
 30
0.0
 10
7.1144133066
 20
5.0906310092
 30
0.0
 10
7.1141313034
 20
5.0903617577
 30
0.0
  0
SPLINE
  5
318
100
AcDbEntity
  8
ALL_ASSEMBLY_MEMBERS
100
AcDbSpline
 62
7
  6
CONTINUOUS
 70
0
 71
3
 72
14
 73
10
 74
0
 42
0.0000001
 43
0.0000001
 44
0.0000000001
 40
0.0
 40
0.0
 40
0.0
 40
0.0
 40
0.2712316089
 40
0.4000310819
 40
0.524953426
 40
0.6466518197
 40
0.7658576727
 40
0.8833610333
 40
1.0
 40
1.0
 40
1.0
 40
1.0
 10
7.1134825885
 20
5.0897867832
 30
0.0
 10
7.1131239605
 20
5.0894929335
 30
0.0
 10
7.1125654365
 20
5.0890928559
 30
0.0
 10
7.1117787058
 20
5.088659669
 30
0.0
 10
7.1111921287
 20
5.0883973621
 30
0.0
 10
7.1106003266
 20
5.0881927805
 30
0.0
 10
7.1100045198
 20
5.0880462429
 30
0.0
 10
7.1094060752
 20
5.0879581305
 30
0.0
 10
7.109005561
 20
5.0879385513
 30
0.0
 10
7.1088061799
 20
5.0879385629
 30
0.0
  0
SPLINE
  5
319
100
AcDbEntity
  8
ALL_FEATURES
100
AcDbSpline
 62
7
  6
CONTINUOUS
 70
0
 71
3
 72
29
 73
25
 74
0
 42
0.0000001
 43
0.0000001
 44
0.0000000001
 40
0.0
 40
0.0
 40
0.0
 40
0.0
 40
0.0699560868
 40
0.13784658
 40
0.2034893097
 40
0.2667669502
 40
0.2975285836
 40
0.3277204742
 40
0.3865253343
 40
0.4152847762
 40
0.4437147735
 40
0.4719164081
 40
0.5000000428
 40
0.5280836737
 40
0.5562853068
 40
0.5847153039
 40
0.6134747373
 40
0.6722795856
 40
0.7024714675
 40
0.7332330897
 40
0.7965107179
 40
0.8621534255
 40
0.9300439121
 40
1.0
 40
1.0
 40
1.0
 40
1.0
 10
7.4216629122
 20
5.7010112653
 30
0.0
 10
7.4253026571
 20
5.697382005
 30
0.0
 10
7.4326299143
 20
5.690383316
 30
0.0
 10
7.4439811421
 20
5.6806396739
 30
0.0
 10
7.4555463196
 20
5.6719397452
 30
0.0
 10
7.4654641678
 20
5.66564058
 30
0.0
 10
7.4735074726
 20
5.6613169541
 30
0.0
 10
7.4814684982
 20
5.657562541
 30
0.0
 10
7.4896054594
 20
5.6545450129
 30
0.0
 10
7.4978571434
 20
5.6523909289
 30
0.0
 10
7.5040295259
 20
5.6512353858
 30
0.0
 10
7.5102201655
 20
5.65053667
 30
0.0
 10
7.5164205344
 20
5.6503014217
 30
0.0
 10
7.5226209039
 20
5.6505366653
 30
0.0
 10
7.5288115416
 20
5.651235394
 30
0.0
 10
7.5349839239
 20
5.6523909321
 30
0.0
 10
7.5432356075
 20
5.6545450132
 30
0.0
 10
7.5513725635
 20
5.6575625486
 30
0.0
 10
7.5593335885
 20
5.6613169575
 30
0.0
 10
7.5673768898
 20
5.6656405849
 30
0.0
 10
7.5772947351
 20
5.6719397484
 30
0.0
 10
7.5888599101
 20
5.6806396754
 30
0.0
 10
7.6002111359
 20
5.6903833166
 30
0.0
 10
7.6075383931
 20
5.6973820051
 30
0.0
 10
7.6111781381
 20
5.7010112654
 30
0.0
  0
SPLINE
  5
31A
100
AcDbEntity
  8
ALL_FEATURES
100
AcDbSpline
 62
7
  6
CONTINUOUS
 70
0
 71
3
 72
25
 73
21
 74
0
 42
0.0000001
 43
0.0000001
 44
0.0000000001
 40
0.0
 40
0.0
 40
0.0
 40
0.0
 40
0.0624929806
 40
0.124992063
 40
0.1874901494
 40
0.2499875637
 40
0.3124863968
 40
0.3749877552
 40
0.4062424267
 40
0.4374984188
 40
0.500000049
 40
0.5625016702
 40
0.5937576629
 40
0.6250123268
 40
0.687513666
 40
0.7500124777
 40
0.8125098781
 40
0.8750079428
 40
0.9375070178
 40
1.0
 40
1.0
 40
1.0
 40
1.0
 10
7.0426324605
 20
5.7010112653
 30
0.0
 10
7.0500128602
 20
5.6973316895
 30
0.0
 10
7.06490479
 20
5.690229314
 30
0.0
 10
7.0876544303
 20
5.6804837443
 30
0.0
 10
7.1108297651
 20
5.671789813
 30
0.0
 10
7.1344318431
 20
5.664322224
 30
0.0
 10
7.1584351853
 20
5.658254866
 30
0.0
 10
7.1787308408
 20
5.6545148145
 30
0.0
 10
7.1950927452
 20
5.6523830206
 30
0.0
 10
7.2115214205
 20
5.6508482735
 30
0.0
 10
7.2321477046
 20
5.6500673783
 30
0.0
 10
7.2527739883
 20
5.6508482801
 30
0.0
 10
7.2692026617
 20
5.6523830244
 30
0.0
 10
7.2855645632
 20
5.6545148142
 30
0.0
 10
7.3058602108
 20
5.6582548742
 30
0.0
 10
7.3298635464
 20
5.664322228
 30
0.0
 10
7.3534656168
 20
5.6717898163
 30
0.0
 10
7.376640947
 20
5.6804837438
 30
0.0
 10
7.3993905806
 20
5.6902293201
 30
0.0
 10
7.4142825099
 20
5.6973316943
 30
0.0
 10
7.4216629122
 20
5.7010112654
 30
0.0
  0
SPLINE
  5
31B
100
AcDbEntity
  8
ALL_FEATURES
100
AcDbSpline
 62
7
  6
CONTINUOUS
 70
0
 71
3
 72
29
 73
25
 74
0
 42
0.0000001
 43
0.0000001
 44
0.0000000001
 40
0.0
 40
0.0
 40
0.0
 40
0.0
 40
0.0699599907
 40
0.1378540783
 40
0.2034971032
 40
0.2354419712
 40
0.2667925134
 40
0.3277252776
 40
0.3865300523
 40
0.4152896277
 40
0.4437200678
 40
0.4719209779
 40
0.5000047033
 40
0.5280884284
 40
0.5562893322
 40
0.5847197616
 40
0.6134793251
 40
0.6722840638
 40
0.7332167674
 40
0.796497027
 40
0.8621400821
 40
0.8958205205
 40
0.9300407558
 40
1.0
 40
1.0
 40
1.0
 40
1.0
 10
6.8531172346
 20
5.7010122279
 30
0.0
 10
6.8567571251
 20
5.6973828225
 30
0.0
 10
6.8640848488
 20
5.6903838504
 30
0.0
 10
6.8754351518
 20
5.680639644
 30
0.0
 10
6.8851608513
 20
5.6733235956
 30
0.0
 10
6.8930612818
 20
5.6680908294
 30
0.0
 10
6.9008859339
 20
5.6633867551
 30
0.0
 10
6.9108017153
 20
5.6583504979
 30
0.0
 10
6.9210594896
 20
5.6545434221
 30
0.0
 10
6.9293120747
 20
5.6523919251
 30
0.0
 10
6.9354839126
 20
5.6512348012
 30
0.0
 10
6.9416745043
 20
5.6505355385
 30
0.0
 10
6.9478747782
 20
5.6503029308
 30
0.0
 10
6.9540750522
 20
5.650535532
 30
0.0
 10
6.9602656428
 20
5.6512347752
 30
0.0
 10
6.9664374871
 20
5.6523918959
 30
0.0
 10
6.9746900339
 20
5.6545433666
 30
0.0
 10
6.9849481012
 20
5.658350527
 30
0.0
 10
6.9969581169
 20
5.6644506651
 30
0.0
 10
7.0087479089
 20
5.6719391456
 30
0.0
 10
7.0183039562
 20
5.679127025
 30
0.0
 10
7.0258537706
 20
5.6853955864
 30
0.0
 10
7.033454559
 20
5.6920924859
 30
0.0
 10
7.0389926059
 20
5.6973821448
 30
0.0
 10
7.0426324605
 20
5.7010115085
 30
0.0
  0
SPLINE
  5
31C
100
AcDbEntity
  8
ALL_FEATURES
100
AcDbSpline
 62
7
  6
CONTINUOUS
 70
0
 71
3
 72
29
 73
25
 74
0
 42
0.0000001
 43
0.0000001
 44
0.0000000001
 40
0.0
 40
0.0
 40
0.0
 40
0.0
 40
0.0699592432
 40
0.1041794799
 40
0.1378599237
 40
0.2035029946
 40
0.2667832673
 40
0.3277159831
 40
0.3865207372
 40
0.4152803023
 40
0.4437107357
 40
0.4719116425
 40
0.4999953662
 40
0.5280790931
 40
0.5562800002
 40
0.5847104363
 40
0.61347001
 40
0.6722747694
 40
0.7332075213
 40
0.7645580545
 40
0.7965029184
 40
0.8621459274
 40
0.9300400082
 40
1.0
 40
1.0
 40
1.0
 40
1.0
 10
3.4846579122
 20
5.7010115084
 30
0.0
 10
3.4882977667
 20
5.6973821447
 30
0.0
 10
3.4938358136
 20
5.6920924857
 30
0.0
 10
3.5014366023
 20
5.6853955859
 30
0.0
 10
3.5089864182
 20
5.6791270238
 30
0.0
 10
3.5185424672
 20
5.6719391424
 30
0.0
 10
3.5303322629
 20
5.6644506623
 30
0.0
 10
3.5423422807
 20
5.6583505215
 30
0.0
 10
3.5526003511
 20
5.6545433635
 30
0.0
 10
3.560852899
 20
5.6523918902
 30
0.0
 10
3.5670247456
 20
5.651234779
 30
0.0
 10
3.5732153353
 20
5.6505355257
 30
0.0
 10
3.5794156103
 20
5.6503029308
 30
0.0
 10
3.5856158832
 20
5.6505355449
 30
0.0
 10
3.5918064758
 20
5.6512347974
 30
0.0
 10
3.5979783114
 20
5.6523919308
 30
0.0
 10
3.6062308953
 20
5.6545434252
 30
0.0
 10
3.6164886667
 20
5.6583505035
 30
0.0
 10
3.6264044462
 20
5.6633867582
 30
0.0
 10
3.634229096
 20
5.6680908327
 30
0.0
 10
3.6421295244
 20
5.6733235982
 30
0.0
 10
3.6518552225
 20
5.6806396452
 30
0.0
 10
3.663205524
 20
5.6903838509
 30
0.0
 10
3.6705332475
 20
5.6973828226
 30
0.0
 10
3.6741731381
 20
5.701012228
 30
0.0
  0
SPLINE
  5
31D
100
AcDbEntity
  8
ALL_FEATURES
100
AcDbSpline
 62
7
  6
CONTINUOUS
 70
0
 71
3
 72
25
 73
21
 74
0
 42
0.0000001
 43
0.0000001
 44
0.0000000001
 40
0.0
 40
0.0
 40
0.0
 40
0.0
 40
0.0624929806
 40
0.124992063
 40
0.1874901493
 40
0.2499875636
 40
0.3124863967
 40
0.3749877551
 40
0.4062424266
 40
0.4374984186
 40
0.5000000488
 40
0.56250167
 40
0.5937576627
 40
0.6250123265
 40
0.6875136658
 40
0.7500124776
 40
0.8125098776
 40
0.8750079423
 40
0.937507018
 40
1.0
 40
1.0
 40
1.0
 40
1.0
 10
3.1056274605
 20
5.7010112653
 30
0.0
 10
3.1130078602
 20
5.6973316895
 30
0.0
 10
3.12789979
 20
5.690229314
 30
0.0
 10
3.1506494303
 20
5.6804837443
 30
0.0
 10
3.1738247651
 20
5.671789813
 30
0.0
 10
3.1974268431
 20
5.664322224
 30
0.0
 10
3.2214301853
 20
5.658254866
 30
0.0
 10
3.2417258408
 20
5.6545148145
 30
0.0
 10
3.2580877452
 20
5.6523830206
 30
0.0
 10
3.2745164205
 20
5.6508482735
 30
0.0
 10
3.2951427046
 20
5.6500673783
 30
0.0
 10
3.3157689883
 20
5.65084828
 30
0.0
 10
3.3321976617
 20
5.6523830244
 30
0.0
 10
3.3485595632
 20
5.6545148143
 30
0.0
 10
3.3688552108
 20
5.6582548743
 30
0.0
 10
3.3928585466
 20
5.6643222274
 30
0.0
 10
3.4164606166
 20
5.6717898169
 30
0.0
 10
3.4396359463
 20
5.6804837457
 30
0.0
 10
3.4623855829
 20
5.6902293149
 30
0.0
 10
3.4772775123
 20
5.6973316896
 30
0.0
 10
3.4846579122
 20
5.7010112654
 30
0.0
  0
SPLINE
  5
31E
100
AcDbEntity
  8
ALL_FEATURES
100
AcDbSpline
 62
7
  6
CONTINUOUS
 70
0
 71
3
 72
29
 73
25
 74
0
 42
0.0000001
 43
0.0000001
 44
0.0000000001
 40
0.0
 40
0.0
 40
0.0
 40
0.0
 40
0.0699599907
 40
0.1378540783
 40
0.2034971032
 40
0.2354419712
 40
0.2667925134
 40
0.3277252776
 40
0.3865300523
 40
0.4152896277
 40
0.4437200678
 40
0.4719209779
 40
0.5000047033
 40
0.5280884284
 40
0.5562893322
 40
0.5847197616
 40
0.6134793251
 40
0.6722840638
 40
0.7332167674
 40
0.796497027
 40
0.8621400821
 40
0.8958205205
 40
0.9300407558
 40
1.0
 40
1.0
 40
1.0
 40
1.0
 10
2.9161122346
 20
5.7010122279
 30
0.0
 10
2.9197521251
 20
5.6973828225
 30
0.0
 10
2.9270798488
 20
5.6903838504
 30
0.0
 10
2.9384301518
 20
5.680639644
 30
0.0
 10
2.9481558513
 20
5.6733235956
 30
0.0
 10
2.9560562818
 20
5.6680908294
 30
0.0
 10
2.9638809339
 20
5.6633867551
 30
0.0
 10
2.9737967153
 20
5.6583504979
 30
0.0
 10
2.9840544896
 20
5.6545434221
 30
0.0
 10
2.9923070747
 20
5.6523919251
 30
0.0
 10
2.9984789126
 20
5.6512348012
 30
0.0
 10
3.0046695043
 20
5.6505355385
 30
0.0
 10
3.0108697782
 20
5.6503029308
 30
0.0
 10
3.0170700522
 20
5.650535532
 30
0.0
 10
3.0232606428
 20
5.6512347752
 30
0.0
 10
3.0294324871
 20
5.6523918959
 30
0.0
 10
3.0376850339
 20
5.6545433666
 30
0.0
 10
3.0479431012
 20
5.658350527
 30
0.0
 10
3.0599531169
 20
5.6644506651
 30
0.0
 10
3.0717429089
 20
5.6719391456
 30
0.0
 10
3.0812989562
 20
5.679127025
 30
0.0
 10
3.0888487706
 20
5.6853955864
 30
0.0
 10
3.096449559
 20
5.6920924859
 30
0.0
 10
3.1019876059
 20
5.6973821448
 30
0.0
 10
3.1056274605
 20
5.7010115085
 30
0.0
  0
SPLINE
  5
31F
100
AcDbEntity
  8
ALL_ASSEMBLY_MEMBERS
100
AcDbSpline
 62
7
  6
CONTINUOUS
 70
0
 71
3
 72
11
 73
7
 74
0
 42
0.0000001
 43
0.0000001
 44
0.0000000001
 40
0.0
 40
0.0
 40
0.0
 40
0.0
 40
0.256892837
 40
0.5114128163
 40
0.7601004297
 40
1.0
 40
1.0
 40
1.0
 40
1.0
 10
7.1226661156
 20
5.1204835365
 30
0.0
 10
7.1226661156
 20
5.1229901749
 30
0.0
 10
7.1224034216
 20
5.1279840116
 30
0.0
 10
7.121248511
 20
5.1353235104
 30
0.0
 10
7.1193680919
 20
5.1423398803
 30
0.0
 10
7.1176428049
 20
5.1467965258
 30
0.0
 10
7.1166717364
 20
5.1489264303
 30
0.0
  0
SPLINE
  5
320
100
AcDbEntity
  8
ALL_ASSEMBLY_MEMBERS
100
AcDbSpline
 62
7
  6
CONTINUOUS
 70
0
 71
3
 72
9
 73
5
 74
0
 42
0.0000001
 43
0.0000001
 44
0.0000000001
 40
0.0
 40
0.0
 40
0.0
 40
0.0
 40
0.2564087861
 40
1.0
 40
1.0
 40
1.0
 40
1.0
 10
7.1166717364
 20
5.1489264303
 30
0.0
 10
7.1164163414
 20
5.149486604
 30
0.0
 10
7.115386676
 20
5.1516556968
 30
0.0
 10
7.1142216376
 20
5.1537614111
 30
0.0
 10
7.1132742582
 20
5.1552747154
 30
0.0
  0
SPLINE
  5
321
100
AcDbEntity
  8
ALL_ASSEMBLY_MEMBERS
100
AcDbSpline
 62
7
  6
CONTINUOUS
 70
0
 71
3
 72
11
 73
7
 74
0
 42
0.0000001
 43
0.0000001
 44
0.0000000001
 40
0.0
 40
0.0
 40
0.0
 40
0.0
 40
0.2314916821
 40
0.471192174
 40
0.7258718476
 40
1.0
 40
1.0
 40
1.0
 40
1.0
 10
7.1012003154
 20
5.1629385258
 30
0.0
 10
7.1019767738
 20
5.1629385026
 30
0.0
 10
7.1035623364
 20
5.1627625563
 30
0.0
 10
7.1058847578
 20
5.1619791416
 30
0.0
 10
7.1081362619
 20
5.1606965655
 30
0.0
 10
7.1095180365
 20
5.1595717421
 30
0.0
 10
7.1101896845
 20
5.1589438013
 30
0.0
  0
SPLINE
  5
322
100
AcDbEntity
  8
ALL_ASSEMBLY_MEMBERS
100
AcDbSpline
 62
7
  6
CONTINUOUS
 70
0
 71
3
 72
13
 73
9
 74
0
 42
0.0000001
 43
0.0000001
 44
0.0000000001
 40
0.0
 40
0.0
 40
0.0
 40
0.0
 40
0.2365451695
 40
0.3595200218
 40
0.4848773609
 40
0.6121484016
 40
0.7408447792
 40
1.0
 40
1.0
 40
1.0
 40
1.0
 10
7.1150212805
 20
5.0887065257
 30
0.0
 10
7.1162513027
 20
5.0909989252
 30
0.0
 10
7.1178783634
 20
5.0946188856
 30
0.0
 10
7.1196067279
 20
5.0996657949
 30
0.0
 10
7.1207047244
 20
5.1036510009
 30
0.0
 10
7.1215736058
 20
5.1077566067
 30
0.0
 10
7.122410676
 20
5.1133620854
 30
0.0
 10
7.1226661156
 20
5.1176333212
 30
0.0
 10
7.1226661156
 20
5.1204835365
 30
0.0
  0
LINE
  5
323
100
AcDbEntity
  8
ALL_ASSEMBLY_MEMBERS
100
AcDbLine
 62
7
  6
CONTINUOUS
 10
7.1137642086
 20
5.0865052583
 11
7.1126939378
 21
5.0854140862
  0
SPLINE
  5
324
100
AcDbEntity
  8
ALL_ASSEMBLY_MEMBERS
100
AcDbSpline
 62
7
  6
CONTINUOUS
 70
0
 71
3
 72
20
 73
16
 74
0
 42
0.0000001
 43
0.0000001
 44
0.0000000001
 40
0.0
 40
0.0
 40
0.0
 40
0.0
 40
0.1285524996
 40
0.1883064915
 40
0.2456435222
 40
0.3012092731
 40
0.355735804
 40
0.4100209948
 40
0.4648929782
 40
0.5211420246
 40
0.5794835704
 40
0.7046587412
 40
0.7725556177
 40
0.84431897
 40
1.0
 40
1.0
 40
1.0
 40
1.0
 10
7.1126939378
 20
5.0854140862
 30
0.0
 10
7.1120240961
 20
5.0847894045
 30
0.0
 10
7.1109604984
 20
5.0839521053
 30
0.0
 10
7.1094203322
 20
5.0831139611
 30
0.0
 10
7.1082734631
 20
5.0826597707
 30
0.0
 10
7.1071133155
 20
5.0823672882
 30
0.0
 10
7.1059454017
 20
5.0822385429
 30
0.0
 10
7.1047758249
 20
5.0822755661
 30
0.0
 10
7.1036112077
 20
5.0824792432
 30
0.0
 10
7.1024575878
 20
5.0828475143
 30
0.0
 10
7.1009060462
 20
5.0835716669
 30
0.0
 10
7.0994330064
 20
5.0846199545
 30
0.0
 10
7.0980640587
 20
5.0859205392
 30
0.0
 10
7.0966681347
 20
5.0874982999
 30
0.0
 10
7.0957439662
 20
5.0888383346
 30
0.0
 10
7.0951701507
 20
5.0897875895
 30
0.0
  0
LINE
  5
325
100
AcDbEntity
  8
ALL_ASSEMBLY_MEMBERS
100
AcDbLine
 62
7
  6
CONTINUOUS
 10
7.0951701507
 20
5.0897875895
 11
7.0940312516
 21
5.0918570217
  0
LINE
  5
326
100
AcDbEntity
  8
ALL_ASSEMBLY_MEMBERS
100
AcDbLine
 62
7
  6
CONTINUOUS
 10
7.1101896845
 20
5.1589438013
 11
7.112774258
 21
5.1560569902
  0
SPLINE
  5
327
100
AcDbEntity
  8
ALL_ASSEMBLY_MEMBERS
100
AcDbSpline
 62
7
  6
CONTINUOUS
 70
0
 71
3
 72
17
 73
13
 74
0
 42
0.0000001
 43
0.0000001
 44
0.0000000001
 40
0.0
 40
0.0
 40
0.0
 40
0.0
 40
0.125297122
 40
0.1881630557
 40
0.250975931
 40
0.3762723327
 40
0.5014154883
 40
0.6263436684
 40
0.7510261752
 40
0.8134107623
 40
0.8757873947
 40
1.0
 40
1.0
 40
1.0
 40
1.0
 10
7.4303037276
 20
5.0419835365
 30
0.0
 10
7.4303105712
 20
5.0401885588
 30
0.0
 10
7.4305874655
 20
5.0374849015
 30
0.0
 10
7.4314645712
 20
5.0339939381
 30
0.0
 10
7.4326788712
 20
5.0306042844
 30
0.0
 10
7.4348045485
 20
5.0266170441
 30
0.0
 10
7.4382301712
 20
5.0224283907
 30
0.0
 10
7.4423933444
 20
5.0189853712
 30
0.0
 10
7.4463564323
 20
5.0168516338
 30
0.0
 10
7.4497229815
 20
5.0156375052
 30
0.0
 10
7.4531856094
 20
5.0147650002
 30
0.0
 10
7.4558678887
 20
5.0144949274
 30
0.0
 10
7.4576473427
 20
5.0144944185
 30
0.0
  0
SPLINE
  5
328
100
AcDbEntity
  8
ALL_ASSEMBLY_MEMBERS
100
AcDbSpline
 62
7
  6
CONTINUOUS
 70
0
 71
3
 72
16
 73
12
 74
0
 42
0.0000001
 43
0.0000001
 44
0.0000000001
 40
0.0
 40
0.0
 40
0.0
 40
0.0
 40
0.156443482
 40
0.3052685804
 40
0.4447666547
 40
0.5741750288
 40
0.6933497007
 40
0.8028674439
 40
0.9041794572
 40
0.95259715
 40
1.0
 40
1.0
 40
1.0
 40
1.0
 10
7.0819747089
 20
5.1384816256
 30
0.0
 10
7.0824542509
 20
5.1401349486
 30
0.0
 10
7.0835132638
 20
5.1433271976
 30
0.0
 10
7.0854427292
 20
5.1478318665
 30
0.0
 10
7.0876571528
 20
5.1518693417
 30
0.0
 10
7.0901206502
 20
5.1553701887
 30
0.0
 10
7.092803702
 20
5.1582747576
 30
0.0
 10
7.095667321
 20
5.1605354658
 30
0.0
 10
7.0982188337
 20
5.1618601195
 30
0.0
 10
7.1002858556
 20
5.1625305315
 30
0.0
 10
7.1013222183
 20
5.1627398837
 30
0.0
 10
7.1018387709
 20
5.1628123338
 30
0.0
  0
LINE
  5
329
100
AcDbEntity
  8
ALL_ASSEMBLY_MEMBERS
100
AcDbLine
 62
7
  6
CONTINUOUS
 10
7.4413441066
 20
4.8373352417
 11
7.4604669293
 21
4.8330761211
  0
SPLINE
  5
32A
100
AcDbEntity
  8
ALL_ASSEMBLY_MEMBERS
100
AcDbSpline
 62
7
  6
CONTINUOUS
 70
0
 71
3
 72
18
 73
14
 74
0
 42
0.0000001
 43
0.0000001
 44
0.0000000001
 40
0.0
 40
0.0
 40
0.0
 40
0.0
 40
0.163728737
 40
0.3177773084
 40
0.4600981165
 40
0.5898186976
 40
0.6499458886
 40
0.7069889177
 40
0.8123885409
 40
0.8615037379
 40
0.9087656016
 40
0.9547204483
 40
1.0
 40
1.0
 40
1.0
 40
1.0
 10
7.0819747089
 20
5.1384816256
 30
0.0
 10
7.0823881712
 20
5.1402482718
 30
0.0
 10
7.0833282404
 20
5.1436470891
 30
0.0
 10
7.0851252335
 20
5.1484269128
 30
0.0
 10
7.0872431721
 20
5.1526576329
 30
0.0
 10
7.089289526
 20
5.1557327805
 30
0.0
 10
7.091061093
 20
5.1578218754
 30
0.0
 10
7.0928090769
 20
5.1595641596
 30
0.0
 10
7.0946959447
 20
5.1609898783
 30
0.0
 10
7.0966930556
 20
5.1620061745
 30
0.0
 10
7.0981811245
 20
5.1625426984
 30
0.0
 10
7.0996860661
 20
5.1628664912
 30
0.0
 10
7.1006985434
 20
5.1629385408
 30
0.0
 10
7.1012003154
 20
5.1629385258
 30
0.0
  0
SPLINE
  5
32B
100
AcDbEntity
  8
ALL_ASSEMBLY_MEMBERS
100
AcDbSpline
 62
7
  6
CONTINUOUS
 70
0
 71
3
 72
15
 73
11
 74
0
 42
0.0000001
 43
0.0000001
 44
0.0000000001
 40
0.0
 40
0.0
 40
0.0
 40
0.0
 40
0.1048578078
 40
0.2129072137
 40
0.3262500766
 40
0.4462683821
 40
0.5737000081
 40
0.708779124
 40
0.8512002929
 40
1.0
 40
1.0
 40
1.0
 40
1.0
 10
7.1023290259
 20
5.156714959
 30
0.0
 10
7.1013311849
 20
5.1566517734
 30
0.0
 10
7.0993132486
 20
5.1563153734
 30
0.0
 10
7.0963827568
 20
5.1552238656
 30
0.0
 10
7.0935597166
 20
5.1535742895
 30
0.0
 10
7.0908717157
 20
5.151409817
 30
0.0
 10
7.0883427829
 20
5.148769372
 30
0.0
 10
7.0859922016
 20
5.1456975887
 30
0.0
 10
7.0838411105
 20
5.1422423724
 30
0.0
 10
7.0825741019
 20
5.1397676342
 30
0.0
 10
7.0819747089
 20
5.1384816256
 30
0.0
  0
SPLINE
  5
32C
100
AcDbEntity
  8
ALL_ASSEMBLY_MEMBERS
100
AcDbSpline
 62
7
  6
CONTINUOUS
 70
0
 71
3
 72
35
 73
31
 74
0
 42
0.0000001
 43
0.0000001
 44
0.0000000001
 40
0.0
 40
0.0
 40
0.0
 40
0.0
 40
0.2264596151
 40
0.329930249
 40
0.4265943571
 40
0.5162367969
 40
0.5986955454
 40
0.673824638
 40
0.7414776753
 40
0.8015128999
 40
0.8538149872
 40
0.8770327695
 40
0.8982772398
 40
0.9175350334
 40
0.9347927756
 40
0.9500380803
 40
0.9632645951
 40
0.9744682279
 40
0.9836448894
 40
0.9874718276
 40
0.990790489
 40
0.993600362
 40
0.9959009351
 40
0.9976916967
 40
0.9983957384
 40
0.9989721353
 40
0.9994208235
 40
0.9997417392
 40
0.9999348187
 40
1.0
 40
1.0
 40
1.0
 40
1.0
 10
7.3937928395
 20
4.8150671299
 30
0.0
 10
7.3967020269
 20
4.8144095714
 30
0.0
 10
7.400936129
 20
4.8134323492
 30
0.0
 10
7.4064021898
 20
4.8121326734
 30
0.0
 10
7.4101116224
 20
4.8112349925
 30
0.0
 10
7.4135489969
 20
4.8103897659
 30
0.0
 10
7.4167082474
 20
4.8096013591
 30
0.0
 10
7.4195841956
 20
4.8088738887
 30
0.0
 10
7.4221719329
 20
4.8082113782
 30
0.0
 10
7.4244669793
 20
4.8076178313
 30
0.0
 10
7.4261944284
 20
4.8071669456
 30
0.0
 10
7.4274270383
 20
4.8068431477
 30
0.0
 10
7.4282385236
 20
4.8066291737
 30
0.0
 10
7.4289739473
 20
4.8064346099
 30
0.0
 10
7.4296328663
 20
4.8062597981
 30
0.0
 10
7.4302149321
 20
4.8061050746
 30
0.0
 10
7.4307198775
 20
4.8059706056
 30
0.0
 10
7.4311475344
 20
4.8058565035
 30
0.0
 10
7.431455539
 20
4.8057741664
 30
0.0
 10
7.4316631958
 20
4.8057185652
 30
0.0
 10
7.4317898421
 20
4.805684616
 30
0.0
 10
7.4318970659
 20
4.8056558463
 30
0.0
 10
7.4319848375
 20
4.8056322486
 30
0.0
 10
7.4320458409
 20
4.8056158631
 30
0.0
 10
7.4320848722
 20
4.8056052965
 30
0.0
 10
7.4321069093
 20
4.8055994466
 30
0.0
 10
7.4321238923
 20
4.8055946037
 30
0.0
 10
7.4321364248
 20
4.805591778
 30
0.0
 10
7.4321432655
 20
4.8055889095
 30
0.0
 10
7.4321470864
 20
4.805588908
 30
0.0
 10
7.4321476863
 20
4.8055882939
 30
0.0
  0
SPLINE
  5
32D
100
AcDbEntity
  8
ALL_ASSEMBLY_MEMBERS
100
AcDbSpline
 62
7
  6
CONTINUOUS
 70
0
 71
3
 72
32
 73
28
 74
0
 42
0.0000001
 43
0.0000001
 44
0.0000000001
 40
0.0
 40
0.0
 40
0.0
 40
0.0
 40
0.0851006932
 40
0.1691939736
 40
0.2509509252
 40
0.3292814824
 40
0.4032220348
 40
0.4718118792
 40
0.5038543512
 40
0.5342790549
 40
0.5630267671
 40
0.5900851526
 40
0.6155019743
 40
0.6393853981
 40
0.6619332804
 40
0.6834616243
 40
0.7043937881
 40
0.7252118716
 40
0.7464311059
 40
0.76853266
 40
0.7918739217
 40
0.8167076096
 40
0.8431923144
 40
0.871376348
 40
0.9012337608
 40
0.9326925982
 40
1.0
 40
1.0
 40
1.0
 40
1.0
 10
7.0808621646
 20
5.1204835365
 30
0.0
 10
7.0808621646
 20
5.118419918
 30
0.0
 10
7.0809228575
 20
5.1143168146
 30
0.0
 10
7.0812039004
 20
5.1082369266
 30
0.0
 10
7.0816827366
 20
5.1023337355
 30
0.0
 10
7.0823812967
 20
5.0966997223
 30
0.0
 10
7.0833207758
 20
5.0914242132
 30
0.0
 10
7.0843509507
 20
5.0873126018
 30
0.0
 10
7.085345683
 20
5.0842928545
 30
0.0
 10
7.0861552723
 20
5.0822329764
 30
0.0
 10
7.0870484915
 20
5.0803403263
 30
0.0
 10
7.088028932
 20
5.0786292539
 30
0.0
 10
7.0891001437
 20
5.0771148976
 30
0.0
 10
7.0902622113
 20
5.0758110851
 30
0.0
 10
7.0915153056
 20
5.0747321524
 30
0.0
 10
7.0928598463
 20
5.0738957896
 30
0.0
 10
7.0942888265
 20
5.0733155296
 30
0.0
 10
7.0957909506
 20
5.0729987946
 30
0.0
 10
7.0973536276
 20
5.072953885
 30
0.0
 10
7.0989610331
 20
5.073180878
 30
0.0
 10
7.1005995176
 20
5.073669116
 30
0.0
 10
7.1022559203
 20
5.0744111577
 30
0.0
 10
7.1039161758
 20
5.075398223
 30
0.0
 10
7.1055686913
 20
5.0766156003
 30
0.0
 10
7.1072010553
 20
5.0780495701
 30
0.0
 10
7.1093818228
 20
5.0802825486
 30
0.0
 10
7.1108733984
 20
5.0821670825
 30
0.0
 10
7.1118157672
 20
5.0834996902
 30
0.0
  0
SPLINE
  5
32E
100
AcDbEntity
  8
ALL_ASSEMBLY_MEMBERS
100
AcDbSpline
 62
7
  6
CONTINUOUS
 70
0
 71
3
 72
9
 73
5
 74
0
 42
0.0000001
 43
0.0000001
 44
0.0000000001
 40
0.0
 40
0.0
 40
0.0
 40
0.0
 40
0.4762128285
 40
1.0
 40
1.0
 40
1.0
 40
1.0
 10
7.1010449779
 20
5.0835547734
 30
0.0
 10
7.100347311
 20
5.0844509506
 30
0.0
 10
7.0990209551
 20
5.0864422845
 30
0.0
 10
7.0979346477
 20
5.0885706807
 30
0.0
 10
7.0974197505
 20
5.0897088139
 30
0.0
  0
SPLINE
  5
32F
100
AcDbEntity
  8
ALL_ASSEMBLY_MEMBERS
100
AcDbSpline
 62
7
  6
CONTINUOUS
 70
0
 71
3
 72
14
 73
10
 74
0
 42
0.0000001
 43
0.0000001
 44
0.0000000001
 40
0.0
 40
0.0
 40
0.0
 40
0.0
 40
0.2198973051
 40
0.4564869608
 40
0.5822665236
 40
0.6473645815
 40
0.7141020369
 40
0.8532016232
 40
1.0
 40
1.0
 40
1.0
 40
1.0
 10
7.3937923125
 20
5.0340875205
 30
0.0
 10
7.3959021859
 20
5.032273763
 30
0.0
 10
7.4003933002
 20
5.0286364048
 30
0.0
 10
7.4063806688
 20
5.0243351671
 30
0.0
 10
7.4109259848
 20
5.0214014188
 30
0.0
 10
7.4137168667
 20
5.0197170175
 30
0.0
 10
7.4166903491
 20
5.0180105454
 30
0.0
 10
7.4206461623
 20
5.0159418971
 30
0.0
 10
7.4239579127
 20
5.0144759836
 30
0.0
 10
7.4256873789
 20
5.0137985482
 30
0.0
  0
SPLINE
  5
330
100
AcDbEntity
  8
ALL_ASSEMBLY_MEMBERS
100
AcDbSpline
 62
7
  6
CONTINUOUS
 70
0
 71
3
 72
15
 73
11
 74
0
 42
0.0000001
 43
0.0000001
 44
0.0000000001
 40
0.0
 40
0.0
 40
0.0
 40
0.0
 40
0.2408283807
 40
0.363687073
 40
0.4880761826
 40
0.6139853454
 40
0.6775126556
 40
0.7414129747
 40
0.8702780029
 40
1.0
 40
1.0
 40
1.0
 40
1.0
 10
7.3937928395
 20
5.034086209
 30
0.0
 10
7.394949055
 20
5.0306781086
 30
0.0
 10
7.3969264666
 20
5.0256054828
 30
0.0
 10
7.400033409
 20
5.0190043901
 30
0.0
 10
7.402665354
 20
5.014085043
 30
0.0
 10
7.4051155919
 20
5.0100823231
 30
0.0
 10
7.4072546106
 20
5.0069577902
 30
0.0
 10
7.4095357937
 20
5.0038802153
 30
0.0
 10
7.4126571583
 20
5.0001992989
 30
0.0
 10
7.4154780629
 20
4.9975390793
 30
0.0
 10
7.4169833669
 20
4.9963176109
 30
0.0
  0
SPLINE
  5
331
100
AcDbEntity
  8
ALL_ASSEMBLY_MEMBERS
100
AcDbSpline
 62
7
  6
CONTINUOUS
 70
0
 71
3
 72
9
 73
5
 74
0
 42
0.0000001
 43
0.0000001
 44
0.0000000001
 40
0.0
 40
0.0
 40
0.0
 40
0.0
 40
0.4999957103
 40
1.0
 40
1.0
 40
1.0
 40
1.0
 10
7.425687241
 20
5.0137982471
 30
0.0
 10
7.4280552108
 20
5.0128706885
 30
0.0
 10
7.4329950091
 20
5.0115053947
 30
0.0
 10
7.4381012888
 20
5.0111178883
 30
0.0
 10
7.4406439897
 20
5.0111682807
 30
0.0
  0
SPLINE
  5
332
100
AcDbEntity
  8
ALL_ASSEMBLY_MEMBERS
100
AcDbSpline
 62
7
  6
CONTINUOUS
 70
0
 71
3
 72
9
 73
5
 74
0
 42
0.0000001
 43
0.0000001
 44
0.0000000001
 40
0.0
 40
0.0
 40
0.0
 40
0.0
 40
0.4999933132
 40
1.0
 40
1.0
 40
1.0
 40
1.0
 10
7.4169833669
 20
4.9963176109
 30
0.0
 10
7.4205634962
 20
4.9946393558
 30
0.0
 10
7.4281256964
 20
4.9920854715
 30
0.0
 10
7.4360574888
 20
4.9912348031
 30
0.0
 10
7.4400115623
 20
4.9912369398
 30
0.0
  0
SPLINE
  5
333
100
AcDbEntity
  8
ALL_ASSEMBLY_MEMBERS
100
AcDbSpline
 62
7
  6
CONTINUOUS
 70
0
 71
3
 72
15
 73
11
 74
0
 42
0.0000001
 43
0.0000001
 44
0.0000000001
 40
0.0
 40
0.0
 40
0.0
 40
0.0
 40
0.0263797833
 40
0.0591688645
 40
0.142945477
 40
0.2490817522
 40
0.3746459565
 40
0.5164222025
 40
0.6707459328
 40
1.0
 40
1.0
 40
1.0
 40
1.0
 10
7.425687241
 20
5.0137982471
 30
0.0
 10
7.4255976654
 20
5.0136517038
 30
0.0
 10
7.4254026721
 20
5.013319403
 30
0.0
 10
7.4249472107
 20
5.0125077583
 30
0.0
 10
7.4242641505
 20
5.0112286264
 30
0.0
 10
7.4233230947
 20
5.0094028708
 30
0.0
 10
7.4222313198
 20
5.0072300972
 30
0.0
 10
7.4210178652
 20
5.004767464
 30
0.0
 10
7.4192417824
 20
5.0011037313
 30
0.0
 10
7.4178924782
 20
4.9982589799
 30
0.0
 10
7.416983368
 20
4.9963176109
 30
0.0
  0
SPLINE
  5
334
100
AcDbEntity
  8
ALL_ASSEMBLY_MEMBERS
100
AcDbSpline
 62
7
  6
CONTINUOUS
 70
0
 71
3
 72
13
 73
9
 74
0
 42
0.0000001
 43
0.0000001
 44
0.0000000001
 40
0.0
 40
0.0
 40
0.0
 40
0.0
 40
0.2499999941
 40
0.3749999977
 40
0.4999999961
 40
0.6249999932
 40
0.749999999
 40
1.0
 40
1.0
 40
1.0
 40
1.0
 10
7.4400115623
 20
4.9912369398
 30
0.0
 10
7.539714484
 20
4.9912906992
 30
0.0
 10
7.6892688182
 20
4.9914532671
 30
0.0
 10
7.8886745311
 20
4.9917055626
 30
0.0
 10
8.0382288307
 20
4.9918857167
 30
0.0
 10
8.1877831633
 20
4.9920382101
 30
0.0
 10
8.3871889956
 20
4.9921762074
 30
0.0
 10
8.5367434356
 20
4.9921880885
 30
0.0
 10
8.6364463635
 20
4.992141382
 30
0.0
  0
SPLINE
  5
335
100
AcDbEntity
  8
ALL_ASSEMBLY_MEMBERS
100
AcDbSpline
 62
7
  6
CONTINUOUS
 70
0
 71
3
 72
21
 73
17
 74
0
 42
0.0000001
 43
0.0000001
 44
0.0000000001
 40
0.0
 40
0.0
 40
0.0
 40
0.0
 40
0.0051936572
 40
0.0124671173
 40
0.0218305065
 40
0.0332745392
 40
0.0623337046
 40
0.0994645507
 40
0.1443382005
 40
0.1965611452
 40
0.2557288526
 40
0.3213252347
 40
0.4693930089
 40
0.6357397964
 40
0.8148376171
 40
1.0
 40
1.0
 40
1.0
 40
1.0
 10
7.4406439896
 20
5.0111681572
 30
0.0
 10
7.440630583
 20
5.011136314
 30
0.0
 10
7.4406066319
 20
5.0110565806
 30
0.0
 10
7.4405756366
 20
5.0109147229
 30
0.0
 10
7.4405445815
 20
5.0107304307
 30
0.0
 10
7.4404995888
 20
5.0104017476
 30
0.0
 10
7.4404469943
 20
5.0098878484
 30
0.0
 10
7.4403891488
 20
5.0091512552
 30
0.0
 10
7.4403336869
 20
5.0082600061
 30
0.0
 10
7.4402810862
 20
5.0072217882
 30
0.0
 10
7.440232035
 20
5.006045405
 30
0.0
 10
7.4401693847
 20
5.0042314835
 30
0.0
 10
7.4401050392
 20
5.0017042597
 30
0.0
 10
7.4400502426
 20
4.9984216351
 30
0.0
 10
7.4400174343
 20
4.9948919396
 30
0.0
 10
7.4400108973
 20
4.9924687172
 30
0.0
 10
7.4400115624
 20
4.9912369398
 30
0.0
  0
SPLINE
  5
336
100
AcDbEntity
  8
ALL_ASSEMBLY_MEMBERS
100
AcDbSpline
 62
7
  6
CONTINUOUS
 70
0
 71
3
 72
13
 73
9
 74
0
 42
0.0000001
 43
0.0000001
 44
0.0000000001
 40
0.0
 40
0.0
 40
0.0
 40
0.0
 40
0.2499984554
 40
0.374996295
 40
0.4999942941
 40
0.6249931093
 40
0.749993373
 40
1.0
 40
1.0
 40
1.0
 40
1.0
 10
7.4406439896
 20
5.0111681572
 30
0.0
 10
7.5403450285
 20
5.0112169855
 30
0.0
 10
7.6898959903
 20
5.0113649549
 30
0.0
 10
7.8892969204
 20
5.0115887434
 30
0.0
 10
8.0388472068
 20
5.011745699
 30
0.0
 10
8.188398485
 20
5.0118777617
 30
0.0
 10
8.3878040585
 20
5.0119983812
 30
0.0
 10
8.5373593292
 20
5.0120100488
 30
0.0
 10
8.6370636307
 20
5.0119694568
 30
0.0
  0
SPLINE
  5
337
100
AcDbEntity
  8
ALL_ASSEMBLY_MEMBERS
100
AcDbSpline
 62
7
  6
CONTINUOUS
 70
0
 71
3
 72
23
 73
19
 74
0
 42
0.0000001
 43
0.0000001
 44
0.0000000001
 40
0.0
 40
0.0
 40
0.0
 40
0.0
 40
0.0073973775
 40
0.0166178593
 40
0.0277364133
 40
0.0407727404
 40
0.0725693343
 40
0.1118601808
 40
0.1583100339
 40
0.2115133999
 40
0.2710669913
 40
0.336491733
 40
0.4072358552
 40
0.4827403762
 40
0.6456239494
 40
0.7317341597
 40
0.8200592617
 40
1.0
 40
1.0
 40
1.0
 40
1.0
 10
8.6370636302
 20
5.01196947
 30
0.0
 10
8.6370440488
 20
5.0119246212
 30
0.0
 10
8.637011278
 20
5.0118190994
 30
0.0
 10
8.6369762538
 20
5.0116388891
 30
0.0
 10
8.6369479195
 20
5.0114198037
 30
0.0
 10
8.6369139338
 20
5.0110511949
 30
0.0
 10
8.6368790246
 20
5.0104957156
 30
0.0
 10
8.636827304
 20
5.0097198938
 30
0.0
 10
8.6367688403
 20
5.0088025612
 30
0.0
 10
8.6367111846
 20
5.0077508872
 30
0.0
 10
8.6366627427
 20
5.0065730888
 30
0.0
 10
8.6366236602
 20
5.0052788672
 30
0.0
 10
8.6365888749
 20
5.0038789751
 30
0.0
 10
8.6365407174
 20
5.0018344878
 30
0.0
 10
8.6364927167
 20
4.9996882768
 30
0.0
 10
8.6364686879
 20
4.9974568375
 30
0.0
 10
8.6364647254
 20
4.9951124788
 30
0.0
 10
8.6364635294
 20
4.9933376877
 30
0.0
 10
8.6364463635
 20
4.9921474163
 30
0.0
  0
SPLINE
  5
338
100
AcDbEntity
  8
ALL_ASSEMBLY_MEMBERS
100
AcDbSpline
 62
7
  6
CONTINUOUS
 70
0
 71
3
 72
15
 73
11
 74
0
 42
0.0000001
 43
0.0000001
 44
0.0000000001
 40
0.0
 40
0.0
 40
0.0
 40
0.0
 40
0.2405534159
 40
0.3633621984
 40
0.4877505818
 40
0.6137030163
 40
0.6772652526
 40
0.7412082958
 40
0.8701703736
 40
1.0
 40
1.0
 40
1.0
 40
1.0
 10
7.3937928395
 20
4.8150683879
 30
0.0
 10
7.39495348
 20
4.8184313521
 30
0.0
 10
7.3969384153
 20
4.8234355843
 30
0.0
 10
7.4000529552
 20
4.8299442639
 30
0.0
 10
7.4026900505
 20
4.8347952048
 30
0.0
 10
7.4051424743
 20
4.8387409326
 30
0.0
 10
7.4072816876
 20
4.8418199513
 30
0.0
 10
7.4095616226
 20
4.8448522552
 30
0.0
 10
7.4126770973
 20
4.8484773446
 30
0.0
 10
7.4154862482
 20
4.8510955953
 30
0.0
 10
7.4169833669
 20
4.8522978315
 30
0.0
  0
SPLINE
  5
339
100
AcDbEntity
  8
ALL_ASSEMBLY_MEMBERS
100
AcDbSpline
 62
7
  6
CONTINUOUS
 70
0
 71
3
 72
14
 73
10
 74
0
 42
0.0000001
 43
0.0000001
 44
0.0000000001
 40
0.0
 40
0.0
 40
0.0
 40
0.0
 40
0.2193261673
 40
0.4558284056
 40
0.5817104429
 40
0.6468881546
 40
0.7137187944
 40
0.8530188371
 40
1.0
 40
1.0
 40
1.0
 40
1.0
 10
7.3937923284
 20
4.8150671366
 30
0.0
 10
7.3958960476
 20
4.8168355468
 30
0.0
 10
7.4003776938
 20
4.8203821864
 30
0.0
 10
7.4063496171
 20
4.824569866
 30
0.0
 10
7.4108829347
 20
4.8274272831
 30
0.0
 10
7.4136668429
 20
4.8290685683
 30
0.0
 10
7.4166322317
 20
4.8307315848
 30
0.0
 10
7.4205734643
 20
4.8327472551
 30
0.0
 10
7.4238681474
 20
4.8341762939
 30
0.0
 10
7.4255872207
 20
4.8348371975
 30
0.0
  0
SPLINE
  5
33A
100
AcDbEntity
  8
ALL_ASSEMBLY_MEMBERS
100
AcDbSpline
 62
7
  6
CONTINUOUS
 70
0
 71
3
 72
9
 73
5
 74
0
 42
0.0000001
 43
0.0000001
 44
0.0000000001
 40
0.0
 40
0.0
 40
0.0
 40
0.0
 40
0.4999968506
 40
1.0
 40
1.0
 40
1.0
 40
1.0
 10
7.4169833669
 20
4.8522978315
 30
0.0
 10
7.4207506085
 20
4.8540457199
 30
0.0
 10
7.4287276828
 20
4.8566515112
 30
0.0
 10
7.4370830124
 20
4.8573691974
 30
0.0
 10
7.4412345445
 20
4.8572576684
 30
0.0
  0
SPLINE
  5
33B
100
AcDbEntity
  8
ALL_ASSEMBLY_MEMBERS
100
AcDbSpline
 62
7
  6
CONTINUOUS
 70
0
 71
3
 72
9
 73
5
 74
0
 42
0.0000001
 43
0.0000001
 44
0.0000000001
 40
0.0
 40
0.0
 40
0.0
 40
0.0
 40
0.5000449705
 40
1.0
 40
1.0
 40
1.0
 40
1.0
 10
7.4255871663
 20
4.8348373176
 30
0.0
 10
7.428082399
 20
4.8357965589
 30
0.0
 10
7.4332960428
 20
4.8371688875
 30
0.0
 10
7.438674152
 20
4.8374581289
 30
0.0
 10
7.4413440849
 20
4.837334769
 30
0.0
  0
SPLINE
  5
33C
100
AcDbEntity
  8
ALL_ASSEMBLY_MEMBERS
100
AcDbSpline
 62
7
  6
CONTINUOUS
 70
0
 71
3
 72
15
 73
11
 74
0
 42
0.0000001
 43
0.0000001
 44
0.0000000001
 40
0.0
 40
0.0
 40
0.0
 40
0.0
 40
0.3276642625
 40
0.4814127611
 40
0.622874715
 40
0.7484544052
 40
0.8549881978
 40
0.9395840876
 40
0.9729435042
 40
1.0
 40
1.0
 40
1.0
 40
1.0
 10
7.4169833724
 20
4.8522978315
 30
0.0
 10
7.417877626
 20
4.8503685084
 30
0.0
 10
7.4192054143
 20
4.8475403083
 30
0.0
 10
7.4209541517
 20
4.8438957501
 30
0.0
 10
7.4221511969
 20
4.8414411968
 30
0.0
 10
7.4232306846
 20
4.8392702865
 30
0.0
 10
7.4241643755
 20
4.8374391703
 30
0.0
 10
7.4248446214
 20
4.8361506888
 30
0.0
 10
7.4253005667
 20
4.8353273794
 30
0.0
 10
7.425496786
 20
4.834987864
 30
0.0
 10
7.4255871663
 20
4.8348373176
 30
0.0
  0
SPLINE
  5
33D
100
AcDbEntity
  8
ALL_ASSEMBLY_MEMBERS
100
AcDbSpline
 62
7
  6
CONTINUOUS
 70
0
 71
3
 72
13
 73
9
 74
0
 42
0.0000001
 43
0.0000001
 44
0.0000000001
 40
0.0
 40
0.0
 40
0.0
 40
0.0
 40
0.2499984543
 40
0.3749963012
 40
0.4999943082
 40
0.624993129
 40
0.7499933932
 40
1.0
 40
1.0
 40
1.0
 40
1.0
 10
7.441344095
 20
4.8373351277
 30
0.0
 10
7.5409439237
 20
4.8346723092
 30
0.0
 10
7.6903411242
 20
4.8306037961
 30
0.0
 10
7.8895363533
 20
4.8251528653
 30
0.0
 10
8.038932654
 20
4.8210755577
 30
0.0
 10
8.1883305939
 20
4.8170230415
 30
0.0
 10
8.3875331492
 20
4.8116748355
 30
0.0
 10
8.5369382109
 20
4.8077421289
 30
0.0
 10
8.6365436337
 20
4.8051684727
 30
0.0
  0
SPLINE
  5
33E
100
AcDbEntity
  8
ALL_ASSEMBLY_MEMBERS
100
AcDbSpline
 62
7
  6
CONTINUOUS
 70
0
 71
3
 72
21
 73
17
 74
0
 42
0.0000001
 43
0.0000001
 44
0.0000000001
 40
0.0
 40
0.0
 40
0.0
 40
0.0
 40
0.1852041651
 40
0.3643181945
 40
0.5306631126
 40
0.6787179223
 40
0.7443057572
 40
0.8034646323
 40
0.8556791732
 40
0.9005454256
 40
0.937670449
 40
0.9667258437
 40
0.978168848
 40
0.987531819
 40
0.9948054937
 40
1.0
 40
1.0
 40
1.0
 40
1.0
 10
7.4412345447
 20
4.8572576684
 30
0.0
 10
7.4412016252
 20
4.8560271906
 30
0.0
 10
7.4411446971
 20
4.8536064808
 30
0.0
 10
7.4410850233
 20
4.850080024
 30
0.0
 10
7.4410537757
 20
4.8468001133
 30
0.0
 10
7.4410518437
 20
4.8442745609
 30
0.0
 10
7.4410668986
 20
4.8424614978
 30
0.0
 10
7.4410850698
 20
4.8412854913
 30
0.0
 10
7.4411104033
 20
4.8402473745
 30
0.0
 10
7.4411424427
 20
4.8393559452
 30
0.0
 10
7.4411809129
 20
4.8386188825
 30
0.0
 10
7.4412199723
 20
4.838104327
 30
0.0
 10
7.4412562919
 20
4.8377749158
 30
0.0
 10
7.4412824764
 20
4.8375900514
 30
0.0
 10
7.4413097131
 20
4.8374475564
 30
0.0
 10
7.4413315423
 20
4.8373672889
 30
0.0
 10
7.441344095
 20
4.8373351277
 30
0.0
  0
SPLINE
  5
33F
100
AcDbEntity
  8
ALL_ASSEMBLY_MEMBERS
100
AcDbSpline
 62
7
  6
CONTINUOUS
 70
0
 71
3
 72
13
 73
9
 74
0
 42
0.0000001
 43
0.0000001
 44
0.0000000001
 40
0.0
 40
0.0
 40
0.0
 40
0.0
 40
0.2499999957
 40
0.3750000011
 40
0.5000000013
 40
0.6249999994
 40
0.7500000048
 40
1.0
 40
1.0
 40
1.0
 40
1.0
 10
7.4412345445
 20
4.8572576684
 30
0.0
 10
7.5408361122
 20
4.8545898663
 30
0.0
 10
7.6902362775
 20
4.8505066809
 30
0.0
 10
7.8894355072
 20
4.845027166
 30
0.0
 10
8.0388351827
 20
4.8409266016
 30
0.0
 10
8.1882356143
 20
4.8368536233
 30
0.0
 10
8.38743795
 20
4.8314880905
 30
0.0
 10
8.5368421613
 20
4.8275551957
 30
0.0
 10
8.6364463635
 20
4.8249876467
 30
0.0
  0
SPLINE
  5
340
100
AcDbEntity
  8
ALL_ASSEMBLY_MEMBERS
100
AcDbSpline
 62
7
  6
CONTINUOUS
 70
0
 71
3
 72
23
 73
19
 74
0
 42
0.0000001
 43
0.0000001
 44
0.0000000001
 40
0.0
 40
0.0
 40
0.0
 40
0.0
 40
0.1799813552
 40
0.2683165233
 40
0.3544321425
 40
0.5173153373
 40
0.5928148942
 40
0.6635518808
 40
0.7289681868
 40
0.7885130682
 40
0.8417084186
 40
0.8881510861
 40
0.9274354132
 40
0.9592264971
 40
0.9722607414
 40
0.9833780115
 40
0.9925987953
 40
1.0
 40
1.0
 40
1.0
 40
1.0
 10
8.6364463635
 20
4.8249815659
 30
0.0
 10
8.6364309841
 20
4.8237920976
 30
0.0
 10
8.6363855789
 20
4.8220192012
 30
0.0
 10
8.6363291358
 20
4.8196773032
 30
0.0
 10
8.636295464
 20
4.817447945
 30
0.0
 10
8.6362874859
 20
4.8153031898
 30
0.0
 10
8.6362818114
 20
4.8132601082
 30
0.0
 10
8.6362795932
 20
4.8118612108
 30
0.0
 10
8.6362844604
 20
4.8105677605
 30
0.0
 10
8.6363019388
 20
4.8093903464
 30
0.0
 10
8.6363321486
 20
4.808338654
 30
0.0
 10
8.6363666959
 20
4.8074211005
 30
0.0
 10
8.6363980345
 20
4.8066450315
 30
0.0
 10
8.636418086
 20
4.806089424
 30
0.0
 10
8.6364422015
 20
4.8057204383
 30
0.0
 10
8.636464708
 20
4.8055009009
 30
0.0
 10
8.6364950221
 20
4.805319989
 30
0.0
 10
8.6365251394
 20
4.8052137464
 30
0.0
 10
8.6365436328
 20
4.8051684594
 30
0.0
  0
SPLINE
  5
341
100
AcDbEntity
  8
ALL_ASSEMBLY_MEMBERS
100
AcDbSpline
 62
7
  6
CONTINUOUS
 70
0
 71
3
 72
18
 73
14
 74
0
 42
0.0000001
 43
0.0000001
 44
0.0000000001
 40
0.0
 40
0.0
 40
0.0
 40
0.0
 40
0.1241895367
 40
0.186659162
 40
0.2490754184
 40
0.3736687229
 40
0.4984928226
 40
0.5610767469
 40
0.6236878411
 40
0.6863389101
 40
0.7490644327
 40
0.8746450578
 40
1.0
 40
1.0
 40
1.0
 40
1.0
 10
8.6571476863
 20
4.8249815659
 30
0.0
 10
8.6571476863
 20
4.8236633639
 30
0.0
 10
8.6569433739
 20
4.8216750424
 30
0.0
 10
8.6562858369
 20
4.8191110933
 30
0.0
 10
8.6553696468
 20
4.8166220849
 30
0.0
 10
8.6537593594
 20
4.8137029788
 30
0.0
 10
8.651595794
 20
4.8111646022
 30
0.0
 10
8.6495913126
 20
4.8094198841
 30
0.0
 10
8.6479613006
 20
4.8082655291
 30
0.0
 10
8.6462224874
 20
4.8072798302
 30
0.0
 10
8.6437833539
 20
4.8061998631
 30
0.0
 10
8.6405514332
 20
4.8053117165
 30
0.0
 10
8.6378734481
 20
4.8051235897
 30
0.0
 10
8.6365436328
 20
4.8051684594
 30
0.0
  0
LINE
  5
342
100
AcDbEntity
  8
ALL_ASSEMBLY_MEMBERS
100
AcDbLine
 62
7
  6
CONTINUOUS
 10
7.1118157672
 20
5.1574673826
 11
7.1095729263
 21
5.1603625781
  0
LINE
  5
343
100
AcDbEntity
  8
ALL_ASSEMBLY_MEMBERS
100
AcDbLine
 62
7
  6
CONTINUOUS
 10
7.1095729263
 20
5.1603625781
 11
7.1076770473
 21
5.1624154491
  0
SPLINE
  5
344
100
AcDbEntity
  8
ALL_ASSEMBLY_MEMBERS
100
AcDbSpline
 62
7
  6
CONTINUOUS
 70
0
 71
3
 72
9
 73
5
 74
0
 42
0.0000001
 43
0.0000001
 44
0.0000000001
 40
0.0
 40
0.0
 40
0.0
 40
0.0
 40
0.5162848163
 40
1.0
 40
1.0
 40
1.0
 40
1.0
 10
7.1076770473
 20
5.1624154491
 30
0.0
 10
7.1070794817
 20
5.1630094228
 30
0.0
 10
7.105874188
 20
5.164113122
 30
0.0
 10
7.1045674348
 20
5.1650964785
 30
0.0
 10
7.1039101166
 20
5.1655336066
 30
0.0
  0
SPLINE
  5
345
100
AcDbEntity
  8
ALL_ASSEMBLY_MEMBERS
100
AcDbSpline
 62
7
  6
CONTINUOUS
 70
0
 71
3
 72
28
 73
24
 74
0
 42
0.0000001
 43
0.0000001
 44
0.0000000001
 40
0.0
 40
0.0
 40
0.0
 40
0.0
 40
0.0519087088
 40
0.0758686888
 40
0.0986643086
 40
0.1205052976
 40
0.1416700112
 40
0.1625129877
 40
0.1834033418
 40
0.2046918489
 40
0.226698399
 40
0.2496931038
 40
0.2738709684
 40
0.3261883402
 40
0.384184553
 40
0.447759052
 40
0.5164790878
 40
0.5526011133
 40
0.5897838932
 40
0.6669725704
 40
0.7473706189
 40
0.8302651056
 40
1.0
 40
1.0
 40
1.0
 40
1.0
 10
7.1039101166
 20
5.1655336066
 30
0.0
 10
7.1030255797
 20
5.1661218389
 30
0.0
 10
7.101658524
 20
5.1668843146
 30
0.0
 10
7.0997551708
 20
5.1675688411
 30
0.0
 10
7.0983836483
 20
5.1678851595
 30
0.0
 10
7.0970388442
 20
5.1680131959
 30
0.0
 10
7.0957290417
 20
5.1679472624
 30
0.0
 10
7.0944629951
 20
5.1676893048
 30
0.0
 10
7.0932476588
 20
5.1672437546
 30
0.0
 10
7.0920892921
 20
5.1666151258
 30
0.0
 10
7.0909937771
 20
5.1658085697
 30
0.0
 10
7.0899622325
 20
5.1648344573
 30
0.0
 10
7.0886377674
 20
5.1632838887
 30
0.0
 10
7.087159471
 20
5.1609459305
 30
0.0
 10
7.0856861891
 20
5.1576987016
 30
0.0
 10
7.0844447307
 20
5.154002233
 30
0.0
 10
7.0836040923
 20
5.1506569879
 30
0.0
 10
7.0830218068
 20
5.1478092188
 30
0.0
 10
7.0824864462
 20
5.1447760278
 30
0.0
 10
7.0819355721
 20
5.1408270822
 30
0.0
 10
7.0814461611
 20
5.1359291899
 30
0.0
 10
7.08098947
 20
5.1291285523
 30
0.0
 10
7.0808621646
 20
5.1239570326
 30
0.0
 10
7.0808621646
 20
5.1204835365
 30
0.0
  0
SPLINE
  5
346
100
AcDbEntity
  8
ALL_ASSEMBLY_MEMBERS
100
AcDbSpline
 62
7
  6
CONTINUOUS
 70
0
 71
3
 72
18
 73
14
 74
0
 42
0.0000001
 43
0.0000001
 44
0.0000000001
 40
0.0
 40
0.0
 40
0.0
 40
0.0
 40
0.1242073456
 40
0.1866734917
 40
0.2490882163
 40
0.3736860846
 40
0.4985092069
 40
0.5610883415
 40
0.6236947894
 40
0.686341079
 40
0.7490615053
 40
0.8746371802
 40
1.0
 40
1.0
 40
1.0
 40
1.0
 10
8.6571476863
 20
4.9921474163
 30
0.0
 10
8.6571476863
 20
4.9934443501
 30
0.0
 10
8.6569500819
 20
4.9954002569
 30
0.0
 10
8.6563134166
 20
4.9979251008
 30
0.0
 10
8.6554261815
 20
5.0003785748
 30
0.0
 10
8.6538659577
 20
5.0032623649
 30
0.0
 10
8.6517667957
 20
5.0057830413
 30
0.0
 10
8.6498189427
 20
5.0075262287
 30
0.0
 10
8.6482333297
 20
5.008686179
 30
0.0
 10
8.6465397823
 20
5.0096846657
 30
0.0
 10
8.6441607384
 20
5.010791321
 30
0.0
 10
8.6410011183
 20
5.011731246
 30
0.0
 10
8.6383725886
 20
5.0119797555
 30
0.0
 10
8.6370636302
 20
5.01196947
 30
0.0
  0
SPLINE
  5
347
100
AcDbEntity
  8
ALL_ASSEMBLY_MEMBERS
100
AcDbSpline
 62
7
  6
CONTINUOUS
 70
0
 71
3
 72
11
 73
7
 74
0
 42
0.0000001
 43
0.0000001
 44
0.0000000001
 40
0.0
 40
0.0
 40
0.0
 40
0.0
 40
0.2550681759
 40
0.508498396
 40
0.7575611613
 40
1.0
 40
1.0
 40
1.0
 40
1.0
 10
3.4046242571
 20
5.1204835365
 30
0.0
 10
3.4046242571
 20
5.1182959581
 30
0.0
 10
3.4048251268
 20
5.1139324141
 30
0.0
 10
3.4057079971
 20
5.1074867119
 30
0.0
 10
3.407156256
 20
5.1012551789
 30
0.0
 10
3.408488968
 20
5.0972482405
 30
0.0
 10
3.4092413024
 20
5.0953098572
 30
0.0
  0
SPLINE
  5
348
100
AcDbEntity
  8
ALL_ASSEMBLY_MEMBERS
100
AcDbSpline
 62
7
  6
CONTINUOUS
 70
0
 71
3
 72
9
 73
5
 74
0
 42
0.0000001
 43
0.0000001
 44
0.0000000001
 40
0.0
 40
0.0
 40
0.0
 40
0.0
 40
0.5090104936
 40
1.0
 40
1.0
 40
1.0
 40
1.0
 10
3.4092413024
 20
5.0953098572
 30
0.0
 10
3.4097837522
 20
5.0939122399
 30
0.0
 10
3.4109471729
 20
5.0912032869
 30
0.0
 10
3.4123102716
 20
5.0885885588
 30
0.0
 10
3.4130309148
 20
5.0873347926
 30
0.0
  0
LINE
  5
349
100
AcDbEntity
  8
ALL_ASSEMBLY_MEMBERS
100
AcDbLine
 62
7
  6
CONTINUOUS
 10
3.4130309148
 20
5.0873347926
 11
3.4154746055
 21
5.0834996903
  0
SPLINE
  5
34A
100
AcDbEntity
  8
ALL_ASSEMBLY_MEMBERS
100
AcDbSpline
 62
7
  6
CONTINUOUS
 70
0
 71
3
 72
26
 73
22
 74
0
 42
0.0000001
 43
0.0000001
 44
0.0000000001
 40
0.0
 40
0.0
 40
0.0
 40
0.0
 40
0.0843496129
 40
0.1678193348
 40
0.2493286296
 40
0.3280342945
 40
0.4032207824
 40
0.4742633558
 40
0.5406591832
 40
0.6021434744
 40
0.6587223821
 40
0.7107802796
 40
0.7353831063
 40
0.7592043851
 40
0.7824268652
 40
0.8052565937
 40
0.8279167672
 40
0.850642677
 40
0.8971389905
 40
0.9465021489
 40
1.0
 40
1.0
 40
1.0
 40
1.0
 10
3.4448763851
 20
5.1204835342
 30
0.0
 10
3.4447905427
 20
5.1188625342
 30
0.0
 10
3.4445220665
 20
5.1156417626
 30
0.0
 10
3.443831572
 20
5.1108904329
 30
0.0
 10
3.4428565027
 20
5.1062997021
 30
0.0
 10
3.4416100336
 20
5.1019402517
 30
0.0
 10
3.4401052265
 20
5.0978765398
 30
0.0
 10
3.4383622029
 20
5.0941682779
 30
0.0
 10
3.4364004932
 20
5.0908728352
 30
0.0
 10
3.4342452347
 20
5.0880406562
 30
0.0
 10
3.4319220116
 20
5.0857179557
 30
0.0
 10
3.4298277855
 20
5.0842125085
 30
0.0
 10
3.4281071991
 20
5.0833234828
 30
0.0
 10
3.4268205614
 20
5.082820355
 30
0.0
 10
3.4255191546
 20
5.0824707959
 30
0.0
 10
3.4242081493
 20
5.0822764015
 30
0.0
 10
3.4228926604
 20
5.0822388869
 30
0.0
 10
3.4211281559
 20
5.0824008698
 30
0.0
 10
3.4189080733
 20
5.0830177159
 30
0.0
 10
3.4163546259
 20
5.084377553
 30
0.0
 10
3.4148032253
 20
5.085625421
 30
0.0
 10
3.4140515791
 20
5.0863289736
 30
0.0
  0
SPLINE
  5
34B
100
AcDbEntity
  8
ALL_ASSEMBLY_MEMBERS
100
AcDbSpline
 62
7
  6
CONTINUOUS
 70
0
 71
3
 72
9
 73
5
 74
0
 42
0.0000001
 43
0.0000001
 44
0.0000000001
 40
0.0
 40
0.0
 40
0.0
 40
0.0
 40
0.2436290677
 40
1.0
 40
1.0
 40
1.0
 40
1.0
 10
3.4139121411
 20
5.1551078942
 30
0.0
 10
3.4136121094
 20
5.1546243655
 30
0.0
 10
3.4124148648
 20
5.1526185254
 30
0.0
 10
3.411351364
 20
5.1505335931
 30
0.0
 10
3.4106184858
 20
5.1489261003
 30
0.0
  0
SPLINE
  5
34C
100
AcDbEntity
  8
ALL_ASSEMBLY_MEMBERS
100
AcDbSpline
 62
7
  6
CONTINUOUS
 70
0
 71
3
 72
9
 73
5
 74
0
 42
0.0000001
 43
0.0000001
 44
0.0000000001
 40
0.0
 40
0.0
 40
0.0
 40
0.0
 40
0.2454978485
 40
1.0
 40
1.0
 40
1.0
 40
1.0
 10
3.4106184858
 20
5.1489261003
 30
0.0
 10
3.4103515057
 20
5.1483405069
 30
0.0
 10
3.4093024564
 20
5.1459377801
 30
0.0
 10
3.4084062925
 20
5.143468715
 30
0.0
 10
3.4078144741
 20
5.1415813719
 30
0.0
  0
SPLINE
  5
34D
100
AcDbEntity
  8
ALL_ASSEMBLY_MEMBERS
100
AcDbSpline
 62
7
  6
CONTINUOUS
 70
0
 71
3
 72
10
 73
6
 74
0
 42
0.0000001
 43
0.0000001
 44
0.0000000001
 40
0.0
 40
0.0
 40
0.0
 40
0.0
 40
0.2469709382
 40
0.4967949163
 40
1.0
 40
1.0
 40
1.0
 40
1.0
 10
3.4066888889
 20
5.1375610831
 30
0.0
 10
3.406348222
 20
5.1361835495
 30
0.0
 10
3.4057481954
 20
5.1333904973
 30
0.0
 10
3.4048870477
 20
5.1277074768
 30
0.0
 10
3.4046242571
 20
5.1233748252
 30
0.0
 10
3.4046242571
 20
5.1204835365
 30
0.0
  0
LINE
  5
34E
100
AcDbEntity
  8
ALL_ASSEMBLY_MEMBERS
100
AcDbLine
 62
7
  6
CONTINUOUS
 10
3.4153804899
 20
5.1571387098
 11
3.4171248455
 21
5.1589657992
  0
SPLINE
  5
34F
100
AcDbEntity
  8
ALL_ASSEMBLY_MEMBERS
100
AcDbSpline
 62
7
  6
CONTINUOUS
 70
0
 71
3
 72
11
 73
7
 74
0
 42
0.0000001
 43
0.0000001
 44
0.0000000001
 40
0.0
 40
0.0
 40
0.0
 40
0.0
 40
0.2744283378
 40
0.5288439739
 40
0.7684295132
 40
1.0
 40
1.0
 40
1.0
 40
1.0
 10
3.4171248455
 20
5.1589657992
 30
0.0
 10
3.4177959594
 20
5.1595914343
 30
0.0
 10
3.4191739913
 20
5.1607120912
 30
0.0
 10
3.4214210662
 20
5.1619851158
 30
0.0
 10
3.4237355449
 20
5.1627633004
 30
0.0
 10
3.4253158413
 20
5.162938549
 30
0.0
 10
3.4260900573
 20
5.1629385258
 30
0.0
  0
SPLINE
  5
350
100
AcDbEntity
  8
ALL_ASSEMBLY_MEMBERS
100
AcDbSpline
 62
7
  6
CONTINUOUS
 70
0
 71
3
 72
15
 73
11
 74
0
 42
0.0000001
 43
0.0000001
 44
0.0000000001
 40
0.0
 40
0.0
 40
0.0
 40
0.0
 40
0.0969739796
 40
0.203072828
 40
0.3180366294
 40
0.4413791708
 40
0.5723787195
 40
0.7099698552
 40
0.8529450645
 40
1.0
 40
1.0
 40
1.0
 40
1.0
 10
3.4350794264
 20
5.1589438013
 30
0.0
 10
3.4357736893
 20
5.1581752452
 30
0.0
 10
3.4371092541
 20
5.1564571513
 30
0.0
 10
3.438869362
 20
5.1535450542
 30
0.0
 10
3.4404484302
 20
5.1502168092
 30
0.0
 10
3.4418247913
 20
5.1465158642
 30
0.0
 10
3.4429771339
 20
5.1424877666
 30
0.0
 10
3.443889053
 20
5.138184378
 30
0.0
 10
3.4445431767
 20
5.1336614406
 30
0.0
 10
3.4447974032
 20
5.1305720628
 30
0.0
 10
3.4448796281
 20
5.1290036391
 30
0.0
  0
SPLINE
  5
351
100
AcDbEntity
  8
ALL_ASSEMBLY_MEMBERS
100
AcDbSpline
 62
7
  6
CONTINUOUS
 70
0
 71
3
 72
23
 73
19
 74
0
 42
0.0000001
 43
0.0000001
 44
0.0000000001
 40
0.0
 40
0.0
 40
0.0
 40
0.0
 40
0.1799407383
 40
0.2682658403
 40
0.3543760506
 40
0.5172596238
 40
0.5927641449
 40
0.663508267
 40
0.7289330087
 40
0.7884866002
 40
0.8416899661
 40
0.8881398192
 40
0.9274306657
 40
0.9592272596
 40
0.9722635867
 40
0.9833821407
 40
0.9926026225
 40
1.0
 40
1.0
 40
1.0
 40
1.0
 10
1.8908440091
 20
4.9921474163
 30
0.0
 10
1.8908268433
 20
4.9933376877
 30
0.0
 10
1.8908256473
 20
4.9951124788
 30
0.0
 10
1.8908216847
 20
4.9974568375
 30
0.0
 10
1.890797656
 20
4.9996882768
 30
0.0
 10
1.8907496552
 20
5.0018344878
 30
0.0
 10
1.8907014978
 20
5.0038789751
 30
0.0
 10
1.8906667124
 20
5.0052788672
 30
0.0
 10
1.89062763
 20
5.0065730888
 30
0.0
 10
1.890579188
 20
5.0077508872
 30
0.0
 10
1.8905215324
 20
5.0088025612
 30
0.0
 10
1.8904630687
 20
5.0097198938
 30
0.0
 10
1.8904113481
 20
5.0104957156
 30
0.0
 10
1.8903764388
 20
5.0110511949
 30
0.0
 10
1.8903424532
 20
5.0114198037
 30
0.0
 10
1.8903141189
 20
5.0116388891
 30
0.0
 10
1.8902790947
 20
5.0118190994
 30
0.0
 10
1.8902463239
 20
5.0119246212
 30
0.0
 10
1.8902267425
 20
5.01196947
 30
0.0
  0
SPLINE
  5
352
100
AcDbEntity
  8
ALL_ASSEMBLY_MEMBERS
100
AcDbSpline
 62
7
  6
CONTINUOUS
 70
0
 71
3
 72
13
 73
9
 74
0
 42
0.0000001
 43
0.0000001
 44
0.0000000001
 40
0.0
 40
0.0
 40
0.0
 40
0.0
 40
0.2193254409
 40
0.4558281184
 40
0.581710737
 40
0.7137126888
 40
0.8530185676
 40
1.0
 40
1.0
 40
1.0
 40
1.0
 10
3.1334980332
 20
4.815067134
 30
0.0
 10
3.1313944687
 20
4.8168356798
 30
0.0
 10
3.1269126353
 20
4.8203819663
 30
0.0
 10
3.1209409378
 20
4.8245700462
 30
0.0
 10
3.1156989129
 20
4.8278733068
 30
0.0
 10
3.1113853081
 20
4.8303592254
 30
0.0
 10
3.1067170653
 20
4.8327474107
 30
0.0
 10
3.1034222111
 20
4.8341762873
 30
0.0
 10
3.1017031631
 20
4.8348372253
 30
0.0
  0
SPLINE
  5
353
100
AcDbEntity
  8
ALL_ASSEMBLY_MEMBERS
100
AcDbSpline
 62
7
  6
CONTINUOUS
 70
0
 71
3
 72
15
 73
11
 74
0
 42
0.0000001
 43
0.0000001
 44
0.0000000001
 40
0.0
 40
0.0
 40
0.0
 40
0.0
 40
0.2405508233
 40
0.3633585218
 40
0.487746922
 40
0.6136988022
 40
0.6772613571
 40
0.7412044501
 40
0.8701697216
 40
1.0
 40
1.0
 40
1.0
 40
1.0
 10
3.1334975332
 20
4.8150683725
 30
0.0
 10
3.1323368315
 20
4.8184312753
 30
0.0
 10
3.1303520102
 20
4.823435489
 30
0.0
 10
3.1272375102
 20
4.8299441301
 30
0.0
 10
3.1246004208
 20
4.8347950509
 30
0.0
 10
3.1221479027
 20
4.8387407119
 30
0.0
 10
3.120008817
 20
4.8418198153
 30
0.0
 10
3.1177288708
 20
4.8448521788
 30
0.0
 10
3.114613298
 20
4.8484772681
 30
0.0
 10
3.1118040798
 20
4.8510955133
 30
0.0
 10
3.1103070058
 20
4.8522978208
 30
0.0
  0
SPLINE
  5
354
100
AcDbEntity
  8
ALL_ASSEMBLY_MEMBERS
100
AcDbSpline
 62
7
  6
CONTINUOUS
 70
0
 71
3
 72
9
 73
5
 74
0
 42
0.0000001
 43
0.0000001
 44
0.0000000001
 40
0.0
 40
0.0
 40
0.0
 40
0.0
 40
0.5000304023
 40
1.0
 40
1.0
 40
1.0
 40
1.0
 10
3.1017032317
 20
4.8348373768
 30
0.0
 10
3.0992080849
 20
4.8357966352
 30
0.0
 10
3.0939943861
 20
4.8371688522
 30
0.0
 10
3.0886163004
 20
4.8374580821
 30
0.0
 10
3.0859462792
 20
4.8373348622
 30
0.0
  0
SPLINE
  5
355
100
AcDbEntity
  8
ALL_ASSEMBLY_MEMBERS
100
AcDbSpline
 62
7
  6
CONTINUOUS
 70
0
 71
3
 72
9
 73
5
 74
0
 42
0.0000001
 43
0.0000001
 44
0.0000000001
 40
0.0
 40
0.0
 40
0.0
 40
0.0
 40
0.4999869471
 40
1.0
 40
1.0
 40
1.0
 40
1.0
 10
3.1103070058
 20
4.8522978208
 30
0.0
 10
3.1065398899
 20
4.8540457578
 30
0.0
 10
3.0985626176
 20
4.856651018
 30
0.0
 10
3.0902074377
 20
4.8573687813
 30
0.0
 10
3.0860558236
 20
4.8572576679
 30
0.0
  0
SPLINE
  5
356
100
AcDbEntity
  8
ALL_ASSEMBLY_MEMBERS
100
AcDbSpline
 62
7
  6
CONTINUOUS
 70
0
 71
3
 72
15
 73
11
 74
0
 42
0.0000001
 43
0.0000001
 44
0.0000000001
 40
0.0
 40
0.0
 40
0.0
 40
0.0
 40
0.0270563994
 40
0.0604157322
 40
0.145011491
 40
0.2515451986
 40
0.3771248457
 40
0.5185867981
 40
0.6723353502
 40
1.0
 40
1.0
 40
1.0
 40
1.0
 10
3.1017032317
 20
4.8348373768
 30
0.0
 10
3.1017936111
 20
4.8349879222
 30
0.0
 10
3.1019898287
 20
4.8353274355
 30
0.0
 10
3.1024457707
 20
4.8361507404
 30
0.0
 10
3.1031260128
 20
4.8374392154
 30
0.0
 10
3.1040596997
 20
4.839270323
 30
0.0
 10
3.1051391838
 20
4.8414412239
 30
0.0
 10
3.1063362259
 20
4.8438957673
 30
0.0
 10
3.1080849607
 20
4.847540313
 30
0.0
 10
3.1094127478
 20
4.8503685037
 30
0.0
 10
3.1103070012
 20
4.8522978208
 30
0.0
  0
SPLINE
  5
357
100
AcDbEntity
  8
ALL_ASSEMBLY_MEMBERS
100
AcDbSpline
 62
7
  6
CONTINUOUS
 70
0
 71
3
 72
13
 73
9
 74
0
 42
0.0000001
 43
0.0000001
 44
0.0000000001
 40
0.0
 40
0.0
 40
0.0
 40
0.0
 40
0.2499999957
 40
0.3750000012
 40
0.5000000013
 40
0.6249999994
 40
0.7500000048
 40
1.0
 40
1.0
 40
1.0
 40
1.0
 10
3.0860558236
 20
4.8572576679
 30
0.0
 10
2.9864542569
 20
4.8545898485
 30
0.0
 10
2.837054092
 20
4.8505066792
 30
0.0
 10
2.6378548633
 20
4.8450271684
 30
0.0
 10
2.4884551888
 20
4.8409265954
 30
0.0
 10
2.3390547581
 20
4.836853617
 30
0.0
 10
2.1398524224
 20
4.8314881218
 30
0.0
 10
1.9904482108
 20
4.8275552709
 30
0.0
 10
1.8908440091
 20
4.8249877221
 30
0.0
  0
SPLINE
  5
358
100
AcDbEntity
  8
ALL_ASSEMBLY_MEMBERS
100
AcDbSpline
 62
7
  6
CONTINUOUS
 70
0
 71
3
 72
21
 73
17
 74
0
 42
0.0000001
 43
0.0000001
 44
0.0000000001
 40
0.0
 40
0.0
 40
0.0
 40
0.0
 40
0.0051945017
 40
0.012468172
 40
0.0218311389
 40
0.0332741393
 40
0.0623295277
 40
0.0994545463
 40
0.1443207956
 40
0.1965353349
 40
0.2556942098
 40
0.321282046
 40
0.4693368612
 40
0.6356817878
 40
0.8147958266
 40
1.0
 40
1.0
 40
1.0
 40
1.0
 10
3.0859462721
 20
4.8373351247
 30
0.0
 10
3.0859588247
 20
4.8373672859
 30
0.0
 10
3.085980654
 20
4.8374475533
 30
0.0
 10
3.0860078907
 20
4.8375900483
 30
0.0
 10
3.0860340753
 20
4.8377749127
 30
0.0
 10
3.0860703949
 20
4.8381043238
 30
0.0
 10
3.0861094544
 20
4.8386188793
 30
0.0
 10
3.0861479246
 20
4.8393559419
 30
0.0
 10
3.0861799641
 20
4.8402473712
 30
0.0
 10
3.0862052977
 20
4.8412854882
 30
0.0
 10
3.0862234689
 20
4.8424614948
 30
0.0
 10
3.0862385239
 20
4.8442745582
 30
0.0
 10
3.0862365921
 20
4.846800111
 30
0.0
 10
3.0862053446
 20
4.8500800223
 30
0.0
 10
3.0861456709
 20
4.8536064798
 30
0.0
 10
3.0860887429
 20
4.85602719
 30
0.0
 10
3.0860558235
 20
4.8572576679
 30
0.0
  0
SPLINE
  5
359
100
AcDbEntity
  8
ALL_ASSEMBLY_MEMBERS
100
AcDbSpline
 62
7
  6
CONTINUOUS
 70
0
 71
3
 72
13
 73
9
 74
0
 42
0.0000001
 43
0.0000001
 44
0.0000000001
 40
0.0
 40
0.0
 40
0.0
 40
0.0
 40
0.2499984543
 40
0.3749963011
 40
0.4999943082
 40
0.6249931289
 40
0.7499933932
 40
1.0
 40
1.0
 40
1.0
 40
1.0
 10
3.0859462721
 20
4.8373351247
 30
0.0
 10
2.9863464441
 20
4.834672297
 30
0.0
 10
2.8369492441
 20
4.830603792
 30
0.0
 10
2.6377540158
 20
4.8251528683
 30
0.0
 10
2.4883577158
 20
4.8210755618
 30
0.0
 10
2.3389597766
 20
4.8170230449
 30
0.0
 10
2.1397572223
 20
4.8116748363
 30
0.0
 10
1.9903521613
 20
4.8077421282
 30
0.0
 10
1.890746739
 20
4.8051684727
 30
0.0
  0
SPLINE
  5
35A
100
AcDbEntity
  8
ALL_ASSEMBLY_MEMBERS
100
AcDbSpline
 62
7
  6
CONTINUOUS
 70
0
 71
3
 72
23
 73
19
 74
0
 42
0.0000001
 43
0.0000001
 44
0.0000000001
 40
0.0
 40
0.0
 40
0.0
 40
0.0
 40
0.0074012047
 40
0.0166219885
 40
0.0277392585
 40
0.0407735029
 40
0.0725645868
 40
0.1118489139
 40
0.1582915814
 40
0.2114869318
 40
0.2710318132
 40
0.3364481192
 40
0.4071851058
 40
0.4826846627
 40
0.6455678575
 40
0.7316834767
 40
0.8200186448
 40
1.0
 40
1.0
 40
1.0
 40
1.0
 10
1.8907467399
 20
4.8051684594
 30
0.0
 10
1.8907652332
 20
4.8052137464
 30
0.0
 10
1.8907953506
 20
4.805319989
 30
0.0
 10
1.8908256646
 20
4.8055009009
 30
0.0
 10
1.8908481712
 20
4.8057204383
 30
0.0
 10
1.8908722866
 20
4.806089424
 30
0.0
 10
1.8908923382
 20
4.8066450315
 30
0.0
 10
1.8909236767
 20
4.8074211005
 30
0.0
 10
1.8909582241
 20
4.808338654
 30
0.0
 10
1.8909884338
 20
4.8093903464
 30
0.0
 10
1.8910059123
 20
4.8105677605
 30
0.0
 10
1.8910107795
 20
4.8118612108
 30
0.0
 10
1.8910085613
 20
4.8132601082
 30
0.0
 10
1.8910028867
 20
4.8153031898
 30
0.0
 10
1.8909949087
 20
4.817447945
 30
0.0
 10
1.8909612369
 20
4.8196773032
 30
0.0
 10
1.8909047938
 20
4.8220192012
 30
0.0
 10
1.8908593886
 20
4.8237920976
 30
0.0
 10
1.8908440091
 20
4.8249815659
 30
0.0
  0
SPLINE
  5
35B
100
AcDbEntity
  8
ALL_ASSEMBLY_MEMBERS
100
AcDbSpline
 62
7
  6
CONTINUOUS
 70
0
 71
3
 72
17
 73
13
 74
0
 42
0.0000001
 43
0.0000001
 44
0.0000000001
 40
0.0
 40
0.0
 40
0.0
 40
0.0
 40
0.1252971164
 40
0.1881630462
 40
0.2509759194
 40
0.376272323
 40
0.5014154837
 40
0.6263436674
 40
0.7510261774
 40
0.8134107657
 40
0.8757873986
 40
1.0
 40
1.0
 40
1.0
 40
1.0
 10
3.0969866501
 20
5.0419835365
 30
0.0
 10
3.0969798111
 20
5.0401885481
 30
0.0
 10
3.0967029242
 20
5.037484874
 30
0.0
 10
3.0958258279
 20
5.0339938861
 30
0.0
 10
3.0946115372
 20
5.0306042063
 30
0.0
 10
3.0924858702
 20
5.02661693
 30
0.0
 10
3.0890602552
 20
5.0224282284
 30
0.0
 10
3.0848970826
 20
5.0189851573
 30
0.0
 10
3.0809339877
 20
5.0168513757
 30
0.0
 10
3.0775674281
 20
5.0156372126
 30
0.0
 10
3.0741047865
 20
5.0147646741
 30
0.0
 10
3.0714224933
 20
5.0144945776
 30
0.0
 10
3.0696430287
 20
5.014494054
 30
0.0
  0
SPLINE
  5
35C
100
AcDbEntity
  8
ALL_ASSEMBLY_MEMBERS
100
AcDbSpline
 62
7
  6
CONTINUOUS
 70
0
 71
3
 72
15
 73
11
 74
0
 42
0.0000001
 43
0.0000001
 44
0.0000000001
 40
0.0
 40
0.0
 40
0.0
 40
0.0
 40
0.1449609804
 40
0.2863435741
 40
0.4229982744
 40
0.5538738727
 40
0.6779092094
 40
0.7941024338
 40
0.9016584394
 40
1.0
 40
1.0
 40
1.0
 40
1.0
 10
3.4462397277
 20
5.1292213671
 30
0.0
 10
3.4461690809
 20
5.1308281207
 30
0.0
 10
3.4459887144
 20
5.1340003589
 30
0.0
 10
3.4455880336
 20
5.1386770113
 30
0.0
 10
3.4450476975
 20
5.1431825361
 30
0.0
 10
3.4443570432
 20
5.1474730479
 30
0.0
 10
3.4435027076
 20
5.1515028064
 30
0.0
 10
3.4424679993
 20
5.1552235299
 30
0.0
 10
3.4412382644
 20
5.1585832172
 30
0.0
 10
3.4402324659
 20
5.1606418227
 30
0.0
 10
3.4396840245
 20
5.161585039
 30
0.0
  0
SPLINE
  5
35D
100
AcDbEntity
  8
ALL_ASSEMBLY_MEMBERS
100
AcDbSpline
 62
7
  6
CONTINUOUS
 70
0
 71
3
 72
18
 73
14
 74
0
 42
0.0000001
 43
0.0000001
 44
0.0000000001
 40
0.0
 40
0.0
 40
0.0
 40
0.0
 40
0.1392913503
 40
0.2666932197
 40
0.3267167855
 40
0.3848537051
 40
0.4416966439
 40
0.497896391
 40
0.5541506777
 40
0.6111823387
 40
0.7300523913
 40
0.8588506789
 40
1.0
 40
1.0
 40
1.0
 40
1.0
 10
3.4396840245
 20
5.161585039
 30
0.0
 10
3.439232058
 20
5.1623623366
 30
0.0
 10
3.4382758677
 20
5.1638012844
 30
0.0
 10
3.4368344882
 20
5.1653583509
 30
0.0
 10
3.4355894681
 20
5.1663440897
 30
0.0
 10
3.4346283935
 20
5.1669427717
 30
0.0
 10
3.4336243612
 20
5.1674108823
 30
0.0
 10
3.4325810976
 20
5.167745998
 30
0.0
 10
3.4315022453
 20
5.1679453322
 30
0.0
 10
3.4300022539
 20
5.1680281424
 30
0.0
 10
3.4280336785
 20
5.1677622531
 30
0.0
 10
3.425658659
 20
5.1669077473
 30
0.0
 10
3.4241388665
 20
5.1660381008
 30
0.0
 10
3.4233801772
 20
5.1655335541
 30
0.0
  0
SPLINE
  5
35E
100
AcDbEntity
  8
ALL_ASSEMBLY_MEMBERS
100
AcDbSpline
 62
7
  6
CONTINUOUS
 70
0
 71
3
 72
11
 73
7
 74
0
 42
0.0000001
 43
0.0000001
 44
0.0000000001
 40
0.0
 40
0.0
 40
0.0
 40
0.0
 40
0.2273496599
 40
0.4704266663
 40
0.7283462247
 40
1.0
 40
1.0
 40
1.0
 40
1.0
 10
3.4233801772
 20
5.1655335541
 30
0.0
 10
3.4227025951
 20
5.1650829456
 30
0.0
 10
3.4213559148
 20
5.1640657815
 30
0.0
 10
3.4194381714
 20
5.1622949273
 30
0.0
 10
3.4175735655
 20
5.1602485382
 30
0.0
 10
3.4164057733
 20
5.1587531449
 30
0.0
 10
3.4158333202
 20
5.1579672162
 30
0.0
  0
LINE
  5
35F
100
AcDbEntity
  8
ALL_ASSEMBLY_MEMBERS
100
AcDbLine
 62
7
  6
CONTINUOUS
 10
3.4247991729
 20
5.1628608286
 11
3.4271908375
 21
5.1621995945
  0
SPLINE
  5
360
100
AcDbEntity
  8
ALL_ASSEMBLY_MEMBERS
100
AcDbSpline
 62
7
  6
CONTINUOUS
 70
0
 71
3
 72
11
 73
7
 74
0
 42
0.0000001
 43
0.0000001
 44
0.0000000001
 40
0.0
 40
0.0
 40
0.0
 40
0.0
 40
0.2166818164
 40
0.4533806522
 40
0.7138747419
 40
1.0
 40
1.0
 40
1.0
 40
1.0
 10
3.4271908375
 20
5.1621995945
 30
0.0
 10
3.4279023461
 20
5.1618995987
 30
0.0
 10
3.4293222736
 20
5.1611016491
 30
0.0
 10
3.4312821687
 20
5.1594625264
 30
0.0
 10
3.4331308167
 20
5.1573589451
 30
0.0
 10
3.4342238802
 20
5.1557405914
 30
0.0
 10
3.4347510838
 20
5.1548678296
 30
0.0
  0
SPLINE
  5
361
100
AcDbEntity
  8
ALL_ASSEMBLY_MEMBERS
100
AcDbSpline
 62
7
  6
CONTINUOUS
 70
0
 71
3
 72
21
 73
17
 74
0
 42
0.0000001
 43
0.0000001
 44
0.0000000001
 40
0.0
 40
0.0
 40
0.0
 40
0.0
 40
0.0485602011
 40
0.1006841871
 40
0.1561580302
 40
0.2147051609
 40
0.2759834802
 40
0.3395855049
 40
0.4050816428
 40
0.4720033471
 40
0.6081168272
 40
0.743993479
 40
0.8106410295
 40
0.8758010089
 40
0.9390440694
 40
1.0
 40
1.0
 40
1.0
 40
1.0
 10
3.4347510838
 20
5.1548678296
 30
0.0
 10
3.4352664768
 20
5.1540146197
 30
0.0
 10
3.4362472327
 20
5.1521915914
 30
0.0
 10
3.437525725
 20
5.1492488801
 30
0.0
 10
3.4386533015
 20
5.1460272591
 30
0.0
 10
3.4396154702
 20
5.142557452
 30
0.0
 10
3.4404008016
 20
5.1388728922
 30
0.0
 10
3.4410010323
 20
5.1350094774
 30
0.0
 10
3.4414062264
 20
5.1310043475
 30
0.0
 10
3.4416816474
 20
5.1254971215
 30
0.0
 10
3.441509681
 20
5.1185305848
 30
0.0
 10
3.4406594003
 20
5.111618858
 30
0.0
 10
3.4395630695
 20
5.1062323149
 30
0.0
 10
3.4385521079
 20
5.1023559712
 30
0.0
 10
3.4373532981
 20
5.0986561981
 30
0.0
 10
3.4364168472
 20
5.0962826573
 30
0.0
 10
3.4359174595
 20
5.0951353937
 30
0.0
  0
SPLINE
  5
362
100
AcDbEntity
  8
ALL_ASSEMBLY_MEMBERS
100
AcDbSpline
 62
7
  6
CONTINUOUS
 70
0
 71
3
 72
11
 73
7
 74
0
 42
0.0000001
 43
0.0000001
 44
0.0000000001
 40
0.0
 40
0.0
 40
0.0
 40
0.0
 40
0.2710920963
 40
0.5284863703
 40
0.7715362775
 40
1.0
 40
1.0
 40
1.0
 40
1.0
 10
3.4355924841
 20
5.0944039103
 30
0.0
 10
3.4351025091
 20
5.093323266
 30
0.0
 10
3.4340749281
 20
5.0912482124
 30
0.0
 10
3.4323438944
 20
5.0883443826
 30
0.0
 10
3.4304771492
 20
5.0857520085
 30
0.0
 10
3.4291085847
 20
5.084201109
 30
0.0
 10
3.4284044953
 20
5.0834910583
 30
0.0
  0
SPLINE
  5
363
100
AcDbEntity
  8
ALL_ASSEMBLY_MEMBERS
100
AcDbSpline
 62
7
  6
CONTINUOUS
 70
0
 71
3
 72
11
 73
7
 74
0
 42
0.0000001
 43
0.0000001
 44
0.0000000001
 40
0.0
 40
0.0
 40
0.0
 40
0.0
 40
0.2314916821
 40
0.471192174
 40
0.7258718476
 40
1.0
 40
1.0
 40
1.0
 40
1.0
 10
3.4260900573
 20
5.1629385258
 30
0.0
 10
3.4268665157
 20
5.1629385026
 30
0.0
 10
3.4284520783
 20
5.1627625563
 30
0.0
 10
3.4307744996
 20
5.1619791416
 30
0.0
 10
3.4330260037
 20
5.1606965655
 30
0.0
 10
3.4344077783
 20
5.1595717421
 30
0.0
 10
3.4350794264
 20
5.1589438013
 30
0.0
  0
SPLINE
  5
364
100
AcDbEntity
  8
ALL_ASSEMBLY_MEMBERS
100
AcDbSpline
 62
7
  6
CONTINUOUS
 70
0
 71
3
 72
10
 73
6
 74
0
 42
0.0000001
 43
0.0000001
 44
0.0000000001
 40
0.0
 40
0.0
 40
0.0
 40
0.0
 40
0.2337561388
 40
0.4757382338
 40
1.0
 40
1.0
 40
1.0
 40
1.0
 10
3.4178973642
 20
5.1567334292
 30
0.0
 10
3.4176201852
 20
5.1567146544
 30
0.0
 10
3.4170583165
 20
5.1566271767
 30
0.0
 10
3.4159251736
 20
5.1562563467
 30
0.0
 10
3.4151328076
 20
5.1557793101
 30
0.0
 10
3.4146363104
 20
5.1554028642
 30
0.0
  0
LINE
  5
365
100
AcDbEntity
  8
ALL_ASSEMBLY_MEMBERS
100
AcDbLine
 62
7
  6
CONTINUOUS
 10
3.4146363104
 20
5.1554028642
 11
3.4135644978
 21
5.1544563586
  0
SPLINE
  5
366
100
AcDbEntity
  8
ALL_ASSEMBLY_MEMBERS
100
AcDbSpline
 62
7
  6
CONTINUOUS
 70
0
 71
3
 72
32
 73
28
 74
0
 42
0.0000001
 43
0.0000001
 44
0.0000000001
 40
0.0
 40
0.0
 40
0.0
 40
0.0
 40
0.0673074137
 40
0.0987662461
 40
0.1286236471
 40
0.1568076668
 40
0.1832923589
 40
0.2081260378
 40
0.2314672907
 40
0.2535688332
 40
0.2747880614
 40
0.295606151
 40
0.3165383202
 40
0.3380666679
 40
0.3606145586
 40
0.3844979911
 40
0.4099148179
 40
0.4369732049
 40
0.4657209174
 40
0.4961456216
 40
0.5281880958
 40
0.5967779535
 40
0.6707185179
 40
0.7490490741
 40
0.8308060214
 40
0.9148993033
 40
1.0
 40
1.0
 40
1.0
 40
1.0
 10
3.4154746055
 20
5.0834996903
 30
0.0
 10
3.4164169745
 20
5.0821670824
 30
0.0
 10
3.4179085503
 20
5.0802825484
 30
0.0
 10
3.4200893175
 20
5.0780495698
 30
0.0
 10
3.4217216809
 20
5.0766156004
 30
0.0
 10
3.4233741957
 20
5.0753982238
 30
0.0
 10
3.4250344504
 20
5.0744111589
 30
0.0
 10
3.4266908521
 20
5.0736691169
 30
0.0
 10
3.4283293356
 20
5.0731808779
 30
0.0
 10
3.4299367405
 20
5.0729538845
 30
0.0
 10
3.4314994172
 20
5.0729987952
 30
0.0
 10
3.4330015415
 20
5.0733155286
 30
0.0
 10
3.4344305228
 20
5.0738957871
 30
0.0
 10
3.4357750639
 20
5.0747321504
 30
0.0
 10
3.4370281588
 20
5.0758110831
 30
0.0
 10
3.4381902273
 20
5.0771148956
 30
0.0
 10
3.4392614395
 20
5.078629252
 30
0.0
 10
3.4402418803
 20
5.0803403244
 30
0.0
 10
3.4411350996
 20
5.0822329744
 30
0.0
 10
3.4419446891
 20
5.0842928526
 30
0.0
 10
3.4429394215
 20
5.0873126003
 30
0.0
 10
3.4439695966
 20
5.0914242123
 30
0.0
 10
3.4449090759
 20
5.096699722
 30
0.0
 10
3.4456076361
 20
5.1023337354
 30
0.0
 10
3.4460864722
 20
5.1082369263
 30
0.0
 10
3.4463675151
 20
5.1143168144
 30
0.0
 10
3.4464282081
 20
5.1184199179
 30
0.0
 10
3.4464282081
 20
5.1204835365
 30
0.0
  0
LINE
  5
367
100
AcDbEntity
  8
ALL_ASSEMBLY_MEMBERS
100
AcDbLine
 62
7
  6
CONTINUOUS
 10
3.0668234433
 20
4.8330761243
 11
3.0859462587
 21
4.8373352405
  0
SPLINE
  5
368
100
AcDbEntity
  8
ALL_ASSEMBLY_MEMBERS
100
AcDbSpline
 62
7
  6
CONTINUOUS
 70
0
 71
3
 72
18
 73
14
 74
0
 42
0.0000001
 43
0.0000001
 44
0.0000000001
 40
0.0
 40
0.0
 40
0.0
 40
0.0
 40
0.1241895318
 40
0.1866591557
 40
0.249075411
 40
0.3736687143
 40
0.4984928144
 40
0.5610767395
 40
0.6236878347
 40
0.6863389049
 40
0.7490644288
 40
0.8746450559
 40
1.0
 40
1.0
 40
1.0
 40
1.0
 10
1.8701426863
 20
4.8249815659
 30
0.0
 10
1.8701426863
 20
4.823663364
 30
0.0
 10
1.8703469988
 20
4.8216750426
 30
0.0
 10
1.8710045358
 20
4.8191110936
 30
0.0
 10
1.8719207259
 20
4.8166220853
 30
0.0
 10
1.8735310133
 20
4.8137029792
 30
0.0
 10
1.8756945787
 20
4.8111646026
 30
0.0
 10
1.87769906
 20
4.8094198846
 30
0.0
 10
1.8793290721
 20
4.8082655295
 30
0.0
 10
1.8810678853
 20
4.8072798306
 30
0.0
 10
1.8835070188
 20
4.8061998634
 30
0.0
 10
1.8867389394
 20
4.8053117167
 30
0.0
 10
1.8894169246
 20
4.8051235898
 30
0.0
 10
1.8907467399
 20
4.8051684594
 30
0.0
  0
SPLINE
  5
369
100
AcDbEntity
  8
ALL_ASSEMBLY_MEMBERS
100
AcDbSpline
 62
7
  6
CONTINUOUS
 70
0
 71
3
 72
18
 73
14
 74
0
 42
0.0000001
 43
0.0000001
 44
0.0000000001
 40
0.0
 40
0.0
 40
0.0
 40
0.0
 40
0.1242073447
 40
0.1866734905
 40
0.2490882149
 40
0.373686083
 40
0.4985092054
 40
0.5610883401
 40
0.6236947881
 40
0.6863410779
 40
0.7490615045
 40
0.8746371798
 40
1.0
 40
1.0
 40
1.0
 40
1.0
 10
1.8701426863
 20
4.9921474163
 30
0.0
 10
1.8701426863
 20
4.9934443501
 30
0.0
 10
1.8703402908
 20
4.9954002568
 30
0.0
 10
1.8709769561
 20
4.9979251007
 30
0.0
 10
1.8718641911
 20
5.0003785747
 30
0.0
 10
1.8734244149
 20
5.0032623648
 30
0.0
 10
1.875523577
 20
5.0057830412
 30
0.0
 10
1.8774714299
 20
5.0075262286
 30
0.0
 10
1.8790570429
 20
5.0086861789
 30
0.0
 10
1.8807505904
 20
5.0096846656
 30
0.0
 10
1.8831296343
 20
5.0107913209
 30
0.0
 10
1.8862892543
 20
5.0117312459
 30
0.0
 10
1.888917784
 20
5.0119797555
 30
0.0
 10
1.8902267425
 20
5.01196947
 30
0.0
  0
SPLINE
  5
36A
100
AcDbEntity
  8
ALL_ASSEMBLY_MEMBERS
100
AcDbSpline
 62
7
  6
CONTINUOUS
 70
0
 71
3
 72
15
 73
11
 74
0
 42
0.0000001
 43
0.0000001
 44
0.0000000001
 40
0.0
 40
0.0
 40
0.0
 40
0.0
 40
0.2408363224
 40
0.3636973501
 40
0.4880861385
 40
0.6139961926
 40
0.6775225476
 40
0.7414225025
 40
0.8702798058
 40
1.0
 40
1.0
 40
1.0
 40
1.0
 10
3.1334975332
 20
5.0340875035
 30
0.0
 10
3.1323415511
 20
5.0306790975
 30
0.0
 10
3.1303641879
 20
5.025606117
 30
0.0
 10
3.1272571435
 20
5.0190046907
 30
0.0
 10
3.1246250823
 20
5.014085196
 30
0.0
 10
3.1221750023
 20
5.0100822297
 30
0.0
 10
3.1200356374
 20
5.0069578172
 30
0.0
 10
3.1177544299
 20
5.0038803064
 30
0.0
 10
3.1146332148
 20
5.0001993025
 30
0.0
 10
3.1118124015
 20
4.9975390155
 30
0.0
 10
3.1103070058
 20
4.9963176209
 30
0.0
  0
SPLINE
  5
36B
100
AcDbEntity
  8
ALL_ASSEMBLY_MEMBERS
100
AcDbSpline
 62
7
  6
CONTINUOUS
 70
0
 71
3
 72
14
 73
10
 74
0
 42
0.0000001
 43
0.0000001
 44
0.0000000001
 40
0.0
 40
0.0
 40
0.0
 40
0.0
 40
0.2199037694
 40
0.45649686
 40
0.5822776207
 40
0.6473767917
 40
0.7141139391
 40
0.8532024431
 40
1.0
 40
1.0
 40
1.0
 40
1.0
 10
3.133497613
 20
5.0340875111
 30
0.0
 10
3.1313876984
 20
5.0322737162
 30
0.0
 10
3.1268967469
 20
5.0286360424
 30
0.0
 10
3.1209092392
 20
5.0243348718
 30
0.0
 10
3.1163639723
 20
5.0214010036
 30
0.0
 10
3.1135729858
 20
5.0197167848
 30
0.0
 10
3.1105996175
 20
5.018010442
 30
0.0
 10
3.1066439859
 20
5.0159418784
 30
0.0
 10
3.1033324318
 20
5.0144759685
 30
0.0
 10
3.1016029747
 20
5.013798586
 30
0.0
  0
SPLINE
  5
36C
100
AcDbEntity
  8
ALL_ASSEMBLY_MEMBERS
100
AcDbSpline
 62
7
  6
CONTINUOUS
 70
0
 71
3
 72
9
 73
5
 74
0
 42
0.0000001
 43
0.0000001
 44
0.0000000001
 40
0.0
 40
0.0
 40
0.0
 40
0.0
 40
0.4999938225
 40
1.0
 40
1.0
 40
1.0
 40
1.0
 10
3.1103070058
 20
4.9963176209
 30
0.0
 10
3.1067268409
 20
4.9946394242
 30
0.0
 10
3.0991647072
 20
4.9920855061
 30
0.0
 10
3.0912328763
 20
4.9912344729
 30
0.0
 10
3.0872788035
 20
4.9912369402
 30
0.0
  0
SPLINE
  5
36D
100
AcDbEntity
  8
ALL_ASSEMBLY_MEMBERS
100
AcDbSpline
 62
7
  6
CONTINUOUS
 70
0
 71
3
 72
9
 73
5
 74
0
 42
0.0000001
 43
0.0000001
 44
0.0000000001
 40
0.0
 40
0.0
 40
0.0
 40
0.0
 40
0.4999947093
 40
1.0
 40
1.0
 40
1.0
 40
1.0
 10
3.1016031138
 20
5.0137982824
 30
0.0
 10
3.0992351391
 20
5.0128707511
 30
0.0
 10
3.0942953779
 20
5.0115053817
 30
0.0
 10
3.0891890789
 20
5.0111178221
 30
0.0
 10
3.0866463752
 20
5.0111683209
 30
0.0
  0
SPLINE
  5
36E
100
AcDbEntity
  8
ALL_ASSEMBLY_MEMBERS
100
AcDbSpline
 62
7
  6
CONTINUOUS
 70
0
 71
3
 72
15
 73
11
 74
0
 42
0.0000001
 43
0.0000001
 44
0.0000000001
 40
0.0
 40
0.0
 40
0.0
 40
0.0
 40
0.3292538881
 40
0.4835775849
 40
0.6253538208
 40
0.750918036
 40
0.8570543482
 40
0.9408310297
 40
0.9736201589
 40
1.0
 40
1.0
 40
1.0
 40
1.0
 10
3.1103070045
 20
4.9963176209
 30
0.0
 10
3.1093978931
 20
4.9982589918
 30
0.0
 10
3.1080485872
 20
5.0011037463
 30
0.0
 10
3.1062725017
 20
5.0047674832
 30
0.0
 10
3.1050590449
 20
5.0072301198
 30
0.0
 10
3.1039672676
 20
5.0094028968
 30
0.0
 10
3.1030262094
 20
5.0112286557
 30
0.0
 10
3.1023431471
 20
5.0125077901
 30
0.0
 10
3.101887684
 20
5.0133194369
 30
0.0
 10
3.1016926898
 20
5.0136517387
 30
0.0
 10
3.1016031138
 20
5.0137982824
 30
0.0
  0
SPLINE
  5
36F
100
AcDbEntity
  8
ALL_ASSEMBLY_MEMBERS
100
AcDbSpline
 62
7
  6
CONTINUOUS
 70
0
 71
3
 72
13
 73
9
 74
0
 42
0.0000001
 43
0.0000001
 44
0.0000000001
 40
0.0
 40
0.0
 40
0.0
 40
0.0
 40
0.2499984554
 40
0.3749962949
 40
0.4999942941
 40
0.6249931093
 40
0.749993373
 40
1.0
 40
1.0
 40
1.0
 40
1.0
 10
3.0866463752
 20
5.0111681548
 30
0.0
 10
2.986945337
 20
5.0112169738
 30
0.0
 10
2.8373943762
 20
5.0113649509
 30
0.0
 10
2.6379934475
 20
5.0115887463
 30
0.0
 10
2.488443162
 20
5.0117457032
 30
0.0
 10
2.3388918848
 20
5.0118777652
 30
0.0
 10
2.1394863126
 20
5.0119983821
 30
0.0
 10
1.9899310428
 20
5.0120100481
 30
0.0
 10
1.890226742
 20
5.0119694567
 30
0.0
  0
SPLINE
  5
370
100
AcDbEntity
  8
ALL_ASSEMBLY_MEMBERS
100
AcDbSpline
 62
7
  6
CONTINUOUS
 70
0
 71
3
 72
21
 73
17
 74
0
 42
0.0000001
 43
0.0000001
 44
0.0000000001
 40
0.0
 40
0.0
 40
0.0
 40
0.0
 40
0.1851624019
 40
0.3642602366
 40
0.5306070324
 40
0.6786748093
 40
0.7442711906
 40
0.8034388956
 40
0.8556618366
 40
0.9005354812
 40
0.9376663209
 40
0.9667254786
 40
0.978169507
 40
0.9875328919
 40
0.9948063473
 40
1.0
 40
1.0
 40
1.0
 40
1.0
 10
3.0872788034
 20
4.9912369402
 30
0.0
 10
3.0872794685
 20
4.9924687176
 30
0.0
 10
3.0872729314
 20
4.9948919399
 30
0.0
 10
3.0872401231
 20
4.9984216351
 30
0.0
 10
3.0871853263
 20
5.0017042595
 30
0.0
 10
3.0871209807
 20
5.0042314829
 30
0.0
 10
3.0870583303
 20
5.0060454042
 30
0.0
 10
3.087009279
 20
5.0072217872
 30
0.0
 10
3.0869566783
 20
5.0082600049
 30
0.0
 10
3.0869012164
 20
5.0091512537
 30
0.0
 10
3.0868433708
 20
5.0098878467
 30
0.0
 10
3.0867907762
 20
5.0104017457
 30
0.0
 10
3.0867457834
 20
5.0107304287
 30
0.0
 10
3.0867147283
 20
5.0109147208
 30
0.0
 10
3.086683733
 20
5.0110565783
 30
0.0
 10
3.0866597818
 20
5.0111363116
 30
0.0
 10
3.0866463752
 20
5.0111681548
 30
0.0
  0
SPLINE
  5
371
100
AcDbEntity
  8
ALL_ASSEMBLY_MEMBERS
100
AcDbSpline
 62
7
  6
CONTINUOUS
 70
0
 71
3
 72
13
 73
9
 74
0
 42
0.0000001
 43
0.0000001
 44
0.0000000001
 40
0.0
 40
0.0
 40
0.0
 40
0.0
 40
0.2499999941
 40
0.3749999977
 40
0.4999999961
 40
0.6249999932
 40
0.749999999
 40
1.0
 40
1.0
 40
1.0
 40
1.0
 10
3.0872788035
 20
4.9912369402
 30
0.0
 10
2.9875758824
 20
4.9912906822
 30
0.0
 10
2.8380215491
 20
4.9914532656
 30
0.0
 10
2.6386158373
 20
4.991705565
 30
0.0
 10
2.4890615386
 20
4.9918857103
 30
0.0
 10
2.3395072068
 20
4.9920382037
 30
0.0
 10
2.1401013757
 20
4.9921762389
 30
0.0
 10
1.9905469365
 20
4.992188164
 30
0.0
 10
1.8908440091
 20
4.9921414577
 30
0.0
  0
SPLINE
  5
372
100
AcDbEntity
  8
0
100
AcDbSpline
 62
7
  6
CONTINUOUS
 70
0
 71
3
 72
15
 73
11
 74
0
 42
0.0000001
 43
0.0000001
 44
0.0000000001
 40
0.0
 40
0.0
 40
0.0
 40
0.0
 40
0.1358998208
 40
0.267238004
 40
0.3946686073
 40
0.5189074185
 40
0.6407265016
 40
0.7609445495
 40
0.8804131744
 40
1.0
 40
1.0
 40
1.0
 40
1.0
 10
5.857397562
 20
5.7180500735
 30
0.0
 10
5.8434449394
 20
5.7018552421
 30
0.0
 10
5.8169917843
 20
5.6691415627
 30
0.0
 10
5.781314914
 20
5.6182774276
 30
0.0
 10
5.7503744016
 20
5.5665180044
 30
0.0
 10
5.7241792197
 20
5.5138653984
 30
0.0
 10
5.7027362524
 20
5.4603214168
 30
0.0
 10
5.6860523744
 20
5.4058894184
 30
0.0
 10
5.6741332717
 20
5.3505815641
 30
0.0
 10
5.6693781571
 20
5.3132270058
 30
0.0
 10
5.6677927901
 20
5.2944835365
 30
0.0
  0
SPLINE
  5
373
100
AcDbEntity
  8
0
100
AcDbSpline
 62
7
  6
CONTINUOUS
 70
0
 71
3
 72
15
 73
11
 74
0
 42
0.0000001
 43
0.0000001
 44
0.0000000001
 40
0.0
 40
0.0
 40
0.0
 40
0.0
 40
0.1358998208
 40
0.267238004
 40
0.3946686073
 40
0.5189074185
 40
0.6407265016
 40
0.7609445495
 40
0.8804131744
 40
1.0
 40
1.0
 40
1.0
 40
1.0
 10
4.6698978107
 20
5.7180500735
 30
0.0
 10
4.6838504333
 20
5.7018552421
 30
0.0
 10
4.7103035884
 20
5.6691415627
 30
0.0
 10
4.7459804587
 20
5.6182774276
 30
0.0
 10
4.7769209711
 20
5.5665180044
 30
0.0
 10
4.803116153
 20
5.5138653984
 30
0.0
 10
4.8245591203
 20
5.4603214168
 30
0.0
 10
4.8412429983
 20
5.4058894184
 30
0.0
 10
4.853162101
 20
5.3505815641
 30
0.0
 10
4.8579172156
 20
5.3132270058
 30
0.0
 10
4.8595025825
 20
5.2944835365
 30
0.0
  0
SPLINE
  5
374
100
AcDbEntity
  8
0
100
AcDbSpline
 62
7
  6
CONTINUOUS
 70
0
 71
3
 72
21
 73
17
 74
0
 42
0.0000001
 43
0.0000001
 44
0.0000000001
 40
0.0
 40
0.0
 40
0.0
 40
0.0
 40
0.0698089599
 40
0.1377172362
 40
0.2039275282
 40
0.2686409128
 40
0.3320568797
 40
0.3943734214
 40
0.4557871812
 40
0.5164936584
 40
0.6365626198
 40
0.7561322095
 40
0.8162148943
 40
0.8767560555
 40
0.9379519044
 40
1.0
 40
1.0
 40
1.0
 40
1.0
 10
5.6677927901
 20
5.2944835365
 30
0.0
 10
5.66271253
 20
5.234420659
 30
0.0
 10
5.6532691279
 20
5.1158804805
 30
0.0
 10
5.6409380492
 20
4.9402269248
 30
0.0
 10
5.630418011
 20
4.7688637565
 30
0.0
 10
5.6214764408
 20
4.6012957735
 30
0.0
 10
5.613880635
 20
4.4370274179
 30
0.0
 10
5.6073976908
 20
4.2755631089
 30
0.0
 10
5.6017948418
 20
4.1164071731
 30
0.0
 10
5.5952104375
 20
3.9073894516
 30
0.0
 10
5.5879741032
 20
3.6481539802
 30
0.0
 10
5.5805475434
 20
3.3894621882
 30
0.0
 10
5.5735983109
 20
3.1821803139
 30
0.0
 10
5.5676256056
 20
3.025298966
 30
0.0
 10
5.5606670786
 20
2.8667592491
 30
0.0
 10
5.555258779
 20
2.7604791655
 30
0.0
 10
5.5523227605
 20
2.7069835365
 30
0.0
  0
SPLINE
  5
375
100
AcDbEntity
  8
0
100
AcDbSpline
 62
7
  6
CONTINUOUS
 70
0
 71
3
 72
21
 73
17
 74
0
 42
0.0000001
 43
0.0000001
 44
0.0000000001
 40
0.0
 40
0.0
 40
0.0
 40
0.0
 40
0.0698089599
 40
0.1377172362
 40
0.2039275282
 40
0.2686409128
 40
0.3320568797
 40
0.3943734214
 40
0.4557871812
 40
0.5164936584
 40
0.6365626198
 40
0.7561322095
 40
0.8162148943
 40
0.8767560555
 40
0.9379519044
 40
1.0
 40
1.0
 40
1.0
 40
1.0
 10
4.8595025825
 20
5.2944835365
 30
0.0
 10
4.8645828426
 20
5.234420659
 30
0.0
 10
4.8740262448
 20
5.1158804805
 30
0.0
 10
4.8863573235
 20
4.9402269248
 30
0.0
 10
4.8968773617
 20
4.7688637565
 30
0.0
 10
4.9058189318
 20
4.6012957735
 30
0.0
 10
4.9134147376
 20
4.4370274179
 30
0.0
 10
4.9198976818
 20
4.2755631089
 30
0.0
 10
4.9255005309
 20
4.1164071731
 30
0.0
 10
4.9320849352
 20
3.9073894516
 30
0.0
 10
4.9393212695
 20
3.6481539802
 30
0.0
 10
4.9467478293
 20
3.3894621882
 30
0.0
 10
4.9536970618
 20
3.1821803139
 30
0.0
 10
4.9596697671
 20
3.025298966
 30
0.0
 10
4.9666282941
 20
2.8667592491
 30
0.0
 10
4.9720365937
 20
2.7604791655
 30
0.0
 10
4.9749726122
 20
2.7069835365
 30
0.0
  0
SPLINE
  5
376
100
AcDbEntity
  8
0
100
AcDbSpline
 62
7
  6
CONTINUOUS
 70
0
 71
3
 72
15
 73
11
 74
0
 42
0.0000001
 43
0.0000001
 44
0.0000000001
 40
0.0
 40
0.0
 40
0.0
 40
0.0
 40
0.150864766
 40
0.2991688762
 40
0.4422678911
 40
0.5777769216
 40
0.7033610135
 40
0.8168693296
 40
0.9163359387
 40
1.0
 40
1.0
 40
1.0
 40
1.0
 10
5.5523227605
 20
2.7069835365
 30
0.0
 10
5.5513278566
 20
2.6888559233
 30
0.0
 10
5.5490417692
 20
2.6529250255
 30
0.0
 10
5.5448639876
 20
2.5998655962
 30
0.0
 10
5.5401454075
 20
2.5487071953
 30
0.0
 10
5.5350881871
 20
2.5003296733
 30
0.0
 10
5.5298898826
 20
2.455550348
 30
0.0
 10
5.5247498683
 20
2.4151332615
 30
0.0
 10
5.5198674144
 20
2.3797708906
 30
0.0
 10
5.516619854
 20
2.3579732268
 30
0.0
 10
5.5150752339
 20
2.3480243807
 30
0.0
  0
SPLINE
  5
377
100
AcDbEntity
  8
0
100
AcDbSpline
 62
7
  6
CONTINUOUS
 70
0
 71
3
 72
15
 73
11
 74
0
 42
0.0000001
 43
0.0000001
 44
0.0000000001
 40
0.0
 40
0.0
 40
0.0
 40
0.0
 40
0.1511219668
 40
0.2996543823
 40
0.4429286518
 40
0.5785358625
 40
0.7041197066
 40
0.8175109791
 40
0.9167284172
 40
1.0
 40
1.0
 40
1.0
 40
1.0
 10
4.9749726122
 20
2.7069835365
 30
0.0
 10
4.9759715725
 20
2.6887820125
 30
0.0
 10
4.9782649829
 20
2.6527074788
 30
0.0
 10
4.9824498976
 20
2.599442247
 30
0.0
 10
4.9871694218
 20
2.5481009953
 30
0.0
 10
4.9922194164
 20
2.4995737951
 30
0.0
 10
4.9974004577
 20
2.454687347
 30
0.0
 10
5.0025114694
 20
2.4142139172
 30
0.0
 10
5.0073516442
 20
2.3788528093
 30
0.0
 10
5.0105614182
 20
2.3570750746
 30
0.0
 10
5.0120837059
 20
2.3471465584
 30
0.0
  0
SPLINE
  5
378
100
AcDbEntity
  8
0
100
AcDbSpline
 62
7
  6
CONTINUOUS
 70
0
 71
3
 72
49
 73
45
 74
0
 42
0.0000001
 43
0.0000001
 44
0.0000000001
 40
0.0
 40
0.0
 40
0.0
 40
0.0
 40
0.100165151
 40
0.1989912794
 40
0.2954518892
 40
0.3886798487
 40
0.4778323433
 40
0.5620804443
 40
0.6406593401
 40
0.7128543698
 40
0.7463577893
 40
0.778029377
 40
0.8077994552
 40
0.8356077705
 40
0.8613947166
 40
0.8851024793
 40
0.906685246
 40
0.9261021227
 40
0.9433122618
 40
0.9510782363
 40
0.9582808712
 40
0.9649176125
 40
0.9709859055
 40
0.9764831952
 40
0.9814069264
 40
0.9857545476
 40
0.9895242407
 40
0.9927157601
 40
0.9940946915
 40
0.9953290639
 40
0.9964188723
 40
0.9973641119
 40
0.9981647786
 40
0.9988208695
 40
0.9990946987
 40
0.999332384
 40
0.9995339263
 40
0.9996993277
 40
0.9998285922
 40
0.9999217301
 40
0.9999547603
 40
0.9999787757
 40
0.9999938048
 40
1.0
 40
1.0
 40
1.0
 40
1.0
 10
5.4081470212
 20
2.7069835365
 30
0.0
 10
5.4075758079
 20
2.6861912975
 30
0.0
 10
5.4064055563
 20
2.6448857394
 30
0.0
 10
5.4045662489
 20
2.5835603742
 30
0.0
 10
5.402671771
 20
2.5236779539
 30
0.0
 10
5.4007458038
 20
2.4658064205
 30
0.0
 10
5.3988123474
 20
2.4104726403
 30
0.0
 10
5.3968957828
 20
2.3581821962
 30
0.0
 10
5.3950225583
 20
2.3094139556
 30
0.0
 10
5.3934832358
 20
2.271178259
 30
0.0
 10
5.3922936002
 20
2.2426771
 30
0.0
 10
5.3914516667
 20
2.2229789852
 30
0.0
 10
5.3906410952
 20
2.2044632531
 30
0.0
 10
5.3898657136
 20
2.1871691528
 30
0.0
 10
5.3891292036
 20
2.1711334715
 30
0.0
 10
5.3884350378
 20
2.1563900023
 30
0.0
 10
5.3877871151
 20
2.1429686259
 30
0.0
 10
5.3871893209
 20
2.1308956931
 30
0.0
 10
5.3867213309
 20
2.1216890219
 30
0.0
 10
5.3863747011
 20
2.1150158469
 30
0.0
 10
5.3861386526
 20
2.1105355389
 30
0.0
 10
5.385917971
 20
2.1064074484
 30
0.0
 10
5.3857131326
 20
2.1026331461
 30
0.0
 10
5.3855246151
 20
2.099214203
 30
0.0
 10
5.3853528975
 20
2.0961521886
 30
0.0
 10
5.3851984518
 20
2.0934485198
 30
0.0
 10
5.3850617296
 20
2.0911041341
 30
0.0
 10
5.3849585225
 20
2.0893753145
 30
0.0
 10
5.3848850688
 20
2.0881721371
 30
0.0
 10
5.384837445
 20
2.0874046325
 30
0.0
 10
5.3847946065
 20
2.0867270643
 30
0.0
 10
5.3847566163
 20
2.0861394321
 30
0.0
 10
5.3847235338
 20
2.0856417369
 30
0.0
 10
5.384698839
 20
2.0852832147
 30
0.0
 10
5.384681482
 20
2.0850413759
 30
0.0
 10
5.3846705379
 20
2.0848937049
 30
0.0
 10
5.3846608569
 20
2.0847685339
 30
0.0
 10
5.3846525039
 20
2.0846657991
 30
0.0
 10
5.3846453648
 20
2.0845856667
 30
0.0
 10
5.3846402938
 20
2.0845326953
 30
0.0
 10
5.3846364817
 20
2.0845019671
 30
0.0
 10
5.3846347154
 20
2.0844867224
 30
0.0
 10
5.3846325295
 20
2.0844782553
 30
0.0
 10
5.3846319824
 20
2.0844730694
 30
0.0
 10
5.3846308679
 20
2.0844724269
 30
0.0
  0
SPLINE
  5
379
100
AcDbEntity
  8
0
100
AcDbSpline
 62
7
  6
CONTINUOUS
 70
0
 71
3
 72
49
 73
45
 74
0
 42
0.0000001
 43
0.0000001
 44
0.0000000001
 40
0.0
 40
0.0
 40
0.0
 40
0.0
 40
0.1001971629
 40
0.1990538358
 40
0.2955427017
 40
0.3887959004
 40
0.4779698882
 40
0.5622350568
 40
0.6408260286
 40
0.713027634
 40
0.7465321485
 40
0.7782032888
 40
0.8079713769
 40
0.8357761245
 40
0.8615578751
 40
0.8852588023
 40
0.9068331232
 40
0.9262399129
 40
0.9434382945
 40
0.9511977828
 40
0.9583935375
 40
0.9650230028
 40
0.9710836223
 40
0.9765728393
 40
0.9814880968
 40
0.9858268423
 40
0.9895872816
 40
0.9927691813
 40
0.9941431658
 40
0.9953725002
 40
0.9964571796
 40
0.9973971993
 40
0.9981925556
 40
0.9988432455
 40
0.9991143403
 40
0.9993492688
 40
0.9995480318
 40
0.9997106316
 40
0.9998370727
 40
0.9999273659
 40
0.9999589667
 40
0.9999815499
 40
0.9999951502
 40
1.0
 40
1.0
 40
1.0
 40
1.0
 10
5.1194719471
 20
2.7069835365
 30
0.0
 10
5.1200420291
 20
2.6861859009
 30
0.0
 10
5.1212074511
 20
2.6448697659
 30
0.0
 10
5.1230318197
 20
2.5835288811
 30
0.0
 10
5.1249037944
 20
2.5236319974
 30
0.0
 10
5.1267999288
 20
2.465747479
 30
0.0
 10
5.1286965134
 20
2.4104025906
 30
0.0
 10
5.1305695048
 20
2.3581032826
 30
0.0
 10
5.13239289
 20
2.3093287501
 30
0.0
 10
5.1338847706
 20
2.2710894389
 30
0.0
 10
5.1350332627
 20
2.2425868541
 30
0.0
 10
5.1358438225
 20
2.222888921
 30
0.0
 10
5.1366218173
 20
2.2043741853
 30
0.0
 10
5.137363503
 20
2.1870819124
 30
0.0
 10
5.1380652802
 20
2.1710489084
 30
0.0
 10
5.1387237474
 20
2.156308971
 30
0.0
 10
5.1393351015
 20
2.1428919839
 30
0.0
 10
5.1398955554
 20
2.1308243049
 30
0.0
 10
5.1403308783
 20
2.121622492
 30
0.0
 10
5.140650751
 20
2.114953617
 30
0.0
 10
5.1408672667
 20
2.1104768914
 30
0.0
 10
5.1410682827
 20
2.1063525905
 30
0.0
 10
5.1412533352
 20
2.1025822865
 30
0.0
 10
5.1414219623
 20
2.0991675519
 30
0.0
 10
5.1415737014
 20
2.0961099577
 30
0.0
 10
5.1417081046
 20
2.0934109172
 30
0.0
 10
5.1418247351
 20
2.0910713609
 30
0.0
 10
5.1419104776
 20
2.0893466472
 30
0.0
 10
5.1419696747
 20
2.0881468345
 30
0.0
 10
5.142007123
 20
2.087381956
 30
0.0
 10
5.1420397909
 20
2.0867070622
 30
0.0
 10
5.1420676285
 20
2.0861221531
 30
0.0
 10
5.1420905825
 20
2.0856272314
 30
0.0
 10
5.1421064572
 20
2.0852710258
 30
0.0
 10
5.1421165663
 20
2.0850310573
 30
0.0
 10
5.1421224239
 20
2.0848848183
 30
0.0
 10
5.1421270111
 20
2.0847611175
 30
0.0
 10
5.1421303841
 20
2.0846597967
 30
0.0
 10
5.1421324033
 20
2.084581276
 30
0.0
 10
5.1421333753
 20
2.0845292612
 30
0.0
 10
5.142133081
 20
2.0844998685
 30
0.0
 10
5.1421330046
 20
2.0844847953
 30
0.0
 10
5.142131889
 20
2.0844780775
 30
0.0
 10
5.1421317524
 20
2.084472376
 30
0.0
 10
5.1421307453
 20
2.084472376
 30
0.0
  0
SPLINE
  5
37A
100
AcDbEntity
  8
0
100
AcDbSpline
 62
7
  6
CONTINUOUS
 70
0
 71
3
 72
15
 73
11
 74
0
 42
0.0000001
 43
0.0000001
 44
0.0000000001
 40
0.0
 40
0.0
 40
0.0
 40
0.0
 40
0.1233029442
 40
0.2465582741
 40
0.3700357032
 40
0.4940034956
 40
0.6187267512
 40
0.7444657916
 40
0.8714746929
 40
1.0
 40
1.0
 40
1.0
 40
1.0
 10
4.9671055359
 20
5.7180500735
 30
0.0
 10
4.974195356
 20
5.7015732725
 30
0.0
 10
4.9876059234
 20
5.6682900715
 30
0.0
 10
5.0053698996
 20
5.6174550519
 30
0.0
 10
5.0207655
 20
5.5657513049
 30
0.0
 10
5.0337920407
 20
5.5131809809
 30
0.0
 10
5.0444497424
 20
5.4597445441
 30
0.0
 10
5.0527387714
 20
5.4054424654
 30
0.0
 10
5.0586593878
 20
5.3502766585
 30
0.0
 10
5.0610125181
 20
5.313164001
 30
0.0
 10
5.0618016514
 20
5.2944835365
 30
0.0
  0
SPLINE
  5
37B
100
AcDbEntity
  8
0
100
AcDbSpline
 62
7
  6
CONTINUOUS
 70
0
 71
3
 72
32
 73
28
 74
0
 42
0.0000001
 43
0.0000001
 44
0.0000000001
 40
0.0
 40
0.0
 40
0.0
 40
0.0
 40
0.0283024233
 40
0.0550232536
 40
0.0802311643
 40
0.1040293427
 40
0.1479740816
 40
0.1686128344
 40
0.1887114171
 40
0.2085945854
 40
0.2285936889
 40
0.2490303141
 40
0.2702098011
 40
0.3157831489
 40
0.3406193435
 40
0.3669899369
 40
0.3949925191
 40
0.4246753682
 40
0.4560591886
 40
0.4891490908
 40
0.5239297446
 40
0.5603561393
 40
0.6379076438
 40
0.7213025377
 40
0.8099277902
 40
0.903100514
 40
1.0
 40
1.0
 40
1.0
 40
1.0
 10
5.857397562
 20
5.7180500735
 30
0.0
 10
5.8574011878
 20
5.7216040431
 30
0.0
 10
5.8572533701
 20
5.7285152659
 30
0.0
 10
5.8564893046
 20
5.7385661838
 30
0.0
 10
5.8551582672
 20
5.7479911903
 30
0.0
 10
5.8526577258
 20
5.7593976407
 30
0.0
 10
5.8488679567
 20
5.7699252433
 30
0.0
 10
5.8435903299
 20
5.7791826745
 30
0.0
 10
5.8390263664
 20
5.7853009868
 30
0.0
 10
5.8337620435
 20
5.7907179467
 30
0.0
 10
5.827798825
 20
5.7954228174
 30
0.0
 10
5.8211428211
 20
5.7994078979
 30
0.0
 10
5.8111151569
 20
5.8038594837
 30
0.0
 10
5.799866272
 20
5.8066746098
 30
0.0
 10
5.7877862848
 20
5.8080598529
 30
0.0
 10
5.77783458
 20
5.8084024501
 30
0.0
 10
5.7672793201
 20
5.8080167593
 30
0.0
 10
5.7561432639
 20
5.8069069214
 30
0.0
 10
5.7444570495
 20
5.8050752141
 30
0.0
 10
5.7322525358
 20
5.8025240985
 30
0.0
 10
5.7195653067
 20
5.7992575678
 30
0.0
 10
5.7016830204
 20
5.793841898
 30
0.0
 10
5.6784069339
 20
5.7852568481
 30
0.0
 10
5.6497916656
 20
5.7724265993
 30
0.0
 10
5.6203021641
 20
5.7569116237
 30
0.0
 10
5.5903426231
 20
5.738786521
 30
0.0
 10
5.5706701356
 20
5.7252421777
 30
0.0
 10
5.5608554116
 20
5.7180500735
 30
0.0
  0
SPLINE
  5
37C
100
AcDbEntity
  8
0
100
AcDbSpline
 62
7
  6
CONTINUOUS
 70
0
 71
3
 72
15
 73
11
 74
0
 42
0.0000001
 43
0.0000001
 44
0.0000000001
 40
0.0
 40
0.0
 40
0.0
 40
0.0
 40
0.1375412941
 40
0.2684113266
 40
0.3941597669
 40
0.5163303421
 40
0.6364622629
 40
0.7560924451
 40
0.8767582119
 40
1.0
 40
1.0
 40
1.0
 40
1.0
 10
5.4659467552
 20
5.2944835365
 30
0.0
 10
5.4609272539
 20
5.1759273587
 30
0.0
 10
5.4522593455
 20
4.9445162439
 30
0.0
 10
5.4425456666
 20
4.6045941377
 30
0.0
 10
5.4355576622
 20
4.2778702713
 30
0.0
 10
5.4303547335
 20
3.9603799254
 30
0.0
 10
5.4259927298
 20
3.6481565798
 30
0.0
 10
5.4215251913
 20
3.3372329535
 30
0.0
 10
5.4160054154
 20
3.0236420621
 30
0.0
 10
5.4110669429
 20
2.8132690676
 30
0.0
 10
5.4081470212
 20
2.7069835365
 30
0.0
  0
SPLINE
  5
37D
100
AcDbEntity
  8
0
100
AcDbSpline
 62
7
  6
CONTINUOUS
 70
0
 71
3
 72
15
 73
11
 74
0
 42
0.0000001
 43
0.0000001
 44
0.0000000001
 40
0.0
 40
0.0
 40
0.0
 40
0.0
 40
0.1375410318
 40
0.2684109845
 40
0.3941594488
 40
0.516330099
 40
0.6364621133
 40
0.7560923855
 40
0.8767582148
 40
1.0
 40
1.0
 40
1.0
 40
1.0
 10
5.0618016514
 20
5.2944835365
 30
0.0
 10
5.0668099161
 20
5.1759272579
 30
0.0
 10
5.0754584162
 20
4.9445160194
 30
0.0
 10
5.0851503381
 20
4.6045940055
 30
0.0
 10
5.0921226914
 20
4.2778702043
 30
0.0
 10
5.0973139677
 20
3.9603799
 30
0.0
 10
5.1016662026
 20
3.6481565837
 30
0.0
 10
5.1061237359
 20
3.3372329893
 30
0.0
 10
5.1116311496
 20
3.0236421458
 30
0.0
 10
5.1165585632
 20
2.8132691121
 30
0.0
 10
5.1194719471
 20
2.7069835365
 30
0.0
  0
SPLINE
  5
37E
100
AcDbEntity
  8
0
100
AcDbSpline
 62
7
  6
CONTINUOUS
 70
0
 71
3
 72
23
 73
19
 74
0
 42
0.0000001
 43
0.0000001
 44
0.0000000001
 40
0.0
 40
0.0
 40
0.0
 40
0.0
 40
0.0592692649
 40
0.1194968733
 40
0.1807385918
 40
0.2430060399
 40
0.3062555274
 40
0.3703197538
 40
0.4349702636
 40
0.4999251957
 40
0.5648830876
 40
0.62954231
 40
0.6936206777
 40
0.7568890536
 40
0.8191792651
 40
0.8804467398
 40
0.9407021181
 40
1.0
 40
1.0
 40
1.0
 40
1.0
 10
5.5608554116
 20
5.7180500735
 30
0.0
 10
5.550805267
 20
5.7254146908
 30
0.0
 10
5.5298394228
 20
5.739326296
 30
0.0
 10
5.4964085403
 20
5.7574763143
 30
0.0
 10
5.4609803189
 20
5.7729760965
 30
0.0
 10
5.4238175404
 20
5.7857642733
 30
0.0
 10
5.3852028699
 20
5.795779756
 30
0.0
 10
5.3454587356
 20
5.8029811282
 30
0.0
 10
5.3049413964
 20
5.807315167
 30
0.0
 10
5.264031499
 20
5.8087656586
 30
0.0
 10
5.2231197771
 20
5.8073150604
 30
0.0
 10
5.1825970056
 20
5.8029809119
 30
0.0
 10
5.1428439982
 20
5.7957794217
 30
0.0
 10
5.1042172621
 20
5.7857638721
 30
0.0
 10
5.0670395494
 20
5.7729756707
 30
0.0
 10
5.0315938561
 20
5.7574759404
 30
0.0
 10
4.9981433056
 20
5.7393260695
 30
0.0
 10
4.9771631573
 20
5.7254146641
 30
0.0
 10
4.9671055359
 20
5.7180500735
 30
0.0
  0
SPLINE
  5
37F
100
AcDbEntity
  8
0
100
AcDbSpline
 62
7
  6
CONTINUOUS
 70
0
 71
3
 72
15
 73
11
 74
0
 42
0.0000001
 43
0.0000001
 44
0.0000000001
 40
0.0
 40
0.0
 40
0.0
 40
0.0
 40
0.1233256978
 40
0.2465952423
 40
0.370079325
 40
0.494047232
 40
0.6187651157
 40
0.7444943657
 40
0.8714901267
 40
1.0
 40
1.0
 40
1.0
 40
1.0
 10
5.5608554116
 20
5.7180500735
 30
0.0
 10
5.5537499433
 20
5.7015738858
 30
0.0
 10
5.5403096666
 20
5.6682918149
 30
0.0
 10
5.522505674
 20
5.6174566286
 30
0.0
 10
5.5070753851
 20
5.5657526862
 30
0.0
 10
5.4940194907
 20
5.5131821473
 30
0.0
 10
5.4833377722
 20
5.4597454814
 30
0.0
 10
5.4750300649
 20
5.4054431645
 30
0.0
 10
5.4690961085
 20
5.3502771226
 30
0.0
 10
5.4667376637
 20
5.3131640958
 30
0.0
 10
5.4659467552
 20
5.2944835365
 30
0.0
  0
SPLINE
  5
380
100
AcDbEntity
  8
0
100
AcDbSpline
 62
7
  6
CONTINUOUS
 70
0
 71
3
 72
32
 73
28
 74
0
 42
0.0000001
 43
0.0000001
 44
0.0000000001
 40
0.0
 40
0.0
 40
0.0
 40
0.0
 40
0.0968259348
 40
0.1899394379
 40
0.2785214927
 40
0.3618904337
 40
0.4394339024
 40
0.4758630699
 40
0.510650973
 40
0.5437525527
 40
0.5751523776
 40
0.6048553197
 40
0.6328817568
 40
0.6592795533
 40
0.6841456511
 40
0.7297833433
 40
0.7509944885
 40
0.7714604757
 40
0.7914849703
 40
0.8113880027
 40
0.831499701
 40
0.8521440754
 40
0.8960767986
 40
0.9198578672
 40
0.9450419629
 40
0.9717329087
 40
1.0
 40
1.0
 40
1.0
 40
1.0
 10
4.9671055359
 20
5.7180500735
 30
0.0
 10
4.9572829333
 20
5.725242574
 30
0.0
 10
4.9375935032
 20
5.7387877011
 30
0.0
 10
4.9076065381
 20
5.7569127872
 30
0.0
 10
4.8780862428
 20
5.7724277203
 30
0.0
 10
4.8494368639
 20
5.7852579371
 30
0.0
 10
4.8261303613
 20
5.7938424407
 30
0.0
 10
4.8082223063
 20
5.7992577657
 30
0.0
 10
4.7955146542
 20
5.8025242828
 30
0.0
 10
4.7832890766
 20
5.8050753674
 30
0.0
 10
4.7715812034
 20
5.8069070343
 30
0.0
 10
4.7604229465
 20
5.8080168228
 30
0.0
 10
4.7498449969
 20
5.8084024506
 30
0.0
 10
4.7398701855
 20
5.8080597968
 30
0.0
 10
4.7277589321
 20
5.8066743905
 30
0.0
 10
4.7164786577
 20
5.8038592624
 30
0.0
 10
4.7064181257
 20
5.7994080054
 30
0.0
 10
4.6997376669
 20
5.7954231844
 30
0.0
 10
4.69374979
 20
5.7907186401
 30
0.0
 10
4.6884606411
 20
5.7853020017
 30
0.0
 10
4.6838717645
 20
5.7791839133
 30
0.0
 10
4.6785612697
 20
5.7699283769
 30
0.0
 10
4.6747379222
 20
5.7594005063
 30
0.0
 10
4.6722058298
 20
5.7479922104
 30
0.0
 10
4.6708511553
 20
5.7385670266
 30
0.0
 10
4.6700639332
 20
5.728515936
 30
0.0
 10
4.6699014366
 20
5.7216042266
 30
0.0
 10
4.6698978107
 20
5.7180500735
 30
0.0
  0
ENDSEC
  0
SECTION
  2
OBJECTS
  0
DICTIONARY
  5
C
100
AcDbDictionary
280
0
281
1
  3
ACAD_GROUP
350
D
  3
ACAD_MLINESTYLE
350
17
  3
ACAD_LAYOUT
350
1A
  3
ACAD_PLOTSETTINGS
350
19
  3
ACAD_PLOTSTYLENAME
350
E
  0
DICTIONARY
  5
D
102
{ACAD_REACTORS
330
C
102
}
100
AcDbDictionary
280
0
281
1
  0
ACDBDICTIONARYWDFLT
  5
E
102
{ACAD_REACTORS
330
C
102
}
100
AcDbDictionary
281
1
  3
Normal
350
F
100
AcDbDictionaryWithDefault
340
F
  0
DICTIONARY
  5
17
102
{ACAD_REACTORS
330
C
102
}
100
AcDbDictionary
280
0
281
1
  3
Standard
350
18
  0
DICTIONARY
  5
19
102
{ACAD_REACTORS
330
C
102
}
100
AcDbDictionary
281
1
  0
DICTIONARY
  5
1A
102
{ACAD_REACTORS
330
C
102
}
100
AcDbDictionary
281
1
  3
Model
350
381
  3
Layout1
350
382
  0
ACDBPLACEHOLDER
  5
F
102
{ACAD_REACTORS
330
E
102
}
  0
MLINESTYLE
  5
18
102
{ACAD_REACTORS
330
17
102
}
100
AcDbMlineStyle
  2
STANDARD
 70
0
  3

 62
256
 51
90.0
 52
90.0
 71
2
 49
0.5
 62
256
  6
BYLAYER
 49
-0.5
 62
256
  6
BYLAYER
  0
LAYOUT
  5
381
102
{ACAD_REACTORS
330
1A
102
}
100
AcDbPlotSettings
  1

  2
none_device
  4
ANSI_A_(11.00_x_8.50_Inches)
  6

 40
0.0
 41
0.0
 42
0.0
 43
0.0
 44
279.4
 45
215.9
 46
0.0
 47
0.0
 48
0.0
 49
0.0
140
0.0
141
0.0
142
1.0
143
1.0
 70
1024
 72
0
 73
0
 74
0
  7

 75
0
147
1.0
148
0.0
149
0.0
100
AcDbLayout
  1
Model
 70
0
 71
0
 10
0.0
 20
0.0
 11
11.0
 21
8.5
 12
0.0
 22
0.0
 32
0.0
 14
0.0
 24
0.0
 34
0.0
 15
0.0
 25
0.0
 35
0.0
146
0.0
 13
0.0
 23
0.0
 33
0.0
 16
1.0
 26
0.0
 36
0.0
 17
0.0
 27
1.0
 37
0.0
 76
0
330
21B
345
0
346
0
  0
LAYOUT
  5
382
102
{ACAD_REACTORS
330
1A
102
}
100
AcDbPlotSettings
  1

  2
none_device
  4
ANSI_A_(11.00_x_8.50_Inches)
  6

 40
0.0
 41
0.0
 42
0.0
 43
0.0
 44
279.4
 45
215.9
 46
0.0
 47
0.0
 48
0.0
 49
0.0
140
0.0
141
0.0
142
1.0
143
1.0
 70
0
 72
0
 73
0
 74
0
  7

 75
0
147
1.0
148
0.0
149
0.0
100
AcDbLayout
  1
Layout1
 70
0
 71
1
 10
0.0
 20
0.0
 11
11.0
 21
8.5
 12
0.0
 22
0.0
 32
0.0
 14
0.0
 24
0.0
 34
0.0
 15
0.0
 25
0.0
 35
0.0
146
0.0
 13
0.0
 23
0.0
 33
0.0
 16
1.0
 26
0.0
 36
0.0
 17
0.0
 27
1.0
 37
0.0
 76
0
330
21C
345
0
346
0
  0
ENDSEC
  0
EOF
