999
DXF file: 3-913tr_FRONT.dxf
999
Pro/ENGINEER 2013150 by Parametric Technology Corporation
  0
SECTION
  2
HEADER
  9
$ACADVER
  1
AC1021
  9
$DWGCODEPAGE
  3
ANSI_1252
  9
$EXTMAX
 10
11.0
 20
8.5
 30
0.0
  9
$EXTMIN
 10
0.0
 20
0.0
 30
0.0
  9
$LIMMIN
 10
0.0
 20
0.0
  9
$LIMMAX
 10
11.0
 20
8.5
  9
$VIEWCTR
 10
5.5
 20
4.25
  9
$VIEWSIZE
 40
8.5
  9
$CLAYER
  8
0
  9
$LTSCALE
 40
0.605
  9
$CELTYPE
  6
BYLAYER
  9
$DIMSCALE
 40
1.0
  9
$DIMASZ
 40
0.1
  9
$DIMEXO
 40
0.0625
  9
$DIMDLI
 40
0.418
  9
$DIMEXE
 40
0.125
  9
$DIMCEN
 40
0.099
  9
$DIMLFAC
 40
1.0
  9
$DIMBLK
  1
_FILLED
  9
$DIMTXT
 40
0.08
  9
$DIMTOL
 70
1
  9
$DIMLIM
 70
0
  9
$DIMTFAC
 40
1.0
  9
$DIMTP
 40
0.001
  9
$DIMTM
 40
0.001
  9
$DIMGAP
 40
0.09
  9
$DIMDSEP
 70
46
  9
$PDMODE
 70
3
  9
$PDSIZE
 40
0.06
  9
$HANDSEED
  5
3E1
  9
$TILEMODE
 70
1
  9
$MEASUREMENT
 70
0
  9
$INSUNITS
 70
1
  0
ENDSEC
  0
SECTION
  2
CLASSES
  0
CLASS
  1
ACDBDICTIONARYWDFLT
  2
AcDbDictionaryWithDefault
  3
AutoCAD 2000
 90
0
 91
1
280
0
281
0
  0
CLASS
  1
ACDBPLACEHOLDER
  2
AcDbPlaceHolder
  3
AutoCAD 2000
 90
0
 91
1
280
0
281
0
  0
CLASS
  1
LAYOUT
  2
AcDbLayout
  3
AutoCAD 2000
 90
0
 91
0
280
0
281
0
  0
ENDSEC
  0
SECTION
  2
TABLES
  0
TABLE
  2
VPORT
  5
8
100
AcDbSymbolTable
 70
2
  0
VPORT
  5
1F4
100
AcDbSymbolTableRecord
100
AcDbViewportTableRecord
  2
*ACTIVE
 70
0
 10
0.0
 20
0.0
 11
1.0
 21
1.0
 12
5.5
 22
4.25
 13
0.0
 23
0.0
 14
1.0
 24
1.0
 15
0.0
 25
0.0
 16
0.0
 26
0.0
 36
1.0
 17
0.0
 27
0.0
 37
0.0
 40
8.5
 41
1.2941176471
 42
50.0
 43
0.0
 44
0.0
 50
0.0
 51
0.0
 71
0
 72
100
 73
1
 74
1
 75
0
 76
0
 77
0
 78
0
  0
ENDTAB
  0
TABLE
  2
LTYPE
  5
5
100
AcDbSymbolTable
 70
6
  0
LTYPE
  5
14
100
AcDbSymbolTableRecord
100
AcDbLinetypeTableRecord
  2
BYBLOCK
 70
0
  3

 72
65
 73
0
 40
0.0
  0
LTYPE
  5
15
100
AcDbSymbolTableRecord
100
AcDbLinetypeTableRecord
  2
BYLAYER
 70
0
  3

 72
65
 73
0
 40
0.0
  0
LTYPE
  5
16
100
AcDbSymbolTableRecord
100
AcDbLinetypeTableRecord
  2
CONTINUOUS
 70
64
  3
Solid line
 72
65
 73
0
 40
0.0
  0
LTYPE
  5
1F5
100
AcDbSymbolTableRecord
100
AcDbLinetypeTableRecord
  2
CENTER
 70
64
  3
____ _ ____ _ ____ _ ____ _ ____ _ ____ _ ____
 72
65
 73
4
 40
0.6
 49
0.375
 74
0
 49
-0.075
 74
0
 49
0.075
 74
0
 49
-0.075
 74
0
  0
LTYPE
  5
1F6
100
AcDbSymbolTableRecord
100
AcDbLinetypeTableRecord
  2
HIDDEN
 70
64
  3
- - - - - - - - - - - - - - - - - - - -
 72
65
 73
2
 40
0.2
 49
0.1
 74
0
 49
-0.1
 74
0
  0
LTYPE
  5
1F7
100
AcDbSymbolTableRecord
100
AcDbLinetypeTableRecord
  2
PHANTOM
 70
64
  3
_____ _ _ _____ _ _ _____ _ _ _____
 72
65
 73
6
 40
0.8
 49
0.45
 74
0
 49
-0.05
 74
0
 49
0.1
 74
0
 49
-0.05
 74
0
 49
0.1
 74
0
 49
-0.05
 74
0
  0
LTYPE
  5
1F8
100
AcDbSymbolTableRecord
100
AcDbLinetypeTableRecord
  2
DOT
 70
64
  3
. . . . . . . . . . . . . . . . . . . .
 72
65
 73
2
 40
0.2
 49
0.1
 74
0
 49
-0.1
 74
0
  0
LTYPE
  5
1F9
100
AcDbSymbolTableRecord
100
AcDbLinetypeTableRecord
  2
DASHED
 70
64
  3
- - - - - - - - - - - - - - - - - - - -
 72
65
 73
2
 40
0.2
 49
0.1
 74
0
 49
-0.1
 74
0
  0
ENDTAB
  0
TABLE
  2
LAYER
  5
2
100
AcDbSymbolTable
 70
36
  0
LAYER
  5
10
100
AcDbSymbolTableRecord
100
AcDbLayerTableRecord
  2
0
 70
0
 62
7
  6
CONTINUOUS
370
-3
390
F
  0
LAYER
  5
1FA
100
AcDbSymbolTableRecord
100
AcDbLayerTableRecord
  2
DEFAULT_1
 70
0
 62
7
  6
CENTER
370
-3
390
F
  0
LAYER
  5
1FB
100
AcDbSymbolTableRecord
100
AcDbLayerTableRecord
  2
DEFAULT_2
 70
0
 62
8
  6
HIDDEN
370
-3
390
F
  0
LAYER
  5
1FC
100
AcDbSymbolTableRecord
100
AcDbLayerTableRecord
  2
DEFAULT_3
 70
0
 62
7
  6
PHANTOM
370
-3
390
F
  0
LAYER
  5
1FD
100
AcDbSymbolTableRecord
100
AcDbLayerTableRecord
  2
ALL_ASSEMBLY_MEMBERS
 70
0
 62
7
  6
CONTINUOUS
370
-3
390
F
  0
LAYER
  5
1FE
100
AcDbSymbolTableRecord
100
AcDbLayerTableRecord
  2
ALL_FEATURES
 70
0
 62
7
  6
CONTINUOUS
370
-3
390
F
  0
LAYER
  5
1FF
100
AcDbSymbolTableRecord
100
AcDbLayerTableRecord
  2
AXES_FEATURES
 70
0
 62
7
  6
CONTINUOUS
370
-3
390
F
  0
LAYER
  5
200
100
AcDbSymbolTableRecord
100
AcDbLayerTableRecord
  2
CHAMFER_FEATURES
 70
0
 62
7
  6
CONTINUOUS
370
-3
390
F
  0
LAYER
  5
201
100
AcDbSymbolTableRecord
100
AcDbLayerTableRecord
  2
COORDINATE_SYSTEMS
 70
0
 62
7
  6
CONTINUOUS
370
-3
390
F
  0
LAYER
  5
202
100
AcDbSymbolTableRecord
100
AcDbLayerTableRecord
  2
CURVES
 70
0
 62
7
  6
CONTINUOUS
370
-3
390
F
  0
LAYER
  5
203
100
AcDbSymbolTableRecord
100
AcDbLayerTableRecord
  2
CUT_FEATURES
 70
0
 62
7
  6
CONTINUOUS
370
-3
390
F
  0
LAYER
  5
204
100
AcDbSymbolTableRecord
100
AcDbLayerTableRecord
  2
DATUM_CURVES
 70
0
 62
7
  6
CONTINUOUS
370
-3
390
F
  0
LAYER
  5
205
100
AcDbSymbolTableRecord
100
AcDbLayerTableRecord
  2
DATUM_PLANES
 70
0
 62
7
  6
CONTINUOUS
370
-3
390
F
  0
LAYER
  5
206
100
AcDbSymbolTableRecord
100
AcDbLayerTableRecord
  2
DATUM_POINTS
 70
0
 62
7
  6
CONTINUOUS
370
-3
390
F
  0
LAYER
  5
207
100
AcDbSymbolTableRecord
100
AcDbLayerTableRecord
  2
DEFAULT_COORDINATE_SYSTEM
 70
0
 62
7
  6
CONTINUOUS
370
-3
390
F
  0
LAYER
  5
208
100
AcDbSymbolTableRecord
100
AcDbLayerTableRecord
  2
DEFAULT_DATUM_AXES
 70
0
 62
7
  6
CONTINUOUS
370
-3
390
F
  0
LAYER
  5
209
100
AcDbSymbolTableRecord
100
AcDbLayerTableRecord
  2
DEFAULT_DATUM_CURVES
 70
0
 62
7
  6
CONTINUOUS
370
-3
390
F
  0
LAYER
  5
20A
100
AcDbSymbolTableRecord
100
AcDbLayerTableRecord
  2
DEFAULT_DATUM_PLANES
 70
0
 62
7
  6
CONTINUOUS
370
-3
390
F
  0
LAYER
  5
20B
100
AcDbSymbolTableRecord
100
AcDbLayerTableRecord
  2
DEFAULT_SURFACES
 70
0
 62
7
  6
CONTINUOUS
370
-3
390
F
  0
LAYER
  5
20C
100
AcDbSymbolTableRecord
100
AcDbLayerTableRecord
  2
DIMENSIONS
 70
0
 62
7
  6
CONTINUOUS
370
-3
390
F
  0
LAYER
  5
20D
100
AcDbSymbolTableRecord
100
AcDbLayerTableRecord
  2
HOLE_FEATURES
 70
0
 62
7
  6
CONTINUOUS
370
-3
390
F
  0
LAYER
  5
20E
100
AcDbSymbolTableRecord
100
AcDbLayerTableRecord
  2
IMPORT_FEATURE
 70
0
 62
7
  6
CONTINUOUS
370
-3
390
F
  0
LAYER
  5
20F
100
AcDbSymbolTableRecord
100
AcDbLayerTableRecord
  2
INTFCLR_1
 70
0
 62
7
  6
CONTINUOUS
370
-3
390
F
  0
LAYER
  5
210
100
AcDbSymbolTableRecord
100
AcDbLayerTableRecord
  2
NOTES
 70
0
 62
7
  6
CONTINUOUS
370
-3
390
F
  0
LAYER
  5
211
100
AcDbSymbolTableRecord
100
AcDbLayerTableRecord
  2
PART_REFERENCE_DIMENSIONS
 70
0
 62
7
  6
CONTINUOUS
370
-3
390
F
  0
LAYER
  5
212
100
AcDbSymbolTableRecord
100
AcDbLayerTableRecord
  2
PLATED_SURFACE_AREA
 70
0
 62
7
  6
CONTINUOUS
370
-3
390
F
  0
LAYER
  5
213
100
AcDbSymbolTableRecord
100
AcDbLayerTableRecord
  2
POINTS
 70
0
 62
7
  6
CONTINUOUS
370
-3
390
F
  0
LAYER
  5
214
100
AcDbSymbolTableRecord
100
AcDbLayerTableRecord
  2
PROTRUSION
 70
0
 62
7
  6
CONTINUOUS
370
-3
390
F
  0
LAYER
  5
215
100
AcDbSymbolTableRecord
100
AcDbLayerTableRecord
  2
PROTRUSION_FEATURES
 70
0
 62
7
  6
CONTINUOUS
370
-3
390
F
  0
LAYER
  5
216
100
AcDbSymbolTableRecord
100
AcDbLayerTableRecord
  2
QUILTS
 70
0
 62
7
  6
CONTINUOUS
370
-3
390
F
  0
LAYER
  5
217
100
AcDbSymbolTableRecord
100
AcDbLayerTableRecord
  2
REFERENCE_DIMENSIONS
 70
0
 62
7
  6
CONTINUOUS
370
-3
390
F
  0
LAYER
  5
218
100
AcDbSymbolTableRecord
100
AcDbLayerTableRecord
  2
ROUND_FEATURES
 70
0
 62
7
  6
CONTINUOUS
370
-3
390
F
  0
LAYER
  5
219
100
AcDbSymbolTableRecord
100
AcDbLayerTableRecord
  2
SHELL_FEATURES
 70
0
 62
7
  6
CONTINUOUS
370
-3
390
F
  0
LAYER
  5
21A
100
AcDbSymbolTableRecord
100
AcDbLayerTableRecord
  2
SIZE_REF
 70
0
 62
7
  6
CONTINUOUS
370
-3
390
F
  0
LAYER
  5
21B
100
AcDbSymbolTableRecord
100
AcDbLayerTableRecord
  2
SURFACE_FEATURES
 70
0
 62
7
  6
CONTINUOUS
370
-3
390
F
  0
ENDTAB
  0
TABLE
  2
STYLE
  5
3
100
AcDbSymbolTable
 70
1
  0
STYLE
  5
11
100
AcDbSymbolTableRecord
100
AcDbTextStyleTableRecord
  2
STANDARD
 70
0
 40
0.0
 41
0.8
 50
0.0
 71
0
 42
0.2
  3
txt
  4

  0
STYLE
  5
21C
100
AcDbSymbolTableRecord
100
AcDbTextStyleTableRecord
  2
TEXTSTYLE_1
 70
0
 40
0.0
 41
0.8
 50
0.0
 71
0
 42
0.2
  3
gdt
  4

  0
ENDTAB
  0
TABLE
  2
VIEW
  5
6
100
AcDbSymbolTable
 70
0
  0
ENDTAB
  0
TABLE
  2
UCS
  5
7
100
AcDbSymbolTable
 70
0
  0
ENDTAB
  0
TABLE
  2
APPID
  5
9
100
AcDbSymbolTable
 70
1
  0
APPID
  5
21D
100
AcDbSymbolTableRecord
100
AcDbRegAppTableRecord
  2
ACAD
 70
0
  0
ENDTAB
  0
TABLE
  2
BLOCK_RECORD
  5
1
100
AcDbSymbolTable
 70
0
  0
BLOCK_RECORD
  5
21E
100
AcDbSymbolTableRecord
100
AcDbBlockTableRecord
  2
*Model_Space
  0
BLOCK_RECORD
  5
21F
100
AcDbSymbolTableRecord
100
AcDbBlockTableRecord
  2
*Paper_Space
  0
ENDTAB
  0
TABLE
  2
DIMSTYLE
  5
A
100
AcDbSymbolTable
 70
1
100
AcDbDimStyleTable
 71
0
  0
DIMSTYLE
105
220
100
AcDbSymbolTableRecord
100
AcDbDimStyleTableRecord
  2
STANDARD
 70
0
  3

  4

 40
1.0
 41
0.1
 42
0.0625
 43
0.38
 44
0.125
 45
0.0
 46
0.0
 47
0.001
 48
0.001
140
0.08
141
0.09
142
0.0
143
25.4
144
1.0
145
0.0
146
1.0
147
0.09
 71
1.0
 72
0.0
 73
1
 74
1
 75
0
 76
0
 77
0
 78
4
170
0
171
2
172
0
173
0
174
0
175
0
176
0
177
0
178
0
270
2
271
3
272
3
273
2
274
2
275
0
280
0
281
0
282
0
283
1
284
4
285
0
286
0
287
3
288
0
340
11
278
46
  0
ENDTAB
  0
ENDSEC
  0
SECTION
  2
BLOCKS
  0
BLOCK
  5
20
100
AcDbEntity
  8
0
100
AcDbBlockBegin
  2
*Model_Space
 70
0
 10
0.0
 20
0.0
 30
0.0
  3
*Model_Space
  1

  0
ENDBLK
  5
21
100
AcDbEntity
  8
0
100
AcDbBlockEnd
  0
BLOCK
  5
1C
100
AcDbEntity
  8
0
100
AcDbBlockBegin
  2
*Paper_Space
 70
0
 10
0.0
 20
0.0
 30
0.0
  3
*Paper_Space
  1

  0
ENDBLK
  5
1D
100
AcDbEntity
  8
0
100
AcDbBlockEnd
  0
ENDSEC
  0
SECTION
  2
ENTITIES
  0
LINE
  5
221
100
AcDbEntity
  8
0
100
AcDbLine
 62
7
  6
CONTINUOUS
 10
0.0
 20
0.0
 11
0.0
 21
8.5
  0
LINE
  5
222
100
AcDbEntity
  8
0
100
AcDbLine
 62
7
  6
CONTINUOUS
 10
0.0
 20
0.0
 11
11.0
 21
0.0
  0
LINE
  5
223
100
AcDbEntity
  8
0
100
AcDbLine
 62
7
  6
CONTINUOUS
 10
0.0
 20
8.5
 11
11.0
 21
8.5
  0
LINE
  5
224
100
AcDbEntity
  8
0
100
AcDbLine
 62
7
  6
CONTINUOUS
 10
11.0
 20
0.0
 11
11.0
 21
8.5
  0
LINE
  5
225
100
AcDbEntity
  8
ALL_ASSEMBLY_MEMBERS
100
AcDbLine
 62
7
  6
CONTINUOUS
 10
4.2560164983
 20
2.0111663462
 11
3.9457902635
 21
2.0111663462
  0
LINE
  5
226
100
AcDbEntity
  8
ALL_ASSEMBLY_MEMBERS
100
AcDbLine
 62
9
  6
CONTINUOUS
 10
3.9425373729
 20
2.0420993979
 11
4.2592693899
 21
2.0420993936
  0
LINE
  5
227
100
AcDbEntity
  8
0
100
AcDbLine
 62
7
  6
CONTINUOUS
 10
3.4689724321
 20
2.4556653334
 11
3.4756741585
 21
2.4477180135
  0
LINE
  5
228
100
AcDbEntity
  8
0
100
AcDbLine
 62
7
  6
CONTINUOUS
 10
3.4706038495
 20
2.5146305384
 11
3.4613246872
 21
2.5281181461
  0
LINE
  5
229
100
AcDbEntity
  8
0
100
AcDbLine
 62
7
  6
CONTINUOUS
 10
3.4766826719
 20
2.6318643196
 11
3.5197147472
 21
2.5808342346
  0
LINE
  5
22A
100
AcDbEntity
  8
0
100
AcDbLine
 62
7
  6
CONTINUOUS
 10
3.5833823961
 20
2.5307285703
 11
3.57282856
 21
2.5432439591
  0
LINE
  5
22B
100
AcDbEntity
  8
0
100
AcDbLine
 62
7
  6
CONTINUOUS
 10
3.5468559974
 20
2.5740438234
 11
3.4891980607
 21
2.6424181557
  0
LINE
  5
22C
100
AcDbEntity
  8
0
100
AcDbLine
 62
7
  6
CONTINUOUS
 10
4.954686731
 20
3.1767700663
 11
4.9699860503
 21
3.1808695066
  0
LINE
  5
22D
100
AcDbEntity
  8
0
100
AcDbLine
 62
2
  6
CONTINUOUS
 10
4.9433326429
 20
3.2191440998
 11
4.9572360503
 21
3.2228695066
  0
LINE
  5
22E
100
AcDbEntity
  8
0
100
AcDbLine
 62
7
  6
CONTINUOUS
 10
3.2785371234
 20
2.8885909909
 11
3.3708628503
 21
2.9048705075
  0
LINE
  5
22F
100
AcDbEntity
  8
0
100
AcDbLine
 62
7
  6
CONTINUOUS
 10
3.3679325373
 20
2.9214891384
 11
3.2756068104
 21
2.9052096217
  0
LINE
  5
230
100
AcDbEntity
  8
0
100
AcDbLine
 62
7
  6
CONTINUOUS
 10
4.8395566371
 20
2.9689950631
 11
4.9329498901
 21
2.9608242122
  0
LINE
  5
231
100
AcDbEntity
  8
0
100
AcDbLine
 62
7
  6
CONTINUOUS
 10
4.9344206432
 20
2.9776349978
 11
4.8410273903
 21
2.9858058487
  0
LINE
  5
232
100
AcDbEntity
  8
0
100
AcDbLine
 62
7
  6
CONTINUOUS
 10
3.2945644747
 20
3.3050065283
 11
3.394952741
 21
3.2730814095
  0
LINE
  5
233
100
AcDbEntity
  8
0
100
AcDbLine
 62
7
  6
CONTINUOUS
 10
3.2554967306
 20
3.1728728293
 11
3.2707356918
 21
3.1679213906
  0
LINE
  5
234
100
AcDbEntity
  8
0
100
AcDbLine
 62
7
  6
CONTINUOUS
 10
3.2619751372
 20
3.2056253453
 11
3.36242967
 21
3.172985689
  0
LINE
  5
235
100
AcDbEntity
  8
0
100
AcDbLine
 62
2
  6
CONTINUOUS
 10
3.2427467306
 20
3.2148728293
 11
3.2579856918
 21
3.2099213906
  0
LINE
  5
236
100
AcDbEntity
  8
0
100
AcDbLine
 62
7
  6
CONTINUOUS
 10
3.3675518472
 20
3.1887501296
 11
3.2386337305
 21
3.2306381649
  0
LINE
  5
237
100
AcDbEntity
  8
0
100
AcDbLine
 62
7
  6
CONTINUOUS
 10
3.287908735
 20
3.2726267217
 11
3.3031476962
 21
3.267675283
  0
LINE
  5
238
100
AcDbEntity
  8
0
100
AcDbLine
 62
2
  6
CONTINUOUS
 10
3.275158735
 20
3.3146267217
 11
3.2903976962
 21
3.309675283
  0
LINE
  5
239
100
AcDbEntity
  8
0
100
AcDbLine
 62
7
  6
CONTINUOUS
 10
3.3999638504
 20
3.2885040182
 11
3.2710457337
 21
3.3303920535
  0
LINE
  5
23A
100
AcDbEntity
  8
0
100
AcDbLine
 62
7
  6
CONTINUOUS
 10
3.2913927314
 20
3.3852656402
 11
3.3532998241
 21
3.3514014694
  0
LINE
  5
23B
100
AcDbEntity
  8
0
100
AcDbLine
 62
2
  6
CONTINUOUS
 10
3.3010557518
 20
3.4150053592
 11
3.315196551
 21
3.4072701157
  0
LINE
  5
23C
100
AcDbEntity
  8
0
100
AcDbLine
 62
7
  6
CONTINUOUS
 10
3.3428128263
 20
3.3748519515
 11
3.3105542762
 21
3.392982663
  0
LINE
  5
23D
100
AcDbEntity
  8
0
100
AcDbLine
 62
2
  6
CONTINUOUS
 10
3.3201247585
 20
3.4224375788
 11
3.3060423434
 21
3.4303525101
  0
LINE
  5
23E
100
AcDbEntity
  8
0
100
AcDbLine
 62
7
  6
CONTINUOUS
 10
4.7527554434
 20
2.4744140798
 11
4.7657300098
 21
2.4653291907
  0
LINE
  5
23F
100
AcDbEntity
  8
0
100
AcDbLine
 62
7
  6
CONTINUOUS
 10
3.2756068104
 20
2.9052096217
 11
3.2785371234
 21
2.8885909909
  0
LINE
  5
240
100
AcDbEntity
  8
0
100
AcDbLine
 62
7
  6
CONTINUOUS
 10
3.3708628503
 20
2.9048705075
 11
3.3679325373
 21
2.9214891384
  0
LINE
  5
241
100
AcDbEntity
  8
0
100
AcDbLine
 62
7
  6
CONTINUOUS
 10
3.383428514
 20
3.3568138035
 11
3.3794515072
 21
3.3398058199
  0
LINE
  5
242
100
AcDbEntity
  8
0
100
AcDbLine
 62
7
  6
CONTINUOUS
 10
3.2710457337
 20
3.3303920535
 11
3.2677447763
 21
3.3202327511
  0
LINE
  5
243
100
AcDbEntity
  8
0
100
AcDbLine
 62
7
  6
CONTINUOUS
 10
3.2386337305
 20
3.2306381649
 11
3.2353327718
 21
3.2204788587
  0
LINE
  5
244
100
AcDbEntity
  8
0
100
AcDbLine
 62
7
  6
CONTINUOUS
 10
3.3121375544
 20
3.4491116406
 11
3.2913927314
 21
3.3852656402
  0
LINE
  5
245
100
AcDbEntity
  8
0
100
AcDbLine
 62
7
  6
CONTINUOUS
 10
3.3105542762
 20
3.392982663
 11
3.3272013585
 21
3.444217114
  0
LINE
  5
246
100
AcDbEntity
  8
0
100
AcDbLine
 62
7
  6
CONTINUOUS
 10
4.952611103
 20
3.2457136929
 11
4.882247695
 21
3.2403975648
  0
LINE
  5
247
100
AcDbEntity
  8
0
100
AcDbLine
 62
2
  6
CONTINUOUS
 10
4.9303036196
 20
3.2869916016
 11
4.8817120544
 21
3.2833203896
  0
LINE
  5
248
100
AcDbEntity
  8
0
100
AcDbLine
 62
2
  6
CONTINUOUS
 10
4.8795799413
 20
3.2831593032
 11
4.869497695
 21
3.2823975648
  0
LINE
  5
249
100
AcDbEntity
  8
0
100
AcDbLine
 62
7
  6
CONTINUOUS
 10
4.9038148792
 20
3.226441964
 11
4.9407438711
 21
3.2288055277
  0
LINE
  5
24A
100
AcDbEntity
  8
0
100
AcDbLine
 62
7
  6
CONTINUOUS
 10
3.3272013585
 20
3.444217114
 11
3.3121375544
 21
3.4491116406
  0
LINE
  5
24B
100
AcDbEntity
  8
0
100
AcDbLine
 62
2
  6
CONTINUOUS
 10
4.7400054434
 20
2.5164140798
 11
4.7448692854
 21
2.513008381
  0
LINE
  5
24C
100
AcDbEntity
  8
0
100
AcDbLine
 62
7
  6
CONTINUOUS
 10
4.8123422048
 20
2.5542146668
 11
4.8229028976
 21
2.5468199901
  0
LINE
  5
24D
100
AcDbEntity
  8
0
100
AcDbLine
 62
2
  6
CONTINUOUS
 10
4.7995922048
 20
2.5962146668
 11
4.8101528976
 21
2.5888199901
  0
LINE
  5
24E
100
AcDbEntity
  8
0
100
AcDbLine
 62
7
  6
CONTINUOUS
 10
4.8730282372
 20
2.618406394
 11
4.8599782387
 21
2.6275441013
  0
LINE
  5
24F
100
AcDbEntity
  8
0
100
AcDbLine
 62
7
  6
CONTINUOUS
 10
3.6610354671
 20
3.6400990751
 11
3.6038590999
 21
3.7143952764
  0
LINE
  5
250
100
AcDbEntity
  8
0
100
AcDbLine
 62
7
  6
CONTINUOUS
 10
3.5904194563
 20
3.7051491123
 11
3.6468120102
 21
3.6303136655
  0
LINE
  5
251
100
AcDbEntity
  8
0
100
AcDbLine
 62
2
  6
CONTINUOUS
 10
3.6028973599
 20
3.7136705534
 11
3.6340620102
 21
3.6723136655
  0
LINE
  5
252
100
AcDbEntity
  8
0
100
AcDbLine
 62
7
  6
CONTINUOUS
 10
3.36242967
 20
3.172985689
 11
3.3675518472
 21
3.1887501296
  0
LINE
  5
253
100
AcDbEntity
  8
0
100
AcDbLine
 62
7
  6
CONTINUOUS
 10
3.394952741
 20
3.2730814095
 11
3.3999638504
 21
3.2885040182
  0
LINE
  5
254
100
AcDbEntity
  8
0
100
AcDbLine
 62
2
  6
CONTINUOUS
 10
3.3409617386
 20
3.394268299
 11
3.3472857441
 21
3.4075764865
  0
LINE
  5
255
100
AcDbEntity
  8
0
100
AcDbLine
 62
7
  6
CONTINUOUS
 10
3.3532998241
 20
3.3514014694
 11
3.3600357441
 21
3.3655764865
  0
LINE
  5
256
100
AcDbEntity
  8
0
100
AcDbLine
 62
7
  6
CONTINUOUS
 10
4.8042351375
 20
2.5203202121
 11
4.7549340202
 21
2.5708045685
  0
LINE
  5
257
100
AcDbEntity
  8
0
100
AcDbLine
 62
7
  6
CONTINUOUS
 10
4.7580883246
 20
2.5470975085
 11
4.7829800791
 21
2.517579333
  0
LINE
  5
258
100
AcDbEntity
  8
0
100
AcDbLine
 62
7
  6
CONTINUOUS
 10
3.9565283809
 20
3.6455858889
 11
3.9565283809
 21
3.7601663462
  0
LINE
  5
259
100
AcDbEntity
  8
0
100
AcDbLine
 62
7
  6
CONTINUOUS
 10
3.9638202076
 20
3.8862779881
 11
3.9638202076
 21
3.870254796
  0
LINE
  5
25A
100
AcDbEntity
  8
0
100
AcDbLine
 62
2
  6
CONTINUOUS
 10
3.9842216391
 20
3.8988176497
 11
3.9842216391
 21
3.8806013341
  0
LINE
  5
25B
100
AcDbEntity
  8
0
100
AcDbLine
 62
7
  6
CONTINUOUS
 10
3.9969716391
 20
3.8902377413
 11
3.9969716391
 21
3.7846135949
  0
LINE
  5
25C
100
AcDbEntity
  8
0
100
AcDbLine
 62
2
  6
CONTINUOUS
 10
4.0007973529
 20
3.8266135949
 11
4.0007973529
 21
3.916513854
  0
LINE
  5
25D
100
AcDbEntity
  8
0
100
AcDbLine
 62
7
  6
CONTINUOUS
 10
4.0135473529
 20
3.7846135949
 11
4.0135473529
 21
3.9201661246
  0
LINE
  5
25E
100
AcDbEntity
  8
ALL_ASSEMBLY_MEMBERS
100
AcDbLine
 62
7
  6
CONTINUOUS
 10
3.9413869064
 20
5.1336968236
 11
3.9158087137
 21
4.4047183304
  0
LINE
  5
25F
100
AcDbEntity
  8
ALL_ASSEMBLY_MEMBERS
100
AcDbLine
 62
7
  6
CONTINUOUS
 10
3.9413869064
 20
2.7711968236
 11
3.9158087137
 21
2.0422183304
  0
LINE
  5
260
100
AcDbEntity
  8
0
100
AcDbLine
 62
7
  6
CONTINUOUS
 10
3.6038590999
 20
3.7143952764
 11
3.5904194563
 21
3.7051491123
  0
LINE
  5
261
100
AcDbEntity
  8
0
100
AcDbLine
 62
2
  6
CONTINUOUS
 10
3.6340620102
 20
3.6723136655
 11
3.635488649
 21
3.67329516
  0
LINE
  5
262
100
AcDbEntity
  8
0
100
AcDbLine
 62
7
  6
CONTINUOUS
 10
3.6468120102
 20
3.6303136655
 11
3.6610354671
 21
3.6400990751
  0
LINE
  5
263
100
AcDbEntity
  8
0
100
AcDbLine
 62
9
  6
CONTINUOUS
 10
3.9565283809
 20
3.7601663462
 11
4.2452783809
 21
3.7601663462
  0
LINE
  5
264
100
AcDbEntity
  8
0
100
AcDbLine
 62
7
  6
CONTINUOUS
 10
3.9640283809
 20
3.7676663462
 11
4.2377783809
 21
3.7676663462
  0
LINE
  5
265
100
AcDbEntity
  8
0
100
AcDbLine
 62
7
  6
CONTINUOUS
 10
3.9969716391
 20
3.7846135949
 11
4.0135473529
 21
3.7846135949
  0
LINE
  5
266
100
AcDbEntity
  8
0
100
AcDbLine
 62
2
  6
CONTINUOUS
 10
3.9969716391
 20
3.8266135949
 11
4.0007973529
 21
3.8266135949
  0
LINE
  5
267
100
AcDbEntity
  8
0
100
AcDbLine
 62
7
  6
CONTINUOUS
 10
4.0135473529
 20
3.9201661246
 11
4.0028652262
 21
3.9201661246
  0
LINE
  5
268
100
AcDbEntity
  8
ALL_ASSEMBLY_MEMBERS
100
AcDbLine
 62
7
  6
CONTINUOUS
 10
4.2604198554
 20
2.7711968236
 11
4.2859980481
 21
2.0422183304
  0
LINE
  5
269
100
AcDbEntity
  8
ALL_ASSEMBLY_MEMBERS
100
AcDbLine
 62
7
  6
CONTINUOUS
 10
4.2604198554
 20
5.1336968236
 11
4.2859980481
 21
4.4047183304
  0
LINE
  5
26A
100
AcDbEntity
  8
0
100
AcDbLine
 62
7
  6
CONTINUOUS
 10
4.2452783809
 20
3.6455859818
 11
4.2452783809
 21
3.7601663462
  0
LINE
  5
26B
100
AcDbEntity
  8
0
100
AcDbLine
 62
7
  6
CONTINUOUS
 10
4.5714237506
 20
3.6163251144
 11
4.5843507506
 21
3.6054780734
  0
LINE
  5
26C
100
AcDbEntity
  8
0
100
AcDbLine
 62
7
  6
CONTINUOUS
 10
4.644612089
 20
3.67729474
 11
4.631685089
 21
3.6881417809
  0
LINE
  5
26D
100
AcDbEntity
  8
0
100
AcDbLine
 62
7
  6
CONTINUOUS
 10
4.631685089
 20
3.6881417809
 11
4.5714237506
 21
3.6163251144
  0
LINE
  5
26E
100
AcDbEntity
  8
0
100
AcDbLine
 62
7
  6
CONTINUOUS
 10
4.5843507506
 20
3.6054780734
 11
4.644612089
 21
3.67729474
  0
LINE
  5
26F
100
AcDbEntity
  8
0
100
AcDbLine
 62
7
  6
CONTINUOUS
 10
3.4891980607
 20
2.6424181557
 11
3.4766826719
 21
2.6318643196
  0
LINE
  5
270
100
AcDbEntity
  8
ALL_ASSEMBLY_MEMBERS
100
AcDbLine
 62
7
  6
CONTINUOUS
 10
4.2560164983
 20
4.3736663462
 11
3.9457902635
 21
4.3736663462
  0
LINE
  5
271
100
AcDbEntity
  8
ALL_ASSEMBLY_MEMBERS
100
AcDbLine
 62
9
  6
CONTINUOUS
 10
3.9425373729
 20
4.4045993979
 11
4.2592693899
 21
4.4045993936
  0
LINE
  5
272
100
AcDbEntity
  8
0
100
AcDbLine
 62
7
  6
CONTINUOUS
 10
4.8602376762
 20
3.2195839305
 11
4.8536831819
 21
3.2357596862
  0
LINE
  5
273
100
AcDbEntity
  8
0
100
AcDbLine
 62
2
  6
CONTINUOUS
 10
4.8474876762
 20
3.2615839305
 11
4.8449420308
 21
3.2678662975
  0
LINE
  5
274
100
AcDbEntity
  8
0
100
AcDbLine
 62
7
  6
CONTINUOUS
 10
4.8410273903
 20
2.9858058487
 11
4.8395566371
 21
2.9689950631
  0
LINE
  5
275
100
AcDbEntity
  8
0
100
AcDbLine
 62
2
  6
CONTINUOUS
 10
3.546831375
 20
2.5740730222
 11
3.5443182772
 21
2.5719538054
  0
LINE
  5
276
100
AcDbEntity
  8
0
100
AcDbLine
 62
7
  6
CONTINUOUS
 10
3.57282856
 20
2.5432439591
 11
3.4689724321
 21
2.4556653334
  0
LINE
  5
277
100
AcDbEntity
  8
0
100
AcDbLine
 62
2
  6
CONTINUOUS
 10
3.5138514555
 20
2.48145535
 11
3.5263668443
 21
2.4920091861
  0
LINE
  5
278
100
AcDbEntity
  8
0
100
AcDbLine
 62
7
  6
CONTINUOUS
 10
3.5023849228
 20
2.4624259335
 11
3.5833823961
 21
2.5307285703
  0
LINE
  5
279
100
AcDbEntity
  8
0
100
AcDbLine
 62
7
  6
CONTINUOUS
 10
3.5266014555
 20
2.43945535
 11
3.5391168443
 21
2.4500091861
  0
LINE
  5
27A
100
AcDbEntity
  8
0
100
AcDbLine
 62
2
  6
CONTINUOUS
 10
4.935072268
 20
3.2443885909
 11
4.9392729626
 21
3.2287113852
  0
LINE
  5
27B
100
AcDbEntity
  8
0
100
AcDbLine
 62
7
  6
CONTINUOUS
 10
4.9407438711
 20
3.2288055277
 11
4.954686731
 21
3.1767700663
  0
LINE
  5
27C
100
AcDbEntity
  8
0
100
AcDbLine
 62
2
  6
CONTINUOUS
 10
4.9572360503
 20
3.2228695066
 11
4.9511446561
 21
3.2456028992
  0
LINE
  5
27D
100
AcDbEntity
  8
0
100
AcDbLine
 62
7
  6
CONTINUOUS
 10
4.9699860503
 20
3.1808695066
 11
4.952611103
 21
3.2457136929
  0
LINE
  5
27E
100
AcDbEntity
  8
0
100
AcDbLine
 62
2
  6
CONTINUOUS
 10
4.869497695
 20
3.2823975648
 11
4.8715687448
 21
3.2668407502
  0
LINE
  5
27F
100
AcDbEntity
  8
0
100
AcDbLine
 62
7
  6
CONTINUOUS
 10
4.882247695
 20
3.2403975648
 11
4.8843187448
 21
3.2248407502
  0
LINE
  5
280
100
AcDbEntity
  8
0
100
AcDbLine
 62
7
  6
CONTINUOUS
 10
4.9329498901
 20
2.9608242122
 11
4.9344206432
 21
2.9776349978
  0
LINE
  5
281
100
AcDbEntity
  8
0
100
AcDbLine
 62
7
  6
CONTINUOUS
 10
4.7245393974
 20
2.5744375041
 11
4.7333152765
 21
2.5895395489
  0
LINE
  5
282
100
AcDbEntity
  8
0
100
AcDbLine
 62
7
  6
CONTINUOUS
 10
4.7530480296
 20
2.6793717804
 11
4.7432764943
 21
2.6654165818
  0
LINE
  5
283
100
AcDbEntity
  8
0
100
AcDbLine
 62
2
  6
CONTINUOUS
 10
4.7684202649
 20
2.5569946505
 11
4.7599469245
 21
2.5448934663
  0
LINE
  5
284
100
AcDbEntity
  8
0
100
AcDbLine
 62
2
  6
CONTINUOUS
 10
4.7579995321
 20
2.5421123017
 11
4.7400054434
 21
2.5164140798
  0
LINE
  5
285
100
AcDbEntity
  8
0
100
AcDbLine
 62
2
  6
CONTINUOUS
 10
4.77051096
 20
2.5323659823
 11
4.779681611
 21
2.5454630293
  0
LINE
  5
286
100
AcDbEntity
  8
0
100
AcDbLine
 62
2
  6
CONTINUOUS
 10
4.8101528976
 20
2.5888199901
 11
4.8148521534
 21
2.5955312229
  0
LINE
  5
287
100
AcDbEntity
  8
0
100
AcDbLine
 62
7
  6
CONTINUOUS
 10
4.8599782387
 20
2.6275441013
 11
4.822054118
 21
2.5733828438
  0
LINE
  5
288
100
AcDbEntity
  8
0
100
AcDbLine
 62
7
  6
CONTINUOUS
 10
4.7829800791
 20
2.517579333
 11
4.7527554434
 21
2.4744140798
  0
LINE
  5
289
100
AcDbEntity
  8
0
100
AcDbLine
 62
7
  6
CONTINUOUS
 10
4.7657300098
 20
2.4653291907
 11
4.8042351375
 21
2.5203202121
  0
LINE
  5
28A
100
AcDbEntity
  8
0
100
AcDbLine
 62
7
  6
CONTINUOUS
 10
4.8229028976
 20
2.5468199901
 11
4.8730282372
 21
2.618406394
  0
LINE
  5
28B
100
AcDbEntity
  8
0
100
AcDbLine
 62
7
  6
CONTINUOUS
 10
4.7549340202
 20
2.5708045685
 11
4.7443480541
 21
2.5592183247
  0
ARC
  5
28C
100
AcDbEntity
  8
ALL_ASSEMBLY_MEMBERS
100
AcDbCircle
 62
9
  6
CONTINUOUS
 10
1.1751420796
 20
1.9664572058
 40
2.8980104497
100
AcDbArc
 50
15.4946877883
 51
15.8602385488
  0
ARC
  5
28D
100
AcDbEntity
  8
0
100
AcDbCircle
 62
2
  6
CONTINUOUS
 10
3.4355452627
 20
2.5644137493
 40
0.0503886383
100
AcDbArc
 50
98.2729893576
 51
99.316717363
  0
ARC
  5
28E
100
AcDbEntity
  8
0
100
AcDbCircle
 62
2
  6
CONTINUOUS
 10
3.4350076837
 20
2.5676397704
 40
0.0471181443
100
AcDbArc
 50
99.3067201314
 51
101.1572711166
  0
ARC
  5
28F
100
AcDbEntity
  8
0
100
AcDbCircle
 62
2
  6
CONTINUOUS
 10
3.3666490828
 20
2.6715524719
 40
0.0431003331
100
AcDbArc
 50
228.6684224536
 51
229.0985498847
  0
ARC
  5
290
100
AcDbEntity
  8
0
100
AcDbCircle
 62
2
  6
CONTINUOUS
 10
3.366082633
 20
2.6708953294
 40
0.042232752
100
AcDbArc
 50
229.0956644197
 51
230.3955770806
  0
ARC
  5
291
100
AcDbEntity
  8
0
100
AcDbCircle
 62
2
  6
CONTINUOUS
 10
3.4256360548
 20
2.5931785025
 40
0.0372771665
100
AcDbArc
 50
176.8075277971
 51
184.6928131325
  0
ARC
  5
292
100
AcDbEntity
  8
0
100
AcDbCircle
 62
2
  6
CONTINUOUS
 10
3.4365597893
 20
2.5953344143
 40
0.0339851657
100
AcDbArc
 50
217.7889154012
 51
220.4062853542
  0
ARC
  5
293
100
AcDbEntity
  8
0
100
AcDbCircle
 62
2
  6
CONTINUOUS
 10
3.3604637771
 20
2.6619879437
 40
0.0316446121
100
AcDbArc
 50
252.8782458735
 51
254.4536571174
  0
ARC
  5
294
100
AcDbEntity
  8
ALL_ASSEMBLY_MEMBERS
100
AcDbCircle
 62
7
  6
CONTINUOUS
 10
3.9457902635
 20
2.0411663462
 40
0.03
100
AcDbArc
 50
177.990446187
 51
270.0000001323
  0
ARC
  5
295
100
AcDbEntity
  8
0
100
AcDbCircle
 62
2
  6
CONTINUOUS
 10
3.3968497146
 20
2.7119379807
 40
0.036562558
100
AcDbArc
 50
345.1129651667
 51
347.5902564899
  0
ARC
  5
296
100
AcDbEntity
  8
0
100
AcDbCircle
 62
2
  6
CONTINUOUS
 10
3.1771629761
 20
3.3036281684
 40
0.0985418339
100
AcDbArc
 50
15.3328968854
 51
15.5547661509
  0
ARC
  5
297
100
AcDbEntity
  8
0
100
AcDbCircle
 62
2
  6
CONTINUOUS
 10
3.1447510156
 20
3.2038742855
 40
0.0985417895
100
AcDbArc
 50
15.3328953857
 51
15.5547703405
  0
ARC
  5
298
100
AcDbEntity
  8
0
100
AcDbCircle
 62
2
  6
CONTINUOUS
 10
3.3662833567
 20
3.4236505712
 40
0.0248854473
100
AcDbArc
 50
214.9997075124
 51
220.2349201357
  0
ARC
  5
299
100
AcDbEntity
  8
ALL_ASSEMBLY_MEMBERS
100
AcDbCircle
 62
7
  6
CONTINUOUS
 10
3.9114053566
 20
2.7722488078
 40
0.03
100
AcDbArc
 50
357.990446187
 51
54.9538230503
  0
ARC
  5
29A
100
AcDbEntity
  8
ALL_FEATURES
100
AcDbCircle
 62
9
  6
CONTINUOUS
 10
4.1009033809
 20
3.0418163462
 40
1.027112353
100
AcDbArc
 50
280.2847458006
 51
259.715254067
  0
ARC
  5
29B
100
AcDbEntity
  8
ALL_FEATURES
100
AcDbCircle
 62
9
  6
CONTINUOUS
 10
4.1009033809
 20
3.0418163462
 40
1.0121174932
100
AcDbArc
 50
280.490644778
 51
259.4713626127
  0
ARC
  5
29C
100
AcDbEntity
  8
ALL_FEATURES
100
AcDbCircle
 62
9
  6
CONTINUOUS
 10
4.1009033809
 20
3.0418163462
 40
1.0111149571
100
AcDbArc
 50
280.5369739751
 51
259.4630260732
  0
ARC
  5
29D
100
AcDbEntity
  8
ALL_FEATURES
100
AcDbCircle
 62
9
  6
CONTINUOUS
 10
4.1009033809
 20
3.0418163462
 40
0.9961200972
100
AcDbArc
 50
280.6662288637
 51
259.3337711028
  0
ARC
  5
29E
100
AcDbEntity
  8
0
100
AcDbCircle
 62
7
  6
CONTINUOUS
 10
4.1009033809
 20
3.0418163462
 40
0.62745
100
AcDbArc
 50
103.3031658337
 51
254.1651676719
  0
ARC
  5
29F
100
AcDbEntity
  8
0
100
AcDbCircle
 62
7
  6
CONTINUOUS
 10
4.1009033809
 20
3.0418163462
 40
0.62745
100
AcDbArc
 50
285.8348323281
 51
76.6968341663
  0
ARC
  5
2A0
100
AcDbEntity
  8
0
100
AcDbCircle
 62
7
  6
CONTINUOUS
 10
4.1009033809
 20
3.0424163462
 40
0.62025
100
AcDbArc
 50
285.9975946922
 51
254.0023931908
  0
ARC
  5
2A1
100
AcDbEntity
  8
0
100
AcDbCircle
 62
7
  6
CONTINUOUS
 10
4.1009033809
 20
3.0418163462
 40
0.6200625
100
AcDbArc
 50
201.9091717698
 51
253.9974200476
  0
ARC
  5
2A2
100
AcDbEntity
  8
0
100
AcDbCircle
 62
7
  6
CONTINUOUS
 10
4.1009033809
 20
3.0418163462
 40
0.6200625
100
AcDbArc
 50
286.0025799524
 51
349.7295044098
  0
ARC
  5
2A3
100
AcDbEntity
  8
0
100
AcDbCircle
 62
9
  6
CONTINUOUS
 10
4.1009033809
 20
3.0424163462
 40
0.5920146153
100
AcDbArc
 50
286.6792823592
 51
253.3207148008
  0
ARC
  5
2A4
100
AcDbEntity
  8
0
100
AcDbCircle
 62
9
  6
CONTINUOUS
 10
4.1009033809
 20
3.0424163462
 40
0.5840009741
100
AcDbArc
 50
286.8857448952
 51
253.1128703331
  0
ARC
  5
2A5
100
AcDbEntity
  8
0
100
AcDbCircle
 62
9
  6
CONTINUOUS
 10
4.1009033809
 20
3.0424163462
 40
0.5680586424
100
AcDbArc
 50
287.3115098718
 51
252.686956135
  0
ARC
  5
2A6
100
AcDbEntity
  8
0
100
AcDbCircle
 62
9
  6
CONTINUOUS
 10
4.1009033809
 20
3.0424163462
 40
0.5658198696
100
AcDbArc
 50
287.3733384211
 51
252.6224285896
  0
ARC
  5
2A7
100
AcDbEntity
  8
0
100
AcDbCircle
 62
9
  6
CONTINUOUS
 10
4.1009033809
 20
3.0424163462
 40
0.5373898192
100
AcDbArc
 50
288.2113406674
 51
251.7910526824
  0
ARC
  5
2A8
100
AcDbEntity
  8
0
100
AcDbCircle
 62
9
  6
CONTINUOUS
 10
4.1009033809
 20
3.0424163462
 40
0.3071691256
100
AcDbArc
 50
301.5678020864
 51
238.4319018994
  0
CIRCLE
  5
2A9
100
AcDbEntity
  8
ALL_ASSEMBLY_MEMBERS
100
AcDbCircle
 62
7
  6
CONTINUOUS
 10
4.1009033809
 20
3.0424163462
 40
0.3
  0
CIRCLE
  5
2AA
100
AcDbEntity
  8
ALL_ASSEMBLY_MEMBERS
100
AcDbCircle
 62
9
  6
CONTINUOUS
 10
4.1009033809
 20
3.0424163462
 40
0.290625
  0
CIRCLE
  5
2AB
100
AcDbEntity
  8
ALL_ASSEMBLY_MEMBERS
100
AcDbCircle
 62
7
  6
CONTINUOUS
 10
4.1009033809
 20
3.0424163462
 40
0.234375
  0
CIRCLE
  5
2AC
100
AcDbEntity
  8
ALL_ASSEMBLY_MEMBERS
100
AcDbCircle
 62
9
  6
CONTINUOUS
 10
4.1009033809
 20
3.0424163462
 40
0.2118749883
  0
CIRCLE
  5
2AD
100
AcDbEntity
  8
ALL_ASSEMBLY_MEMBERS
100
AcDbCircle
 62
7
  6
CONTINUOUS
 10
4.1009033809
 20
3.0424163462
 40
0.196875
  0
ARC
  5
2AE
100
AcDbEntity
  8
ALL_ASSEMBLY_MEMBERS
100
AcDbCircle
 62
9
  6
CONTINUOUS
 10
1.1751420797
 20
4.3289572058
 40
2.8980104495
100
AcDbArc
 50
15.4946877883
 51
15.8602385488
  0
CIRCLE
  5
2AF
100
AcDbEntity
  8
ALL_FEATURES
100
AcDbCircle
 62
7
  6
CONTINUOUS
 10
4.1009033809
 20
4.2236663462
 40
2.657475
  0
CIRCLE
  5
2B0
100
AcDbEntity
  8
ALL_FEATURES
100
AcDbCircle
 62
9
  6
CONTINUOUS
 10
4.1009033809
 20
4.2236663462
 40
2.6057183081
  0
CIRCLE
  5
2B1
100
AcDbEntity
  8
ALL_FEATURES
100
AcDbCircle
 62
9
  6
CONTINUOUS
 10
4.1009033809
 20
4.2236663462
 40
2.4600874258
  0
CIRCLE
  5
2B2
100
AcDbEntity
  8
ALL_FEATURES
100
AcDbCircle
 62
9
  6
CONTINUOUS
 10
4.1009033809
 20
4.2236663462
 40
2.42475
  0
ARC
  5
2B3
100
AcDbEntity
  8
0
100
AcDbCircle
 62
2
  6
CONTINUOUS
 10
4.0875306902
 20
3.8627475406
 40
0.0394618112
100
AcDbArc
 50
217.9361229692
 51
218.31478221
  0
ARC
  5
2B4
100
AcDbEntity
  8
ALL_ASSEMBLY_MEMBERS
100
AcDbCircle
 62
7
  6
CONTINUOUS
 10
3.9457902635
 20
4.4036663462
 40
0.03
100
AcDbArc
 50
177.9904461865
 51
270.0000001372
  0
ARC
  5
2B5
100
AcDbEntity
  8
0
100
AcDbCircle
 62
7
  6
CONTINUOUS
 10
3.9640283809
 20
3.7601663462
 40
0.0075
100
AcDbArc
 50
90.0
 51
180.0
  0
ARC
  5
2B6
100
AcDbEntity
  8
0
100
AcDbCircle
 62
7
  6
CONTINUOUS
 10
4.1009033809
 20
5.4049163462
 40
0.6200775
100
AcDbArc
 50
286.0015606984
 51
253.9984393016
  0
ARC
  5
2B7
100
AcDbEntity
  8
0
100
AcDbCircle
 62
9
  6
CONTINUOUS
 10
4.1009033809
 20
5.4049163462
 40
0.5075775
100
AcDbArc
 50
289.1924740804
 51
250.8075259186
  0
ARC
  5
2B8
100
AcDbEntity
  8
0
100
AcDbCircle
 62
7
  6
CONTINUOUS
 10
4.1009033809
 20
5.4049163462
 40
0.50325
100
AcDbArc
 50
289.3417123195
 51
250.6582876805
  0
ARC
  5
2B9
100
AcDbEntity
  8
ALL_FEATURES
100
AcDbCircle
 62
7
  6
CONTINUOUS
 10
4.1009033809
 20
5.4049163462
 40
0.4886988938
100
AcDbArc
 50
289.8744062777
 51
250.1255937223
  0
ARC
  5
2BA
100
AcDbEntity
  8
0
100
AcDbCircle
 62
7
  6
CONTINUOUS
 10
4.1009033809
 20
5.4049163462
 40
0.485625
100
AcDbArc
 50
289.9921252317
 51
250.0078747684
  0
ARC
  5
2BB
100
AcDbEntity
  8
0
100
AcDbCircle
 62
9
  6
CONTINUOUS
 10
4.1009033809
 20
5.4049163462
 40
0.4549122041
100
AcDbArc
 50
291.2534992093
 51
248.7465038608
  0
CIRCLE
  5
2BC
100
AcDbEntity
  8
ALL_ASSEMBLY_MEMBERS
100
AcDbCircle
 62
7
  6
CONTINUOUS
 10
4.1009033809
 20
5.4049163462
 40
0.3
  0
CIRCLE
  5
2BD
100
AcDbEntity
  8
ALL_ASSEMBLY_MEMBERS
100
AcDbCircle
 62
9
  6
CONTINUOUS
 10
4.1009033809
 20
5.4049163462
 40
0.290625
  0
CIRCLE
  5
2BE
100
AcDbEntity
  8
ALL_ASSEMBLY_MEMBERS
100
AcDbCircle
 62
7
  6
CONTINUOUS
 10
4.1009033809
 20
5.4049163462
 40
0.234375
  0
CIRCLE
  5
2BF
100
AcDbEntity
  8
ALL_ASSEMBLY_MEMBERS
100
AcDbCircle
 62
9
  6
CONTINUOUS
 10
4.1009033809
 20
5.4049163462
 40
0.2118749883
  0
CIRCLE
  5
2C0
100
AcDbEntity
  8
ALL_ASSEMBLY_MEMBERS
100
AcDbCircle
 62
7
  6
CONTINUOUS
 10
4.1009033809
 20
5.4049163462
 40
0.196875
  0
ARC
  5
2C1
100
AcDbEntity
  8
ALL_ASSEMBLY_MEMBERS
100
AcDbCircle
 62
7
  6
CONTINUOUS
 10
3.9114053566
 20
5.1347488078
 40
0.03
100
AcDbArc
 50
357.990446187
 51
54.9538230503
  0
ARC
  5
2C2
100
AcDbEntity
  8
ALL_ASSEMBLY_MEMBERS
100
AcDbCircle
 62
9
  6
CONTINUOUS
 10
7.0639937637
 20
1.9559985683
 40
2.9367768593
100
AcDbArc
 50
164.1425149262
 51
164.5032426055
  0
ARC
  5
2C3
100
AcDbEntity
  8
0
100
AcDbCircle
 62
2
  6
CONTINUOUS
 10
4.5834303305
 20
2.5412006738
 40
0.2230917439
100
AcDbArc
 50
25.7413417325
 51
34.0956089315
  0
ARC
  5
2C4
100
AcDbEntity
  8
0
100
AcDbCircle
 62
2
  6
CONTINUOUS
 10
4.7140606364
 20
2.6066589923
 40
0.0478083232
100
AcDbArc
 50
234.9878482438
 51
236.9496339654
  0
ARC
  5
2C5
100
AcDbEntity
  8
0
100
AcDbCircle
 62
2
  6
CONTINUOUS
 10
4.864616022
 20
3.2355669103
 40
0.0429002464
100
AcDbArc
 50
326.3414394618
 51
329.8543073411
  0
ARC
  5
2C6
100
AcDbEntity
  8
0
100
AcDbCircle
 62
2
  6
CONTINUOUS
 10
4.853091997
 20
3.2401923521
 40
0.0392432353
100
AcDbArc
 50
129.1750087959
 51
129.6024896071
  0
ARC
  5
2C7
100
AcDbEntity
  8
0
100
AcDbCircle
 62
2
  6
CONTINUOUS
 10
4.8529606416
 20
3.2403504778
 40
0.0390376682
100
AcDbArc
 50
129.6018892699
 51
130.7158683026
  0
ARC
  5
2C8
100
AcDbEntity
  8
0
100
AcDbCircle
 62
2
  6
CONTINUOUS
 10
4.8972549269
 20
3.3486419984
 40
0.036665646
100
AcDbArc
 50
222.3842614524
 51
223.9629206637
  0
ARC
  5
2C9
100
AcDbEntity
  8
0
100
AcDbCircle
 62
2
  6
CONTINUOUS
 10
4.888467737
 20
3.3494431118
 40
0.0355326699
100
AcDbArc
 50
331.4324726674
 51
346.9921719541
  0
ARC
  5
2CA
100
AcDbEntity
  8
ALL_ASSEMBLY_MEMBERS
100
AcDbCircle
 62
7
  6
CONTINUOUS
 10
4.2904014052
 20
2.7722488078
 40
0.03
100
AcDbArc
 50
125.0461769497
 51
182.009553813
  0
ARC
  5
2CB
100
AcDbEntity
  8
ALL_ASSEMBLY_MEMBERS
100
AcDbCircle
 62
7
  6
CONTINUOUS
 10
4.2560164983
 20
2.0411663462
 40
0.03
100
AcDbArc
 50
269.9999998707
 51
2.0095538134
  0
ARC
  5
2CC
100
AcDbEntity
  8
0
100
AcDbCircle
 62
2
  6
CONTINUOUS
 10
4.8566395565
 20
3.2383030923
 40
0.0290883415
100
AcDbArc
 50
242.4949866909
 51
251.0033213342
  0
ARC
  5
2CD
100
AcDbEntity
  8
0
100
AcDbCircle
 62
2
  6
CONTINUOUS
 10
4.8279966917
 20
3.3372763898
 40
0.0282525831
100
AcDbArc
 50
325.7075469247
 51
330.7643112724
  0
ARC
  5
2CE
100
AcDbEntity
  8
0
100
AcDbCircle
 62
2
  6
CONTINUOUS
 10
4.865070488
 20
3.2379028462
 40
0.0266818357
100
AcDbArc
 50
327.5719187169
 51
329.2692646914
  0
ARC
  5
2CF
100
AcDbEntity
  8
0
100
AcDbCircle
 62
2
  6
CONTINUOUS
 10
4.8643928533
 20
3.2430196605
 40
0.0248784592
100
AcDbArc
 50
68.4552146035
 51
73.2355392144
  0
ARC
  5
2D0
100
AcDbEntity
  8
ALL_ASSEMBLY_MEMBERS
100
AcDbCircle
 62
9
  6
CONTINUOUS
 10
7.0639937637
 20
4.3184985683
 40
2.9367768594
100
AcDbArc
 50
164.1425149262
 51
164.5032426055
  0
ARC
  5
2D1
100
AcDbEntity
  8
0
100
AcDbCircle
 62
2
  6
CONTINUOUS
 10
4.1924181923
 20
3.8627475669
 40
0.0394618689
100
AcDbArc
 50
217.9360977144
 51
218.3147684357
  0
ARC
  5
2D2
100
AcDbEntity
  8
ALL_ASSEMBLY_MEMBERS
100
AcDbCircle
 62
7
  6
CONTINUOUS
 10
4.2904014052
 20
5.1347488078
 40
0.03
100
AcDbArc
 50
125.0461769497
 51
182.009553813
  0
ARC
  5
2D3
100
AcDbEntity
  8
ALL_ASSEMBLY_MEMBERS
100
AcDbCircle
 62
7
  6
CONTINUOUS
 10
4.2560164983
 20
4.4036663462
 40
0.03
100
AcDbArc
 50
269.9999998707
 51
2.0095538134
  0
ARC
  5
2D4
100
AcDbEntity
  8
0
100
AcDbCircle
 62
7
  6
CONTINUOUS
 10
4.2377783809
 20
3.7601663462
 40
0.0075
100
AcDbArc
 50
0.0
 51
90.0
  0
SPLINE
  5
2D5
100
AcDbEntity
  8
ALL_ASSEMBLY_MEMBERS
100
AcDbSpline
 62
9
  6
CONTINUOUS
 70
0
 71
3
 72
20
 73
16
 74
0
 42
0.0000001
 43
0.0000001
 44
0.0000000001
 40
0.0
 40
0.0
 40
0.0
 40
0.0
 40
0.1728084274
 40
0.335982852
 40
0.4857103972
 40
0.5548050636
 40
0.6197520811
 40
0.680411664
 40
0.7367670505
 40
0.7888995273
 40
0.837010327
 40
0.881478182
 40
0.9229056359
 40
0.9620863873
 40
1.0
 40
1.0
 40
1.0
 40
1.0
 10
3.9628287402
 20
5.1209595092
 30
0.0
 10
3.9613128137
 20
5.1211905381
 30
0.0
 10
3.9583799254
 20
5.1217437615
 30
0.0
 10
3.9542142634
 20
5.1228667957
 30
0.0
 10
3.9510283281
 20
5.1240429911
 30
0.0
 10
3.9487463843
 20
5.1251106166
 30
0.0
 10
3.9472285973
 20
5.1259386717
 30
0.0
 10
3.9458681247
 20
5.1268111195
 30
0.0
 10
3.9446729216
 20
5.1277221756
 30
0.0
 10
3.9436502239
 20
5.1286664753
 30
0.0
 10
3.9428071558
 20
5.1296392498
 30
0.0
 10
3.9421516662
 20
5.1306361642
 30
0.0
 10
3.9416879406
 20
5.131649989
 30
0.0
 10
3.9414202279
 20
5.1326727717
 30
0.0
 10
3.9413753918
 20
5.133360591
 30
0.0
 10
3.9413872124
 20
5.1336968129
 30
0.0
  0
SPLINE
  5
2D6
100
AcDbEntity
  8
ALL_ASSEMBLY_MEMBERS
100
AcDbSpline
 62
9
  6
CONTINUOUS
 70
0
 71
3
 72
17
 73
13
 74
0
 42
0.0000001
 43
0.0000001
 44
0.0000000001
 40
0.0
 40
0.0
 40
0.0
 40
0.0
 40
0.1245938328
 40
0.2491528456
 40
0.3737104968
 40
0.498290237
 40
0.560612366
 40
0.6229798577
 40
0.6854031239
 40
0.74791484
 40
0.8733636504
 40
1.0
 40
1.0
 40
1.0
 40
1.0
 10
3.9286319843
 20
5.1593102143
 30
0.0
 10
3.9304068077
 20
5.158065165
 30
0.0
 10
3.9339073031
 20
5.155505179
 30
0.0
 10
3.9389969998
 20
5.1514549383
 30
0.0
 10
3.943904222
 20
5.14718533
 30
0.0
 10
3.9478126226
 20
5.1434264053
 30
0.0
 10
3.9507965074
 20
5.140277533
 30
0.0
 10
3.9529540544
 20
5.1378382266
 30
0.0
 10
3.9550148949
 20
5.1353119936
 30
0.0
 10
3.9576121657
 20
5.1318123439
 30
0.0
 10
3.9605174962
 20
5.1271580963
 30
0.0
 10
3.9622279977
 20
5.1230795537
 30
0.0
 10
3.9628287334
 20
5.1209594999
 30
0.0
  0
SPLINE
  5
2D7
100
AcDbEntity
  8
ALL_ASSEMBLY_MEMBERS
100
AcDbSpline
 62
9
  6
CONTINUOUS
 70
0
 71
3
 72
27
 73
23
 74
0
 42
0.0000001
 43
0.0000001
 44
0.0000000001
 40
0.0
 40
0.0
 40
0.0
 40
0.0
 40
0.0018274163
 40
0.0034510036
 40
0.005614649
 40
0.0083339326
 40
0.0116154903
 40
0.0198743398
 40
0.0303971514
 40
0.0431775484
 40
0.0582038508
 40
0.0754466361
 40
0.116409708
 40
0.1657171156
 40
0.2230056559
 40
0.2877905085
 40
0.3594936733
 40
0.4375329589
 40
0.5212812785
 40
0.6100534596
 40
0.7998281071
 40
1.0
 40
1.0
 40
1.0
 40
1.0
 10
3.9158087137
 20
4.4047183304
 30
0.0
 10
3.9158092854
 20
4.4047346237
 30
0.0
 10
3.9158408112
 20
4.4047564755
 30
0.0
 10
3.9158849338
 20
4.4047741241
 30
0.0
 10
3.9159415672
 20
4.404790877
 30
0.0
 10
3.9160123759
 20
4.4048065507
 30
0.0
 10
3.9161378142
 20
4.4048288578
 30
0.0
 10
3.9163330548
 20
4.4048537845
 30
0.0
 10
3.9166134732
 20
4.4048800496
 30
0.0
 10
3.9169546062
 20
4.4049039531
 30
0.0
 10
3.917355959
 20
4.4049254371
 30
0.0
 10
3.9180087647
 20
4.4049522147
 30
0.0
 10
3.9189676663
 20
4.4049773132
 30
0.0
 10
3.9202840078
 20
4.4049957857
 30
0.0
 10
3.9218129864
 20
4.4050034536
 30
0.0
 10
3.9235417785
 20
4.4050002669
 30
0.0
 10
3.9254556489
 20
4.4049862143
 30
0.0
 10
3.9275386031
 20
4.4049612987
 30
0.0
 10
3.9297737034
 20
4.4049256736
 30
0.0
 10
3.9330053296
 20
4.4048629014
 30
0.0
 10
3.9372750092
 20
4.4047594006
 30
0.0
 10
3.9407524302
 20
4.4046565963
 30
0.0
 10
3.9425373543
 20
4.4045993665
 30
0.0
  0
LINE
  5
2D8
100
AcDbEntity
  8
ALL_ASSEMBLY_MEMBERS
100
AcDbLine
 62
9
  6
CONTINUOUS
 10
4.2339818034
 20
5.1031578928
 11
4.2592693935
 21
4.4045993533
  0
SPLINE
  5
2D9
100
AcDbEntity
  8
ALL_ASSEMBLY_MEMBERS
100
AcDbSpline
 62
9
  6
CONTINUOUS
 70
0
 71
3
 72
27
 73
23
 74
0
 42
0.0000001
 43
0.0000001
 44
0.0000000001
 40
0.0
 40
0.0
 40
0.0
 40
0.0
 40
0.0017937713
 40
0.0034155888
 40
0.0055843148
 40
0.0083143146
 40
0.0116115393
 40
0.0199150182
 40
0.0304984246
 40
0.043354
 40
0.0584689579
 40
0.0758122609
 40
0.1170038584
 40
0.1665632033
 40
0.2241112618
 40
0.2891433416
 40
0.3610584176
 40
0.4392512171
 40
0.5230706416
 40
0.6118062759
 40
0.8010823848
 40
1.0
 40
1.0
 40
1.0
 40
1.0
 10
4.2614855843
 20
5.1033233843
 30
0.0
 10
4.2614850089
 20
5.1033398402
 30
0.0
 10
4.261451904
 20
5.1033612825
 30
0.0
 10
4.2614067013
 20
5.1033785953
 30
0.0
 10
4.2613480019
 20
5.1033951049
 30
0.0
 10
4.2612747338
 20
5.1034105209
 30
0.0
 10
4.2611448124
 20
5.103432434
 30
0.0
 10
4.2609426692
 20
5.1034568205
 30
0.0
 10
4.2606523444
 20
5.1034823922
 30
0.0
 10
4.2602991865
 20
5.1035055165
 30
0.0
 10
4.2598837222
 20
5.1035261351
 30
0.0
 10
4.2592081206
 20
5.1035515635
 30
0.0
 10
4.2582160959
 20
5.1035747851
 30
0.0
 10
4.256854861
 20
5.1035907919
 30
0.0
 10
4.2552746956
 20
5.1035956803
 30
0.0
 10
4.2534893261
 20
5.103589424
 30
0.0
 10
4.251514515
 20
5.1035720428
 30
0.0
 10
4.2493673595
 20
5.103543571
 30
0.0
 10
4.2470659484
 20
5.1035041988
 30
0.0
 10
4.2437452066
 20
5.103436168
 30
0.0
 10
4.2393685887
 20
5.1033260181
 30
0.0
 10
4.2358067858
 20
5.1032178323
 30
0.0
 10
4.2339818034
 20
5.1031578928
 30
0.0
  0
SPLINE
  5
2DA
100
AcDbEntity
  8
ALL_ASSEMBLY_MEMBERS
100
AcDbSpline
 62
9
  6
CONTINUOUS
 70
0
 71
3
 72
11
 73
7
 74
0
 42
0.0000001
 43
0.0000001
 44
0.0000000001
 40
0.0
 40
0.0
 40
0.0
 40
0.0
 40
0.2503246684
 40
0.5005054202
 40
0.7504238736
 40
1.0
 40
1.0
 40
1.0
 40
1.0
 10
4.1009033809
 20
5.0740255695
 30
0.0
 10
4.0894534633
 20
5.0740265159
 30
0.0
 10
4.066541266
 20
5.0752663139
 30
0.0
 10
4.0326027402
 20
5.0808129959
 30
0.0
 10
3.9994902204
 20
5.0899660583
 30
0.0
 10
3.9782002836
 20
5.0983963165
 30
0.0
 10
3.9678250455
 20
5.103157846
 30
0.0
  0
SPLINE
  5
2DB
100
AcDbEntity
  8
ALL_ASSEMBLY_MEMBERS
100
AcDbSpline
 62
9
  6
CONTINUOUS
 70
0
 71
3
 72
11
 73
7
 74
0
 42
0.0000001
 43
0.0000001
 44
0.0000000001
 40
0.0
 40
0.0
 40
0.0
 40
0.0
 40
0.2495759313
 40
0.499494293
 40
0.7496751909
 40
1.0
 40
1.0
 40
1.0
 40
1.0
 10
4.233981725
 20
5.1031578577
 30
0.0
 10
4.2236065027
 20
5.098396313
 30
0.0
 10
4.202316572
 20
5.0899660714
 30
0.0
 10
4.1692040632
 20
5.0808129712
 30
0.0
 10
4.1352655121
 20
5.0752663957
 30
0.0
 10
4.1123533058
 20
5.0740264956
 30
0.0
 10
4.1009033809
 20
5.0740255697
 30
0.0
  0
SPLINE
  5
2DC
100
AcDbEntity
  8
ALL_ASSEMBLY_MEMBERS
100
AcDbSpline
 62
9
  6
CONTINUOUS
 70
0
 71
3
 72
20
 73
16
 74
0
 42
0.0000001
 43
0.0000001
 44
0.0000000001
 40
0.0
 40
0.0
 40
0.0
 40
0.0
 40
0.0379136635
 40
0.0770946844
 40
0.1185225323
 40
0.1629908219
 40
0.2111020311
 40
0.2632348479
 40
0.3195904802
 40
0.380250204
 40
0.4451972559
 40
0.5142918513
 40
0.6640189604
 40
0.8271926122
 40
1.0
 40
1.0
 40
1.0
 40
1.0
 10
4.2604197692
 20
5.1336968206
 30
0.0
 10
4.2604315716
 20
5.1333605961
 30
0.0
 10
4.2603866994
 20
5.1326727736
 30
0.0
 10
4.2601189394
 20
5.1316499924
 30
0.0
 10
4.2596551722
 20
5.130636171
 30
0.0
 10
4.2589996465
 20
5.1296392613
 30
0.0
 10
4.2581565474
 20
5.1286664926
 30
0.0
 10
4.2571338232
 20
5.1277221997
 30
0.0
 10
4.2559385978
 20
5.1268111516
 30
0.0
 10
4.2545781066
 20
5.1259387127
 30
0.0
 10
4.2530603045
 20
5.1251106674
 30
0.0
 10
4.2507783459
 20
5.1240430573
 30
0.0
 10
4.2475923993
 20
5.1228668823
 30
0.0
 10
4.2434267312
 20
5.1217438741
 30
0.0
 10
4.2404938425
 20
5.1211906689
 30
0.0
 10
4.238977917
 20
5.1209596497
 30
0.0
  0
SPLINE
  5
2DD
100
AcDbEntity
  8
ALL_ASSEMBLY_MEMBERS
100
AcDbSpline
 62
9
  6
CONTINUOUS
 70
0
 71
3
 72
16
 73
12
 74
0
 42
0.0000001
 43
0.0000001
 44
0.0000000001
 40
0.0
 40
0.0
 40
0.0
 40
0.0
 40
0.1245940096
 40
0.2491590131
 40
0.3737219184
 40
0.4983077164
 40
0.5606326591
 40
0.6230028857
 40
0.7479097386
 40
0.873361853
 40
1.0
 40
1.0
 40
1.0
 40
1.0
 10
4.2731747605
 20
5.1593102072
 30
0.0
 10
4.2713999535
 20
5.1580652524
 30
0.0
 10
4.2678995791
 20
5.1555051564
 30
0.0
 10
4.2628097857
 20
5.1514550677
 30
0.0
 10
4.2579025797
 20
5.1471852788
 30
0.0
 10
4.2539940719
 20
5.1434264435
 30
0.0
 10
4.251010052
 20
5.140277471
 30
0.0
 10
4.2481325267
 20
5.1370237646
 30
0.0
 10
4.2447707037
 20
5.1327344173
 30
0.0
 10
4.2412889128
 20
5.1271583829
 30
0.0
 10
4.2395787204
 20
5.1230795287
 30
0.0
 10
4.2389780215
 20
5.1209595067
 30
0.0
  0
SPLINE
  5
2DE
100
AcDbEntity
  8
ALL_ASSEMBLY_MEMBERS
100
AcDbSpline
 62
9
  6
CONTINUOUS
 70
0
 71
3
 72
27
 73
23
 74
0
 42
0.0000001
 43
0.0000001
 44
0.0000000001
 40
0.0
 40
0.0
 40
0.0
 40
0.0
 40
0.0950871363
 40
0.1898008488
 40
0.2830156402
 40
0.3736455461
 40
0.4608101518
 40
0.5437037459
 40
0.6215140833
 40
0.6935005914
 40
0.7589941828
 40
0.8173476403
 40
0.868014853
 40
0.9105627163
 40
0.9286621911
 40
0.9445775715
 40
0.9582965424
 40
0.9698815522
 40
0.9794597639
 40
0.9872824329
 40
0.9938439711
 40
1.0
 40
1.0
 40
1.0
 40
1.0
 10
3.9425373543
 20
4.4045993665
 30
0.0
 10
3.9425617914
 20
4.4036014027
 30
0.0
 10
3.9425920864
 20
4.4016089564
 30
0.0
 10
3.9426172799
 20
4.3986378808
 30
0.0
 10
3.9426546889
 20
4.3957136273
 30
0.0
 10
3.9427424673
 20
4.3928696318
 30
0.0
 10
3.9428775996
 20
4.3901360258
 30
0.0
 10
3.9430472108
 20
4.387539247
 30
0.0
 10
3.9432390358
 20
4.3851038413
 30
0.0
 10
3.9434495731
 20
4.3828533552
 30
0.0
 10
3.9436818569
 20
4.3808104012
 30
0.0
 10
3.9439390434
 20
4.3789960828
 30
0.0
 10
3.9442191288
 20
4.3774293504
 30
0.0
 10
3.9444710883
 20
4.3762877155
 30
0.0
 10
3.9446766524
 20
4.3755105506
 30
0.0
 10
3.9448198146
 20
4.3750302068
 30
0.0
 10
3.9449603951
 20
4.3746207458
 30
0.0
 10
3.9451024609
 20
4.3742827585
 30
0.0
 10
3.9452502365
 20
4.3740157435
 30
0.0
 10
3.9454095223
 20
4.3738184707
 30
0.0
 10
3.9455902974
 20
4.3736930602
 30
0.0
 10
3.9457256351
 20
4.3736663462
 30
0.0
 10
3.9457902636
 20
4.3736663462
 30
0.0
  0
SPLINE
  5
2DF
100
AcDbEntity
  8
ALL_ASSEMBLY_MEMBERS
100
AcDbSpline
 62
9
  6
CONTINUOUS
 70
0
 71
3
 72
27
 73
23
 74
0
 42
0.0000001
 43
0.0000001
 44
0.0000000001
 40
0.0
 40
0.0
 40
0.0
 40
0.0
 40
0.0950871628
 40
0.1898009032
 40
0.2830157234
 40
0.3736456579
 40
0.4608102912
 40
0.5437039111
 40
0.6215142723
 40
0.6935008013
 40
0.7589944097
 40
0.8173478791
 40
0.8680150968
 40
0.9105629563
 40
0.9286624252
 40
0.9445777966
 40
0.9582967543
 40
0.9698817453
 40
0.9794599296
 40
0.987282559
 40
0.9938440413
 40
1.0
 40
1.0
 40
1.0
 40
1.0
 10
4.2592694075
 20
4.4045993665
 30
0.0
 10
4.2592449688
 20
4.4036014028
 30
0.0
 10
4.2592146708
 20
4.4016089564
 30
0.0
 10
4.2591894735
 20
4.3986378809
 30
0.0
 10
4.2591520611
 20
4.3957136273
 30
0.0
 10
4.2590642798
 20
4.3928696318
 30
0.0
 10
4.2589291453
 20
4.3901360258
 30
0.0
 10
4.2587595325
 20
4.387539247
 30
0.0
 10
4.2585677065
 20
4.3851038413
 30
0.0
 10
4.2583571688
 20
4.3828533553
 30
0.0
 10
4.2581248853
 20
4.3808104013
 30
0.0
 10
4.2578676998
 20
4.3789960829
 30
0.0
 10
4.2575876159
 20
4.3774293505
 30
0.0
 10
4.2573356583
 20
4.3762877156
 30
0.0
 10
4.2571300961
 20
4.3755105507
 30
0.0
 10
4.2569869353
 20
4.3750302069
 30
0.0
 10
4.2568463564
 20
4.3746207459
 30
0.0
 10
4.2567042924
 20
4.3742827587
 30
0.0
 10
4.2565565187
 20
4.3740157438
 30
0.0
 10
4.2563972351
 20
4.373818471
 30
0.0
 10
4.2562164623
 20
4.3736930603
 30
0.0
 10
4.2560811259
 20
4.3736663462
 30
0.0
 10
4.2560164982
 20
4.3736663462
 30
0.0
  0
SPLINE
  5
2E0
100
AcDbEntity
  8
ALL_ASSEMBLY_MEMBERS
100
AcDbSpline
 62
9
  6
CONTINUOUS
 70
0
 71
3
 72
27
 73
23
 74
0
 42
0.0000001
 43
0.0000001
 44
0.0000000001
 40
0.0
 40
0.0
 40
0.0
 40
0.0
 40
0.2001718931
 40
0.3899465408
 40
0.478718722
 40
0.5624670416
 40
0.6405063271
 40
0.712209492
 40
0.7769943446
 40
0.8342828849
 40
0.8835902924
 40
0.9245533643
 40
0.9417961497
 40
0.9568224522
 40
0.9696028492
 40
0.9801256609
 40
0.9883845106
 40
0.9916660683
 40
0.994385352
 40
0.9965489973
 40
0.9981725846
 40
1.0
 40
1.0
 40
1.0
 40
1.0
 10
4.2592694075
 20
4.4045993665
 30
0.0
 10
4.2610543316
 20
4.4046565963
 30
0.0
 10
4.2645317526
 20
4.4047594006
 30
0.0
 10
4.2688014322
 20
4.4048629015
 30
0.0
 10
4.2720330584
 20
4.4049256737
 30
0.0
 10
4.2742681587
 20
4.4049612988
 30
0.0
 10
4.2763511129
 20
4.4049862144
 30
0.0
 10
4.2782649833
 20
4.405000267
 30
0.0
 10
4.2799937754
 20
4.4050034537
 30
0.0
 10
4.281522754
 20
4.4049957858
 30
0.0
 10
4.2828390955
 20
4.4049773133
 30
0.0
 10
4.2837979971
 20
4.4049522148
 30
0.0
 10
4.2844508028
 20
4.4049254372
 30
0.0
 10
4.2848521556
 20
4.4049039531
 30
0.0
 10
4.2851932886
 20
4.4048800497
 30
0.0
 10
4.285473707
 20
4.4048537845
 30
0.0
 10
4.2856689476
 20
4.4048288578
 30
0.0
 10
4.2857943859
 20
4.4048065507
 30
0.0
 10
4.2858651946
 20
4.404790877
 30
0.0
 10
4.285921828
 20
4.4047741241
 30
0.0
 10
4.2859659506
 20
4.4047564754
 30
0.0
 10
4.2859974764
 20
4.4047346237
 30
0.0
 10
4.2859980481
 20
4.4047183304
 30
0.0
  0
SPLINE
  5
2E1
100
AcDbEntity
  8
ALL_ASSEMBLY_MEMBERS
100
AcDbSpline
 62
9
  6
CONTINUOUS
 70
0
 71
3
 72
27
 73
23
 74
0
 42
0.0000001
 43
0.0000001
 44
0.0000000001
 40
0.0
 40
0.0
 40
0.0
 40
0.0
 40
0.1989176209
 40
0.3881937382
 40
0.4769293769
 40
0.5607488055
 40
0.6389416085
 40
0.7108566873
 40
0.7758887688
 40
0.8334368278
 40
0.8829961718
 40
0.9241877667
 40
0.9415310679
 40
0.9566460234
 40
0.969501596
 40
0.9800849992
 40
0.9883884744
 40
0.9916856971
 40
0.9944156948
 40
0.9965844184
 40
0.9982062335
 40
1.0
 40
1.0
 40
1.0
 40
1.0
 10
3.9678249625
 20
5.1031578831
 30
0.0
 10
3.9659999796
 20
5.1032178228
 30
0.0
 10
3.962438176
 20
5.1033260087
 30
0.0
 10
3.9580615572
 20
5.1034361589
 30
0.0
 10
3.9547408146
 20
5.1035041899
 30
0.0
 10
3.952439403
 20
5.1035435622
 30
0.0
 10
3.950292247
 20
5.1035720341
 30
0.0
 10
3.9483174355
 20
5.1035894155
 30
0.0
 10
3.9465320656
 20
5.1035956719
 30
0.0
 10
3.9449518999
 20
5.1035907836
 30
0.0
 10
3.9435906648
 20
5.1035747769
 30
0.0
 10
3.9425986399
 20
5.1035515554
 30
0.0
 10
3.9419230383
 20
5.1035261271
 30
0.0
 10
3.941507574
 20
5.1035055085
 30
0.0
 10
3.9411544161
 20
5.1034823843
 30
0.0
 10
3.9408640913
 20
5.1034568126
 30
0.0
 10
3.9406619481
 20
5.1034324262
 30
0.0
 10
3.9405320268
 20
5.1034105131
 30
0.0
 10
3.9404587587
 20
5.1033950972
 30
0.0
 10
3.9404000594
 20
5.1033785876
 30
0.0
 10
3.9403548568
 20
5.1033612748
 30
0.0
 10
3.9403217519
 20
5.1033398325
 30
0.0
 10
3.9403211765
 20
5.1033233766
 30
0.0
  0
LINE
  5
2E2
100
AcDbEntity
  8
ALL_ASSEMBLY_MEMBERS
100
AcDbLine
 62
9
  6
CONTINUOUS
 10
3.9678249625
 20
5.1031578831
 11
3.9425373679
 21
4.4045993536
  0
SPLINE
  5
2E3
100
AcDbEntity
  8
ALL_ASSEMBLY_MEMBERS
100
AcDbSpline
 62
9
  6
CONTINUOUS
 70
0
 71
3
 72
20
 73
16
 74
0
 42
0.0000001
 43
0.0000001
 44
0.0000000001
 40
0.0
 40
0.0
 40
0.0
 40
0.0
 40
0.1728084274
 40
0.335982852
 40
0.4857103972
 40
0.5548050636
 40
0.6197520811
 40
0.680411664
 40
0.7367670505
 40
0.7888995273
 40
0.837010327
 40
0.881478182
 40
0.9229056359
 40
0.9620863873
 40
1.0
 40
1.0
 40
1.0
 40
1.0
 10
3.9628287402
 20
2.7584595092
 30
0.0
 10
3.9613128137
 20
2.7586905381
 30
0.0
 10
3.9583799254
 20
2.7592437615
 30
0.0
 10
3.9542142634
 20
2.7603667957
 30
0.0
 10
3.9510283281
 20
2.7615429911
 30
0.0
 10
3.9487463843
 20
2.7626106166
 30
0.0
 10
3.9472285973
 20
2.7634386717
 30
0.0
 10
3.9458681247
 20
2.7643111195
 30
0.0
 10
3.9446729216
 20
2.7652221756
 30
0.0
 10
3.9436502239
 20
2.7661664753
 30
0.0
 10
3.9428071558
 20
2.7671392498
 30
0.0
 10
3.9421516662
 20
2.7681361642
 30
0.0
 10
3.9416879406
 20
2.769149989
 30
0.0
 10
3.9414202279
 20
2.7701727717
 30
0.0
 10
3.9413753918
 20
2.770860591
 30
0.0
 10
3.9413872124
 20
2.7711968129
 30
0.0
  0
SPLINE
  5
2E4
100
AcDbEntity
  8
ALL_ASSEMBLY_MEMBERS
100
AcDbSpline
 62
9
  6
CONTINUOUS
 70
0
 71
3
 72
17
 73
13
 74
0
 42
0.0000001
 43
0.0000001
 44
0.0000000001
 40
0.0
 40
0.0
 40
0.0
 40
0.0
 40
0.1245938328
 40
0.2491528456
 40
0.3737104968
 40
0.498290237
 40
0.560612366
 40
0.6229798577
 40
0.6854031239
 40
0.74791484
 40
0.8733636504
 40
1.0
 40
1.0
 40
1.0
 40
1.0
 10
3.9286319843
 20
2.7968102143
 30
0.0
 10
3.9304068077
 20
2.795565165
 30
0.0
 10
3.9339073031
 20
2.793005179
 30
0.0
 10
3.9389969998
 20
2.7889549383
 30
0.0
 10
3.943904222
 20
2.78468533
 30
0.0
 10
3.9478126226
 20
2.7809264053
 30
0.0
 10
3.9507965074
 20
2.777777533
 30
0.0
 10
3.9529540544
 20
2.7753382266
 30
0.0
 10
3.9550148949
 20
2.7728119936
 30
0.0
 10
3.9576121657
 20
2.7693123439
 30
0.0
 10
3.9605174962
 20
2.7646580963
 30
0.0
 10
3.9622279977
 20
2.7605795537
 30
0.0
 10
3.9628287334
 20
2.7584594999
 30
0.0
  0
SPLINE
  5
2E5
100
AcDbEntity
  8
ALL_ASSEMBLY_MEMBERS
100
AcDbSpline
 62
9
  6
CONTINUOUS
 70
0
 71
3
 72
27
 73
23
 74
0
 42
0.0000001
 43
0.0000001
 44
0.0000000001
 40
0.0
 40
0.0
 40
0.0
 40
0.0
 40
0.0018274163
 40
0.0034510036
 40
0.005614649
 40
0.0083339326
 40
0.0116154903
 40
0.0198743398
 40
0.0303971514
 40
0.0431775484
 40
0.0582038508
 40
0.0754466361
 40
0.116409708
 40
0.1657171156
 40
0.2230056559
 40
0.2877905085
 40
0.3594936733
 40
0.4375329589
 40
0.5212812785
 40
0.6100534596
 40
0.7998281071
 40
1.0
 40
1.0
 40
1.0
 40
1.0
 10
3.9158087137
 20
2.0422183304
 30
0.0
 10
3.9158092854
 20
2.0422346237
 30
0.0
 10
3.9158408112
 20
2.0422564755
 30
0.0
 10
3.9158849338
 20
2.0422741241
 30
0.0
 10
3.9159415672
 20
2.042290877
 30
0.0
 10
3.9160123759
 20
2.0423065507
 30
0.0
 10
3.9161378142
 20
2.0423288578
 30
0.0
 10
3.9163330548
 20
2.0423537845
 30
0.0
 10
3.9166134732
 20
2.0423800496
 30
0.0
 10
3.9169546062
 20
2.0424039531
 30
0.0
 10
3.917355959
 20
2.0424254371
 30
0.0
 10
3.9180087647
 20
2.0424522147
 30
0.0
 10
3.9189676663
 20
2.0424773132
 30
0.0
 10
3.9202840078
 20
2.0424957857
 30
0.0
 10
3.9218129864
 20
2.0425034536
 30
0.0
 10
3.9235417785
 20
2.0425002669
 30
0.0
 10
3.9254556489
 20
2.0424862143
 30
0.0
 10
3.9275386031
 20
2.0424612987
 30
0.0
 10
3.9297737034
 20
2.0424256736
 30
0.0
 10
3.9330053296
 20
2.0423629014
 30
0.0
 10
3.9372750092
 20
2.0422594006
 30
0.0
 10
3.9407524302
 20
2.0421565963
 30
0.0
 10
3.9425373543
 20
2.0420993665
 30
0.0
  0
LINE
  5
2E6
100
AcDbEntity
  8
ALL_ASSEMBLY_MEMBERS
100
AcDbLine
 62
9
  6
CONTINUOUS
 10
4.2339818034
 20
2.7406578928
 11
4.2592693935
 21
2.0420993533
  0
SPLINE
  5
2E7
100
AcDbEntity
  8
ALL_ASSEMBLY_MEMBERS
100
AcDbSpline
 62
9
  6
CONTINUOUS
 70
0
 71
3
 72
27
 73
23
 74
0
 42
0.0000001
 43
0.0000001
 44
0.0000000001
 40
0.0
 40
0.0
 40
0.0
 40
0.0
 40
0.0017937713
 40
0.0034155888
 40
0.0055843148
 40
0.0083143146
 40
0.0116115393
 40
0.0199150182
 40
0.0304984246
 40
0.043354
 40
0.0584689579
 40
0.0758122609
 40
0.1170038584
 40
0.1665632033
 40
0.2241112618
 40
0.2891433416
 40
0.3610584176
 40
0.4392512171
 40
0.5230706416
 40
0.6118062759
 40
0.8010823848
 40
1.0
 40
1.0
 40
1.0
 40
1.0
 10
4.2614855843
 20
2.7408233843
 30
0.0
 10
4.2614850089
 20
2.7408398402
 30
0.0
 10
4.261451904
 20
2.7408612825
 30
0.0
 10
4.2614067013
 20
2.7408785953
 30
0.0
 10
4.2613480019
 20
2.7408951049
 30
0.0
 10
4.2612747338
 20
2.7409105209
 30
0.0
 10
4.2611448124
 20
2.740932434
 30
0.0
 10
4.2609426692
 20
2.7409568205
 30
0.0
 10
4.2606523444
 20
2.7409823922
 30
0.0
 10
4.2602991865
 20
2.7410055165
 30
0.0
 10
4.2598837222
 20
2.7410261351
 30
0.0
 10
4.2592081206
 20
2.7410515635
 30
0.0
 10
4.2582160959
 20
2.7410747851
 30
0.0
 10
4.256854861
 20
2.7410907919
 30
0.0
 10
4.2552746956
 20
2.7410956803
 30
0.0
 10
4.2534893261
 20
2.741089424
 30
0.0
 10
4.251514515
 20
2.7410720428
 30
0.0
 10
4.2493673595
 20
2.741043571
 30
0.0
 10
4.2470659484
 20
2.7410041988
 30
0.0
 10
4.2437452066
 20
2.740936168
 30
0.0
 10
4.2393685887
 20
2.7408260181
 30
0.0
 10
4.2358067858
 20
2.7407178323
 30
0.0
 10
4.2339818034
 20
2.7406578928
 30
0.0
  0
SPLINE
  5
2E8
100
AcDbEntity
  8
ALL_ASSEMBLY_MEMBERS
100
AcDbSpline
 62
9
  6
CONTINUOUS
 70
0
 71
3
 72
11
 73
7
 74
0
 42
0.0000001
 43
0.0000001
 44
0.0000000001
 40
0.0
 40
0.0
 40
0.0
 40
0.0
 40
0.2503246684
 40
0.5005054202
 40
0.7504238736
 40
1.0
 40
1.0
 40
1.0
 40
1.0
 10
4.1009033809
 20
2.7115255695
 30
0.0
 10
4.0894534633
 20
2.7115265159
 30
0.0
 10
4.066541266
 20
2.7127663139
 30
0.0
 10
4.0326027402
 20
2.7183129959
 30
0.0
 10
3.9994902204
 20
2.7274660583
 30
0.0
 10
3.9782002836
 20
2.7358963165
 30
0.0
 10
3.9678250455
 20
2.740657846
 30
0.0
  0
SPLINE
  5
2E9
100
AcDbEntity
  8
ALL_ASSEMBLY_MEMBERS
100
AcDbSpline
 62
9
  6
CONTINUOUS
 70
0
 71
3
 72
11
 73
7
 74
0
 42
0.0000001
 43
0.0000001
 44
0.0000000001
 40
0.0
 40
0.0
 40
0.0
 40
0.0
 40
0.2495759313
 40
0.499494293
 40
0.7496751909
 40
1.0
 40
1.0
 40
1.0
 40
1.0
 10
4.233981725
 20
2.7406578577
 30
0.0
 10
4.2236065027
 20
2.735896313
 30
0.0
 10
4.202316572
 20
2.7274660714
 30
0.0
 10
4.1692040632
 20
2.7183129712
 30
0.0
 10
4.1352655121
 20
2.7127663957
 30
0.0
 10
4.1123533058
 20
2.7115264956
 30
0.0
 10
4.1009033809
 20
2.7115255697
 30
0.0
  0
SPLINE
  5
2EA
100
AcDbEntity
  8
ALL_ASSEMBLY_MEMBERS
100
AcDbSpline
 62
9
  6
CONTINUOUS
 70
0
 71
3
 72
20
 73
16
 74
0
 42
0.0000001
 43
0.0000001
 44
0.0000000001
 40
0.0
 40
0.0
 40
0.0
 40
0.0
 40
0.0379136635
 40
0.0770946844
 40
0.1185225323
 40
0.1629908219
 40
0.2111020311
 40
0.2632348479
 40
0.3195904802
 40
0.380250204
 40
0.4451972559
 40
0.5142918513
 40
0.6640189604
 40
0.8271926122
 40
1.0
 40
1.0
 40
1.0
 40
1.0
 10
4.2604197692
 20
2.7711968206
 30
0.0
 10
4.2604315716
 20
2.7708605961
 30
0.0
 10
4.2603866994
 20
2.7701727736
 30
0.0
 10
4.2601189394
 20
2.7691499924
 30
0.0
 10
4.2596551722
 20
2.768136171
 30
0.0
 10
4.2589996465
 20
2.7671392613
 30
0.0
 10
4.2581565474
 20
2.7661664926
 30
0.0
 10
4.2571338232
 20
2.7652221997
 30
0.0
 10
4.2559385978
 20
2.7643111516
 30
0.0
 10
4.2545781066
 20
2.7634387127
 30
0.0
 10
4.2530603045
 20
2.7626106674
 30
0.0
 10
4.2507783459
 20
2.7615430573
 30
0.0
 10
4.2475923993
 20
2.7603668823
 30
0.0
 10
4.2434267312
 20
2.7592438741
 30
0.0
 10
4.2404938425
 20
2.7586906689
 30
0.0
 10
4.238977917
 20
2.7584596497
 30
0.0
  0
SPLINE
  5
2EB
100
AcDbEntity
  8
ALL_ASSEMBLY_MEMBERS
100
AcDbSpline
 62
9
  6
CONTINUOUS
 70
0
 71
3
 72
16
 73
12
 74
0
 42
0.0000001
 43
0.0000001
 44
0.0000000001
 40
0.0
 40
0.0
 40
0.0
 40
0.0
 40
0.1245940096
 40
0.2491590131
 40
0.3737219184
 40
0.4983077164
 40
0.5606326591
 40
0.6230028857
 40
0.7479097386
 40
0.873361853
 40
1.0
 40
1.0
 40
1.0
 40
1.0
 10
4.2731747605
 20
2.7968102072
 30
0.0
 10
4.2713999535
 20
2.7955652524
 30
0.0
 10
4.2678995791
 20
2.7930051564
 30
0.0
 10
4.2628097857
 20
2.7889550677
 30
0.0
 10
4.2579025797
 20
2.7846852788
 30
0.0
 10
4.2539940719
 20
2.7809264435
 30
0.0
 10
4.251010052
 20
2.777777471
 30
0.0
 10
4.2481325267
 20
2.7745237646
 30
0.0
 10
4.2447707037
 20
2.7702344173
 30
0.0
 10
4.2412889128
 20
2.7646583829
 30
0.0
 10
4.2395787204
 20
2.7605795287
 30
0.0
 10
4.2389780215
 20
2.7584595067
 30
0.0
  0
SPLINE
  5
2EC
100
AcDbEntity
  8
ALL_ASSEMBLY_MEMBERS
100
AcDbSpline
 62
9
  6
CONTINUOUS
 70
0
 71
3
 72
27
 73
23
 74
0
 42
0.0000001
 43
0.0000001
 44
0.0000000001
 40
0.0
 40
0.0
 40
0.0
 40
0.0
 40
0.0950871363
 40
0.1898008488
 40
0.2830156402
 40
0.3736455461
 40
0.4608101518
 40
0.5437037459
 40
0.6215140833
 40
0.6935005914
 40
0.7589941828
 40
0.8173476403
 40
0.868014853
 40
0.9105627163
 40
0.9286621911
 40
0.9445775715
 40
0.9582965424
 40
0.9698815522
 40
0.9794597639
 40
0.9872824329
 40
0.9938439711
 40
1.0
 40
1.0
 40
1.0
 40
1.0
 10
3.9425373543
 20
2.0420993665
 30
0.0
 10
3.9425617914
 20
2.0411014027
 30
0.0
 10
3.9425920864
 20
2.0391089564
 30
0.0
 10
3.9426172799
 20
2.0361378808
 30
0.0
 10
3.9426546889
 20
2.0332136273
 30
0.0
 10
3.9427424673
 20
2.0303696318
 30
0.0
 10
3.9428775996
 20
2.0276360258
 30
0.0
 10
3.9430472108
 20
2.025039247
 30
0.0
 10
3.9432390358
 20
2.0226038413
 30
0.0
 10
3.9434495731
 20
2.0203533552
 30
0.0
 10
3.9436818569
 20
2.0183104012
 30
0.0
 10
3.9439390434
 20
2.0164960828
 30
0.0
 10
3.9442191288
 20
2.0149293504
 30
0.0
 10
3.9444710883
 20
2.0137877155
 30
0.0
 10
3.9446766524
 20
2.0130105506
 30
0.0
 10
3.9448198146
 20
2.0125302068
 30
0.0
 10
3.9449603951
 20
2.0121207458
 30
0.0
 10
3.9451024609
 20
2.0117827585
 30
0.0
 10
3.9452502365
 20
2.0115157435
 30
0.0
 10
3.9454095223
 20
2.0113184707
 30
0.0
 10
3.9455902974
 20
2.0111930602
 30
0.0
 10
3.9457256351
 20
2.0111663462
 30
0.0
 10
3.9457902636
 20
2.0111663462
 30
0.0
  0
SPLINE
  5
2ED
100
AcDbEntity
  8
ALL_ASSEMBLY_MEMBERS
100
AcDbSpline
 62
9
  6
CONTINUOUS
 70
0
 71
3
 72
27
 73
23
 74
0
 42
0.0000001
 43
0.0000001
 44
0.0000000001
 40
0.0
 40
0.0
 40
0.0
 40
0.0
 40
0.0950871628
 40
0.1898009032
 40
0.2830157234
 40
0.3736456579
 40
0.4608102912
 40
0.5437039111
 40
0.6215142723
 40
0.6935008013
 40
0.7589944097
 40
0.8173478791
 40
0.8680150968
 40
0.9105629563
 40
0.9286624252
 40
0.9445777966
 40
0.9582967543
 40
0.9698817453
 40
0.9794599296
 40
0.987282559
 40
0.9938440413
 40
1.0
 40
1.0
 40
1.0
 40
1.0
 10
4.2592694075
 20
2.0420993665
 30
0.0
 10
4.2592449688
 20
2.0411014028
 30
0.0
 10
4.2592146708
 20
2.0391089564
 30
0.0
 10
4.2591894735
 20
2.0361378809
 30
0.0
 10
4.2591520611
 20
2.0332136273
 30
0.0
 10
4.2590642798
 20
2.0303696318
 30
0.0
 10
4.2589291453
 20
2.0276360258
 30
0.0
 10
4.2587595325
 20
2.025039247
 30
0.0
 10
4.2585677065
 20
2.0226038413
 30
0.0
 10
4.2583571688
 20
2.0203533553
 30
0.0
 10
4.2581248853
 20
2.0183104013
 30
0.0
 10
4.2578676998
 20
2.0164960829
 30
0.0
 10
4.2575876159
 20
2.0149293505
 30
0.0
 10
4.2573356583
 20
2.0137877156
 30
0.0
 10
4.2571300961
 20
2.0130105507
 30
0.0
 10
4.2569869353
 20
2.0125302069
 30
0.0
 10
4.2568463564
 20
2.0121207459
 30
0.0
 10
4.2567042924
 20
2.0117827587
 30
0.0
 10
4.2565565187
 20
2.0115157438
 30
0.0
 10
4.2563972351
 20
2.011318471
 30
0.0
 10
4.2562164623
 20
2.0111930603
 30
0.0
 10
4.2560811259
 20
2.0111663462
 30
0.0
 10
4.2560164982
 20
2.0111663462
 30
0.0
  0
SPLINE
  5
2EE
100
AcDbEntity
  8
ALL_ASSEMBLY_MEMBERS
100
AcDbSpline
 62
9
  6
CONTINUOUS
 70
0
 71
3
 72
27
 73
23
 74
0
 42
0.0000001
 43
0.0000001
 44
0.0000000001
 40
0.0
 40
0.0
 40
0.0
 40
0.0
 40
0.2001718931
 40
0.3899465408
 40
0.478718722
 40
0.5624670416
 40
0.6405063271
 40
0.712209492
 40
0.7769943446
 40
0.8342828849
 40
0.8835902924
 40
0.9245533643
 40
0.9417961497
 40
0.9568224522
 40
0.9696028492
 40
0.9801256609
 40
0.9883845106
 40
0.9916660683
 40
0.994385352
 40
0.9965489973
 40
0.9981725846
 40
1.0
 40
1.0
 40
1.0
 40
1.0
 10
4.2592694075
 20
2.0420993665
 30
0.0
 10
4.2610543316
 20
2.0421565963
 30
0.0
 10
4.2645317526
 20
2.0422594006
 30
0.0
 10
4.2688014322
 20
2.0423629015
 30
0.0
 10
4.2720330584
 20
2.0424256737
 30
0.0
 10
4.2742681587
 20
2.0424612988
 30
0.0
 10
4.2763511129
 20
2.0424862144
 30
0.0
 10
4.2782649833
 20
2.042500267
 30
0.0
 10
4.2799937754
 20
2.0425034537
 30
0.0
 10
4.281522754
 20
2.0424957858
 30
0.0
 10
4.2828390955
 20
2.0424773133
 30
0.0
 10
4.2837979971
 20
2.0424522148
 30
0.0
 10
4.2844508028
 20
2.0424254372
 30
0.0
 10
4.2848521556
 20
2.0424039531
 30
0.0
 10
4.2851932886
 20
2.0423800497
 30
0.0
 10
4.285473707
 20
2.0423537845
 30
0.0
 10
4.2856689476
 20
2.0423288578
 30
0.0
 10
4.2857943859
 20
2.0423065507
 30
0.0
 10
4.2858651946
 20
2.042290877
 30
0.0
 10
4.285921828
 20
2.0422741241
 30
0.0
 10
4.2859659506
 20
2.0422564754
 30
0.0
 10
4.2859974764
 20
2.0422346237
 30
0.0
 10
4.2859980481
 20
2.0422183304
 30
0.0
  0
SPLINE
  5
2EF
100
AcDbEntity
  8
ALL_ASSEMBLY_MEMBERS
100
AcDbSpline
 62
9
  6
CONTINUOUS
 70
0
 71
3
 72
27
 73
23
 74
0
 42
0.0000001
 43
0.0000001
 44
0.0000000001
 40
0.0
 40
0.0
 40
0.0
 40
0.0
 40
0.1989176209
 40
0.3881937382
 40
0.4769293769
 40
0.5607488055
 40
0.6389416085
 40
0.7108566873
 40
0.7758887688
 40
0.8334368278
 40
0.8829961718
 40
0.9241877667
 40
0.9415310679
 40
0.9566460234
 40
0.969501596
 40
0.9800849992
 40
0.9883884744
 40
0.9916856971
 40
0.9944156948
 40
0.9965844184
 40
0.9982062335
 40
1.0
 40
1.0
 40
1.0
 40
1.0
 10
3.9678249625
 20
2.7406578831
 30
0.0
 10
3.9659999796
 20
2.7407178228
 30
0.0
 10
3.962438176
 20
2.7408260087
 30
0.0
 10
3.9580615572
 20
2.7409361589
 30
0.0
 10
3.9547408146
 20
2.7410041899
 30
0.0
 10
3.952439403
 20
2.7410435622
 30
0.0
 10
3.950292247
 20
2.7410720341
 30
0.0
 10
3.9483174355
 20
2.7410894155
 30
0.0
 10
3.9465320656
 20
2.7410956719
 30
0.0
 10
3.9449518999
 20
2.7410907836
 30
0.0
 10
3.9435906648
 20
2.7410747769
 30
0.0
 10
3.9425986399
 20
2.7410515554
 30
0.0
 10
3.9419230383
 20
2.7410261271
 30
0.0
 10
3.941507574
 20
2.7410055085
 30
0.0
 10
3.9411544161
 20
2.7409823843
 30
0.0
 10
3.9408640913
 20
2.7409568126
 30
0.0
 10
3.9406619481
 20
2.7409324262
 30
0.0
 10
3.9405320268
 20
2.7409105131
 30
0.0
 10
3.9404587587
 20
2.7408950972
 30
0.0
 10
3.9404000594
 20
2.7408785876
 30
0.0
 10
3.9403548568
 20
2.7408612748
 30
0.0
 10
3.9403217519
 20
2.7408398325
 30
0.0
 10
3.9403211765
 20
2.7408233766
 30
0.0
  0
LINE
  5
2F0
100
AcDbEntity
  8
ALL_ASSEMBLY_MEMBERS
100
AcDbLine
 62
9
  6
CONTINUOUS
 10
3.9678249625
 20
2.7406578831
 11
3.9425373679
 21
2.0420993536
  0
SPLINE
  5
2F1
100
AcDbEntity
  8
0
100
AcDbSpline
 62
7
  6
CONTINUOUS
 70
0
 71
3
 72
16
 73
12
 74
0
 42
0.0000001
 43
0.0000001
 44
0.0000000001
 40
0.0
 40
0.0
 40
0.0
 40
0.0
 40
0.1250029949
 40
0.250005381
 40
0.3750063991
 40
0.5000059728
 40
0.5625094417
 40
0.625013486
 40
0.7500110263
 40
0.8750055172
 40
1.0
 40
1.0
 40
1.0
 40
1.0
 10
3.4989621948
 20
2.4480283339
 30
0.0
 10
3.4979959151
 20
2.448165204
 30
0.0
 10
3.4960595223
 20
2.4484127233
 30
0.0
 10
3.4931452251
 20
2.4486978674
 30
0.0
 10
3.4902229655
 20
2.4488862971
 30
0.0
 10
3.487783166
 20
2.4489483735
 30
0.0
 10
3.4858312118
 20
2.4489316825
 30
0.0
 10
3.4838802286
 20
2.448869449
 30
0.0
 10
3.4814450687
 20
2.4486998184
 30
0.0
 10
3.4785399931
 20
2.4483235613
 30
0.0
 10
3.4766233901
 20
2.4479444193
 30
0.0
 10
3.4756741585
 20
2.4477180135
 30
0.0
  0
SPLINE
  5
2F2
100
AcDbEntity
  8
0
100
AcDbSpline
 62
7
  6
CONTINUOUS
 70
0
 71
3
 72
11
 73
7
 74
0
 42
0.0000001
 43
0.0000001
 44
0.0000000001
 40
0.0
 40
0.0
 40
0.0
 40
0.0
 40
0.2500102704
 40
0.5000199593
 40
0.7500144387
 40
1.0
 40
1.0
 40
1.0
 40
1.0
 10
3.5266014555
 20
2.43945535
 30
0.0
 10
3.5244105867
 20
2.4404833429
 30
0.0
 10
3.5199680742
 20
2.4424133878
 30
0.0
 10
3.5131272309
 20
2.4448621747
 30
0.0
 10
3.5061216393
 20
2.4467934191
 30
0.0
 10
3.5013580966
 20
2.4476889629
 30
0.0
 10
3.4989621948
 20
2.4480283339
 30
0.0
  0
SPLINE
  5
2F3
100
AcDbEntity
  8
0
100
AcDbSpline
 62
7
  6
CONTINUOUS
 70
0
 71
3
 72
14
 73
10
 74
0
 42
0.0000001
 43
0.0000001
 44
0.0000000001
 40
0.0
 40
0.0
 40
0.0
 40
0.0
 40
0.2499972892
 40
0.3749986139
 40
0.4999996771
 40
0.6250004193
 40
0.7500008759
 40
0.8750005249
 40
1.0
 40
1.0
 40
1.0
 40
1.0
 10
3.521261709
 20
2.4577470722
 30
0.0
 10
3.5227952297
 20
2.4572131005
 30
0.0
 10
3.5250859676
 20
2.4563839743
 30
0.0
 10
3.5281134269
 20
2.455208072
 30
0.0
 10
3.5303676705
 20
2.4542849018
 30
0.0
 10
3.5326014589
 20
2.4533131584
 30
0.0
 10
3.5348097864
 20
2.4522846561
 30
0.0
 10
3.5369868992
 20
2.4511915564
 30
0.0
 10
3.5384127134
 20
2.4504134278
 30
0.0
 10
3.5391168443
 20
2.4500091861
 30
0.0
  0
SPLINE
  5
2F4
100
AcDbEntity
  8
0
100
AcDbSpline
 62
7
  6
CONTINUOUS
 70
0
 71
3
 72
14
 73
10
 74
0
 42
0.0000001
 43
0.0000001
 44
0.0000000001
 40
0.0
 40
0.0
 40
0.0
 40
0.0
 40
0.1249997592
 40
0.2499997086
 40
0.3750005188
 40
0.5000016043
 40
0.625003129
 40
0.7500050648
 40
1.0
 40
1.0
 40
1.0
 40
1.0
 10
3.5023849228
 20
2.4624259335
 30
0.0
 10
3.5031919501
 20
2.4623365958
 30
0.0
 10
3.5048018382
 20
2.4621189008
 30
0.0
 10
3.5072014596
 20
2.4616973119
 30
0.0
 10
3.5095849265
 20
2.4611924846
 30
0.0
 10
3.5119514619
 20
2.4606139222
 30
0.0
 10
3.5143015746
 20
2.4599721594
 30
0.0
 10
3.5174145119
 20
2.4590452118
 30
0.0
 10
3.5197281334
 20
2.4582810631
 30
0.0
 10
3.521261709
 20
2.4577470722
 30
0.0
  0
SPLINE
  5
2F5
100
AcDbEntity
  8
0
100
AcDbSpline
 62
7
  6
CONTINUOUS
 70
0
 71
3
 72
16
 73
12
 74
0
 42
0.0000001
 43
0.0000001
 44
0.0000000001
 40
0.0
 40
0.0
 40
0.0
 40
0.0
 40
0.0625010904
 40
0.1250049632
 40
0.2500025009
 40
0.3750013689
 40
0.5000005347
 40
0.6250000571
 40
0.7499998428
 40
0.8749998756
 40
1.0
 40
1.0
 40
1.0
 40
1.0
 10
3.5159094892
 20
2.5647860032
 30
0.0
 10
3.5152870594
 20
2.5647861782
 30
0.0
 10
3.514042135
 20
2.5648032542
 30
0.0
 10
3.5115539097
 20
2.5648929061
 30
0.0
 10
3.5084475226
 20
2.5650921075
 30
0.0
 10
3.5047292473
 20
2.5654441638
 30
0.0
 10
3.5010209308
 20
2.5658881574
 30
0.0
 10
3.4973222805
 20
2.5664057506
 30
0.0
 10
3.4936324621
 20
2.5669826157
 30
0.0
 10
3.4899507379
 20
2.5676088614
 30
0.0
 10
3.4875012868
 20
2.5680549242
 30
0.0
 10
3.4862777628
 20
2.5682843008
 30
0.0
  0
SPLINE
  5
2F6
100
AcDbEntity
  8
0
100
AcDbSpline
 62
7
  6
CONTINUOUS
 70
0
 71
3
 72
15
 73
11
 74
0
 42
0.0000001
 43
0.0000001
 44
0.0000000001
 40
0.0
 40
0.0
 40
0.0
 40
0.0
 40
0.1249981511
 40
0.2499960901
 40
0.3749951262
 40
0.4999948358
 40
0.624994788
 40
0.7499956754
 40
0.8749974566
 40
1.0
 40
1.0
 40
1.0
 40
1.0
 10
3.5366751905
 20
2.5679305982
 30
0.0
 10
3.5358462177
 20
2.5676375988
 30
0.0
 10
3.5341707962
 20
2.5671000167
 30
0.0
 10
3.5316186007
 20
2.5664295306
 30
0.0
 10
3.5290361628
 20
2.5658874272
 30
0.0
 10
3.5264319997
 20
2.5654629039
 30
0.0
 10
3.52381245
 20
2.565147679
 30
0.0
 10
3.5211827792
 20
2.5649339764
 30
0.0
 10
3.5185474027
 20
2.5648114434
 30
0.0
 10
3.5167887496
 20
2.5647857559
 30
0.0
 10
3.5159094892
 20
2.5647860032
 30
0.0
  0
SPLINE
  5
2F7
100
AcDbEntity
  8
0
100
AcDbSpline
 62
7
  6
CONTINUOUS
 70
0
 71
3
 72
11
 73
7
 74
0
 42
0.0000001
 43
0.0000001
 44
0.0000000001
 40
0.0
 40
0.0
 40
0.0
 40
0.0
 40
0.2499962272
 40
0.4999940757
 40
0.7499966081
 40
1.0
 40
1.0
 40
1.0
 40
1.0
 10
3.5468559974
 20
2.5740438234
 30
0.0
 10
3.5461252207
 20
2.5733669155
 30
0.0
 10
3.5445926993
 20
2.5720873786
 30
0.0
 10
3.5421070807
 20
2.5704190253
 30
0.0
 10
3.5394625219
 20
2.5690164962
 30
0.0
 10
3.5376143917
 20
2.5682625576
 30
0.0
 10
3.5366751905
 20
2.5679305982
 30
0.0
  0
SPLINE
  5
2F8
100
AcDbEntity
  8
0
100
AcDbSpline
 62
7
  6
CONTINUOUS
 70
0
 71
3
 72
13
 73
9
 74
0
 42
0.0000001
 43
0.0000001
 44
0.0000000001
 40
0.0
 40
0.0
 40
0.0
 40
0.0
 40
0.249999636
 40
0.4999947549
 40
0.6249958732
 40
0.7499965439
 40
0.8749985193
 40
1.0
 40
1.0
 40
1.0
 40
1.0
 10
3.5083656582
 20
2.5809038946
 30
0.0
 10
3.5093106327
 20
2.580846344
 30
0.0
 10
3.5112010702
 20
2.5807392522
 30
0.0
 10
3.5135666818
 20
2.5806533071
 30
0.0
 10
3.5154601753
 20
2.5806363716
 30
0.0
 10
3.516880303
 20
2.5806561579
 30
0.0
 10
3.5182993348
 20
2.5807163921
 30
0.0
 10
3.5192436006
 20
2.5807884183
 30
0.0
 10
3.5197147472
 20
2.5808342346
 30
0.0
  0
SPLINE
  5
2F9
100
AcDbEntity
  8
0
100
AcDbSpline
 62
7
  6
CONTINUOUS
 70
0
 71
3
 72
18
 73
14
 74
0
 42
0.0000001
 43
0.0000001
 44
0.0000000001
 40
0.0
 40
0.0
 40
0.0
 40
0.0
 40
0.1250002443
 40
0.2500004807
 40
0.3750006988
 40
0.5000008695
 40
0.6250009238
 40
0.6875010403
 40
0.7500011371
 40
0.8125011911
 40
0.8750012584
 40
0.9375007732
 40
1.0
 40
1.0
 40
1.0
 40
1.0
 10
3.4830034383
 20
2.5846498195
 30
0.0
 10
3.4840566961
 20
2.5844697807
 30
0.0
 10
3.4861635375
 20
2.5841116038
 30
0.0
 10
3.489325046
 20
2.5835817179
 30
0.0
 10
3.4924881717
 20
2.5830615542
 30
0.0
 10
3.4956534425
 20
2.5825545957
 30
0.0
 10
3.4982936052
 20
2.5821475197
 30
0.0
 10
3.5004078255
 20
2.5818358107
 30
0.0
 10
3.5019947896
 20
2.5816109684
 30
0.0
 10
3.5035833712
 20
2.581397834
 30
0.0
 10
3.5051740426
 20
2.5812006478
 30
0.0
 10
3.5067674436
 20
2.5810271144
 30
0.0
 10
3.5078323866
 20
2.5809363718
 30
0.0
 10
3.5083656582
 20
2.5809038946
 30
0.0
  0
SPLINE
  5
2FA
100
AcDbEntity
  8
0
100
AcDbSpline
 62
7
  6
CONTINUOUS
 70
0
 71
3
 72
15
 73
11
 74
0
 42
0.0000001
 43
0.0000001
 44
0.0000000001
 40
0.0
 40
0.0
 40
0.0
 40
0.0
 40
0.0625008658
 40
0.1250045361
 40
0.2500028404
 40
0.3750023916
 40
0.5000020016
 40
0.6250017819
 40
0.7500016551
 40
1.0
 40
1.0
 40
1.0
 40
1.0
 10
3.448409744
 20
2.5889588995
 30
0.0
 10
3.4491361849
 20
2.5889370841
 30
0.0
 10
3.4505885665
 20
2.5888744037
 30
0.0
 10
3.4534898268
 20
2.5886886125
 30
0.0
 10
3.4571099982
 20
2.588368138
 30
0.0
 10
3.4614440202
 20
2.5878860825
 30
0.0
 10
3.4657693486
 20
2.5873318093
 30
0.0
 10
3.4700871014
 20
2.5867217625
 30
0.0
 10
3.4758353117
 20
2.5858488278
 30
0.0
 10
3.4801379856
 20
2.585139626
 30
0.0
 10
3.4830034383
 20
2.5846498195
 30
0.0
  0
SPLINE
  5
2FB
100
AcDbEntity
  8
0
100
AcDbSpline
 62
7
  6
CONTINUOUS
 70
0
 71
3
 72
15
 73
11
 74
0
 42
0.0000001
 43
0.0000001
 44
0.0000000001
 40
0.0
 40
0.0
 40
0.0
 40
0.0
 40
0.1249970553
 40
0.2499941761
 40
0.3749931972
 40
0.499993028
 40
0.624993342
 40
0.7499946734
 40
0.8749970497
 40
1.0
 40
1.0
 40
1.0
 40
1.0
 10
3.4286731492
 20
2.5868150965
 30
0.0
 10
3.4294670759
 20
2.5870597178
 30
0.0
 10
3.4310713809
 20
2.5874967133
 30
0.0
 10
3.4335103034
 20
2.5880149911
 30
0.0
 10
3.4359722103
 20
2.5884090792
 30
0.0
 10
3.4384487173
 20
2.5886955302
 30
0.0
 10
3.4409344583
 20
2.5888845851
 30
0.0
 10
3.4434251746
 20
2.5889865755
 30
0.0
 10
3.445917749
 20
2.5890124993
 30
0.0
 10
3.447579321
 20
2.5889838377
 30
0.0
 10
3.448409744
 20
2.5889588995
 30
0.0
  0
SPLINE
  5
2FC
100
AcDbEntity
  8
0
100
AcDbSpline
 62
7
  6
CONTINUOUS
 70
0
 71
3
 72
11
 73
7
 74
0
 42
0.0000001
 43
0.0000001
 44
0.0000000001
 40
0.0
 40
0.0
 40
0.0
 40
0.0
 40
0.249987283
 40
0.4999796677
 40
0.7499832027
 40
1.0
 40
1.0
 40
1.0
 40
1.0
 10
3.4143435077
 20
2.5790971104
 30
0.0
 10
3.4153832504
 20
2.5799817214
 30
0.0
 10
3.4175624719
 20
2.5816372918
 30
0.0
 10
3.4210782297
 20
2.5837522646
 30
0.0
 10
3.4247925082
 20
2.5854938675
 30
0.0
 10
3.4273683804
 20
2.5864130767
 30
0.0
 10
3.4286731492
 20
2.5868150965
 30
0.0
  0
SPLINE
  5
2FD
100
AcDbEntity
  8
0
100
AcDbSpline
 62
7
  6
CONTINUOUS
 70
0
 71
3
 72
18
 73
14
 74
0
 42
0.0000001
 43
0.0000001
 44
0.0000000001
 40
0.0
 40
0.0
 40
0.0
 40
0.0
 40
0.1250050138
 40
0.2499996625
 40
0.3749832657
 40
0.4374958785
 40
0.5000068128
 40
0.5625169298
 40
0.6250260128
 40
0.7500017296
 40
0.8125092855
 40
0.8750150715
 40
1.0
 40
1.0
 40
1.0
 40
1.0
 10
3.4011667392
 20
2.55325448
 30
0.0
 10
3.4012357007
 20
2.5544969251
 30
0.0
 10
3.4014896813
 20
2.5569771756
 30
0.0
 10
3.4022442864
 20
2.5606394588
 30
0.0
 10
3.4032002778
 20
2.5636068831
 30
0.0
 10
3.4041574314
 20
2.5659052808
 30
0.0
 10
3.4049701763
 20
2.5675869705
 30
0.0
 10
3.405874295
 20
2.5692212825
 30
0.0
 10
3.4071953845
 20
2.5713313482
 30
0.0
 10
3.4086812171
 20
2.5733340446
 30
0.0
 10
3.4103081125
 20
2.5752180558
 30
0.0
 10
3.4120219073
 20
2.577023489
 30
0.0
 10
3.4133959085
 20
2.5782908948
 30
0.0
 10
3.4143435077
 20
2.5790971104
 30
0.0
  0
SPLINE
  5
2FE
100
AcDbEntity
  8
0
100
AcDbSpline
 62
7
  6
CONTINUOUS
 70
0
 71
3
 72
16
 73
12
 74
0
 42
0.0000001
 43
0.0000001
 44
0.0000000001
 40
0.0
 40
0.0
 40
0.0
 40
0.0
 40
0.1250009831
 40
0.1875113914
 40
0.2500218994
 40
0.3750188723
 40
0.5000126137
 40
0.6250038719
 40
0.7499970682
 40
0.874994137
 40
1.0
 40
1.0
 40
1.0
 40
1.0
 10
3.4126835294
 20
2.5227675833
 30
0.0
 10
3.4117814837
 20
2.5238278181
 30
0.0
 10
3.4104787609
 20
2.5254624837
 30
0.0
 10
3.4088616129
 20
2.5277296552
 30
0.0
 10
3.407332484
 20
2.5300571418
 30
0.0
 10
3.4055998555
 20
2.533080452
 30
0.0
 10
3.4038541806
 20
2.5368807261
 30
0.0
 10
3.4024933365
 20
2.5408364767
 30
0.0
 10
3.401561002
 20
2.5449156528
 30
0.0
 10
3.401089233
 20
2.5490735338
 30
0.0
 10
3.4010895899
 20
2.5518645219
 30
0.0
 10
3.4011667392
 20
2.55325448
 30
0.0
  0
SPLINE
  5
2FF
100
AcDbEntity
  8
0
100
AcDbSpline
 62
7
  6
CONTINUOUS
 70
0
 71
3
 72
16
 73
12
 74
0
 42
0.0000001
 43
0.0000001
 44
0.0000000001
 40
0.0
 40
0.0
 40
0.0
 40
0.0
 40
0.1249824006
 40
0.1874984122
 40
0.2500127821
 40
0.3749991815
 40
0.499989561
 40
0.624985794
 40
0.7499864971
 40
0.8749925233
 40
1.0
 40
1.0
 40
1.0
 40
1.0
 10
3.4400791276
 20
2.5056988663
 30
0.0
 10
3.4387198343
 20
2.5059019396
 30
0.0
 10
3.4366962162
 20
2.506328913
 30
0.0
 10
3.4340653554
 20
2.5071307867
 30
0.0
 10
3.4314845186
 20
2.5080824847
 30
0.0
 10
3.4283639617
 20
2.5095384069
 30
0.0
 10
3.4248187421
 20
2.5116562875
 30
0.0
 10
3.4214813711
 20
2.5140867044
 30
0.0
 10
3.4183478977
 20
2.5167734414
 30
0.0
 10
3.4154124195
 20
2.5196738627
 30
0.0
 10
3.4135743073
 20
2.5217205924
 30
0.0
 10
3.4126835294
 20
2.5227675833
 30
0.0
  0
SPLINE
  5
300
100
AcDbEntity
  8
0
100
AcDbSpline
 62
7
  6
CONTINUOUS
 70
0
 71
3
 72
16
 73
12
 74
0
 42
0.0000001
 43
0.0000001
 44
0.0000000001
 40
0.0
 40
0.0
 40
0.0
 40
0.0
 40
0.1250018353
 40
0.2500015067
 40
0.3750000406
 40
0.4999946086
 40
0.56250974
 40
0.625027143
 40
0.7500158346
 40
0.8750036546
 40
1.0
 40
1.0
 40
1.0
 40
1.0
 10
3.4706038495
 20
2.5146305384
 30
0.0
 10
3.4694999428
 20
2.5138370957
 30
0.0
 10
3.4672440769
 20
2.5123156601
 30
0.0
 10
3.4637150608
 20
2.5102644561
 30
0.0
 10
3.4600355269
 20
2.5084951113
 30
0.0
 10
3.4568496935
 20
2.5072955065
 30
0.0
 10
3.4542394769
 20
2.506529413
 30
0.0
 10
3.4515927047
 20
2.5059017729
 30
0.0
 10
3.44822463
 20
2.5053908395
 30
0.0
 10
3.4441395364
 20
2.5052570495
 30
0.0
 10
3.4414236177
 20
2.5054980047
 30
0.0
 10
3.4400791276
 20
2.5056988663
 30
0.0
  0
SPLINE
  5
301
100
AcDbEntity
  8
0
100
AcDbSpline
 62
7
  6
CONTINUOUS
 70
0
 71
3
 72
16
 73
12
 74
0
 42
0.0000001
 43
0.0000001
 44
0.0000000001
 40
0.0
 40
0.0
 40
0.0
 40
0.0
 40
0.124992969
 40
0.2499830126
 40
0.3749755519
 40
0.4999689397
 40
0.6249673113
 40
0.7499666184
 40
0.8124792168
 40
0.874996309
 40
1.0
 40
1.0
 40
1.0
 40
1.0
 10
3.4412456102
 20
2.521249194
 30
0.0
 10
3.442149371
 20
2.5211763374
 30
0.0
 10
3.4439659459
 20
2.5211238271
 30
0.0
 10
3.4466827065
 20
2.5213389382
 30
0.0
 10
3.449359834
 20
2.5218500762
 30
0.0
 10
3.4519668415
 20
2.52264352
 30
0.0
 10
3.4544796374
 20
2.5236961725
 30
0.0
 10
3.4564835255
 20
2.5247628013
 30
0.0
 10
3.458027782
 20
2.525714785
 30
0.0
 10
3.4595333795
 20
2.5267267556
 30
0.0
 10
3.4606197462
 20
2.5275478032
 30
0.0
 10
3.4613246872
 20
2.5281181461
 30
0.0
  0
SPLINE
  5
302
100
AcDbEntity
  8
0
100
AcDbSpline
 62
7
  6
CONTINUOUS
 70
0
 71
3
 72
18
 73
14
 74
0
 42
0.0000001
 43
0.0000001
 44
0.0000000001
 40
0.0
 40
0.0
 40
0.0
 40
0.0
 40
0.124994292
 40
0.2499914288
 40
0.3124993079
 40
0.3750103529
 40
0.4375232541
 40
0.5000359838
 40
0.5625484329
 40
0.6250631569
 40
0.7500430227
 40
0.8750194692
 40
1.0
 40
1.0
 40
1.0
 40
1.0
 10
3.4234312002
 20
2.5313051131
 30
0.0
 10
3.423998603
 20
2.5306382066
 30
0.0
 10
3.4251754145
 20
2.5293393911
 30
0.0
 10
3.4267573676
 20
2.5278228645
 30
0.0
 10
3.4280946498
 20
2.5266910975
 30
0.0
 10
3.4291342791
 20
2.5258872217
 30
0.0
 10
3.4302101213
 20
2.5251323738
 30
0.0
 10
3.431321704
 20
2.5244310972
 30
0.0
 10
3.432468463
 20
2.5237886929
 30
0.0
 10
3.4340413618
 20
2.5230168634
 30
0.0
 10
3.4360857344
 20
2.5222196735
 30
0.0
 10
3.4386336693
 20
2.5215585426
 30
0.0
 10
3.4403729178
 20
2.5213195461
 30
0.0
 10
3.4412456102
 20
2.521249194
 30
0.0
  0
SPLINE
  5
303
100
AcDbEntity
  8
0
100
AcDbSpline
 62
7
  6
CONTINUOUS
 70
0
 71
3
 72
15
 73
11
 74
0
 42
0.0000001
 43
0.0000001
 44
0.0000000001
 40
0.0
 40
0.0
 40
0.0
 40
0.0
 40
0.1249970937
 40
0.2499917481
 40
0.3749881665
 40
0.4999853029
 40
0.6249865237
 40
0.7499886251
 40
0.8749949862
 40
1.0
 40
1.0
 40
1.0
 40
1.0
 10
3.416872068
 20
2.5497234146
 30
0.0
 10
3.4168215886
 20
2.5488892256
 30
0.0
 10
3.4168007791
 20
2.5472147327
 30
0.0
 10
3.4170255983
 20
2.5447132902
 30
0.0
 10
3.4175143712
 20
2.5422493765
 30
0.0
 10
3.4182606822
 20
2.5398510435
 30
0.0
 10
3.4192495096
 20
2.5375425327
 30
0.0
 10
3.420455141
 20
2.5353400228
 30
0.0
 10
3.4218515512
 20
2.533254136
 30
0.0
 10
3.4228896216
 20
2.5319416667
 30
0.0
 10
3.4234312002
 20
2.5313051131
 30
0.0
  0
SPLINE
  5
304
100
AcDbEntity
  8
0
100
AcDbSpline
 62
7
  6
CONTINUOUS
 70
0
 71
3
 72
17
 73
13
 74
0
 42
0.0000001
 43
0.0000001
 44
0.0000000001
 40
0.0
 40
0.0
 40
0.0
 40
0.0
 40
0.1249852121
 40
0.2499801774
 40
0.3749688451
 40
0.4374864031
 40
0.5000051036
 40
0.5625236076
 40
0.6250412344
 40
0.7500274058
 40
0.8750172564
 40
1.0
 40
1.0
 40
1.0
 40
1.0
 10
3.4250119661
 20
2.5658098852
 30
0.0
 10
3.4244232591
 20
2.5653090144
 30
0.0
 10
3.4232864913
 20
2.5642578989
 30
0.0
 10
3.4217327496
 20
2.5625319881
 30
0.0
 10
3.4205876962
 20
2.5609703702
 30
0.0
 10
3.4197751983
 20
2.5596540782
 30
0.0
 10
3.419220159
 20
2.55863493
 30
0.0
 10
3.4187214831
 20
2.5575870379
 30
0.0
 10
3.4181344993
 20
2.5561558771
 30
0.0
 10
3.4175482349
 20
2.5543100794
 30
0.0
 10
3.4170810055
 20
2.5520349636
 30
0.0
 10
3.4169187552
 20
2.5504949353
 30
0.0
 10
3.416872068
 20
2.5497234146
 30
0.0
  0
SPLINE
  5
305
100
AcDbEntity
  8
0
100
AcDbSpline
 62
7
  6
CONTINUOUS
 70
0
 71
3
 72
15
 73
11
 74
0
 42
0.0000001
 43
0.0000001
 44
0.0000000001
 40
0.0
 40
0.0
 40
0.0
 40
0.0
 40
0.1250114504
 40
0.250021325
 40
0.3750270544
 40
0.5000294981
 40
0.6250276917
 40
0.7500238427
 40
0.8750122684
 40
1.0
 40
1.0
 40
1.0
 40
1.0
 10
3.4452919743
 20
2.5727290671
 30
0.0
 10
3.4443864978
 20
2.5726656377
 30
0.0
 10
3.4425780179
 20
2.5724994712
 30
0.0
 10
3.4398802718
 20
2.572120809
 30
0.0
 10
3.4372076499
 20
2.5715907498
 30
0.0
 10
3.4345753609
 20
2.5708855695
 30
0.0
 10
3.4320027631
 20
2.5699846621
 30
0.0
 10
3.4295187658
 20
2.5688596085
 30
0.0
 10
3.4271612245
 20
2.5674877864
 30
0.0
 10
3.4257031713
 20
2.5663979613
 30
0.0
 10
3.4250119661
 20
2.5658098852
 30
0.0
  0
SPLINE
  5
306
100
AcDbEntity
  8
0
100
AcDbSpline
 62
7
  6
CONTINUOUS
 70
0
 71
3
 72
20
 73
16
 74
0
 42
0.0000001
 43
0.0000001
 44
0.0000000001
 40
0.0
 40
0.0
 40
0.0
 40
0.0
 40
0.1250004426
 40
0.2500007137
 40
0.3750007015
 40
0.4375011442
 40
0.5000015696
 40
0.6249997026
 40
0.687499902
 40
0.7499999469
 40
0.8124997216
 40
0.8749991275
 40
0.9374976537
 40
0.9687493003
 40
1.0
 40
1.0
 40
1.0
 40
1.0
 10
3.4862777628
 20
2.5682843008
 30
0.0
 10
3.484585754
 20
2.5686015053
 30
0.0
 10
3.4811987576
 20
2.5692201892
 30
0.0
 10
3.4761080636
 20
2.5700906333
 30
0.0
 10
3.4718559281
 20
2.5707561295
 30
0.0
 10
3.4684478655
 20
2.5712455049
 30
0.0
 10
3.4650354552
 20
2.5717031916
 30
0.0
 10
3.4616156909
 20
2.5721059244
 30
0.0
 10
3.4581880822
 20
2.5724318883
 30
0.0
 10
3.4556134615
 20
2.5726317597
 30
0.0
 10
3.4530352604
 20
2.5727794928
 30
0.0
 10
3.4504540466
 20
2.5728614648
 30
0.0
 10
3.4483016619
 20
2.5728601434
 30
0.0
 10
3.4465808894
 20
2.572806626
 30
0.0
 10
3.4457213017
 20
2.5727591419
 30
0.0
 10
3.4452919743
 20
2.5727290671
 30
0.0
  0
SPLINE
  5
307
100
AcDbEntity
  8
0
100
AcDbSpline
 62
7
  6
CONTINUOUS
 70
0
 71
3
 72
21
 73
17
 74
0
 42
0.0000001
 43
0.0000001
 44
0.0000000001
 40
0.0
 40
0.0
 40
0.0
 40
0.0
 40
0.0624971774
 40
0.124996469
 40
0.1874978132
 40
0.2499992875
 40
0.3125005686
 40
0.3750018205
 40
0.4375029762
 40
0.5000040706
 40
0.5625050074
 40
0.6250057999
 40
0.7500014063
 40
0.812501856
 40
0.8750021237
 40
1.0
 40
1.0
 40
1.0
 40
1.0
 10
3.375549389
 20
2.6034404359
 30
0.0
 10
3.3765233368
 20
2.6035323106
 30
0.0
 10
3.3784612037
 20
2.603833141
 30
0.0
 10
3.3813093426
 20
2.6045541822
 30
0.0
 10
3.3840937315
 20
2.6054896067
 30
0.0
 10
3.3868154337
 20
2.6065918976
 30
0.0
 10
3.3894777085
 20
2.6078299416
 30
0.0
 10
3.3920846297
 20
2.6091799645
 30
0.0
 10
3.3946410858
 20
2.6106228504
 30
0.0
 10
3.3971518822
 20
2.6121435164
 30
0.0
 10
3.399621089
 20
2.613730665
 30
0.0
 10
3.4028619509
 20
2.6159243878
 30
0.0
 10
3.4060310416
 20
2.6182220183
 30
0.0
 10
3.4091403837
 20
2.6205981209
 30
0.0
 10
3.4122134722
 20
2.6230210438
 30
0.0
 10
3.4144802628
 20
2.6248859669
 30
0.0
 10
3.4159760289
 20
2.6261472997
 30
0.0
  0
SPLINE
  5
308
100
AcDbEntity
  8
0
100
AcDbSpline
 62
7
  6
CONTINUOUS
 70
0
 71
3
 72
20
 73
16
 74
0
 42
0.0000001
 43
0.0000001
 44
0.0000000001
 40
0.0
 40
0.0
 40
0.0
 40
0.0
 40
0.1249730176
 40
0.18748295
 40
0.249992655
 40
0.3749475904
 40
0.4374553646
 40
0.4999638757
 40
0.5624726143
 40
0.6249810857
 40
0.6874928111
 40
0.750004667
 40
0.8125143655
 40
0.8750241077
 40
1.0
 40
1.0
 40
1.0
 40
1.0
 10
3.3564252005
 20
2.6111597539
 30
0.0
 10
3.3570016141
 20
2.610472811
 30
0.0
 10
3.3579186227
 20
2.6094840057
 30
0.0
 10
3.3592452086
 20
2.6082752783
 30
0.0
 10
3.3606421689
 20
2.607148829
 30
0.0
 10
3.3621436965
 20
2.6061565816
 30
0.0
 10
3.3637333069
 20
2.6053233187
 30
0.0
 10
3.3649659956
 20
2.6047810571
 30
0.0
 10
3.3662327455
 20
2.6043242096
 30
0.0
 10
3.3675275006
 20
2.6039540913
 30
0.0
 10
3.3688437241
 20
2.6036698612
 30
0.0
 10
3.3701751489
 20
2.6034690514
 30
0.0
 10
3.3715162551
 20
2.6033491498
 30
0.0
 10
3.3733098769
 20
2.6032921636
 30
0.0
 10
3.3746565916
 20
2.6033562164
 30
0.0
 10
3.375549389
 20
2.6034404359
 30
0.0
  0
SPLINE
  5
309
100
AcDbEntity
  8
0
100
AcDbSpline
 62
7
  6
CONTINUOUS
 70
0
 71
3
 72
20
 73
16
 74
0
 42
0.0000001
 43
0.0000001
 44
0.0000000001
 40
0.0
 40
0.0
 40
0.0
 40
0.0
 40
0.1249748826
 40
0.1874795878
 40
0.2499821127
 40
0.3124891293
 40
0.3749982055
 40
0.437506259
 40
0.5000161774
 40
0.562526531
 40
0.6250386947
 40
0.6875512904
 40
0.7500659869
 40
0.875024833
 40
1.0
 40
1.0
 40
1.0
 40
1.0
 10
3.3524150003
 20
2.6330108667
 30
0.0
 10
3.3521702558
 20
2.6320778972
 30
0.0
 10
3.3518562119
 20
2.6306632571
 30
0.0
 10
3.3515622398
 20
2.6287559359
 30
0.0
 10
3.3514110501
 20
2.627315998
 30
0.0
 10
3.3513353912
 20
2.625870043
 30
0.0
 10
3.3513399434
 20
2.6244219804
 30
0.0
 10
3.3514299243
 20
2.6229765694
 30
0.0
 10
3.3516110716
 20
2.6215396151
 30
0.0
 10
3.3518866306
 20
2.6201176262
 30
0.0
 10
3.3522588024
 20
2.6187177362
 30
0.0
 10
3.3527279686
 20
2.6173471748
 30
0.0
 10
3.3534803551
 20
2.6155690684
 30
0.0
 10
3.3546521224
 20
2.6134522546
 30
0.0
 10
3.3558052066
 20
2.611898634
 30
0.0
 10
3.3564252005
 20
2.6111597539
 30
0.0
  0
SPLINE
  5
30A
100
AcDbEntity
  8
0
100
AcDbSpline
 62
7
  6
CONTINUOUS
 70
0
 71
3
 72
25
 73
21
 74
0
 42
0.0000001
 43
0.0000001
 44
0.0000000001
 40
0.0
 40
0.0
 40
0.0
 40
0.0
 40
0.1249982395
 40
0.1874983525
 40
0.2499986645
 40
0.3124989298
 40
0.3749992743
 40
0.4374994605
 40
0.4999995633
 40
0.5624994143
 40
0.6249988875
 40
0.6874977084
 40
0.749994909
 40
0.8124899137
 40
0.8437404479
 40
0.8749911939
 40
0.906243
 40
0.9374936634
 40
0.9687480754
 40
1.0
 40
1.0
 40
1.0
 40
1.0
 10
3.3812891684
 20
2.6674854904
 30
0.0
 10
3.3798393167
 20
2.6662628758
 30
0.0
 10
3.3776829608
 20
2.6644068461
 30
0.0
 10
3.3748518173
 20
2.6618823969
 30
0.0
 10
3.3727527508
 20
2.6599620711
 30
0.0
 10
3.3706815394
 20
2.6580117019
 30
0.0
 10
3.368642541
 20
2.6560276279
 30
0.0
 10
3.3666414792
 20
2.6540052412
 30
0.0
 10
3.364683676
 20
2.6519408969
 30
0.0
 10
3.36277576
 20
2.6498302685
 30
0.0
 10
3.3609276229
 20
2.6476669767
 30
0.0
 10
3.359152481
 20
2.6454431612
 30
0.0
 10
3.3574692903
 20
2.6431487591
 30
0.0
 10
3.3561630438
 20
2.6411688488
 30
0.0
 10
3.3551938263
 20
2.6395383349
 30
0.0
 10
3.3545107801
 20
2.6382901968
 30
0.0
 10
3.3538788959
 20
2.6370152696
 30
0.0
 10
3.3533088409
 20
2.6357112486
 30
0.0
 10
3.352811094
 20
2.6343778699
 30
0.0
 10
3.3525353177
 20
2.6334695183
 30
0.0
 10
3.3524150003
 20
2.6330108667
 30
0.0
  0
SPLINE
  5
30B
100
AcDbEntity
  8
0
100
AcDbSpline
 62
7
  6
CONTINUOUS
 70
0
 71
3
 72
23
 73
19
 74
0
 42
0.0000001
 43
0.0000001
 44
0.0000000001
 40
0.0
 40
0.0
 40
0.0
 40
0.0
 40
0.0312517391
 40
0.0625048298
 40
0.09375567
 40
0.1250072005
 40
0.156258155
 40
0.1875089787
 40
0.218759783
 40
0.2500106618
 40
0.3125087143
 40
0.3750081606
 40
0.4375082995
 40
0.5000089088
 40
0.6250031815
 40
0.7500008791
 40
0.8750001937
 40
1.0
 40
1.0
 40
1.0
 40
1.0
 10
3.4201811759
 20
2.6899017664
 30
0.0
 10
3.4197097522
 20
2.6898592957
 30
0.0
 10
3.4187698082
 20
2.6897396563
 30
0.0
 10
3.4173738018
 20
2.6894760544
 30
0.0
 10
3.415993774
 20
2.6891389433
 30
0.0
 10
3.414631039
 20
2.6887383391
 30
0.0
 10
3.4132853482
 20
2.6882840934
 30
0.0
 10
3.4119562067
 20
2.6877837152
 30
0.0
 10
3.4106432606
 20
2.6872423913
 30
0.0
 10
3.4089131109
 20
2.6864732417
 30
0.0
 10
3.4067870626
 20
2.685431825
 30
0.0
 10
3.4042891394
 20
2.6840796939
 30
0.0
 10
3.4018381252
 20
2.6826444615
 30
0.0
 10
3.3986265132
 20
2.6806381785
 30
0.0
 10
3.3947055346
 20
2.6779842953
 30
0.0
 10
3.3901298204
 20
2.6746179922
 30
0.0
 10
3.3856582081
 20
2.671115049
 30
0.0
 10
3.3827364862
 20
2.6687059683
 30
0.0
 10
3.3812891684
 20
2.6674854904
 30
0.0
  0
SPLINE
  5
30C
100
AcDbEntity
  8
0
100
AcDbSpline
 62
7
  6
CONTINUOUS
 70
0
 71
3
 72
20
 73
16
 74
0
 42
0.0000001
 43
0.0000001
 44
0.0000000001
 40
0.0
 40
0.0
 40
0.0
 40
0.0
 40
0.1249744704
 40
0.2499325098
 40
0.3124476515
 40
0.3749607427
 40
0.4374733456
 40
0.4999839691
 40
0.562494334
 40
0.6250026076
 40
0.6875118946
 40
0.7500189176
 40
0.8125216421
 40
0.8750258799
 40
1.0
 40
1.0
 40
1.0
 40
1.0
 10
3.4409583893
 20
2.6823319399
 30
0.0
 10
3.4403393455
 20
2.6830660401
 30
0.0
 10
3.4390094956
 20
2.6844599074
 30
0.0
 10
3.4371267806
 20
2.6859627338
 30
0.0
 10
3.4355059971
 20
2.6869961544
 30
0.0
 10
3.4342381561
 20
2.6876836637
 30
0.0
 10
3.4329254547
 20
2.6882807633
 30
0.0
 10
3.4315751319
 20
2.6887868406
 30
0.0
 10
3.4301945699
 20
2.6892030058
 30
0.0
 10
3.4287906588
 20
2.6895314037
 30
0.0
 10
3.4273699813
 20
2.6897765314
 30
0.0
 10
3.4259380509
 20
2.6899426458
 30
0.0
 10
3.4244994746
 20
2.6900336598
 30
0.0
 10
3.4225783747
 20
2.690061927
 30
0.0
 10
3.4211375699
 20
2.689987928
 30
0.0
 10
3.4201811759
 20
2.6899017664
 30
0.0
  0
SPLINE
  5
30D
100
AcDbEntity
  8
0
100
AcDbSpline
 62
7
  6
CONTINUOUS
 70
0
 71
3
 72
21
 73
17
 74
0
 42
0.0000001
 43
0.0000001
 44
0.0000000001
 40
0.0
 40
0.0
 40
0.0
 40
0.0
 40
0.1249656841
 40
0.1874660169
 40
0.2499640022
 40
0.3124666414
 40
0.3749713123
 40
0.4374750608
 40
0.4999804937
 40
0.5624864141
 40
0.6249941057
 40
0.6875021354
 40
0.7500122973
 40
0.8125197493
 40
0.8750348725
 40
1.0
 40
1.0
 40
1.0
 40
1.0
 10
3.4449350226
 20
2.6605445436
 30
0.0
 10
3.4451818781
 20
2.661474377
 30
0.0
 10
3.4454992453
 20
2.6628844416
 30
0.0
 10
3.4457978575
 20
2.6647859962
 30
0.0
 10
3.4459525729
 20
2.6662218024
 30
0.0
 10
3.4460316974
 20
2.6676638323
 30
0.0
 10
3.4460304805
 20
2.6691081704
 30
0.0
 10
3.4459436443
 20
2.6705500369
 30
0.0
 10
3.4457653329
 20
2.6719835906
 30
0.0
 10
3.4454922071
 20
2.6734022521
 30
0.0
 10
3.4451219874
 20
2.6747988159
 30
0.0
 10
3.4446543313
 20
2.6761659176
 30
0.0
 10
3.444090762
 20
2.6774963304
 30
0.0
 10
3.4434346102
 20
2.6787837279
 30
0.0
 10
3.4424441326
 20
2.6804350852
 30
0.0
 10
3.4415785737
 20
2.681596487
 30
0.0
 10
3.4409583893
 20
2.6823319399
 30
0.0
  0
SPLINE
  5
30E
100
AcDbEntity
  8
0
100
AcDbSpline
 62
7
  6
CONTINUOUS
 70
0
 71
3
 72
23
 73
19
 74
0
 42
0.0000001
 43
0.0000001
 44
0.0000000001
 40
0.0
 40
0.0
 40
0.0
 40
0.0
 40
0.1249996527
 40
0.1875004108
 40
0.2500013651
 40
0.3749992064
 40
0.499993984
 40
0.5624945089
 40
0.6249946662
 40
0.6874941754
 40
0.7499920799
 40
0.8124877769
 40
0.843738652
 40
0.8749897424
 40
0.9062419038
 40
0.9374929163
 40
0.9687477112
 40
1.0
 40
1.0
 40
1.0
 40
1.0
 10
3.4159760289
 20
2.6261472997
 30
0.0
 10
3.4174255104
 20
2.6273696022
 30
0.0
 10
3.4195819592
 20
2.6292243736
 30
0.0
 10
3.4224146791
 20
2.6317456016
 30
0.0
 10
3.4252158419
 20
2.6343018113
 30
0.0
 10
3.428650142
 20
2.6375700065
 30
0.0
 10
3.431962298
 20
2.640962994
 30
0.0
 10
3.4345141021
 20
2.6437684832
 30
0.0
 10
3.4363691003
 20
2.6459249327
 30
0.0
 10
3.4381519663
 20
2.6481416132
 30
0.0
 10
3.439843689
 20
2.6504288175
 30
0.0
 10
3.44115762
 20
2.6524029044
 30
0.0
 10
3.4421332012
 20
2.6540290542
 30
0.0
 10
3.4428210767
 20
2.6552741233
 30
0.0
 10
3.4434577787
 20
2.656546248
 30
0.0
 10
3.4440325546
 20
2.6578478043
 30
0.0
 10
3.4445348143
 20
2.6591791096
 30
0.0
 10
3.4448133839
 20
2.6600863658
 30
0.0
 10
3.4449350226
 20
2.6605445436
 30
0.0
  0
SPLINE
  5
30F
100
AcDbEntity
  8
0
100
AcDbSpline
 62
7
  6
CONTINUOUS
 70
0
 71
3
 72
23
 73
19
 74
0
 42
0.0000001
 43
0.0000001
 44
0.0000000001
 40
0.0
 40
0.0
 40
0.0
 40
0.0
 40
0.0624959092
 40
0.1249993694
 40
0.1875005655
 40
0.2500025034
 40
0.3125056022
 40
0.3750081986
 40
0.4375084181
 40
0.5000075522
 40
0.5625059274
 40
0.6250041283
 40
0.6875025407
 40
0.7500027654
 40
0.8125034031
 40
0.8750017963
 40
0.9375040608
 40
1.0
 40
1.0
 40
1.0
 40
1.0
 10
3.4513987491
 20
2.6910924419
 30
0.0
 10
3.4518687547
 20
2.6905350804
 30
0.0
 10
3.4527864482
 20
2.6894011683
 30
0.0
 10
3.4540890917
 20
2.687643118
 30
0.0
 10
3.4553102773
 20
2.6858272566
 30
0.0
 10
3.4564395534
 20
2.6839527127
 30
0.0
 10
3.4574685219
 20
2.6820211608
 30
0.0
 10
3.4583892715
 20
2.6800356352
 30
0.0
 10
3.4591926243
 20
2.6779996928
 30
0.0
 10
3.4598706824
 20
2.675918619
 30
0.0
 10
3.4604171235
 20
2.6737991325
 30
0.0
 10
3.4608273901
 20
2.6716491035
 30
0.0
 10
3.4610989616
 20
2.6694771752
 30
0.0
 10
3.461232051
 20
2.6672924099
 30
0.0
 10
3.4612291045
 20
2.6651036508
 30
0.0
 10
3.4610926599
 20
2.6629191965
 30
0.0
 10
3.4608299176
 20
2.6607465782
 30
0.0
 10
3.4605755734
 20
2.6593098624
 30
0.0
 10
3.4604296557
 20
2.6585955336
 30
0.0
  0
SPLINE
  5
310
100
AcDbEntity
  8
0
100
AcDbSpline
 62
7
  6
CONTINUOUS
 70
0
 71
3
 72
15
 73
11
 74
0
 42
0.0000001
 43
0.0000001
 44
0.0000000001
 40
0.0
 40
0.0
 40
0.0
 40
0.0
 40
0.1250198607
 40
0.2500379095
 40
0.3750581359
 40
0.500078383
 40
0.7499210534
 40
0.8124435796
 40
0.8749702841
 40
1.0
 40
1.0
 40
1.0
 40
1.0
 10
3.4295868311
 20
2.7047663171
 30
0.0
 10
3.4306642482
 20
2.7045721463
 30
0.0
 10
3.4328006187
 20
2.7040715692
 30
0.0
 10
3.4359080654
 20
2.7029911389
 30
0.0
 10
3.4388884839
 20
2.7015975811
 30
0.0
 10
3.4426600188
 20
2.6993652243
 30
0.0
 10
3.445682616
 20
2.6969784301
 30
0.0
 10
3.4480620312
 20
2.6947168407
 30
0.0
 10
3.449597604
 20
2.6931549494
 30
0.0
 10
3.4506929409
 20
2.6919294327
 30
0.0
 10
3.4513987491
 20
2.6910924419
 30
0.0
  0
SPLINE
  5
311
100
AcDbEntity
  8
0
100
AcDbSpline
 62
7
  6
CONTINUOUS
 70
0
 71
3
 72
14
 73
10
 74
0
 42
0.0000001
 43
0.0000001
 44
0.0000000001
 40
0.0
 40
0.0
 40
0.0
 40
0.0
 40
0.1250202458
 40
0.2500404817
 40
0.4999393506
 40
0.6249545222
 40
0.7499700614
 40
0.8749847716
 40
1.0
 40
1.0
 40
1.0
 40
1.0
 10
3.4029082457
 20
2.701439879
 30
0.0
 10
3.4039632607
 20
2.7018580979
 30
0.0
 10
3.4060948353
 20
2.7026419269
 30
0.0
 10
3.4104339882
 20
2.7039760379
 30
0.0
 10
3.4148900871
 20
2.704914916
 30
0.0
 10
3.4194083263
 20
2.7053748006
 30
0.0
 10
3.4228153654
 20
2.7054621451
 30
0.0
 10
3.4262183857
 20
2.7052770599
 30
0.0
 10
3.4284699838
 20
2.7049675939
 30
0.0
 10
3.4295868311
 20
2.7047663171
 30
0.0
  0
SPLINE
  5
312
100
AcDbEntity
  8
0
100
AcDbSpline
 62
7
  6
CONTINUOUS
 70
0
 71
3
 72
18
 73
14
 74
0
 42
0.0000001
 43
0.0000001
 44
0.0000000001
 40
0.0
 40
0.0
 40
0.0
 40
0.0
 40
0.124998953
 40
0.2499975213
 40
0.3749949287
 40
0.4999913104
 40
0.5624920028
 40
0.6249930064
 40
0.7499877894
 40
0.8124892688
 40
0.8749915115
 40
0.9374982143
 40
1.0
 40
1.0
 40
1.0
 40
1.0
 10
3.3703385372
 20
2.6805359444
 30
0.0
 10
3.3715763316
 20
2.6815797377
 30
0.0
 10
3.3740760807
 20
2.6836388916
 30
0.0
 10
3.3779017587
 20
2.6866328765
 30
0.0
 10
3.3818091926
 20
2.689519542
 30
0.0
 10
3.3851414008
 20
2.6918192524
 30
0.0
 10
3.3878575217
 20
2.6935829279
 30
0.0
 10
3.3906076478
 20
2.6952929278
 30
0.0
 10
3.3934115831
 20
2.6969157335
 30
0.0
 10
3.3962742977
 20
2.6984301917
 30
0.0
 10
3.3984522814
 20
2.6995060799
 30
0.0
 10
3.4006613044
 20
2.7005167422
 30
0.0
 10
3.4021556195
 20
2.7011415302
 30
0.0
 10
3.4029082457
 20
2.701439879
 30
0.0
  0
SPLINE
  5
313
100
AcDbEntity
  8
0
100
AcDbSpline
 62
7
  6
CONTINUOUS
 70
0
 71
3
 72
18
 73
14
 74
0
 42
0.0000001
 43
0.0000001
 44
0.0000000001
 40
0.0
 40
0.0
 40
0.0
 40
0.0
 40
0.062501212
 40
0.125006747
 40
0.187508117
 40
0.2500087717
 40
0.3125100329
 40
0.3750103967
 40
0.5000072454
 40
0.6250046936
 40
0.7500027142
 40
0.8750012855
 40
1.0
 40
1.0
 40
1.0
 40
1.0
 10
3.3478840271
 20
2.657727384
 30
0.0
 10
3.3482722837
 20
2.6582714764
 30
0.0
 10
3.3490677942
 20
2.6593462566
 30
0.0
 10
3.3503082604
 20
2.6609221295
 30
0.0
 10
3.3515887164
 20
2.6624656434
 30
0.0
 10
3.352904716
 20
2.663978848
 30
0.0
 10
3.3542515962
 20
2.6654645751
 30
0.0
 10
3.3560830287
 20
2.6674125443
 30
0.0
 10
3.3584309147
 20
2.6697915765
 30
0.0
 10
3.3613246366
 20
2.6725686718
 30
0.0
 10
3.3642800006
 20
2.6752799483
 30
0.0
 10
3.3672850545
 20
2.6779359208
 30
0.0
 10
3.369316596
 20
2.6796741734
 30
0.0
 10
3.3703385372
 20
2.6805359444
 30
0.0
  0
SPLINE
  5
314
100
AcDbEntity
  8
0
100
AcDbSpline
 62
7
  6
CONTINUOUS
 70
0
 71
3
 72
14
 73
10
 74
0
 42
0.0000001
 43
0.0000001
 44
0.0000000001
 40
0.0
 40
0.0
 40
0.0
 40
0.0
 40
0.2499497218
 40
0.3749582338
 40
0.4999680357
 40
0.6249761659
 40
0.7499842996
 40
0.8749924638
 40
1.0
 40
1.0
 40
1.0
 40
1.0
 10
3.3379292182
 20
2.6383925656
 30
0.0
 10
3.3384664042
 20
2.6401308206
 30
0.0
 10
3.339409552
 20
2.6426981465
 30
0.0
 10
3.3408969541
 20
2.6460202382
 30
0.0
 10
3.342117846
 20
2.6484627687
 30
0.0
 10
3.3434341532
 20
2.6508549577
 30
0.0
 10
3.3448381049
 20
2.6531967078
 30
0.0
 10
3.3463201333
 20
2.6554896826
 30
0.0
 10
3.3473554892
 20
2.656986705
 30
0.0
 10
3.3478840271
 20
2.657727384
 30
0.0
  0
SPLINE
  5
315
100
AcDbEntity
  8
0
100
AcDbSpline
 62
7
  6
CONTINUOUS
 70
0
 71
3
 72
14
 73
10
 74
0
 42
0.0000001
 43
0.0000001
 44
0.0000000001
 40
0.0
 40
0.0
 40
0.0
 40
0.0
 40
0.249899648
 40
0.3749159827
 40
0.4999322183
 40
0.6249485218
 40
0.749965008
 40
0.8749823919
 40
1.0
 40
1.0
 40
1.0
 40
1.0
 10
3.3369504614
 20
2.6199292543
 30
0.0
 10
3.3366302978
 20
2.6214527707
 30
0.0
 10
3.3362951486
 20
2.6237731135
 30
0.0
 10
3.3361611531
 20
2.6268862929
 30
0.0
 10
3.3362165031
 20
2.6292239172
 30
0.0
 10
3.3364248557
 20
2.6315526473
 30
0.0
 10
3.3367817869
 20
2.6338632569
 30
0.0
 10
3.3372800944
 20
2.6361472997
 30
0.0
 10
3.3376992642
 20
2.6376484684
 30
0.0
 10
3.3379292182
 20
2.6383925656
 30
0.0
  0
SPLINE
  5
316
100
AcDbEntity
  8
0
100
AcDbSpline
 62
7
  6
CONTINUOUS
 70
0
 71
3
 72
14
 73
10
 74
0
 42
0.0000001
 43
0.0000001
 44
0.0000000001
 40
0.0
 40
0.0
 40
0.0
 40
0.0
 40
0.2499391031
 40
0.3749516961
 40
0.4999625495
 40
0.6249743693
 40
0.7499832318
 40
0.87500168
 40
1.0
 40
1.0
 40
1.0
 40
1.0
 10
3.3457959127
 20
2.6024811408
 30
0.0
 10
3.3447377731
 20
2.6037421825
 30
0.0
 10
3.3432384344
 20
2.6057117336
 30
0.0
 10
3.3414661621
 20
2.6084886606
 30
0.0
 10
3.3402615616
 20
2.6106469541
 30
0.0
 10
3.3391941448
 20
2.6128763293
 30
0.0
 10
3.3382755127
 20
2.6151713115
 30
0.0
 10
3.3375156039
 20
2.6175235117
 30
0.0
 10
3.3371197728
 20
2.6191235763
 30
0.0
 10
3.3369504614
 20
2.6199292543
 30
0.0
  0
SPLINE
  5
317
100
AcDbEntity
  8
0
100
AcDbSpline
 62
7
  6
CONTINUOUS
 70
0
 71
3
 72
15
 73
11
 74
0
 42
0.0000001
 43
0.0000001
 44
0.0000000001
 40
0.0
 40
0.0
 40
0.0
 40
0.0
 40
0.1250203078
 40
0.2500389088
 40
0.3750595647
 40
0.5000802957
 40
0.7499200702
 40
0.8124429701
 40
0.8749700661
 40
1.0
 40
1.0
 40
1.0
 40
1.0
 10
3.3676143067
 20
2.5888422646
 30
0.0
 10
3.3665373434
 20
2.5890361948
 30
0.0
 10
3.3644018272
 20
2.5895359178
 30
0.0
 10
3.3612947037
 20
2.590612462
 30
0.0
 10
3.3583128128
 20
2.5919991624
 30
0.0
 10
3.3545368994
 20
2.5942200092
 30
0.0
 10
3.351509021
 20
2.5965977848
 30
0.0
 10
3.3491279882
 20
2.5988555429
 30
0.0
 10
3.3475926424
 20
2.6004163095
 30
0.0
 10
3.3464993595
 20
2.6016428056
 30
0.0
 10
3.3457959127
 20
2.6024811408
 30
0.0
  0
SPLINE
  5
318
100
AcDbEntity
  8
0
100
AcDbSpline
 62
7
  6
CONTINUOUS
 70
0
 71
3
 72
14
 73
10
 74
0
 42
0.0000001
 43
0.0000001
 44
0.0000000001
 40
0.0
 40
0.0
 40
0.0
 40
0.0
 40
0.125019961
 40
0.2500399033
 40
0.4999398052
 40
0.6249548552
 40
0.7499702612
 40
0.8749848733
 40
1.0
 40
1.0
 40
1.0
 40
1.0
 10
3.3943024856
 20
2.5920931289
 30
0.0
 10
3.3932459014
 20
2.5916794646
 30
0.0
 10
3.3911114728
 20
2.590904694
 30
0.0
 10
3.3867677876
 20
2.5895882566
 30
0.0
 10
3.3823092308
 20
2.5886659699
 30
0.0
 10
3.3777905042
 20
2.5882197296
 30
0.0
 10
3.3743839591
 20
2.5881404433
 30
0.0
 10
3.3709819302
 20
2.5883307079
 30
0.0
 10
3.3687309783
 20
2.5886411842
 30
0.0
 10
3.3676143067
 20
2.5888422646
 30
0.0
  0
SPLINE
  5
319
100
AcDbEntity
  8
0
100
AcDbSpline
 62
7
  6
CONTINUOUS
 70
0
 71
3
 72
18
 73
14
 74
0
 42
0.0000001
 43
0.0000001
 44
0.0000000001
 40
0.0
 40
0.0
 40
0.0
 40
0.0
 40
0.1249988242
 40
0.249997335
 40
0.3749946666
 40
0.4999909058
 40
0.5624915282
 40
0.6249924595
 40
0.7499869189
 40
0.812488385
 40
0.8749907234
 40
0.9374981075
 40
1.0
 40
1.0
 40
1.0
 40
1.0
 10
3.4269266601
 20
2.6130968457
 30
0.0
 10
3.4256855554
 20
2.6120502609
 30
0.0
 10
3.4231804722
 20
2.6099840179
 30
0.0
 10
3.4193500486
 20
2.6069750964
 30
0.0
 10
3.4154401467
 20
2.604069997
 30
0.0
 10
3.4121064311
 20
2.6017534532
 30
0.0
 10
3.409388451
 20
2.5999767542
 30
0.0
 10
3.4066358297
 20
2.5982543984
 30
0.0
 10
3.4038281454
 20
2.5966206486
 30
0.0
 10
3.4009592799
 20
2.5950992318
 30
0.0
 10
3.3987751864
 20
2.5940209457
 30
0.0
 10
3.3965587049
 20
2.593010866
 30
0.0
 10
3.3950583887
 20
2.5923890732
 30
0.0
 10
3.3943024856
 20
2.5920931289
 30
0.0
  0
SPLINE
  5
31A
100
AcDbEntity
  8
0
100
AcDbSpline
 62
7
  6
CONTINUOUS
 70
0
 71
3
 72
20
 73
16
 74
0
 42
0.0000001
 43
0.0000001
 44
0.0000000001
 40
0.0
 40
0.0
 40
0.0
 40
0.0
 40
0.1249132571
 40
0.1874245635
 40
0.2499377276
 40
0.3749195966
 40
0.437429085
 40
0.4999377622
 40
0.5624463793
 40
0.624954452
 40
0.6874626791
 40
0.7499707829
 40
0.8124790415
 40
0.874987435
 40
1.0
 40
1.0
 40
1.0
 40
1.0
 10
3.4604296557
 20
2.6585955336
 30
0.0
 10
3.4599506795
 20
2.6562507416
 30
0.0
 10
3.4589035416
 20
2.6527930387
 30
0.0
 10
3.4570126655
 20
2.6483917246
 30
0.0
 10
3.4548370651
 20
2.6441208827
 30
0.0
 10
3.4522998483
 20
2.6400467964
 30
0.0
 10
3.4495011214
 20
2.6361588912
 30
0.0
 10
3.4472879742
 20
2.6333274263
 30
0.0
 10
3.4449787609
 20
2.6305742505
 30
0.0
 10
3.4425855865
 20
2.6278938174
 30
0.0
 10
3.4401167195
 20
2.6252830791
 30
0.0
 10
3.4375815348
 20
2.622736825
 30
0.0
 10
3.4349893318
 20
2.6202487232
 30
0.0
 10
3.4314668065
 20
2.6170020274
 30
0.0
 10
3.4287576607
 20
2.6146408712
 30
0.0
 10
3.4269266601
 20
2.6130968457
 30
0.0
  0
SPLINE
  5
31B
100
AcDbEntity
  8
0
100
AcDbSpline
 62
7
  6
CONTINUOUS
 70
0
 71
3
 72
16
 73
12
 74
0
 42
0.0000001
 43
0.0000001
 44
0.0000000001
 40
0.0
 40
0.0
 40
0.0
 40
0.0
 40
0.1250029331
 40
0.2500052006
 40
0.3750061003
 40
0.5000055418
 40
0.562509063
 40
0.6250131436
 40
0.7500106722
 40
0.8750053376
 40
1.0
 40
1.0
 40
1.0
 40
1.0
 10
3.2479487841
 20
3.2008900069
 30
0.0
 10
3.2475547824
 20
3.2017834134
 30
0.0
 10
3.2467415157
 20
3.2035592234
 30
0.0
 10
3.2454406662
 20
3.2061843388
 30
0.0
 10
3.2440512246
 20
3.20876379
 30
0.0
 10
3.2428087461
 20
3.2108659296
 30
0.0
 10
3.241757721
 20
3.2125120443
 30
0.0
 10
3.2406682621
 20
3.2141329208
 30
0.0
 10
3.2392301033
 20
3.2161069092
 30
0.0
 10
3.2373675847
 20
3.2183698415
 30
0.0
 10
3.2360283867
 20
3.2197937264
 30
0.0
 10
3.2353327718
 20
3.2204788587
 30
0.0
  0
SPLINE
  5
31C
100
AcDbEntity
  8
0
100
AcDbSpline
 62
7
  6
CONTINUOUS
 70
0
 71
3
 72
11
 73
7
 74
0
 42
0.0000001
 43
0.0000001
 44
0.0000000001
 40
0.0
 40
0.0
 40
0.0
 40
0.0
 40
0.2500067949
 40
0.5000125637
 40
0.750008535
 40
1.0
 40
1.0
 40
1.0
 40
1.0
 10
3.2554967306
 20
3.1728728293
 30
0.0
 10
3.2551937716
 20
3.1752799412
 30
0.0
 10
3.2544405162
 20
3.1800772166
 30
0.0
 10
3.2528296965
 20
3.187180931
 30
0.0
 10
3.2507041344
 20
3.1941486184
 30
0.0
 10
3.2489276882
 20
3.198670323
 30
0.0
 10
3.2479487841
 20
3.2008900069
 30
0.0
  0
SPLINE
  5
31D
100
AcDbEntity
  8
0
100
AcDbSpline
 62
7
  6
CONTINUOUS
 70
0
 71
3
 72
14
 73
10
 74
0
 42
0.0000001
 43
0.0000001
 44
0.0000000001
 40
0.0
 40
0.0
 40
0.0
 40
0.0
 40
0.2499957629
 40
0.3749972761
 40
0.4999985095
 40
0.6249994155
 40
0.750000095
 40
0.8750001077
 40
1.0
 40
1.0
 40
1.0
 40
1.0
 10
3.2680076838
 20
3.187129093
 30
0.0
 10
3.26836257
 20
3.1855494375
 30
0.0
 10
3.2688602861
 20
3.1831718532
 30
0.0
 10
3.2694407358
 20
3.1799860532
 30
0.0
 10
3.2698288987
 20
3.1775884736
 30
0.0
 10
3.2701622983
 20
3.1751826238
 30
0.0
 10
3.2704327124
 20
3.1727688093
 30
0.0
 10
3.2706326608
 20
3.1703481177
 30
0.0
 10
3.2707123286
 20
3.1687305811
 30
0.0
 10
3.2707356918
 20
3.1679213906
 30
0.0
  0
SPLINE
  5
31E
100
AcDbEntity
  8
0
100
AcDbSpline
 62
7
  6
CONTINUOUS
 70
0
 71
3
 72
14
 73
10
 74
0
 42
0.0000001
 43
0.0000001
 44
0.0000000001
 40
0.0
 40
0.0
 40
0.0
 40
0.0
 40
0.124999936
 40
0.2500000466
 40
0.3750009591
 40
0.5000021182
 40
0.6250037203
 40
0.7500057407
 40
1.0
 40
1.0
 40
1.0
 40
1.0
 10
3.2619751372
 20
3.2056253453
 30
0.0
 10
3.2623269827
 20
3.2048932108
 30
0.0
 10
3.2629959687
 20
3.2034120961
 30
0.0
 10
3.2639116346
 20
3.2011532633
 30
0.0
 10
3.2647484376
 20
3.1988640707
 30
0.0
 10
3.2655132198
 20
3.1965499309
 30
0.0
 10
3.2662147112
 20
3.1942158959
 30
0.0
 10
3.2670770216
 20
3.191083052
 30
0.0
 10
3.2676515885
 20
3.1887141301
 30
0.0
 10
3.2680076838
 20
3.187129093
 30
0.0
  0
SPLINE
  5
31F
100
AcDbEntity
  8
0
100
AcDbSpline
 62
7
  6
CONTINUOUS
 70
0
 71
3
 72
16
 73
12
 74
0
 42
0.0000001
 43
0.0000001
 44
0.0000000001
 40
0.0
 40
0.0
 40
0.0
 40
0.0
 40
0.1250029331
 40
0.2500052007
 40
0.3750061004
 40
0.5000055419
 40
0.5625090631
 40
0.6250131437
 40
0.7500106723
 40
0.8750053376
 40
1.0
 40
1.0
 40
1.0
 40
1.0
 10
3.2803607885
 20
3.3006438994
 30
0.0
 10
3.2799667868
 20
3.3015373059
 30
0.0
 10
3.2791535201
 20
3.3033131158
 30
0.0
 10
3.2778526708
 20
3.3059382314
 30
0.0
 10
3.2764632296
 20
3.3085176828
 30
0.0
 10
3.2752207513
 20
3.3106198226
 30
0.0
 10
3.2741697264
 20
3.3122659375
 30
0.0
 10
3.2730802677
 20
3.3138868141
 30
0.0
 10
3.271642109
 20
3.3158608026
 30
0.0
 10
3.26977959
 20
3.3181237347
 30
0.0
 10
3.2684403916
 20
3.3195476192
 30
0.0
 10
3.2677447763
 20
3.3202327511
 30
0.0
  0
SPLINE
  5
320
100
AcDbEntity
  8
0
100
AcDbSpline
 62
7
  6
CONTINUOUS
 70
0
 71
3
 72
11
 73
7
 74
0
 42
0.0000001
 43
0.0000001
 44
0.0000000001
 40
0.0
 40
0.0
 40
0.0
 40
0.0
 40
0.2500067949
 40
0.5000125638
 40
0.750008535
 40
1.0
 40
1.0
 40
1.0
 40
1.0
 10
3.287908735
 20
3.2726267217
 30
0.0
 10
3.2876057758
 20
3.2750338336
 30
0.0
 10
3.2868525202
 20
3.2798311089
 30
0.0
 10
3.2852417005
 20
3.2869348233
 30
0.0
 10
3.2831161386
 20
3.2939025108
 30
0.0
 10
3.2813396926
 20
3.2984242154
 30
0.0
 10
3.2803607885
 20
3.3006438994
 30
0.0
  0
SPLINE
  5
321
100
AcDbEntity
  8
0
100
AcDbSpline
 62
7
  6
CONTINUOUS
 70
0
 71
3
 72
14
 73
10
 74
0
 42
0.0000001
 43
0.0000001
 44
0.0000000001
 40
0.0
 40
0.0
 40
0.0
 40
0.0
 40
0.2499957627
 40
0.374997276
 40
0.4999985095
 40
0.6249994154
 40
0.750000095
 40
0.8750001076
 40
1.0
 40
1.0
 40
1.0
 40
1.0
 10
3.3004196877
 20
3.2868829853
 30
0.0
 10
3.3007745746
 20
3.28530333
 30
0.0
 10
3.3012722914
 20
3.2829257458
 30
0.0
 10
3.3018527414
 20
3.2797399458
 30
0.0
 10
3.3022409042
 20
3.2773423661
 30
0.0
 10
3.3025743035
 20
3.2749365163
 30
0.0
 10
3.3028447172
 20
3.2725227017
 30
0.0
 10
3.3030446653
 20
3.2701020102
 30
0.0
 10
3.3031243331
 20
3.2684844735
 30
0.0
 10
3.3031476962
 20
3.267675283
 30
0.0
  0
SPLINE
  5
322
100
AcDbEntity
  8
0
100
AcDbSpline
 62
7
  6
CONTINUOUS
 70
0
 71
3
 72
14
 73
10
 74
0
 42
0.0000001
 43
0.0000001
 44
0.0000000001
 40
0.0
 40
0.0
 40
0.0
 40
0.0
 40
0.1250000185
 40
0.2500001799
 40
0.3750010727
 40
0.5000021817
 40
0.6250036877
 40
0.7500055778
 40
1.0
 40
1.0
 40
1.0
 40
1.0
 10
3.2945644747
 20
3.3050065283
 30
0.0
 10
3.2949033166
 20
3.3042872474
 30
0.0
 10
3.2955484692
 20
3.3028332083
 30
0.0
 10
3.2964334214
 20
3.3006176672
 30
0.0
 10
3.29724397
 20
3.2983738635
 30
0.0
 10
3.2979865263
 20
3.296106748
 30
0.0
 10
3.298669084
 20
3.2938209135
 30
0.0
 10
3.2995096256
 20
3.2907534308
 30
0.0
 10
3.3000711292
 20
3.2884344714
 30
0.0
 10
3.3004196877
 20
3.2868829853
 30
0.0
  0
SPLINE
  5
323
100
AcDbEntity
  8
0
100
AcDbSpline
 62
7
  6
CONTINUOUS
 70
0
 71
3
 72
14
 73
10
 74
0
 42
0.0000001
 43
0.0000001
 44
0.0000000001
 40
0.0
 40
0.0
 40
0.0
 40
0.0
 40
0.2499311987
 40
0.3749443777
 40
0.4999566232
 40
0.6249694766
 40
0.7499795222
 40
0.8750006863
 40
1.0
 40
1.0
 40
1.0
 40
1.0
 10
3.354210747
 20
3.3781084656
 30
0.0
 10
3.3544369955
 20
3.3769670119
 30
0.0
 10
3.3548643122
 20
3.3752696539
 30
0.0
 10
3.3556274416
 20
3.3730694177
 30
0.0
 10
3.356300679
 20
3.371456938
 30
0.0
 10
3.3570767745
 20
3.3698913606
 30
0.0
 10
3.3579566641
 20
3.3683814682
 30
0.0
 10
3.3589388377
 20
3.366936144
 30
0.0
 10
3.3596597823
 20
3.3660207405
 30
0.0
 10
3.3600357441
 20
3.3655764865
 30
0.0
  0
SPLINE
  5
324
100
AcDbEntity
  8
0
100
AcDbSpline
 62
7
  6
CONTINUOUS
 70
0
 71
3
 72
11
 73
7
 74
0
 42
0.0000001
 43
0.0000001
 44
0.0000000001
 40
0.0
 40
0.0
 40
0.0
 40
0.0
 40
0.2500205808
 40
0.5000230212
 40
0.7500126594
 40
1.0
 40
1.0
 40
1.0
 40
1.0
 10
3.3551972472
 20
3.3930012326
 30
0.0
 10
3.3548088798
 20
3.3918059606
 30
0.0
 10
3.3541675063
 20
3.3893686156
 30
0.0
 10
3.3536607304
 20
3.3856227987
 30
0.0
 10
3.3536424374
 20
3.3818423366
 30
0.0
 10
3.3539664252
 20
3.3793411015
 30
0.0
 10
3.354210747
 20
3.3781084656
 30
0.0
  0
SPLINE
  5
325
100
AcDbEntity
  8
0
100
AcDbSpline
 62
7
  6
CONTINUOUS
 70
0
 71
3
 72
15
 73
11
 74
0
 42
0.0000001
 43
0.0000001
 44
0.0000000001
 40
0.0
 40
0.0
 40
0.0
 40
0.0
 40
0.1249961447
 40
0.2499886877
 40
0.3749836702
 40
0.4999798982
 40
0.6249822101
 40
0.749985469
 40
0.8749939123
 40
1.0
 40
1.0
 40
1.0
 40
1.0
 10
3.3694372358
 20
3.4102329001
 30
0.0
 10
3.3685783428
 20
3.4098089945
 30
0.0
 10
3.3669015868
 20
3.4088744701
 30
0.0
 10
3.3645508739
 20
3.4072123653
 30
0.0
 10
3.3624000339
 20
3.4052978427
 30
0.0
 10
3.3604757141
 20
3.4031560349
 30
0.0
 10
3.3587941408
 20
3.4008194722
 30
0.0
 10
3.3573550323
 20
3.3983270035
 30
0.0
 10
3.3561517579
 20
3.3957135901
 30
0.0
 10
3.3554932492
 20
3.3939122331
 30
0.0
 10
3.3551972472
 20
3.3930012326
 30
0.0
  0
SPLINE
  5
326
100
AcDbEntity
  8
0
100
AcDbSpline
 62
7
  6
CONTINUOUS
 70
0
 71
3
 72
16
 73
12
 74
0
 42
0.0000001
 43
0.0000001
 44
0.0000000001
 40
0.0
 40
0.0
 40
0.0
 40
0.0
 40
0.1250070939
 40
0.2500117483
 40
0.3750117039
 40
0.5000064297
 40
0.6249952283
 40
0.7499808634
 40
0.8124967948
 40
0.875014196
 40
1.0
 40
1.0
 40
1.0
 40
1.0
 10
3.3931807821
 20
3.4109662702
 30
0.0
 10
3.3922147862
 20
3.4112801413
 30
0.0
 10
3.3902626434
 20
3.4118480021
 30
0.0
 10
3.387282239
 20
3.4124949964
 30
0.0
 10
3.3842583304
 20
3.412898313
 30
0.0
 10
3.3812095974
 20
3.4130279025
 30
0.0
 10
3.378162594
 20
3.4128484529
 30
0.0
 10
3.3756538245
 20
3.4124208076
 30
0.0
 10
3.373687289
 20
3.4119071526
 30
0.0
 10
3.3717543629
 20
3.4112794244
 30
0.0
 10
3.370347896
 20
3.4106823553
 30
0.0
 10
3.3694372358
 20
3.4102329001
 30
0.0
  0
SPLINE
  5
327
100
AcDbEntity
  8
0
100
AcDbSpline
 62
7
  6
CONTINUOUS
 70
0
 71
3
 72
16
 73
12
 74
0
 42
0.0000001
 43
0.0000001
 44
0.0000000001
 40
0.0
 40
0.0
 40
0.0
 40
0.0
 40
0.1249867123
 40
0.1875028363
 40
0.2500175864
 40
0.3750050229
 40
0.499995103
 40
0.6249901686
 40
0.7499898439
 40
0.8749936716
 40
1.0
 40
1.0
 40
1.0
 40
1.0
 10
3.4134176022
 20
3.3957007168
 30
0.0
 10
3.4128849835
 20
3.3966417603
 30
0.0
 10
3.412006764
 20
3.3980108865
 30
0.0
 10
3.4106898653
 20
3.3997278401
 30
0.0
 10
3.4092789726
 20
3.4013687206
 30
0.0
 10
3.4073492699
 20
3.4032703092
 30
0.0
 10
3.4048094002
 20
3.4052970885
 30
0.0
 10
3.4020866591
 20
3.4070693091
 30
0.0
 10
3.3992217407
 20
3.408599511
 30
0.0
 10
3.3962467041
 20
3.409900735
 30
0.0
 10
3.3942093367
 20
3.4106320726
 30
0.0
 10
3.3931807821
 20
3.4109662702
 30
0.0
  0
SPLINE
  5
328
100
AcDbEntity
  8
0
100
AcDbSpline
 62
7
  6
CONTINUOUS
 70
0
 71
3
 72
15
 73
11
 74
0
 42
0.0000001
 43
0.0000001
 44
0.0000000001
 40
0.0
 40
0.0
 40
0.0
 40
0.0
 40
0.1250053823
 40
0.2500073056
 40
0.3750026404
 40
0.4999963854
 40
0.6249910541
 40
0.7499876835
 40
0.8749927536
 40
1.0
 40
1.0
 40
1.0
 40
1.0
 10
3.415712985
 20
3.373628968
 30
0.0
 10
3.4160075326
 20
3.3745354921
 30
0.0
 10
3.4165154204
 20
3.3763763214
 30
0.0
 10
3.4170015652
 20
3.3791991054
 30
0.0
 10
3.4171824011
 20
3.3820585574
 30
0.0
 10
3.4170433253
 20
3.3849205878
 30
0.0
 10
3.4165803266
 20
3.3877482605
 30
0.0
 10
3.4158095227
 20
3.3905075846
 30
0.0
 10
3.4147552379
 20
3.3931705612
 30
0.0
 10
3.4138871103
 20
3.3948711787
 30
0.0
 10
3.4134176022
 20
3.3957007168
 30
0.0
  0
SPLINE
  5
329
100
AcDbEntity
  8
0
100
AcDbSpline
 62
7
  6
CONTINUOUS
 70
0
 71
3
 72
15
 73
11
 74
0
 42
0.0000001
 43
0.0000001
 44
0.0000000001
 40
0.0
 40
0.0
 40
0.0
 40
0.0
 40
0.1249988142
 40
0.2499966171
 40
0.3749951976
 40
0.4999938499
 40
0.6249941776
 40
0.7499948184
 40
0.8749976264
 40
1.0
 40
1.0
 40
1.0
 40
1.0
 10
3.4044054889
 20
3.3593901168
 30
0.0
 10
3.4050774245
 20
3.3597772898
 30
0.0
 10
3.4063880858
 20
3.360611193
 30
0.0
 10
3.4082295247
 20
3.3620386306
 30
0.0
 10
3.4099228333
 20
3.3636395954
 30
0.0
 10
3.411450163
 20
3.365399571
 30
0.0
 10
3.412797561
 20
3.3673006126
 30
0.0
 10
3.4139605988
 20
3.3693194248
 30
0.0
 10
3.4149381955
 20
3.3714336437
 30
0.0
 10
3.4154733355
 20
3.3728914026
 30
0.0
 10
3.415712985
 20
3.373628968
 30
0.0
  0
SPLINE
  5
32A
100
AcDbEntity
  8
0
100
AcDbSpline
 62
7
  6
CONTINUOUS
 70
0
 71
3
 72
15
 73
11
 74
0
 42
0.0000001
 43
0.0000001
 44
0.0000000001
 40
0.0
 40
0.0
 40
0.0
 40
0.0
 40
0.1250125068
 40
0.2500228919
 40
0.3750286301
 40
0.5000307211
 40
0.6250279668
 40
0.7500234737
 40
0.875011387
 40
1.0
 40
1.0
 40
1.0
 40
1.0
 10
3.383428514
 20
3.3568138035
 30
0.0
 10
3.3843146019
 20
3.3566679465
 30
0.0
 10
3.3860941881
 20
3.3564191351
 30
0.0
 10
3.3887797691
 20
3.356189128
 30
0.0
 10
3.3914751003
 20
3.3561288784
 30
0.0
 10
3.3941681188
 20
3.356266274
 30
0.0
 10
3.3968411845
 20
3.3566270378
 30
0.0
 10
3.3994681651
 20
3.3572441045
 30
0.0
 10
3.4020130616
 20
3.3581434282
 30
0.0
 10
3.4036275508
 20
3.3589418646
 30
0.0
 10
3.4044054889
 20
3.3593901168
 30
0.0
  0
SPLINE
  5
32B
100
AcDbEntity
  8
0
100
AcDbSpline
 62
7
  6
CONTINUOUS
 70
0
 71
3
 72
15
 73
11
 74
0
 42
0.0000001
 43
0.0000001
 44
0.0000000001
 40
0.0
 40
0.0
 40
0.0
 40
0.0
 40
0.1249967927
 40
0.2499904845
 40
0.374986126
 40
0.499982933
 40
0.6249846324
 40
0.7499873728
 40
0.8749945884
 40
1.0
 40
1.0
 40
1.0
 40
1.0
 10
3.40957798
 20
3.3439360602
 30
0.0
 10
3.4084585595
 20
3.3432785111
 30
0.0
 10
3.4061553036
 20
3.3420693153
 30
0.0
 10
3.4025361761
 20
3.3406124702
 30
0.0
 10
3.3987846405
 20
3.3395397889
 30
0.0
 10
3.3949426676
 20
3.3388602425
 30
0.0
 10
3.3910525393
 20
3.338568933
 30
0.0
 10
3.3871529026
 20
3.3386423787
 30
0.0
 10
3.3832753333
 20
3.3390529741
 30
0.0
 10
3.3807192137
 20
3.3395254167
 30
0.0
 10
3.3794515072
 20
3.3398058199
 30
0.0
  0
SPLINE
  5
32C
100
AcDbEntity
  8
0
100
AcDbSpline
 62
7
  6
CONTINUOUS
 70
0
 71
3
 72
18
 73
14
 74
0
 42
0.0000001
 43
0.0000001
 44
0.0000000001
 40
0.0
 40
0.0
 40
0.0
 40
0.0
 40
0.1249953861
 40
0.249992891
 40
0.3125003355
 40
0.3750100761
 40
0.437520974
 40
0.5000317419
 40
0.562542128
 40
0.6250538768
 40
0.7500366184
 40
0.875016507
 40
1.0
 40
1.0
 40
1.0
 40
1.0
 10
3.4286748599
 20
3.3694173995
 30
0.0
 10
3.4282554406
 20
3.3681265597
 30
0.0
 10
3.4273373878
 20
3.365569739
 30
0.0
 10
3.4259743998
 20
3.3624586644
 30
0.0
 10
3.4247413658
 20
3.3600393011
 30
0.0
 10
3.4237424677
 20
3.3582641474
 30
0.0
 10
3.422667975
 20
3.3565336135
 30
0.0
 10
3.4215163646
 20
3.3548533305
 30
0.0
 10
3.4202860093
 20
3.3532296422
 30
0.0
 10
3.4185410396
 20
3.3511489088
 30
0.0
 10
3.4161641289
 20
3.3487180867
 30
0.0
 10
3.4130188088
 20
3.3461214139
 30
0.0
 10
3.4107481719
 20
3.3446234325
 30
0.0
 10
3.40957798
 20
3.3439360602
 30
0.0
  0
SPLINE
  5
32D
100
AcDbEntity
  8
0
100
AcDbSpline
 62
7
  6
CONTINUOUS
 70
0
 71
3
 72
22
 73
18
 74
0
 42
0.0000001
 43
0.0000001
 44
0.0000000001
 40
0.0
 40
0.0
 40
0.0
 40
0.0
 40
0.1249591277
 40
0.187461062
 40
0.2499648435
 40
0.3124681894
 40
0.3749697299
 40
0.4374709258
 40
0.4999720598
 40
0.5624739006
 40
0.624976916
 40
0.6874818508
 40
0.7499874393
 40
0.812492423
 40
0.8749957557
 40
0.9375013402
 40
1.0
 40
1.0
 40
1.0
 40
1.0
 10
3.4240802477
 20
3.4082266801
 30
0.0
 10
3.4250121872
 20
3.4068188365
 30
0.0
 10
3.4263032384
 20
3.4046321258
 30
0.0
 10
3.4277671989
 20
3.4015869955
 30
0.0
 10
3.4287276066
 20
3.3992408359
 30
0.0
 10
3.4295430068
 20
3.3968404916
 30
0.0
 10
3.4302069953
 20
3.3943938668
 30
0.0
 10
3.4307150288
 20
3.3919101956
 30
0.0
 10
3.4310657247
 20
3.389399499
 30
0.0
 10
3.4312599098
 20
3.3868719125
 30
0.0
 10
3.4313004247
 20
3.3843372349
 30
0.0
 10
3.4311922182
 20
3.3818046184
 30
0.0
 10
3.4309428437
 20
3.3792820937
 30
0.0
 10
3.430559514
 20
3.3767765601
 30
0.0
 10
3.430049981
 20
3.3742937442
 30
0.0
 10
3.4294244728
 20
3.3718378577
 30
0.0
 10
3.4289358044
 20
3.3702205043
 30
0.0
 10
3.4286748599
 20
3.3694173995
 30
0.0
  0
SPLINE
  5
32E
100
AcDbEntity
  8
0
100
AcDbSpline
 62
7
  6
CONTINUOUS
 70
0
 71
3
 72
14
 73
10
 74
0
 42
0.0000001
 43
0.0000001
 44
0.0000000001
 40
0.0
 40
0.0
 40
0.0
 40
0.0
 40
0.2498785891
 40
0.3749011989
 40
0.4999229843
 40
0.6249425826
 40
0.7499617248
 40
0.8749800861
 40
1.0
 40
1.0
 40
1.0
 40
1.0
 10
3.3972146959
 20
3.4281493957
 30
0.0
 10
3.3999156086
 20
3.427271816
 30
0.0
 10
3.4038882234
 20
3.4256746968
 30
0.0
 10
3.4088719817
 20
3.4229358928
 30
0.0
 10
3.41242536
 20
3.4205711282
 30
0.0
 10
3.4157550945
 20
3.4179007467
 30
0.0
 10
3.4188308628
 20
3.4149410653
 30
0.0
 10
3.4216269846
 20
3.4117165332
 30
0.0
 10
3.4232959537
 20
3.4094114816
 30
0.0
 10
3.4240802477
 20
3.4082266801
 30
0.0
  0
SPLINE
  5
32F
100
AcDbEntity
  8
0
100
AcDbSpline
 62
7
  6
CONTINUOUS
 70
0
 71
3
 72
17
 73
13
 74
0
 42
0.0000001
 43
0.0000001
 44
0.0000000001
 40
0.0
 40
0.0
 40
0.0
 40
0.0
 40
0.1250078585
 40
0.2500048038
 40
0.3749948134
 40
0.4999807449
 40
0.6249674373
 40
0.7499577442
 40
0.8124692858
 40
0.8749793168
 40
0.9374916432
 40
1.0
 40
1.0
 40
1.0
 40
1.0
 10
3.3635206829
 20
3.4262920041
 30
0.0
 10
3.3648094793
 20
3.4269440861
 30
0.0
 10
3.3674535281
 20
3.4281218997
 30
0.0
 10
3.3715826712
 20
3.4294610248
 30
0.0
 10
3.3758335852
 20
3.4303423448
 30
0.0
 10
3.3801546626
 20
3.4307557693
 30
0.0
 10
3.3844942944
 20
3.4307126447
 30
0.0
 10
3.3880894032
 20
3.4303219363
 30
0.0
 10
3.3909344469
 20
3.4298175651
 30
0.0
 10
3.3930504658
 20
3.4293480412
 30
0.0
 10
3.3951457976
 20
3.4287942414
 30
0.0
 10
3.3965278082
 20
3.4283725791
 30
0.0
 10
3.3972146959
 20
3.4281493957
 30
0.0
  0
SPLINE
  5
330
100
AcDbEntity
  8
0
100
AcDbSpline
 62
7
  6
CONTINUOUS
 70
0
 71
3
 72
15
 73
11
 74
0
 42
0.0000001
 43
0.0000001
 44
0.0000000001
 40
0.0
 40
0.0
 40
0.0
 40
0.0
 40
0.1250066126
 40
0.2500109825
 40
0.3750085331
 40
0.5000038591
 40
0.6249983552
 40
0.7499942582
 40
0.8749954607
 40
1.0
 40
1.0
 40
1.0
 40
1.0
 10
3.3426379016
 20
3.4017296734
 30
0.0
 10
3.3430645066
 20
3.4030426284
 30
0.0
 10
3.3440265242
 20
3.4056349318
 30
0.0
 10
3.3458167038
 20
3.4093761276
 30
0.0
 10
3.3479670068
 20
3.4129238817
 30
0.0
 10
3.350474982
 20
3.4162290364
 30
0.0
 10
3.3533212924
 20
3.4192478914
 30
0.0
 10
3.3564709012
 20
3.4219484373
 30
0.0
 10
3.3598778819
 20
3.4243142683
 30
0.0
 10
3.362288878
 20
3.4256687576
 30
0.0
 10
3.3635206829
 20
3.4262920041
 30
0.0
  0
SPLINE
  5
331
100
AcDbEntity
  8
0
100
AcDbSpline
 62
7
  6
CONTINUOUS
 70
0
 71
3
 72
15
 73
11
 74
0
 42
0.0000001
 43
0.0000001
 44
0.0000000001
 40
0.0
 40
0.0
 40
0.0
 40
0.0
 40
0.1250029376
 40
0.250005614
 40
0.3750052984
 40
0.5000046473
 40
0.6250033207
 40
0.7500024191
 40
0.8750009928
 40
1.0
 40
1.0
 40
1.0
 40
1.0
 10
3.3428128263
 20
3.3748519515
 30
0.0
 10
3.3424853642
 20
3.3759414348
 30
0.0
 10
3.3418940642
 20
3.3781401939
 30
0.0
 10
3.3412167192
 20
3.3814876371
 30
0.0
 10
3.3407746909
 20
3.3848747387
 30
0.0
 10
3.3405851361
 20
3.3882856169
 30
0.0
 10
3.3406658114
 20
3.3917011639
 30
0.0
 10
3.3410265021
 20
3.3950988677
 30
0.0
 10
3.3416714888
 20
3.3984540621
 30
0.0
 10
3.3422863652
 20
3.4006477556
 30
0.0
 10
3.3426379016
 20
3.4017296734
 30
0.0
  0
SPLINE
  5
332
100
AcDbEntity
  8
0
100
AcDbSpline
 62
7
  6
CONTINUOUS
 70
0
 71
3
 72
16
 73
12
 74
0
 42
0.0000001
 43
0.0000001
 44
0.0000000001
 40
0.0
 40
0.0
 40
0.0
 40
0.0
 40
0.1250029331
 40
0.2500052006
 40
0.3750061003
 40
0.5000055418
 40
0.562509063
 40
0.6250131436
 40
0.7500106722
 40
0.8750053376
 40
1.0
 40
1.0
 40
1.0
 40
1.0
 10
3.9881336833
 20
3.9021142958
 30
0.0
 10
3.9888616101
 20
3.9027650915
 30
0.0
 10
3.9902991925
 20
3.9040873096
 30
0.0
 10
3.992393841
 20
3.9061356962
 30
0.0
 10
3.9944176838
 20
3.9082542279
 30
0.0
 10
3.9960329904
 20
3.9100854921
 30
0.0
 10
3.9972737539
 20
3.9115937538
 30
0.0
 10
3.9984786377
 20
3.9131307691
 30
0.0
 10
3.9999115968
 20
3.9151085354
 30
0.0
 10
4.0014882234
 20
3.9175791804
 30
0.0
 10
4.0024285835
 20
3.919292838
 30
0.0
 10
4.0028652262
 20
3.9201661246
 30
0.0
  0
SPLINE
  5
333
100
AcDbEntity
  8
0
100
AcDbSpline
 62
7
  6
CONTINUOUS
 70
0
 71
3
 72
11
 73
7
 74
0
 42
0.0000001
 43
0.0000001
 44
0.0000000001
 40
0.0
 40
0.0
 40
0.0
 40
0.0
 40
0.2500067949
 40
0.5000125637
 40
0.750008535
 40
1.0
 40
1.0
 40
1.0
 40
1.0
 10
3.9638202076
 20
3.8862779881
 30
0.0
 10
3.9660158876
 20
3.8873099577
 30
0.0
 10
3.9703455989
 20
3.8895087858
 30
0.0
 10
3.9766038622
 20
3.8932359348
 30
0.0
 10
3.9825736918
 20
3.8974105984
 30
0.0
 10
3.9863251364
 20
3.9004973827
 30
0.0
 10
3.9881336833
 20
3.9021142958
 30
0.0
  0
SPLINE
  5
334
100
AcDbEntity
  8
0
100
AcDbSpline
 62
7
  6
CONTINUOUS
 70
0
 71
3
 72
14
 73
10
 74
0
 42
0.0000001
 43
0.0000001
 44
0.0000000001
 40
0.0
 40
0.0
 40
0.0
 40
0.0
 40
0.2499957629
 40
0.3749972761
 40
0.4999985095
 40
0.6249994155
 40
0.750000095
 40
0.8750001077
 40
1.0
 40
1.0
 40
1.0
 40
1.0
 10
3.9812448173
 20
3.8787847923
 30
0.0
 10
3.9798521415
 20
3.8779591351
 30
0.0
 10
3.9777447272
 20
3.876751065
 30
0.0
 10
3.9748942201
 20
3.8752145581
 30
0.0
 10
3.9727339354
 20
3.8741045004
 30
0.0
 10
3.9705488624
 20
3.8730439701
 30
0.0
 10
3.9683367509
 20
3.8720408813
 30
0.0
 10
3.9660963239
 20
3.8711026843
 30
0.0
 10
3.9645825738
 20
3.8705270693
 30
0.0
 10
3.9638202076
 20
3.870254796
 30
0.0
  0
SPLINE
  5
335
100
AcDbEntity
  8
0
100
AcDbSpline
 62
7
  6
CONTINUOUS
 70
0
 71
3
 72
14
 73
10
 74
0
 42
0.0000001
 43
0.0000001
 44
0.0000000001
 40
0.0
 40
0.0
 40
0.0
 40
0.0
 40
0.124999936
 40
0.2500000466
 40
0.3750009591
 40
0.5000021182
 40
0.6250037203
 40
0.7500057407
 40
1.0
 40
1.0
 40
1.0
 40
1.0
 10
3.9969716391
 20
3.8902377413
 30
0.0
 10
3.9963840641
 20
3.8896768743
 30
0.0
 10
3.9951821683
 20
3.8885829413
 30
0.0
 10
3.993316847
 20
3.8870140735
 30
0.0
 10
3.9913982819
 20
3.8855108271
 30
0.0
 10
3.9894337347
 20
3.8840683676
 30
0.0
 10
3.9874307083
 20
3.8826799531
 30
0.0
 10
3.9847176653
 20
3.8808917451
 30
0.0
 10
3.9826422376
 20
3.8796132624
 30
0.0
 10
3.9812448173
 20
3.8787847923
 30
0.0
  0
SPLINE
  5
336
100
AcDbEntity
  8
0
100
AcDbSpline
 62
7
  6
CONTINUOUS
 70
0
 71
3
 72
20
 73
16
 74
0
 42
0.0000001
 43
0.0000001
 44
0.0000000001
 40
0.0
 40
0.0
 40
0.0
 40
0.0
 40
0.124914211
 40
0.1874242651
 40
0.2499361864
 40
0.3124465417
 40
0.3749560506
 40
0.4999473092
 40
0.5624547613
 40
0.6249616804
 40
0.6874687229
 40
0.7499756529
 40
0.8124827639
 40
0.8749899757
 40
1.0
 40
1.0
 40
1.0
 40
1.0
 10
4.0693183043
 20
3.7962819484
 30
0.0
 10
4.0678344411
 20
3.7981598323
 30
0.0
 10
4.0658618924
 20
3.8011861594
 30
0.0
 10
4.0637039023
 20
3.805463043
 30
0.0
 10
4.0622953684
 20
3.8087714736
 30
0.0
 10
4.0610778722
 20
3.8121538197
 30
0.0
 10
4.0596850473
 20
3.8167388483
 30
0.0
 10
4.0586022728
 20
3.821411298
 30
0.0
 10
4.0577650749
 20
3.8261281579
 30
0.0
 10
4.0572478796
 20
3.8296843298
 30
0.0
 10
4.0568341353
 20
3.8332538143
 30
0.0
 10
4.0565141272
 20
3.8368328505
 30
0.0
 10
4.0562770584
 20
3.8404182708
 30
0.0
 10
4.0560599666
 20
3.8452041118
 30
0.0
 10
4.055999603
 20
3.8487975007
 30
0.0
 10
4.055999603
 20
3.8511927228
 30
0.0
  0
SPLINE
  5
337
100
AcDbEntity
  8
0
100
AcDbSpline
 62
7
  6
CONTINUOUS
 70
0
 71
3
 72
23
 73
19
 74
0
 42
0.0000001
 43
0.0000001
 44
0.0000000001
 40
0.0
 40
0.0
 40
0.0
 40
0.0
 40
0.0624958805
 40
0.1249993108
 40
0.1875006585
 40
0.2500025967
 40
0.3125058307
 40
0.3750087373
 40
0.4375090694
 40
0.5000083316
 40
0.5625067447
 40
0.6250048399
 40
0.6875030901
 40
0.7500030939
 40
0.812503612
 40
0.8750018899
 40
0.9375040584
 40
1.0
 40
1.0
 40
1.0
 40
1.0
 10
4.1000173405
 20
3.7823114121
 30
0.0
 10
4.0992882692
 20
3.7823114121
 30
0.0
 10
4.09782985
 20
3.7823403818
 30
0.0
 10
4.0956460234
 20
3.7824757923
 30
0.0
 10
4.0934702679
 20
3.7827093231
 30
0.0
 10
4.0913085136
 20
3.7830496403
 30
0.0
 10
4.0891673505
 20
3.7835023237
 30
0.0
 10
4.087054092
 20
3.7840715977
 30
0.0
 10
4.0849773047
 20
3.7847624356
 30
0.0
 10
4.082946154
 20
3.7855778734
 30
0.0
 10
4.0809699398
 20
3.7865187772
 30
0.0
 10
4.0790577815
 20
3.7875839134
 30
0.0
 10
4.077218152
 20
3.7887699709
 30
0.0
 10
4.0754581607
 20
3.7900712454
 30
0.0
 10
4.0737832578
 20
3.7914802755
 30
0.0
 10
4.0721984369
 20
3.7929898505
 30
0.0
 10
4.0707051105
 20
3.7945896301
 30
0.0
 10
4.0697703179
 20
3.7957099084
 30
0.0
 10
4.0693183043
 20
3.7962819484
 30
0.0
  0
SPLINE
  5
338
100
AcDbEntity
  8
0
100
AcDbSpline
 62
7
  6
CONTINUOUS
 70
0
 71
3
 72
15
 73
11
 74
0
 42
0.0000001
 43
0.0000001
 44
0.0000000001
 40
0.0
 40
0.0
 40
0.0
 40
0.0
 40
0.1250204707
 40
0.25003918
 40
0.3750599031
 40
0.5000806182
 40
0.749920482
 40
0.8124432393
 40
0.8749702112
 40
1.0
 40
1.0
 40
1.0
 40
1.0
 10
4.124512564
 20
3.7902309172
 30
0.0
 10
4.1236695511
 20
3.7895324209
 30
0.0
 10
4.1219109562
 20
3.7882203716
 30
0.0
 10
4.1190859841
 20
3.7865343944
 30
0.0
 10
4.1161041119
 20
3.7851440089
 30
0.0
 10
4.1119718358
 20
3.7836838282
 30
0.0
 10
4.1082010102
 20
3.7828986469
 30
0.0
 10
4.1049389568
 20
3.7825303541
 30
0.0
 10
4.1027552502
 20
3.7823597942
 30
0.0
 10
4.1011122133
 20
3.7823114121
 30
0.0
 10
4.1000173405
 20
3.7823114121
 30
0.0
  0
SPLINE
  5
339
100
AcDbEntity
  8
0
100
AcDbSpline
 62
7
  6
CONTINUOUS
 70
0
 71
3
 72
14
 73
10
 74
0
 42
0.0000001
 43
0.0000001
 44
0.0000000001
 40
0.0
 40
0.0
 40
0.0
 40
0.0
 40
0.1250201387
 40
0.250040387
 40
0.4999413116
 40
0.6249560316
 40
0.7499711375
 40
0.8749852979
 40
1.0
 40
1.0
 40
1.0
 40
1.0
 10
4.1391130231
 20
3.812806086
 30
0.0
 10
4.1387526247
 20
3.8117299654
 30
0.0
 10
4.137979145
 20
3.8095947159
 30
0.0
 10
4.1362099149
 20
3.8054142087
 30
0.0
 10
4.1340689268
 20
3.80139535
 30
0.0
 10
4.1315222131
 20
3.7976350384
 30
0.0
 10
4.129401919
 20
3.7949667384
 30
0.0
 10
4.1270729964
 20
3.7924785246
 30
0.0
 10
4.1253863979
 20
3.7909549509
 30
0.0
 10
4.124512564
 20
3.7902309172
 30
0.0
  0
SPLINE
  5
33A
100
AcDbEntity
  8
0
100
AcDbSpline
 62
7
  6
CONTINUOUS
 70
0
 71
3
 72
18
 73
14
 74
0
 42
0.0000001
 43
0.0000001
 44
0.0000000001
 40
0.0
 40
0.0
 40
0.0
 40
0.0
 40
0.1249988856
 40
0.2499974507
 40
0.3749948513
 40
0.4999911988
 40
0.5624918119
 40
0.6249927212
 40
0.7499873714
 40
0.8124887885
 40
0.8749910375
 40
0.9374981708
 40
1.0
 40
1.0
 40
1.0
 40
1.0
 10
4.144035078
 20
3.8511927228
 30
0.0
 10
4.144035078
 20
3.8495736037
 30
0.0
 10
4.14399963
 20
3.8463352371
 30
0.0
 10
4.1438303913
 20
3.8414803545
 30
0.0
 10
4.143531206
 20
3.8366316298
 30
0.0
 10
4.1431549153
 20
3.8326005135
 30
0.0
 10
4.1427639426
 20
3.8293857618
 30
0.0
 10
4.1423101975
 20
3.8261793632
 30
0.0
 10
4.1417551494
 20
3.8229876196
 30
0.0
 10
4.1410774731
 20
3.8198207276
 30
0.0
 10
4.1405018165
 20
3.8174607131
 30
0.0
 10
4.139854611
 20
3.8151192901
 30
0.0
 10
4.1393701239
 20
3.8135737682
 30
0.0
 10
4.1391130231
 20
3.812806086
 30
0.0
  0
SPLINE
  5
33B
100
AcDbEntity
  8
0
100
AcDbSpline
 62
7
  6
CONTINUOUS
 70
0
 71
3
 72
17
 73
13
 74
0
 42
0.0000001
 43
0.0000001
 44
0.0000000001
 40
0.0
 40
0.0
 40
0.0
 40
0.0
 40
0.0625014465
 40
0.1250068894
 40
0.1875085318
 40
0.2500095414
 40
0.3750066922
 40
0.5000042917
 40
0.6250024452
 40
0.7500011719
 40
0.8750005011
 40
1.0
 40
1.0
 40
1.0
 40
1.0
 10
4.1409961955
 20
3.8830549375
 30
0.0
 10
4.1411618534
 20
3.8824073664
 30
0.0
 10
4.1414716478
 20
3.8811066005
 30
0.0
 10
4.1418804247
 20
3.8791431715
 30
0.0
 10
4.1422403548
 20
3.8771702263
 30
0.0
 10
4.1426602935
 20
3.8745295881
 30
0.0
 10
4.1430847648
 20
3.8712138289
 30
0.0
 10
4.143465643
 20
3.8672210354
 30
0.0
 10
4.1437366109
 20
3.8632193682
 30
0.0
 10
4.1439146381
 20
3.8592126118
 30
0.0
 10
4.1440143906
 20
3.8552032141
 30
0.0
 10
4.144035078
 20
3.8525295349
 30
0.0
 10
4.144035078
 20
3.8511927228
 30
0.0
  0
SPLINE
  5
33C
100
AcDbEntity
  8
0
100
AcDbSpline
 62
7
  6
CONTINUOUS
 70
0
 71
3
 72
13
 73
9
 74
0
 42
0.0000001
 43
0.0000001
 44
0.0000000001
 40
0.0
 40
0.0
 40
0.0
 40
0.0
 40
0.2499666103
 40
0.4999417898
 40
0.6249565304
 40
0.7499711304
 40
0.8749858971
 40
1.0
 40
1.0
 40
1.0
 40
1.0
 10
4.1325837016
 20
3.9031089433
 30
0.0
 10
4.133566274
 20
3.9015776606
 30
0.0
 10
4.1353787555
 20
3.8984147529
 30
0.0
 10
4.1372782743
 20
3.894275558
 30
0.0
 10
4.1385969974
 20
3.8908827547
 30
0.0
 10
4.1394898744
 20
3.8883024219
 30
0.0
 10
4.1402924771
 20
3.8856927699
 30
0.0
 10
4.1407706838
 20
3.8839364823
 30
0.0
 10
4.1409961955
 20
3.8830549375
 30
0.0
  0
SPLINE
  5
33D
100
AcDbEntity
  8
0
100
AcDbSpline
 62
7
  6
CONTINUOUS
 70
0
 71
3
 72
15
 73
11
 74
0
 42
0.0000001
 43
0.0000001
 44
0.0000000001
 40
0.0
 40
0.0
 40
0.0
 40
0.0
 40
0.1249998346
 40
0.2499995983
 40
0.3749994296
 40
0.4999992005
 40
0.624999006
 40
0.7499989141
 40
0.8749993768
 40
1.0
 40
1.0
 40
1.0
 40
1.0
 10
4.1190691174
 20
3.9157267023
 30
0.0
 10
4.1197550275
 20
3.9153578089
 30
0.0
 10
4.1211043102
 20
3.9145771644
 30
0.0
 10
4.1230494623
 20
3.913279966
 30
0.0
 10
4.1249048541
 20
3.9118570616
 30
0.0
 10
4.1266619093
 20
3.9103144464
 30
0.0
 10
4.1283139906
 20
3.9086599543
 30
0.0
 10
4.1298558486
 20
3.9069023466
 30
0.0
 10
4.1312846901
 20
3.9050519734
 30
0.0
 10
4.1321631007
 20
3.9037644259
 30
0.0
 10
4.1325837016
 20
3.9031089433
 30
0.0
  0
SPLINE
  5
33E
100
AcDbEntity
  8
0
100
AcDbSpline
 62
7
  6
CONTINUOUS
 70
0
 71
3
 72
14
 73
10
 74
0
 42
0.0000001
 43
0.0000001
 44
0.0000000001
 40
0.0
 40
0.0
 40
0.0
 40
0.0
 40
0.2499397512
 40
0.3749525508
 40
0.4999632653
 40
0.6249751357
 40
0.7499839395
 40
0.8750020676
 40
1.0
 40
1.0
 40
1.0
 40
1.0
 10
4.1000173405
 20
3.9201661246
 30
0.0
 10
4.1016636743
 20
3.9201661246
 30
0.0
 10
4.1041364164
 20
3.9200497583
 30
0.0
 10
4.1074034905
 20
3.9196247907
 30
0.0
 10
4.1098317199
 20
3.9191619951
 30
0.0
 10
4.1122262038
 20
3.9185478385
 30
0.0
 10
4.1145750259
 20
3.917776353
 30
0.0
 10
4.1168649454
 20
3.916844712
 30
0.0
 10
4.1183439847
 20
3.9161166902
 30
0.0
 10
4.1190691174
 20
3.9157267023
 30
0.0
  0
SPLINE
  5
33F
100
AcDbEntity
  8
0
100
AcDbSpline
 62
7
  6
CONTINUOUS
 70
0
 71
3
 72
14
 73
10
 74
0
 42
0.0000001
 43
0.0000001
 44
0.0000000001
 40
0.0
 40
0.0
 40
0.0
 40
0.0
 40
0.1250232967
 40
0.2500451058
 40
0.3750686017
 40
0.5000920274
 40
0.749935719
 40
0.8749682261
 40
1.0
 40
1.0
 40
1.0
 40
1.0
 10
4.0755447602
 20
3.9122191676
 30
0.0
 10
4.0763900389
 20
3.9129135038
 30
0.0
 10
4.0781512567
 20
3.9142186859
 30
0.0
 10
4.0809752703
 20
3.9159005254
 30
0.0
 10
4.0839527002
 20
3.9172934548
 30
0.0
 10
4.0880773091
 20
3.918764365
 30
0.0
 10
4.0923790167
 20
3.9196774112
 30
0.0
 10
4.0967345046
 20
3.9200994954
 30
0.0
 10
4.0989233748
 20
3.9201661246
 30
0.0
 10
4.1000173405
 20
3.9201661246
 30
0.0
  0
SPLINE
  5
340
100
AcDbEntity
  8
0
100
AcDbSpline
 62
7
  6
CONTINUOUS
 70
0
 71
3
 72
15
 73
11
 74
0
 42
0.0000001
 43
0.0000001
 44
0.0000000001
 40
0.0
 40
0.0
 40
0.0
 40
0.0
 40
0.1250038384
 40
0.2500078651
 40
0.375007882
 40
0.5000073679
 40
0.6250056011
 40
0.7500042266
 40
0.8750018368
 40
1.0
 40
1.0
 40
1.0
 40
1.0
 10
4.060880234
 20
3.8896852205
 30
0.0
 10
4.0612451881
 20
3.8907598079
 30
0.0
 10
4.0620268283
 20
3.8928918729
 30
0.0
 10
4.0633641685
 20
3.8960246215
 30
0.0
 10
4.064884137
 20
3.8990734581
 30
0.0
 10
4.0665970488
 20
3.9020186141
 30
0.0
 10
4.0685135894
 20
3.9048360802
 30
0.0
 10
4.070639776
 20
3.907499574
 30
0.0
 10
4.0729756351
 20
3.9099814138
 30
0.0
 10
4.0746678563
 20
3.9114988536
 30
0.0
 10
4.0755447602
 20
3.9122191676
 30
0.0
  0
SPLINE
  5
341
100
AcDbEntity
  8
0
100
AcDbSpline
 62
7
  6
CONTINUOUS
 70
0
 71
3
 72
19
 73
15
 74
0
 42
0.0000001
 43
0.0000001
 44
0.0000000001
 40
0.0
 40
0.0
 40
0.0
 40
0.0
 40
0.1249975436
 40
0.2499948144
 40
0.3749909732
 40
0.4999860524
 40
0.5624860498
 40
0.6249863234
 40
0.6874867515
 40
0.7499885201
 40
0.8124894149
 40
0.8749912647
 40
0.9374985601
 40
1.0
 40
1.0
 40
1.0
 40
1.0
 10
4.055999603
 20
3.8511927228
 30
0.0
 10
4.055999603
 20
3.8528161718
 30
0.0
 10
4.0560329691
 20
3.8560631861
 30
0.0
 10
4.0561937111
 20
3.8609313193
 30
0.0
 10
4.0564806343
 20
3.8657937675
 30
0.0
 10
4.0568453986
 20
3.8698368198
 30
0.0
 10
4.0572273678
 20
3.8730613551
 30
0.0
 10
4.057561617
 20
3.8754737145
 30
0.0
 10
4.0579477779
 20
3.8778783652
 30
0.0
 10
4.0583912656
 20
3.8802731668
 30
0.0
 10
4.0588985001
 20
3.8826553644
 30
0.0
 10
4.0594759963
 20
3.8850216547
 30
0.0
 10
4.0601284538
 20
3.8873684229
 30
0.0
 10
4.0606191866
 20
3.8889165807
 30
0.0
 10
4.060880234
 20
3.8896852205
 30
0.0
  0
SPLINE
  5
342
100
AcDbEntity
  8
0
100
AcDbSpline
 62
7
  6
CONTINUOUS
 70
0
 71
3
 72
20
 73
16
 74
0
 42
0.0000001
 43
0.0000001
 44
0.0000000001
 40
0.0
 40
0.0
 40
0.0
 40
0.0
 40
0.1249743263
 40
0.1874789713
 40
0.249981536
 40
0.3124885122
 40
0.3749975457
 40
0.4375054712
 40
0.5000153773
 40
0.5625256662
 40
0.6250377581
 40
0.6875503621
 40
0.7500650238
 40
0.8750244099
 40
1.0
 40
1.0
 40
1.0
 40
1.0
 10
4.1191497999
 20
3.8954714798
 30
0.0
 10
4.1185942355
 20
3.8962601827
 30
0.0
 10
4.1177144963
 20
3.8974120851
 30
0.0
 10
4.1164439121
 20
3.8988651702
 30
0.0
 10
4.1154386467
 20
3.8999075759
 30
0.0
 10
4.1143797624
 20
3.900895584
 30
0.0
 10
4.1132673072
 20
3.9018230715
 30
0.0
 10
4.1121016542
 20
3.9026829806
 30
0.0
 10
4.1108836852
 20
3.9034672491
 30
0.0
 10
4.1096164111
 20
3.9041692955
 30
0.0
 10
4.1083039723
 20
3.9047829476
 30
0.0
 10
4.1069517267
 20
3.9053033693
 30
0.0
 10
4.1051051369
 20
3.9058685053
 30
0.0
 10
4.1027296238
 20
3.906330132
 30
0.0
 10
4.1007979092
 20
3.9064451127
 30
0.0
 10
4.0998331693
 20
3.9064451127
 30
0.0
  0
SPLINE
  5
343
100
AcDbEntity
  8
0
100
AcDbSpline
 62
7
  6
CONTINUOUS
 70
0
 71
3
 72
25
 73
21
 74
0
 42
0.0000001
 43
0.0000001
 44
0.0000000001
 40
0.0
 40
0.0
 40
0.0
 40
0.0
 40
0.1249981837
 40
0.187498341
 40
0.2499986997
 40
0.3124990122
 40
0.3749993946
 40
0.4374996064
 40
0.4999997351
 40
0.562499598
 40
0.6249990732
 40
0.6874978961
 40
0.749995097
 40
0.8124901492
 40
0.8437406781
 40
0.8749914138
 40
0.9062431774
 40
0.9374938281
 40
0.968748131
 40
1.0
 40
1.0
 40
1.0
 40
1.0
 10
4.1269989202
 20
3.8511927228
 30
0.0
 10
4.1269989202
 20
3.8530893723
 30
0.0
 10
4.1269689505
 20
3.8559345278
 30
0.0
 10
4.1268602097
 20
3.8597263792
 30
0.0
 10
4.1267411821
 20
3.862569013
 30
0.0
 10
4.1265800618
 20
3.865409594
 30
0.0
 10
4.1263712623
 20
3.8682471062
 30
0.0
 10
4.1261075568
 20
3.8710800844
 30
0.0
 10
4.1257828775
 20
3.8739067608
 30
0.0
 10
4.1253897645
 20
3.8767248036
 30
0.0
 10
4.1249170487
 20
3.8795306878
 30
0.0
 10
4.1243504854
 20
3.8823193219
 30
0.0
 10
4.1236705239
 20
3.8850826598
 30
0.0
 10
4.1229901768
 20
3.8873551173
 30
0.0
 10
4.1223620453
 20
3.8891450385
 30
0.0
 10
4.1218438173
 20
3.8904702027
 30
0.0
 10
4.1212727336
 20
3.8917735788
 30
0.0
 10
4.1206403764
 20
3.8930486248
 30
0.0
 10
4.1199399944
 20
3.8942876925
 30
0.0
 10
4.1194228787
 20
3.8950838055
 30
0.0
 10
4.1191497999
 20
3.8954714798
 30
0.0
  0
SPLINE
  5
344
100
AcDbEntity
  8
0
100
AcDbSpline
 62
7
  6
CONTINUOUS
 70
0
 71
3
 72
24
 73
20
 74
0
 42
0.0000001
 43
0.0000001
 44
0.0000000001
 40
0.0
 40
0.0
 40
0.0
 40
0.0
 40
0.031251667
 40
0.0625047123
 40
0.0937554493
 40
0.1250068966
 40
0.1562577474
 40
0.1875084682
 40
0.2187591687
 40
0.2500099382
 40
0.3125077707
 40
0.3750070017
 40
0.437506928
 40
0.5000073146
 40
0.6250013682
 40
0.7499987845
 40
0.8124997622
 40
0.8750005455
 40
1.0
 40
1.0
 40
1.0
 40
1.0
 10
4.1191714994
 20
3.8069908121
 30
0.0
 10
4.119442922
 20
3.8073785586
 30
0.0
 10
4.1199569131
 20
3.8081745281
 30
0.0
 10
4.1206534262
 20
3.8094126753
 30
0.0
 10
4.1212824138
 20
3.8106863721
 30
0.0
 10
4.1218508999
 20
3.8119879635
 30
0.0
 10
4.1223667866
 20
3.8133111642
 30
0.0
 10
4.12283628
 20
3.8146514403
 30
0.0
 10
4.123263732
 20
3.8160056587
 30
0.0
 10
4.12378399
 20
3.817826075
 30
0.0
 10
4.124349272
 20
3.8201248608
 30
0.0
 10
4.1249150517
 20
3.8229081633
 30
0.0
 10
4.1253875494
 20
3.8257087148
 30
0.0
 10
4.1259115096
 20
3.8294588263
 30
0.0
 10
4.1263966842
 20
3.8341682299
 30
0.0
 10
4.1267004662
 20
3.8388920294
 30
0.0
 10
4.1268597333
 20
3.8426749961
 30
0.0
 10
4.1269688236
 20
3.846459767
 30
0.0
 10
4.1269989202
 20
3.8492996119
 30
0.0
 10
4.1269989202
 20
3.8511927228
 30
0.0
  0
SPLINE
  5
345
100
AcDbEntity
  8
0
100
AcDbSpline
 62
7
  6
CONTINUOUS
 70
0
 71
3
 72
21
 73
17
 74
0
 42
0.0000001
 43
0.0000001
 44
0.0000000001
 40
0.0
 40
0.0
 40
0.0
 40
0.0
 40
0.1249635762
 40
0.187478901
 40
0.2499867933
 40
0.3124973415
 40
0.3750057384
 40
0.4375138235
 40
0.5000199146
 40
0.562525666
 40
0.6250295838
 40
0.6875342933
 40
0.7500367818
 40
0.8125348041
 40
0.8750345294
 40
1.0
 40
1.0
 40
1.0
 40
1.0
 10
4.1000173405
 20
3.7959403339
 30
0.0
 10
4.1009775744
 20
3.7959403339
 30
0.0
 10
4.1024208201
 20
3.7960302911
 30
0.0
 10
4.1043168776
 20
3.7963453475
 30
0.0
 10
4.1057196852
 20
3.7966805994
 30
0.0
 10
4.1070949626
 20
3.7971147634
 30
0.0
 10
4.1084358717
 20
3.7976456808
 30
0.0
 10
4.1097361644
 20
3.7982692941
 30
0.0
 10
4.1109907331
 20
3.7989802347
 30
0.0
 10
4.1121958378
 20
3.7997719147
 30
0.0
 10
4.1133488632
 20
3.8006374888
 30
0.0
 10
4.1144492005
 20
3.8015689076
 30
0.0
 10
4.115496678
 20
3.802559197
 30
0.0
 10
4.1164914353
 20
3.8036023187
 30
0.0
 10
4.117749291
 20
3.8050545617
 30
0.0
 10
4.118620833
 20
3.806204146
 30
0.0
 10
4.1191714994
 20
3.8069908121
 30
0.0
  0
SPLINE
  5
346
100
AcDbEntity
  8
0
100
AcDbSpline
 62
7
  6
CONTINUOUS
 70
0
 71
3
 72
20
 73
16
 74
0
 42
0.0000001
 43
0.0000001
 44
0.0000000001
 40
0.0
 40
0.0
 40
0.0
 40
0.0
 40
0.1249740437
 40
0.1874787203
 40
0.2499812716
 40
0.3124883016
 40
0.3749974145
 40
0.437505372
 40
0.5000153143
 40
0.5625256461
 40
0.6250377542
 40
0.6875503573
 40
0.750065014
 40
0.8750243376
 40
1.0
 40
1.0
 40
1.0
 40
1.0
 10
4.0807710961
 20
3.8068987245
 30
0.0
 10
4.0813228018
 20
3.8061105736
 30
0.0
 10
4.0821968776
 20
3.8049593762
 30
0.0
 10
4.0834602755
 20
3.8035070997
 30
0.0
 10
4.0844603952
 20
3.802465288
 30
0.0
 10
4.0855144087
 20
3.8014779193
 30
0.0
 10
4.086622265
 20
3.8005511553
 30
0.0
 10
4.087783586
 20
3.7996921012
 30
0.0
 10
4.0889974771
 20
3.7989088746
 30
0.0
 10
4.0902608699
 20
3.7982080622
 30
0.0
 10
4.0915695573
 20
3.7975958174
 30
0.0
 10
4.0929181056
 20
3.7970769184
 30
0.0
 10
4.0947597474
 20
3.796513832
 30
0.0
 10
4.0971289017
 20
3.796054513
 30
0.0
 10
4.0990552672
 20
3.7959403339
 30
0.0
 10
4.1000173405
 20
3.7959403339
 30
0.0
  0
SPLINE
  5
347
100
AcDbEntity
  8
0
100
AcDbSpline
 62
7
  6
CONTINUOUS
 70
0
 71
3
 72
25
 73
21
 74
0
 42
0.0000001
 43
0.0000001
 44
0.0000000001
 40
0.0
 40
0.0
 40
0.0
 40
0.0
 40
0.1249982384
 40
0.1874983591
 40
0.2499986787
 40
0.3124989528
 40
0.3749993011
 40
0.4374994923
 40
0.4999996011
 40
0.5624994574
 40
0.6249989363
 40
0.687497767
 40
0.7499949912
 40
0.8124900552
 40
0.8437405847
 40
0.8749913244
 40
0.9062431029
 40
0.9374937623
 40
0.9687481074
 40
1.0
 40
1.0
 40
1.0
 40
1.0
 10
4.0730357609
 20
3.8511927228
 30
0.0
 10
4.0730357609
 20
3.8492965596
 30
0.0
 10
4.0730647017
 20
3.8464521441
 30
0.0
 10
4.0731699799
 20
3.842661174
 30
0.0
 10
4.0732853665
 20
3.8398191282
 30
0.0
 10
4.0734417996
 20
3.8369790239
 30
0.0
 10
4.0736448661
 20
3.834141836
 30
0.0
 10
4.0739017578
 20
3.8313089738
 30
0.0
 10
4.0742186215
 20
3.828482154
 30
0.0
 10
4.0746029841
 20
3.8256636505
 30
0.0
 10
4.0750660338
 20
3.8228569047
 30
0.0
 10
4.0756221716
 20
3.8200669266
 30
0.0
 10
4.0762911398
 20
3.8173016667
 30
0.0
 10
4.0769620947
 20
3.8150270564
 30
0.0
 10
4.0775828
 20
3.8132350609
 30
0.0
 10
4.0780955786
 20
3.8119081686
 30
0.0
 10
4.0786614233
 20
3.8106029044
 30
0.0
 10
4.0792888603
 20
3.8093258301
 30
0.0
 10
4.0799847527
 20
3.808084645
 30
0.0
 10
4.0804992312
 20
3.8072871028
 30
0.0
 10
4.0807710961
 20
3.8068987245
 30
0.0
  0
SPLINE
  5
348
100
AcDbEntity
  8
0
100
AcDbSpline
 62
7
  6
CONTINUOUS
 70
0
 71
3
 72
21
 73
17
 74
0
 42
0.0000001
 43
0.0000001
 44
0.0000000001
 40
0.0
 40
0.0
 40
0.0
 40
0.0
 40
0.0624966573
 40
0.1249955683
 40
0.1874969638
 40
0.2499984243
 40
0.3124997561
 40
0.3750010472
 40
0.4375022505
 40
0.500003388
 40
0.5625043749
 40
0.6250052009
 40
0.7500011095
 40
0.8125015904
 40
0.8750018898
 40
1.0
 40
1.0
 40
1.0
 40
1.0
 10
4.0816270373
 20
3.8967570163
 30
0.0
 10
4.0810694467
 20
3.8959532825
 30
0.0
 10
4.080051857
 20
3.8942768493
 30
0.0
 10
4.0787733124
 20
3.891631744
 30
0.0
 10
4.0777025659
 20
3.8888966675
 30
0.0
 10
4.0768010556
 20
3.8861021862
 30
0.0
 10
4.0760423657
 20
3.8832659999
 30
0.0
 10
4.0754050736
 20
3.8804004268
 30
0.0
 10
4.0748708763
 20
3.8775140706
 30
0.0
 10
4.0744248654
 20
3.874612928
 30
0.0
 10
4.0740556412
 20
3.8717011034
 30
0.0
 10
4.073654378
 20
3.8678084305
 30
0.0
 10
4.0733764385
 20
3.8639042041
 30
0.0
 10
4.0731945205
 20
3.859995354
 30
0.0
 10
4.073070057
 20
3.8560841831
 30
0.0
 10
4.0730357609
 20
3.8531492184
 30
0.0
 10
4.0730357609
 20
3.8511927228
 30
0.0
  0
SPLINE
  5
349
100
AcDbEntity
  8
0
100
AcDbSpline
 62
7
  6
CONTINUOUS
 70
0
 71
3
 72
21
 73
17
 74
0
 42
0.0000001
 43
0.0000001
 44
0.0000000001
 40
0.0
 40
0.0
 40
0.0
 40
0.0
 40
0.1249643437
 40
0.1874699439
 40
0.2499754427
 40
0.3124823849
 40
0.3749882643
 40
0.4374918344
 40
0.4999961839
 40
0.5625008044
 40
0.6250051705
 40
0.6875128679
 40
0.7500206142
 40
0.8125261061
 40
0.8750317575
 40
1.0
 40
1.0
 40
1.0
 40
1.0
 10
4.0998331693
 20
3.9064451127
 30
0.0
 10
4.0989366108
 20
3.9064451127
 30
0.0
 10
4.0975899312
 20
3.9063780181
 30
0.0
 10
4.0958118206
 20
3.9061380744
 30
0.0
 10
4.0944909881
 20
3.9058776196
 30
0.0
 10
4.093189256
 20
3.9055342212
 30
0.0
 10
4.0919126328
 20
3.9051066145
 30
0.0
 10
4.0906677222
 20
3.9045938877
 30
0.0
 10
4.0894607462
 20
3.90399732
 30
0.0
 10
4.0882971971
 20
3.9033199568
 30
0.0
 10
4.0871819857
 20
3.9025656829
 30
0.0
 10
4.0861185135
 20
3.9017401457
 30
0.0
 10
4.0851088259
 20
3.900849755
 30
0.0
 10
4.0841544685
 20
3.8999003412
 30
0.0
 10
4.0829565705
 20
3.8985646562
 30
0.0
 10
4.0821381014
 20
3.8974936851
 30
0.0
 10
4.0816270373
 20
3.8967570163
 30
0.0
  0
SPLINE
  5
34A
100
AcDbEntity
  8
0
100
AcDbSpline
 62
7
  6
CONTINUOUS
 70
0
 71
3
 72
19
 73
15
 74
0
 42
0.0000001
 43
0.0000001
 44
0.0000000001
 40
0.0
 40
0.0
 40
0.0
 40
0.0
 40
0.1249975436
 40
0.2499948143
 40
0.3749909732
 40
0.4999860523
 40
0.5624860498
 40
0.6249863233
 40
0.6874867515
 40
0.74998852
 40
0.8124894148
 40
0.8749912647
 40
0.9374985601
 40
1.0
 40
1.0
 40
1.0
 40
1.0
 10
4.1608870486
 20
3.8511927228
 30
0.0
 10
4.1608870486
 20
3.8528161718
 30
0.0
 10
4.1609204146
 20
3.856063186
 30
0.0
 10
4.1610811567
 20
3.8609313192
 30
0.0
 10
4.1613680799
 20
3.8657937673
 30
0.0
 10
4.1617328444
 20
3.8698368196
 30
0.0
 10
4.1621148138
 20
3.8730613548
 30
0.0
 10
4.1624490632
 20
3.8754737142
 30
0.0
 10
4.1628352243
 20
3.8778783648
 30
0.0
 10
4.1632787124
 20
3.8802731663
 30
0.0
 10
4.1637859473
 20
3.8826553638
 30
0.0
 10
4.1643634441
 20
3.8850216539
 30
0.0
 10
4.1650159022
 20
3.887368422
 30
0.0
 10
4.1655066355
 20
3.8889165795
 30
0.0
 10
4.1657676832
 20
3.8896852193
 30
0.0
  0
SPLINE
  5
34B
100
AcDbEntity
  8
0
100
AcDbSpline
 62
7
  6
CONTINUOUS
 70
0
 71
3
 72
20
 73
16
 74
0
 42
0.0000001
 43
0.0000001
 44
0.0000000001
 40
0.0
 40
0.0
 40
0.0
 40
0.0
 40
0.1249142112
 40
0.1874242653
 40
0.2499361866
 40
0.3124465419
 40
0.3749560507
 40
0.4999473094
 40
0.5624547614
 40
0.6249616805
 40
0.687468723
 40
0.749975653
 40
0.812482764
 40
0.8749899758
 40
1.0
 40
1.0
 40
1.0
 40
1.0
 10
4.1742057552
 20
3.7962819463
 30
0.0
 10
4.1727218924
 20
3.7981598307
 30
0.0
 10
4.1707493439
 20
3.801186158
 30
0.0
 10
4.1685913537
 20
3.8054630419
 30
0.0
 10
4.1671828194
 20
3.8087714724
 30
0.0
 10
4.1659653228
 20
3.8121538186
 30
0.0
 10
4.164572497
 20
3.8167388472
 30
0.0
 10
4.1634897217
 20
3.8214112969
 30
0.0
 10
4.1626525229
 20
3.8261281569
 30
0.0
 10
4.1621353271
 20
3.8296843289
 30
0.0
 10
4.1617215822
 20
3.8332538135
 30
0.0
 10
4.1614015736
 20
3.8368328498
 30
0.0
 10
4.1611645044
 20
3.8404182703
 30
0.0
 10
4.1609474123
 20
3.8452041115
 30
0.0
 10
4.1608870486
 20
3.8487975006
 30
0.0
 10
4.1608870486
 20
3.8511927228
 30
0.0
  0
SPLINE
  5
34C
100
AcDbEntity
  8
0
100
AcDbSpline
 62
7
  6
CONTINUOUS
 70
0
 71
3
 72
23
 73
19
 74
0
 42
0.0000001
 43
0.0000001
 44
0.0000000001
 40
0.0
 40
0.0
 40
0.0
 40
0.0
 40
0.0624958805
 40
0.1249993108
 40
0.1875006585
 40
0.2500025967
 40
0.3125058307
 40
0.3750087374
 40
0.4375090694
 40
0.5000083316
 40
0.5625067447
 40
0.6250048399
 40
0.6875030901
 40
0.7500030939
 40
0.812503612
 40
0.8750018899
 40
0.9375040584
 40
1.0
 40
1.0
 40
1.0
 40
1.0
 10
4.2049047861
 20
3.7823114121
 30
0.0
 10
4.2041757149
 20
3.7823114121
 30
0.0
 10
4.2027172959
 20
3.7823403818
 30
0.0
 10
4.2005334697
 20
3.7824757923
 30
0.0
 10
4.1983577144
 20
3.782709323
 30
0.0
 10
4.1961959605
 20
3.78304964
 30
0.0
 10
4.1940547977
 20
3.7835023233
 30
0.0
 10
4.1919415395
 20
3.7840715971
 30
0.0
 10
4.1898647525
 20
3.7847624347
 30
0.0
 10
4.187833602
 20
3.7855778724
 30
0.0
 10
4.1858573881
 20
3.7865187758
 30
0.0
 10
4.1839452301
 20
3.7875839118
 30
0.0
 10
4.1821056008
 20
3.7887699692
 30
0.0
 10
4.1803456098
 20
3.7900712434
 30
0.0
 10
4.1786707073
 20
3.7914802734
 30
0.0
 10
4.1770858867
 20
3.7929898484
 30
0.0
 10
4.1755925608
 20
3.794589628
 30
0.0
 10
4.1746577686
 20
3.7957099063
 30
0.0
 10
4.1742057552
 20
3.7962819463
 30
0.0
  0
SPLINE
  5
34D
100
AcDbEntity
  8
0
100
AcDbSpline
 62
7
  6
CONTINUOUS
 70
0
 71
3
 72
15
 73
11
 74
0
 42
0.0000001
 43
0.0000001
 44
0.0000000001
 40
0.0
 40
0.0
 40
0.0
 40
0.0
 40
0.1250204706
 40
0.2500391798
 40
0.3750599028
 40
0.5000806179
 40
0.7499204819
 40
0.8124432393
 40
0.8749702112
 40
1.0
 40
1.0
 40
1.0
 40
1.0
 10
4.2294000128
 20
3.7902309132
 30
0.0
 10
4.2285570003
 20
3.7895324163
 30
0.0
 10
4.2267984056
 20
3.7882203663
 30
0.0
 10
4.2239734332
 20
3.7865343889
 30
0.0
 10
4.2209915603
 20
3.785144004
 30
0.0
 10
4.2168592831
 20
3.783683825
 30
0.0
 10
4.2130884568
 20
3.7828986454
 30
0.0
 10
4.2098264029
 20
3.7825303535
 30
0.0
 10
4.2076426961
 20
3.7823597941
 30
0.0
 10
4.205999659
 20
3.7823114121
 30
0.0
 10
4.2049047861
 20
3.7823114121
 30
0.0
  0
SPLINE
  5
34E
100
AcDbEntity
  8
0
100
AcDbSpline
 62
7
  6
CONTINUOUS
 70
0
 71
3
 72
14
 73
10
 74
0
 42
0.0000001
 43
0.0000001
 44
0.0000000001
 40
0.0
 40
0.0
 40
0.0
 40
0.0
 40
0.1250201386
 40
0.2500403868
 40
0.4999413119
 40
0.6249560319
 40
0.7499711377
 40
0.874985298
 40
1.0
 40
1.0
 40
1.0
 40
1.0
 10
4.2440004775
 20
3.8128060885
 30
0.0
 10
4.2436400782
 20
3.8117299678
 30
0.0
 10
4.242866597
 20
3.8095947183
 30
0.0
 10
4.2410973644
 20
3.8054142109
 30
0.0
 10
4.238956375
 20
3.8013953517
 30
0.0
 10
4.2364096608
 20
3.7976350391
 30
0.0
 10
4.2342893669
 20
3.794966738
 30
0.0
 10
4.2319604446
 20
3.7924785227
 30
0.0
 10
4.2302738465
 20
3.7909549477
 30
0.0
 10
4.2294000128
 20
3.7902309132
 30
0.0
  0
SPLINE
  5
34F
100
AcDbEntity
  8
0
100
AcDbSpline
 62
7
  6
CONTINUOUS
 70
0
 71
3
 72
18
 73
14
 74
0
 42
0.0000001
 43
0.0000001
 44
0.0000000001
 40
0.0
 40
0.0
 40
0.0
 40
0.0
 40
0.1249988856
 40
0.2499974507
 40
0.3749948512
 40
0.4999911988
 40
0.5624918119
 40
0.6249927212
 40
0.7499873713
 40
0.8124887884
 40
0.8749910374
 40
0.9374981708
 40
1.0
 40
1.0
 40
1.0
 40
1.0
 10
4.2489225397
 20
3.8511927228
 30
0.0
 10
4.2489225397
 20
3.8495736038
 30
0.0
 10
4.2488870917
 20
3.8463352372
 30
0.0
 10
4.2487178529
 20
3.8414803547
 30
0.0
 10
4.2484186674
 20
3.8366316301
 30
0.0
 10
4.2480423764
 20
3.8326005139
 30
0.0
 10
4.2476514034
 20
3.8293857623
 30
0.0
 10
4.2471976578
 20
3.8261793638
 30
0.0
 10
4.2466426089
 20
3.8229876204
 30
0.0
 10
4.2459649315
 20
3.8198207288
 30
0.0
 10
4.2453892738
 20
3.8174607145
 30
0.0
 10
4.2447420671
 20
3.815119292
 30
0.0
 10
4.2442575789
 20
3.8135737704
 30
0.0
 10
4.2440004775
 20
3.8128060885
 30
0.0
  0
SPLINE
  5
350
100
AcDbEntity
  8
0
100
AcDbSpline
 62
7
  6
CONTINUOUS
 70
0
 71
3
 72
17
 73
13
 74
0
 42
0.0000001
 43
0.0000001
 44
0.0000000001
 40
0.0
 40
0.0
 40
0.0
 40
0.0
 40
0.0625014464
 40
0.1250068892
 40
0.1875085317
 40
0.2500095412
 40
0.375006692
 40
0.5000042916
 40
0.6250024451
 40
0.7500011719
 40
0.875000501
 40
1.0
 40
1.0
 40
1.0
 40
1.0
 10
4.2458836496
 20
3.8830549356
 30
0.0
 10
4.2460493068
 20
3.8824073643
 30
0.0
 10
4.2463591003
 20
3.8811065983
 30
0.0
 10
4.2467678765
 20
3.8791431692
 30
0.0
 10
4.2471278066
 20
3.8771702241
 30
0.0
 10
4.2475477459
 20
3.8745295863
 30
0.0
 10
4.2479722185
 20
3.8712138274
 30
0.0
 10
4.2483530986
 20
3.8672210342
 30
0.0
 10
4.248624069
 20
3.8632193675
 30
0.0
 10
4.2488020983
 20
3.8592126114
 30
0.0
 10
4.248901852
 20
3.8552032139
 30
0.0
 10
4.2489225397
 20
3.8525295348
 30
0.0
 10
4.2489225397
 20
3.8511927228
 30
0.0
  0
SPLINE
  5
351
100
AcDbEntity
  8
0
100
AcDbSpline
 62
7
  6
CONTINUOUS
 70
0
 71
3
 72
13
 73
9
 74
0
 42
0.0000001
 43
0.0000001
 44
0.0000000001
 40
0.0
 40
0.0
 40
0.0
 40
0.0
 40
0.249966611
 40
0.4999417902
 40
0.6249565307
 40
0.7499711305
 40
0.8749858972
 40
1.0
 40
1.0
 40
1.0
 40
1.0
 10
4.2374711472
 20
3.9031089433
 30
0.0
 10
4.2384537198
 20
3.9015776602
 30
0.0
 10
4.2402662035
 20
3.8984147527
 30
0.0
 10
4.2421657267
 20
3.8942755585
 30
0.0
 10
4.2434844522
 20
3.8908827552
 30
0.0
 10
4.2443773304
 20
3.888302422
 30
0.0
 10
4.245179933
 20
3.8856927692
 30
0.0
 10
4.2456581387
 20
3.8839364808
 30
0.0
 10
4.2458836496
 20
3.8830549356
 30
0.0
  0
SPLINE
  5
352
100
AcDbEntity
  8
0
100
AcDbSpline
 62
7
  6
CONTINUOUS
 70
0
 71
3
 72
15
 73
11
 74
0
 42
0.0000001
 43
0.0000001
 44
0.0000000001
 40
0.0
 40
0.0
 40
0.0
 40
0.0
 40
0.1249998346
 40
0.2499995983
 40
0.3749994296
 40
0.4999992005
 40
0.624999006
 40
0.7499989141
 40
0.8749993768
 40
1.0
 40
1.0
 40
1.0
 40
1.0
 10
4.2239565629
 20
3.9157267023
 30
0.0
 10
4.224642473
 20
3.9153578089
 30
0.0
 10
4.2259917557
 20
3.9145771644
 30
0.0
 10
4.2279369079
 20
3.913279966
 30
0.0
 10
4.2297922996
 20
3.9118570616
 30
0.0
 10
4.2315493548
 20
3.9103144464
 30
0.0
 10
4.2332014361
 20
3.9086599543
 30
0.0
 10
4.2347432941
 20
3.9069023466
 30
0.0
 10
4.2361721356
 20
3.9050519734
 30
0.0
 10
4.2370505462
 20
3.9037644259
 30
0.0
 10
4.2374711472
 20
3.9031089433
 30
0.0
  0
SPLINE
  5
353
100
AcDbEntity
  8
0
100
AcDbSpline
 62
7
  6
CONTINUOUS
 70
0
 71
3
 72
14
 73
10
 74
0
 42
0.0000001
 43
0.0000001
 44
0.0000000001
 40
0.0
 40
0.0
 40
0.0
 40
0.0
 40
0.2499397511
 40
0.3749525508
 40
0.4999632653
 40
0.6249751358
 40
0.7499839396
 40
0.8750020676
 40
1.0
 40
1.0
 40
1.0
 40
1.0
 10
4.2049047861
 20
3.9201661246
 30
0.0
 10
4.2065511199
 20
3.9201661246
 30
0.0
 10
4.209023862
 20
3.9200497588
 30
0.0
 10
4.2122909363
 20
3.9196247918
 30
0.0
 10
4.2147191658
 20
3.9191619965
 30
0.0
 10
4.2171136497
 20
3.9185478398
 30
0.0
 10
4.2194624718
 20
3.9177763538
 30
0.0
 10
4.2217523911
 20
3.9168447122
 30
0.0
 10
4.2232314303
 20
3.9161166902
 30
0.0
 10
4.2239565629
 20
3.9157267023
 30
0.0
  0
SPLINE
  5
354
100
AcDbEntity
  8
0
100
AcDbSpline
 62
7
  6
CONTINUOUS
 70
0
 71
3
 72
14
 73
10
 74
0
 42
0.0000001
 43
0.0000001
 44
0.0000000001
 40
0.0
 40
0.0
 40
0.0
 40
0.0
 40
0.1250232967
 40
0.2500451058
 40
0.3750686017
 40
0.5000920275
 40
0.7499357189
 40
0.8749682261
 40
1.0
 40
1.0
 40
1.0
 40
1.0
 10
4.1804322074
 20
3.9122191657
 30
0.0
 10
4.1812774859
 20
3.9129135021
 30
0.0
 10
4.1830387033
 20
3.9142186846
 30
0.0
 10
4.1858627165
 20
3.9159005247
 30
0.0
 10
4.1888401462
 20
3.9172934545
 30
0.0
 10
4.1929647549
 20
3.9187643649
 30
0.0
 10
4.1972664624
 20
3.9196774112
 30
0.0
 10
4.2016219502
 20
3.9200994954
 30
0.0
 10
4.2038108204
 20
3.9201661246
 30
0.0
 10
4.2049047861
 20
3.9201661246
 30
0.0
  0
SPLINE
  5
355
100
AcDbEntity
  8
0
100
AcDbSpline
 62
7
  6
CONTINUOUS
 70
0
 71
3
 72
15
 73
11
 74
0
 42
0.0000001
 43
0.0000001
 44
0.0000000001
 40
0.0
 40
0.0
 40
0.0
 40
0.0
 40
0.1250038384
 40
0.2500078651
 40
0.375007882
 40
0.5000073679
 40
0.6250056011
 40
0.7500042266
 40
0.8750018368
 40
1.0
 40
1.0
 40
1.0
 40
1.0
 10
4.1657676832
 20
3.8896852193
 30
0.0
 10
4.1661326376
 20
3.8907598065
 30
0.0
 10
4.1669142785
 20
3.892891871
 30
0.0
 10
4.1682516192
 20
3.8960246189
 30
0.0
 10
4.1697715878
 20
3.8990734551
 30
0.0
 10
4.1714844994
 20
3.9020186108
 30
0.0
 10
4.1734010393
 20
3.904836077
 30
0.0
 10
4.1755272251
 20
3.9074995709
 30
0.0
 10
4.1778630833
 20
3.9099814112
 30
0.0
 10
4.1795553038
 20
3.9114988515
 30
0.0
 10
4.1804322074
 20
3.9122191657
 30
0.0
  0
SPLINE
  5
356
100
AcDbEntity
  8
0
100
AcDbSpline
 62
7
  6
CONTINUOUS
 70
0
 71
3
 72
20
 73
16
 74
0
 42
0.0000001
 43
0.0000001
 44
0.0000000001
 40
0.0
 40
0.0
 40
0.0
 40
0.0
 40
0.1249743263
 40
0.1874789713
 40
0.249981536
 40
0.3124885122
 40
0.3749975457
 40
0.4375054712
 40
0.5000153773
 40
0.5625256662
 40
0.6250377581
 40
0.6875503621
 40
0.7500650238
 40
0.8750244099
 40
1.0
 40
1.0
 40
1.0
 40
1.0
 10
4.2240372455
 20
3.8954714798
 30
0.0
 10
4.2234816811
 20
3.8962601827
 30
0.0
 10
4.2226019419
 20
3.8974120851
 30
0.0
 10
4.2213313576
 20
3.8988651702
 30
0.0
 10
4.2203260923
 20
3.8999075759
 30
0.0
 10
4.219267208
 20
3.900895584
 30
0.0
 10
4.2181547528
 20
3.9018230715
 30
0.0
 10
4.2169890998
 20
3.9026829806
 30
0.0
 10
4.2157711308
 20
3.9034672491
 30
0.0
 10
4.2145038567
 20
3.9041692955
 30
0.0
 10
4.2131914179
 20
3.9047829476
 30
0.0
 10
4.2118391723
 20
3.9053033693
 30
0.0
 10
4.2099925825
 20
3.9058685053
 30
0.0
 10
4.2076170694
 20
3.906330132
 30
0.0
 10
4.2056853547
 20
3.9064451127
 30
0.0
 10
4.2047206149
 20
3.9064451127
 30
0.0
  0
SPLINE
  5
357
100
AcDbEntity
  8
0
100
AcDbSpline
 62
7
  6
CONTINUOUS
 70
0
 71
3
 72
25
 73
21
 74
0
 42
0.0000001
 43
0.0000001
 44
0.0000000001
 40
0.0
 40
0.0
 40
0.0
 40
0.0
 40
0.1249981837
 40
0.1874983409
 40
0.2499986997
 40
0.3124990122
 40
0.3749993947
 40
0.4374996064
 40
0.4999997351
 40
0.562499598
 40
0.6249990732
 40
0.6874978962
 40
0.749995097
 40
0.8124901493
 40
0.8437406781
 40
0.8749914138
 40
0.9062431774
 40
0.9374938281
 40
0.9687481311
 40
1.0
 40
1.0
 40
1.0
 40
1.0
 10
4.2318863819
 20
3.8511927228
 30
0.0
 10
4.2318863819
 20
3.8530893724
 30
0.0
 10
4.231856412
 20
3.8559345281
 30
0.0
 10
4.2317476706
 20
3.8597263798
 30
0.0
 10
4.2316286424
 20
3.8625690138
 30
0.0
 10
4.2314675212
 20
3.865409595
 30
0.0
 10
4.2312587207
 20
3.8682471073
 30
0.0
 10
4.2309950141
 20
3.8710800856
 30
0.0
 10
4.2306703336
 20
3.873906762
 30
0.0
 10
4.2302772192
 20
3.8767248048
 30
0.0
 10
4.2298045018
 20
3.8795306889
 30
0.0
 10
4.2292379369
 20
3.8823193229
 30
0.0
 10
4.2285579737
 20
3.8850826607
 30
0.0
 10
4.2278776254
 20
3.8873551179
 30
0.0
 10
4.2272494929
 20
3.8891450389
 30
0.0
 10
4.2267312643
 20
3.890470203
 30
0.0
 10
4.2261601801
 20
3.8917735789
 30
0.0
 10
4.2255278224
 20
3.8930486248
 30
0.0
 10
4.2248274401
 20
3.8942876925
 30
0.0
 10
4.2243103243
 20
3.8950838054
 30
0.0
 10
4.2240372455
 20
3.8954714798
 30
0.0
  0
SPLINE
  5
358
100
AcDbEntity
  8
0
100
AcDbSpline
 62
7
  6
CONTINUOUS
 70
0
 71
3
 72
24
 73
20
 74
0
 42
0.0000001
 43
0.0000001
 44
0.0000000001
 40
0.0
 40
0.0
 40
0.0
 40
0.0
 40
0.031251667
 40
0.0625047123
 40
0.0937554493
 40
0.1250068966
 40
0.1562577474
 40
0.1875084682
 40
0.2187591687
 40
0.2500099382
 40
0.3125077707
 40
0.3750070018
 40
0.437506928
 40
0.5000073146
 40
0.6250013682
 40
0.7499987845
 40
0.8124997622
 40
0.8750005455
 40
1.0
 40
1.0
 40
1.0
 40
1.0
 10
4.2240589449
 20
3.8069908121
 30
0.0
 10
4.2243303676
 20
3.8073785587
 30
0.0
 10
4.2248443588
 20
3.8081745282
 30
0.0
 10
4.2255408722
 20
3.8094126753
 30
0.0
 10
4.2261698602
 20
3.8106863719
 30
0.0
 10
4.2267383469
 20
3.8119879632
 30
0.0
 10
4.2272542343
 20
3.8133111638
 30
0.0
 10
4.2277237283
 20
3.8146514398
 30
0.0
 10
4.2281511811
 20
3.816005658
 30
0.0
 10
4.2286714402
 20
3.8178260742
 30
0.0
 10
4.2292367234
 20
3.8201248598
 30
0.0
 10
4.2298025048
 20
3.8229081622
 30
0.0
 10
4.230275004
 20
3.8257087137
 30
0.0
 10
4.2307989661
 20
3.8294588252
 30
0.0
 10
4.2312841427
 20
3.8341682288
 30
0.0
 10
4.2315879263
 20
3.8388920286
 30
0.0
 10
4.2317471942
 20
3.8426749955
 30
0.0
 10
4.2318562851
 20
3.8464597667
 30
0.0
 10
4.2318863819
 20
3.8492996118
 30
0.0
 10
4.2318863819
 20
3.8511927228
 30
0.0
  0
SPLINE
  5
359
100
AcDbEntity
  8
0
100
AcDbSpline
 62
7
  6
CONTINUOUS
 70
0
 71
3
 72
21
 73
17
 74
0
 42
0.0000001
 43
0.0000001
 44
0.0000000001
 40
0.0
 40
0.0
 40
0.0
 40
0.0
 40
0.1249635762
 40
0.187478901
 40
0.2499867933
 40
0.3124973415
 40
0.3750057384
 40
0.4375138235
 40
0.5000199146
 40
0.562525666
 40
0.6250295838
 40
0.6875342933
 40
0.7500367818
 40
0.8125348041
 40
0.8750345294
 40
1.0
 40
1.0
 40
1.0
 40
1.0
 10
4.2049047861
 20
3.7959403339
 30
0.0
 10
4.2058650199
 20
3.7959403339
 30
0.0
 10
4.2073082656
 20
3.7960302911
 30
0.0
 10
4.2092043232
 20
3.7963453475
 30
0.0
 10
4.2106071308
 20
3.7966805994
 30
0.0
 10
4.2119824082
 20
3.7971147634
 30
0.0
 10
4.2133233173
 20
3.7976456808
 30
0.0
 10
4.21462361
 20
3.7982692941
 30
0.0
 10
4.2158781787
 20
3.7989802347
 30
0.0
 10
4.2170832834
 20
3.7997719147
 30
0.0
 10
4.2182363087
 20
3.8006374888
 30
0.0
 10
4.2193366461
 20
3.8015689076
 30
0.0
 10
4.2203841236
 20
3.802559197
 30
0.0
 10
4.2213788809
 20
3.8036023187
 30
0.0
 10
4.2226367366
 20
3.8050545617
 30
0.0
 10
4.2235082786
 20
3.806204146
 30
0.0
 10
4.2240589449
 20
3.8069908121
 30
0.0
  0
SPLINE
  5
35A
100
AcDbEntity
  8
0
100
AcDbSpline
 62
7
  6
CONTINUOUS
 70
0
 71
3
 72
20
 73
16
 74
0
 42
0.0000001
 43
0.0000001
 44
0.0000000001
 40
0.0
 40
0.0
 40
0.0
 40
0.0
 40
0.1249740437
 40
0.1874787203
 40
0.2499812716
 40
0.3124883016
 40
0.3749974145
 40
0.437505372
 40
0.5000153143
 40
0.5625256461
 40
0.6250377542
 40
0.6875503573
 40
0.750065014
 40
0.8750243376
 40
1.0
 40
1.0
 40
1.0
 40
1.0
 10
4.1856585417
 20
3.8068987245
 30
0.0
 10
4.1862102474
 20
3.8061105736
 30
0.0
 10
4.1870843231
 20
3.8049593762
 30
0.0
 10
4.1883477211
 20
3.8035070997
 30
0.0
 10
4.1893478408
 20
3.802465288
 30
0.0
 10
4.1904018542
 20
3.8014779193
 30
0.0
 10
4.1915097105
 20
3.8005511553
 30
0.0
 10
4.1926710316
 20
3.7996921012
 30
0.0
 10
4.1938849227
 20
3.7989088746
 30
0.0
 10
4.1951483154
 20
3.7982080622
 30
0.0
 10
4.1964570029
 20
3.7975958174
 30
0.0
 10
4.1978055512
 20
3.7970769184
 30
0.0
 10
4.1996471929
 20
3.796513832
 30
0.0
 10
4.2020163472
 20
3.796054513
 30
0.0
 10
4.2039427128
 20
3.7959403339
 30
0.0
 10
4.2049047861
 20
3.7959403339
 30
0.0
  0
SPLINE
  5
35B
100
AcDbEntity
  8
0
100
AcDbSpline
 62
7
  6
CONTINUOUS
 70
0
 71
3
 72
25
 73
21
 74
0
 42
0.0000001
 43
0.0000001
 44
0.0000000001
 40
0.0
 40
0.0
 40
0.0
 40
0.0
 40
0.1249982384
 40
0.1874983591
 40
0.2499986787
 40
0.3124989528
 40
0.3749993011
 40
0.4374994923
 40
0.4999996011
 40
0.5624994574
 40
0.6249989363
 40
0.687497767
 40
0.7499949912
 40
0.8124900552
 40
0.8437405847
 40
0.8749913244
 40
0.9062431029
 40
0.9374937623
 40
0.9687481074
 40
1.0
 40
1.0
 40
1.0
 40
1.0
 10
4.1779232064
 20
3.8511927228
 30
0.0
 10
4.1779232064
 20
3.8492965596
 30
0.0
 10
4.1779521473
 20
3.8464521441
 30
0.0
 10
4.1780574255
 20
3.842661174
 30
0.0
 10
4.1781728121
 20
3.8398191282
 30
0.0
 10
4.1783292451
 20
3.8369790239
 30
0.0
 10
4.1785323116
 20
3.834141836
 30
0.0
 10
4.1787892033
 20
3.8313089738
 30
0.0
 10
4.1791060671
 20
3.828482154
 30
0.0
 10
4.1794904297
 20
3.8256636505
 30
0.0
 10
4.1799534794
 20
3.8228569047
 30
0.0
 10
4.1805096172
 20
3.8200669266
 30
0.0
 10
4.1811785854
 20
3.8173016667
 30
0.0
 10
4.1818495403
 20
3.8150270564
 30
0.0
 10
4.1824702455
 20
3.8132350609
 30
0.0
 10
4.1829830242
 20
3.8119081686
 30
0.0
 10
4.1835488688
 20
3.8106029044
 30
0.0
 10
4.1841763059
 20
3.8093258301
 30
0.0
 10
4.1848721982
 20
3.808084645
 30
0.0
 10
4.1853866768
 20
3.8072871028
 30
0.0
 10
4.1856585417
 20
3.8068987245
 30
0.0
  0
SPLINE
  5
35C
100
AcDbEntity
  8
0
100
AcDbSpline
 62
7
  6
CONTINUOUS
 70
0
 71
3
 72
21
 73
17
 74
0
 42
0.0000001
 43
0.0000001
 44
0.0000000001
 40
0.0
 40
0.0
 40
0.0
 40
0.0
 40
0.0624966573
 40
0.1249955683
 40
0.1874969638
 40
0.2499984243
 40
0.3124997561
 40
0.3750010472
 40
0.4375022505
 40
0.500003388
 40
0.5625043749
 40
0.6250052009
 40
0.7500011095
 40
0.8125015904
 40
0.8750018898
 40
1.0
 40
1.0
 40
1.0
 40
1.0
 10
4.1865144829
 20
3.8967570163
 30
0.0
 10
4.1859568923
 20
3.8959532825
 30
0.0
 10
4.1849393026
 20
3.8942768493
 30
0.0
 10
4.183660758
 20
3.891631744
 30
0.0
 10
4.1825900114
 20
3.8888966675
 30
0.0
 10
4.1816885011
 20
3.8861021862
 30
0.0
 10
4.1809298113
 20
3.8832659999
 30
0.0
 10
4.1802925192
 20
3.8804004268
 30
0.0
 10
4.1797583219
 20
3.8775140706
 30
0.0
 10
4.179312311
 20
3.874612928
 30
0.0
 10
4.1789430868
 20
3.8717011034
 30
0.0
 10
4.1785418236
 20
3.8678084305
 30
0.0
 10
4.178263884
 20
3.8639042041
 30
0.0
 10
4.1780819661
 20
3.859995354
 30
0.0
 10
4.1779575025
 20
3.8560841831
 30
0.0
 10
4.1779232064
 20
3.8531492184
 30
0.0
 10
4.1779232064
 20
3.8511927228
 30
0.0
  0
SPLINE
  5
35D
100
AcDbEntity
  8
0
100
AcDbSpline
 62
7
  6
CONTINUOUS
 70
0
 71
3
 72
21
 73
17
 74
0
 42
0.0000001
 43
0.0000001
 44
0.0000000001
 40
0.0
 40
0.0
 40
0.0
 40
0.0
 40
0.1249643437
 40
0.1874699439
 40
0.2499754427
 40
0.3124823849
 40
0.3749882643
 40
0.4374918344
 40
0.4999961839
 40
0.5625008044
 40
0.6250051705
 40
0.6875128679
 40
0.7500206142
 40
0.8125261061
 40
0.8750317575
 40
1.0
 40
1.0
 40
1.0
 40
1.0
 10
4.2047206149
 20
3.9064451127
 30
0.0
 10
4.2038240563
 20
3.9064451127
 30
0.0
 10
4.2024773767
 20
3.9063780181
 30
0.0
 10
4.2006992662
 20
3.9061380744
 30
0.0
 10
4.1993784337
 20
3.9058776196
 30
0.0
 10
4.1980767015
 20
3.9055342212
 30
0.0
 10
4.1968000783
 20
3.9051066145
 30
0.0
 10
4.1955551677
 20
3.9045938877
 30
0.0
 10
4.1943481918
 20
3.90399732
 30
0.0
 10
4.1931846426
 20
3.9033199568
 30
0.0
 10
4.1920694313
 20
3.9025656829
 30
0.0
 10
4.1910059591
 20
3.9017401457
 30
0.0
 10
4.1899962714
 20
3.900849755
 30
0.0
 10
4.1890419141
 20
3.8999003412
 30
0.0
 10
4.187844016
 20
3.8985646562
 30
0.0
 10
4.187025547
 20
3.8974936851
 30
0.0
 10
4.1865144829
 20
3.8967570163
 30
0.0
  0
SPLINE
  5
35E
100
AcDbEntity
  8
0
100
AcDbSpline
 62
7
  6
CONTINUOUS
 70
0
 71
3
 72
14
 73
10
 74
0
 42
0.0000001
 43
0.0000001
 44
0.0000000001
 40
0.0
 40
0.0
 40
0.0
 40
0.0
 40
0.125023426
 40
0.2500462141
 40
0.375069824
 40
0.5000927515
 40
0.7499409329
 40
0.8749704686
 40
1.0
 40
1.0
 40
1.0
 40
1.0
 10
4.8533380301
 20
3.3376159577
 30
0.0
 10
4.8542289777
 20
3.3372583426
 30
0.0
 10
4.8559783018
 20
3.3364585238
 30
0.0
 10
4.8584748284
 20
3.3350140299
 30
0.0
 10
4.8608223564
 20
3.3333377364
 30
0.0
 10
4.8637316091
 20
3.3308268605
 30
0.0
 10
4.8663009371
 20
3.3279480503
 30
0.0
 10
4.8685253808
 20
3.3248174446
 30
0.0
 10
4.8695339451
 20
3.3231815235
 30
0.0
 10
4.8700129927
 20
3.3223494901
 30
0.0
  0
SPLINE
  5
35F
100
AcDbEntity
  8
0
100
AcDbSpline
 62
7
  6
CONTINUOUS
 70
0
 71
3
 72
14
 73
10
 74
0
 42
0.0000001
 43
0.0000001
 44
0.0000000001
 40
0.0
 40
0.0
 40
0.0
 40
0.0
 40
0.125027038
 40
0.2500540518
 40
0.4999178244
 40
0.6249382426
 40
0.7499592991
 40
0.8749793641
 40
1.0
 40
1.0
 40
1.0
 40
1.0
 10
4.830363051
 20
3.3383240082
 30
0.0
 10
4.8313045518
 20
3.3385762826
 30
0.0
 10
4.8332026115
 20
3.339027427
 30
0.0
 10
4.8370442088
 20
3.3396932666
 30
0.0
 10
4.840950877
 20
3.339955887
 30
0.0
 10
4.8448459133
 20
3.3397347956
 30
0.0
 10
4.847743322
 20
3.3393109145
 30
0.0
 10
4.8505885048
 20
3.3386189892
 30
0.0
 10
4.8524335112
 20
3.3379790202
 30
0.0
 10
4.8533380301
 20
3.3376159577
 30
0.0
  0
SPLINE
  5
360
100
AcDbEntity
  8
0
100
AcDbSpline
 62
7
  6
CONTINUOUS
 70
0
 71
3
 72
20
 73
16
 74
0
 42
0.0000001
 43
0.0000001
 44
0.0000000001
 40
0.0
 40
0.0
 40
0.0
 40
0.0
 40
0.1249972196
 40
0.2499846055
 40
0.3749603746
 40
0.437468369
 40
0.4999747304
 40
0.5624801404
 40
0.6249846453
 40
0.6874881907
 40
0.7499919423
 40
0.8124949127
 40
0.8749961945
 40
0.9375001532
 40
1.0
 40
1.0
 40
1.0
 40
1.0
 10
4.8049521804
 20
3.3188587091
 30
0.0
 10
4.8056211483
 20
3.3200567072
 30
0.0
 10
4.8070676626
 20
3.3223942521
 30
0.0
 10
4.8095711534
 20
3.3256698506
 30
0.0
 10
4.8119342867
 20
3.3281661015
 30
0.0
 10
4.8139781604
 20
3.3299989637
 30
0.0
 10
4.8155842847
 20
3.3312881389
 30
0.0
 10
4.8172580791
 20
3.3324879492
 30
0.0
 10
4.8189938518
 20
3.3335961087
 30
0.0
 10
4.8207853127
 20
3.334611627
 30
0.0
 10
4.8226259539
 20
3.3355348373
 30
0.0
 10
4.8245094906
 20
3.3363668414
 30
0.0
 10
4.8264302086
 20
3.3371088244
 30
0.0
 10
4.8283819143
 20
3.3377644916
 30
0.0
 10
4.829700354
 20
3.3381464391
 30
0.0
 10
4.830363051
 20
3.3383240082
 30
0.0
  0
SPLINE
  5
361
100
AcDbEntity
  8
0
100
AcDbSpline
 62
7
  6
CONTINUOUS
 70
0
 71
3
 72
17
 73
13
 74
0
 42
0.0000001
 43
0.0000001
 44
0.0000000001
 40
0.0
 40
0.0
 40
0.0
 40
0.0
 40
0.1249961216
 40
0.1875044565
 40
0.2500127454
 40
0.3750045644
 40
0.4999924819
 40
0.5625057703
 40
0.6250210265
 40
0.7500079244
 40
0.8749994044
 40
1.0
 40
1.0
 40
1.0
 40
1.0
 10
4.8019365194
 20
3.2846599499
 30
0.0
 10
4.8015566086
 20
3.2860777965
 30
0.0
 10
4.8010549106
 20
3.2882240838
 30
0.0
 10
4.80054088
 20
3.2911152633
 30
0.0
 10
4.8001397934
 20
3.2940243261
 30
0.0
 10
4.7998648223
 20
3.2976884545
 30
0.0
 10
4.7999279174
 20
3.3013638624
 30
0.0
 10
4.8002023972
 20
3.3042882555
 30
0.0
 10
4.8006314068
 20
3.3071939038
 30
0.0
 10
4.8014640031
 20
3.3107764784
 30
0.0
 10
4.8029433628
 20
3.3149335335
 30
0.0
 10
4.804236509
 20
3.3175770735
 30
0.0
 10
4.8049521804
 20
3.3188587091
 30
0.0
  0
SPLINE
  5
362
100
AcDbEntity
  8
0
100
AcDbSpline
 62
7
  6
CONTINUOUS
 70
0
 71
3
 72
17
 73
13
 74
0
 42
0.0000001
 43
0.0000001
 44
0.0000000001
 40
0.0
 40
0.0
 40
0.0
 40
0.0
 40
0.1250022448
 40
0.2499955238
 40
0.3749829135
 40
0.4374979044
 40
0.5000109855
 40
0.6249981316
 40
0.7499889018
 40
0.812496975
 40
0.8750048428
 40
1.0
 40
1.0
 40
1.0
 40
1.0
 10
4.8216633612
 20
3.2565774031
 30
0.0
 10
4.8204056189
 20
3.2573327654
 30
0.0
 10
4.8179685805
 20
3.2589791957
 30
0.0
 10
4.8146111798
 20
3.2618383003
 30
0.0
 10
4.8120969681
 20
3.2645199319
 30
0.0
 10
4.8102694994
 20
3.2668172711
 30
0.0
 10
4.8085656477
 20
3.269207828
 30
0.0
 10
4.8066676057
 20
3.272353498
 30
0.0
 10
4.8050685017
 20
3.2756595327
 30
0.0
 10
4.803958136
 20
3.2783763645
 30
0.0
 10
4.8029554122
 20
3.2811346719
 30
0.0
 10
4.8023162206
 20
3.2832428858
 30
0.0
 10
4.8019365194
 20
3.2846599499
 30
0.0
  0
SPLINE
  5
363
100
AcDbEntity
  8
0
100
AcDbSpline
 62
7
  6
CONTINUOUS
 70
0
 71
3
 72
18
 73
14
 74
0
 42
0.0000001
 43
0.0000001
 44
0.0000000001
 40
0.0
 40
0.0
 40
0.0
 40
0.0
 40
0.0625050434
 40
0.1250141614
 40
0.1875205167
 40
0.2500285546
 40
0.3750038044
 40
0.4375133343
 40
0.50002393
 40
0.6250025301
 40
0.7499901303
 40
0.8749906422
 40
1.0
 40
1.0
 40
1.0
 40
1.0
 10
4.8529418993
 20
3.2522796108
 30
0.0
 10
4.8522881153
 20
3.2521044299
 30
0.0
 10
4.85097296
 20
3.2517814744
 30
0.0
 10
4.8489810381
 20
3.2513837913
 30
0.0
 10
4.8469726553
 20
3.2510783903
 30
0.0
 10
4.8442789514
 20
3.2508021152
 30
0.0
 10
4.8415670337
 20
3.2507294538
 30
0.0
 10
4.8388626669
 20
3.2508737256
 30
0.0
 10
4.8361699714
 20
3.2511642858
 30
0.0
 10
4.8328397096
 20
3.2518033599
 30
0.0
 10
4.8289509735
 20
3.2529975163
 30
0.0
 10
4.8252069864
 20
3.2545866936
 30
0.0
 10
4.8228238455
 20
3.255880451
 30
0.0
 10
4.8216633612
 20
3.2565774031
 30
0.0
  0
SPLINE
  5
364
100
AcDbEntity
  8
0
100
AcDbSpline
 62
7
  6
CONTINUOUS
 70
0
 71
3
 72
15
 73
11
 74
0
 42
0.0000001
 43
0.0000001
 44
0.0000000001
 40
0.0
 40
0.0
 40
0.0
 40
0.0
 40
0.1249991425
 40
0.2499979427
 40
0.3749971358
 40
0.4999959326
 40
0.6249952558
 40
0.7499949391
 40
0.8749972867
 40
1.0
 40
1.0
 40
1.0
 40
1.0
 10
4.8720430852
 20
3.2641891481
 30
0.0
 10
4.8714386554
 20
3.2634516881
 30
0.0
 10
4.8701684411
 20
3.2620257925
 30
0.0
 10
4.8680905308
 20
3.2600550609
 30
0.0
 10
4.8658521235
 20
3.2582684315
 30
0.0
 10
4.8634722513
 20
3.25667548
 30
0.0
 10
4.8609711691
 20
3.2552810892
 30
0.0
 10
4.8583706493
 20
3.2540829318
 30
0.0
 10
4.8556903589
 20
3.2530770885
 30
0.0
 10
4.8538629461
 20
3.2525264046
 30
0.0
 10
4.8529418993
 20
3.2522796108
 30
0.0
  0
SPLINE
  5
365
100
AcDbEntity
  8
0
100
AcDbSpline
 62
7
  6
CONTINUOUS
 70
0
 71
3
 72
14
 73
10
 74
0
 42
0.0000001
 43
0.0000001
 44
0.0000000001
 40
0.0
 40
0.0
 40
0.0
 40
0.0
 40
0.125025757
 40
0.2500516558
 40
0.4999212361
 40
0.6249407728
 40
0.7499609384
 40
0.8749801622
 40
1.0
 40
1.0
 40
1.0
 40
1.0
 10
4.8798087474
 20
3.285791236
 30
0.0
 10
4.8797504726
 20
3.284820358
 30
0.0
 10
4.8795805547
 20
3.2828811269
 30
0.0
 10
4.8790103758
 20
3.2790326498
 30
0.0
 10
4.878047092
 20
3.2752468625
 30
0.0
 10
4.8766373413
 20
3.271618221
 30
0.0
 10
4.8753472615
 20
3.2689966503
 30
0.0
 10
4.873824219
 20
3.2665034074
 30
0.0
 10
4.8726596025
 20
3.2649413561
 30
0.0
 10
4.8720430852
 20
3.2641891481
 30
0.0
  0
SPLINE
  5
366
100
AcDbEntity
  8
0
100
AcDbSpline
 62
7
  6
CONTINUOUS
 70
0
 71
3
 72
15
 73
11
 74
0
 42
0.0000001
 43
0.0000001
 44
0.0000000001
 40
0.0
 40
0.0
 40
0.0
 40
0.0
 40
0.1249979079
 40
0.2499951113
 40
0.3749935841
 40
0.4999916986
 40
0.6249905901
 40
0.7499910505
 40
0.8749955249
 40
1.0
 40
1.0
 40
1.0
 40
1.0
 10
4.8939879923
 20
3.2741461575
 30
0.0
 10
4.8932627025
 20
3.2744210015
 30
0.0
 10
4.8918371695
 20
3.2750392755
 30
0.0
 10
4.8897920256
 20
3.2761551459
 30
0.0
 10
4.8878517499
 20
3.2774445478
 30
0.0
 10
4.8860214871
 20
3.2788850414
 30
0.0
 10
4.8843026066
 20
3.2804563272
 30
0.0
 10
4.882695105
 20
3.2821410121
 30
0.0
 10
4.8811940935
 20
3.2839207446
 30
0.0
 10
4.8802597929
 20
3.2851602006
 30
0.0
 10
4.8798087474
 20
3.285791236
 30
0.0
  0
SPLINE
  5
367
100
AcDbEntity
  8
0
100
AcDbSpline
 62
7
  6
CONTINUOUS
 70
0
 71
3
 72
14
 73
10
 74
0
 42
0.0000001
 43
0.0000001
 44
0.0000000001
 40
0.0
 40
0.0
 40
0.0
 40
0.0
 40
0.2499031545
 40
0.3749188937
 40
0.4999391504
 40
0.6249599089
 40
0.7499734146
 40
0.8749933365
 40
1.0
 40
1.0
 40
1.0
 40
1.0
 10
4.9111080389
 20
3.273585331
 30
0.0
 10
4.9097070747
 20
3.2732099437
 30
0.0
 10
4.9075663128
 20
3.2727750746
 30
0.0
 10
4.9046753067
 20
3.2725050378
 30
0.0
 10
4.9024964989
 20
3.2724684587
 30
0.0
 10
4.9003217776
 20
3.272607495
 30
0.0
 10
4.8981660947
 20
3.2729281607
 30
0.0
 10
4.8960459975
 20
3.2734323612
 30
0.0
 10
4.8946664268
 20
3.2738890689
 30
0.0
 10
4.8939879923
 20
3.2741461575
 30
0.0
  0
SPLINE
  5
368
100
AcDbEntity
  8
0
100
AcDbSpline
 62
7
  6
CONTINUOUS
 70
0
 71
3
 72
15
 73
11
 74
0
 42
0.0000001
 43
0.0000001
 44
0.0000000001
 40
0.0
 40
0.0
 40
0.0
 40
0.0
 40
0.1250062811
 40
0.2500101978
 40
0.3750069238
 40
0.5000019278
 40
0.6249963939
 40
0.7499923776
 40
0.8749947157
 40
1.0
 40
1.0
 40
1.0
 40
1.0
 10
4.9324247816
 20
3.2904514161
 30
0.0
 10
4.9318685829
 20
3.2894267081
 30
0.0
 10
4.9306671188
 20
3.2874239399
 30
0.0
 10
4.9285899342
 20
3.2846030402
 30
0.0
 10
4.9262334634
 20
3.282009592
 30
0.0
 10
4.9236117616
 20
3.2796840628
 30
0.0
 10
4.9207494159
 20
3.2776620026
 30
0.0
 10
4.9176852154
 20
3.2759618587
 30
0.0
 10
4.9144614543
 20
3.2745904752
 30
0.0
 10
4.9122342279
 20
3.2738870924
 30
0.0
 10
4.9111080389
 20
3.273585331
 30
0.0
  0
SPLINE
  5
369
100
AcDbEntity
  8
0
100
AcDbSpline
 62
7
  6
CONTINUOUS
 70
0
 71
3
 72
17
 73
13
 74
0
 42
0.0000001
 43
0.0000001
 44
0.0000000001
 40
0.0
 40
0.0
 40
0.0
 40
0.0
 40
0.1249998315
 40
0.1875151323
 40
0.2500260675
 40
0.3750216071
 40
0.5000158293
 40
0.5625298487
 40
0.6250451303
 40
0.7500306354
 40
0.8750130699
 40
1.0
 40
1.0
 40
1.0
 40
1.0
 10
4.9350224449
 20
3.3206062224
 30
0.0
 10
4.9353570889
 20
3.3193573138
 30
0.0
 10
4.9357979822
 20
3.317466378
 30
0.0
 10
4.9362464309
 20
3.3149188514
 30
0.0
 10
4.9365955972
 20
3.3123557763
 30
0.0
 10
4.9368316995
 20
3.309127734
 30
0.0
 10
4.9367720485
 20
3.3058904646
 30
0.0
 10
4.9365305948
 20
3.3033145396
 30
0.0
 10
4.9361560742
 20
3.300754735
 30
0.0
 10
4.9354335884
 20
3.2975971361
 30
0.0
 10
4.9341558572
 20
3.2939273906
 30
0.0
 10
4.9330415201
 20
3.291587659
 30
0.0
 10
4.9324247816
 20
3.2904514161
 30
0.0
  0
SPLINE
  5
36A
100
AcDbEntity
  8
0
100
AcDbSpline
 62
7
  6
CONTINUOUS
 70
0
 71
3
 72
16
 73
12
 74
0
 42
0.0000001
 43
0.0000001
 44
0.0000000001
 40
0.0
 40
0.0
 40
0.0
 40
0.0
 40
0.1249862709
 40
0.1875019837
 40
0.2500166516
 40
0.3750026478
 40
0.4999923456
 40
0.6249879518
 40
0.74998844
 40
0.8749931816
 40
1.0
 40
1.0
 40
1.0
 40
1.0
 10
4.9180328395
 20
3.345225384
 30
0.0
 10
4.9191216536
 20
3.3445571698
 30
0.0
 10
4.9207016385
 20
3.3434632549
 30
0.0
 10
4.9226733171
 20
3.3418360043
 30
0.0
 10
4.9245501034
 20
3.3400998024
 30
0.0
 10
4.9267096352
 20
3.3377369993
 30
0.0
 10
4.9289824047
 20
3.3346426308
 30
0.0
 10
4.9309364979
 20
3.3313387338
 30
0.0
 10
4.9325874847
 20
3.3278744069
 30
0.0
 10
4.9339520536
 20
3.3242886811
 30
0.0
 10
4.9346917471
 20
3.3218404032
 30
0.0
 10
4.9350224449
 20
3.3206062224
 30
0.0
  0
SPLINE
  5
36B
100
AcDbEntity
  8
0
100
AcDbSpline
 62
7
  6
CONTINUOUS
 70
0
 71
3
 72
18
 73
14
 74
0
 42
0.0000001
 43
0.0000001
 44
0.0000000001
 40
0.0
 40
0.0
 40
0.0
 40
0.0
 40
0.1249807637
 40
0.1874860442
 40
0.2499930139
 40
0.3749647103
 40
0.4374731324
 40
0.4999829233
 40
0.5624935182
 40
0.6250063392
 40
0.7499919798
 40
0.8749917988
 40
1.0
 40
1.0
 40
1.0
 40
1.0
 10
4.8913654312
 20
3.3490447344
 30
0.0
 10
4.8924816577
 20
3.3493438264
 30
0.0
 10
4.8941767166
 20
3.3497213051
 30
0.0
 10
4.8964633363
 20
3.350064466
 30
0.0
 10
4.8987640531
 20
3.3502942898
 30
0.0
 10
4.9010800145
 20
3.3503464294
 30
0.0
 10
4.9033884392
 20
3.3502114168
 30
0.0
 10
4.9051121701
 20
3.3500152389
 30
0.0
 10
4.9068224223
 20
3.3497238723
 30
0.0
 10
4.9090772725
 20
3.3492102512
 30
0.0
 10
4.9118386705
 20
3.3483390097
 30
0.0
 10
4.9150230511
 20
3.3469534017
 30
0.0
 10
4.9170477084
 20
3.3458299672
 30
0.0
 10
4.9180328395
 20
3.345225384
 30
0.0
  0
SPLINE
  5
36C
100
AcDbEntity
  8
0
100
AcDbSpline
 62
7
  6
CONTINUOUS
 70
0
 71
3
 72
15
 73
11
 74
0
 42
0.0000001
 43
0.0000001
 44
0.0000000001
 40
0.0
 40
0.0
 40
0.0
 40
0.0
 40
0.1249986814
 40
0.2499968012
 40
0.3749956256
 40
0.499994084
 40
0.624993016
 40
0.7499930108
 40
0.874996356
 40
1.0
 40
1.0
 40
1.0
 40
1.0
 10
4.8764430723
 20
3.3399207351
 30
0.0
 10
4.876914373
 20
3.3404921428
 30
0.0
 10
4.8779081805
 20
3.3415937796
 30
0.0
 10
4.8795380075
 20
3.3431082372
 30
0.0
 10
4.8812946847
 20
3.3444736139
 30
0.0
 10
4.8831595153
 20
3.3456864771
 30
0.0
 10
4.8851145233
 20
3.3467473746
 30
0.0
 10
4.8871433086
 20
3.3476587166
 30
0.0
 10
4.8892297288
 20
3.3484278689
 30
0.0
 10
4.890649945
 20
3.3488530204
 30
0.0
 10
4.8913654312
 20
3.3490447344
 30
0.0
  0
SPLINE
  5
36D
100
AcDbEntity
  8
0
100
AcDbSpline
 62
7
  6
CONTINUOUS
 70
0
 71
3
 72
15
 73
11
 74
0
 42
0.0000001
 43
0.0000001
 44
0.0000000001
 40
0.0
 40
0.0
 40
0.0
 40
0.0
 40
0.125004714
 40
0.2500095548
 40
0.3750103485
 40
0.5000091033
 40
0.625007287
 40
0.7500056396
 40
0.8750023499
 40
1.0
 40
1.0
 40
1.0
 40
1.0
 10
4.8700129927
 20
3.3223494901
 30
0.0
 10
4.8700792292
 20
3.3231384618
 30
0.0
 10
4.870251078
 20
3.3247134303
 30
0.0
 10
4.8706360733
 20
3.3270585018
 30
0.0
 10
4.8711645942
 20
3.329375912
 30
0.0
 10
4.871854049
 20
3.3316509932
 30
0.0
 10
4.872714431
 20
3.3338674612
 30
0.0
 10
4.8737572229
 20
3.3360048932
 30
0.0
 10
4.8749915004
 20
3.3380379494
 30
0.0
 10
4.8759393168
 20
3.3393099789
 30
0.0
 10
4.8764430723
 20
3.3399207351
 30
0.0
  0
SPLINE
  5
36E
100
AcDbEntity
  8
0
100
AcDbSpline
 62
7
  6
CONTINUOUS
 70
0
 71
3
 72
16
 73
12
 74
0
 42
0.0000001
 43
0.0000001
 44
0.0000000001
 40
0.0
 40
0.0
 40
0.0
 40
0.0
 40
0.1249943055
 40
0.2499988959
 40
0.3125103822
 40
0.3750276482
 40
0.5000252844
 40
0.6250199665
 40
0.7500123
 40
0.8750089155
 40
1.0
 40
1.0
 40
1.0
 40
1.0
 10
4.92190558
 20
3.316900901
 30
0.0
 10
4.9217186542
 20
3.3175985178
 30
0.0
 10
4.9212936378
 20
3.3189807452
 30
0.0
 10
4.9206247891
 20
3.32066052
 30
0.0
 10
4.9200008404
 20
3.3219640875
 30
0.0
 10
4.9193159418
 20
3.3232366025
 30
0.0
 10
4.918344438
 20
3.3247625785
 30
0.0
 10
4.9169963731
 20
3.3264638346
 30
0.0
 10
4.9154750992
 20
3.3280125044
 30
0.0
 10
4.9137993232
 20
3.3293917661
 30
0.0
 10
4.912595008
 20
3.3301941813
 30
0.0
 10
4.911975697
 20
3.3305657152
 30
0.0
  0
SPLINE
  5
36F
100
AcDbEntity
  8
0
100
AcDbSpline
 62
7
  6
CONTINUOUS
 70
0
 71
3
 72
15
 73
11
 74
0
 42
0.0000001
 43
0.0000001
 44
0.0000000001
 40
0.0
 40
0.0
 40
0.0
 40
0.0
 40
0.1249949831
 40
0.2499980204
 40
0.374996209
 40
0.4999975873
 40
0.6250001819
 40
0.7499988008
 40
0.8750042414
 40
1.0
 40
1.0
 40
1.0
 40
1.0
 10
4.9199087839
 20
3.3001587734
 30
0.0
 10
4.9202625685
 20
3.300787399
 30
0.0
 10
4.9209161374
 20
3.3020761614
 30
0.0
 10
4.9217104986
 20
3.3040927968
 30
0.0
 10
4.9222956223
 20
3.3061804619
 30
0.0
 10
4.9226572464
 20
3.3083182691
 30
0.0
 10
4.9227920782
 20
3.3104821183
 30
0.0
 10
4.9227051833
 20
3.3126481525
 30
0.0
 10
4.9224110663
 20
3.3147951077
 30
0.0
 10
4.9220922781
 20
3.3162041342
 30
0.0
 10
4.92190558
 20
3.316900901
 30
0.0
  0
SPLINE
  5
370
100
AcDbEntity
  8
0
100
AcDbSpline
 62
7
  6
CONTINUOUS
 70
0
 71
3
 72
15
 73
11
 74
0
 42
0.0000001
 43
0.0000001
 44
0.0000000001
 40
0.0
 40
0.0
 40
0.0
 40
0.0
 40
0.124996424
 40
0.2500037575
 40
0.3750031307
 40
0.5000058711
 40
0.6250070265
 40
0.7500041544
 40
0.8750060086
 40
1.0
 40
1.0
 40
1.0
 40
1.0
 10
4.9067877067
 20
3.2900648215
 30
0.0
 10
4.9074729024
 20
3.2902484192
 30
0.0
 10
4.9088290891
 20
3.2906720906
 30
0.0
 10
4.9107979109
 20
3.2914882231
 30
0.0
 10
4.9126762085
 20
3.2924970312
 30
0.0
 10
4.9144372684
 20
3.2936992795
 30
0.0
 10
4.9160576566
 20
3.2950854113
 30
0.0
 10
4.9175187736
 20
3.2966383485
 30
0.0
 10
4.9188106862
 20
3.2983337296
 30
0.0
 10
4.9195608792
 20
3.2995405955
 30
0.0
 10
4.9199087839
 20
3.3001587734
 30
0.0
  0
SPLINE
  5
371
100
AcDbEntity
  8
0
100
AcDbSpline
 62
7
  6
CONTINUOUS
 70
0
 71
3
 72
15
 73
11
 74
0
 42
0.0000001
 43
0.0000001
 44
0.0000000001
 40
0.0
 40
0.0
 40
0.0
 40
0.0
 40
0.1249959553
 40
0.2500021111
 40
0.3750013537
 40
0.5000039726
 40
0.6250056156
 40
0.7500033007
 40
0.8750057713
 40
1.0
 40
1.0
 40
1.0
 40
1.0
 10
4.8908699623
 20
3.2921871702
 30
0.0
 10
4.891465419
 20
3.2918433833
 30
0.0
 10
4.892685465
 20
3.2912045273
 30
0.0
 10
4.8945946112
 20
3.2904154181
 30
0.0
 10
4.8965735126
 20
3.2898200321
 30
0.0
 10
4.8986042036
 20
3.2894358201
 30
0.0
 10
4.9006643413
 20
3.2892708
 30
0.0
 10
4.9027302167
 20
3.2893246937
 30
0.0
 10
4.9047793785
 20
3.2895869158
 30
0.0
 10
4.9061235703
 20
3.2898868667
 30
0.0
 10
4.9067877067
 20
3.2900648215
 30
0.0
  0
SPLINE
  5
372
100
AcDbEntity
  8
0
100
AcDbSpline
 62
7
  6
CONTINUOUS
 70
0
 71
3
 72
16
 73
12
 74
0
 42
0.0000001
 43
0.0000001
 44
0.0000000001
 40
0.0
 40
0.0
 40
0.0
 40
0.0
 40
0.124995085
 40
0.2500016609
 40
0.3125121141
 40
0.375028938
 40
0.5000268607
 40
0.6250205317
 40
0.7500125058
 40
0.8750086194
 40
1.0
 40
1.0
 40
1.0
 40
1.0
 10
4.8810364711
 20
3.3057593841
 30
0.0
 10
4.8812221507
 20
3.3050664186
 30
0.0
 10
4.8816418021
 20
3.3036927822
 30
0.0
 10
4.8822974172
 20
3.3020208998
 30
0.0
 10
4.8829082957
 20
3.3007218156
 30
0.0
 10
4.8835792459
 20
3.2994528132
 30
0.0
 10
4.8845325684
 20
3.2979296177
 30
0.0
 10
4.8858615691
 20
3.2962314963
 30
0.0
 10
4.8873705007
 20
3.294690413
 30
0.0
 10
4.8890420063
 20
3.2933279561
 30
0.0
 10
4.8902486848
 20
3.2925458648
 30
0.0
 10
4.8908699623
 20
3.2921871702
 30
0.0
  0
SPLINE
  5
373
100
AcDbEntity
  8
0
100
AcDbSpline
 62
7
  6
CONTINUOUS
 70
0
 71
3
 72
16
 73
12
 74
0
 42
0.0000001
 43
0.0000001
 44
0.0000000001
 40
0.0
 40
0.0
 40
0.0
 40
0.0
 40
0.124991349
 40
0.2499874102
 40
0.3749796917
 40
0.499973638
 40
0.6249718202
 40
0.6874881902
 40
0.7499982961
 40
0.8750048005
 40
1.0
 40
1.0
 40
1.0
 40
1.0
 10
4.88273186
 20
3.3228255889
 30
0.0
 10
4.882368581
 20
3.3221880799
 30
0.0
 10
4.8817077541
 20
3.3208740827
 30
0.0
 10
4.8809377475
 20
3.3188072255
 30
0.0
 10
4.8804032454
 20
3.3166670011
 30
0.0
 10
4.8801071127
 20
3.3144815133
 30
0.0
 10
4.8800500994
 20
3.3126445761
 30
0.0
 10
4.880109998
 20
3.3111776192
 30
0.0
 10
4.880237443
 20
3.3097148949
 30
0.0
 10
4.8805150147
 20
3.3078992721
 30
0.0
 10
4.8808465568
 20
3.3064681542
 30
0.0
 10
4.8810364711
 20
3.3057593841
 30
0.0
  0
SPLINE
  5
374
100
AcDbEntity
  8
0
100
AcDbSpline
 62
7
  6
CONTINUOUS
 70
0
 71
3
 72
16
 73
12
 74
0
 42
0.0000001
 43
0.0000001
 44
0.0000000001
 40
0.0
 40
0.0
 40
0.0
 40
0.0
 40
0.1249941442
 40
0.250000989
 40
0.3125125791
 40
0.3750312608
 40
0.5000299167
 40
0.625023782
 40
0.7500151134
 40
0.8750100914
 40
1.0
 40
1.0
 40
1.0
 40
1.0
 10
4.8962845731
 20
3.3328210264
 30
0.0
 10
4.8955877916
 20
3.3326343243
 30
0.0
 10
4.894206877
 20
3.3322111377
 30
0.0
 10
4.8925277788
 20
3.3315463948
 30
0.0
 10
4.891224979
 20
3.330924739
 30
0.0
 10
4.8899539677
 20
3.3302406168
 30
0.0
 10
4.8884318151
 20
3.3292666837
 30
0.0
 10
4.8867413241
 20
3.3279086617
 30
0.0
 10
4.8852129251
 20
3.3263700681
 30
0.0
 10
4.8838647056
 20
3.3246721163
 30
0.0
 10
4.8830889931
 20
3.3234523128
 30
0.0
 10
4.88273186
 20
3.3228255889
 30
0.0
  0
SPLINE
  5
375
100
AcDbEntity
  8
0
100
AcDbSpline
 62
7
  6
CONTINUOUS
 70
0
 71
3
 72
15
 73
11
 74
0
 42
0.0000001
 43
0.0000001
 44
0.0000000001
 40
0.0
 40
0.0
 40
0.0
 40
0.0
 40
0.1249963309
 40
0.2500033924
 40
0.3750027409
 40
0.500005363
 40
0.6250066162
 40
0.7500038723
 40
0.8750059583
 40
1.0
 40
1.0
 40
1.0
 40
1.0
 10
4.911975697
 20
3.3305657152
 30
0.0
 10
4.9113930088
 20
3.3309152785
 30
0.0
 10
4.9101975949
 20
3.3315660583
 30
0.0
 10
4.9083226447
 20
3.3323739974
 30
0.0
 10
4.9063751469
 20
3.3329891828
 30
0.0
 10
4.9043729778
 20
3.3333934046
 30
0.0
 10
4.9023386655
 20
3.3335774011
 30
0.0
 10
4.9002965149
 20
3.3335401805
 30
0.0
 10
4.8982699612
 20
3.3332911231
 30
0.0
 10
4.8969409076
 20
3.3329968906
 30
0.0
 10
4.8962845731
 20
3.3328210264
 30
0.0
  0
SPLINE
  5
376
100
AcDbEntity
  8
0
100
AcDbSpline
 62
7
  6
CONTINUOUS
 70
0
 71
3
 72
15
 73
11
 74
0
 42
0.0000001
 43
0.0000001
 44
0.0000000001
 40
0.0
 40
0.0
 40
0.0
 40
0.0
 40
0.1249985512
 40
0.2499957571
 40
0.3749938075
 40
0.4999922135
 40
0.6249928402
 40
0.7499941003
 40
0.8749973808
 40
1.0
 40
1.0
 40
1.0
 40
1.0
 10
4.865400405
 20
3.2814777351
 30
0.0
 10
4.8658467983
 20
3.2822748461
 30
0.0
 10
4.8666681374
 20
3.2839105077
 30
0.0
 10
4.8676568595
 20
3.2864714564
 30
0.0
 10
4.8683779403
 20
3.2891208503
 30
0.0
 10
4.8688186591
 20
3.2918310686
 30
0.0
 10
4.8689748525
 20
3.2945722276
 30
0.0
 10
4.8688573554
 20
3.2973149242
 30
0.0
 10
4.868482336
 20
3.300033625
 30
0.0
 10
4.8680781845
 20
3.3018180478
 30
0.0
 10
4.8678417214
 20
3.30270054
 30
0.0
  0
SPLINE
  5
377
100
AcDbEntity
  8
0
100
AcDbSpline
 62
7
  6
CONTINUOUS
 70
0
 71
3
 72
15
 73
11
 74
0
 42
0.0000001
 43
0.0000001
 44
0.0000000001
 40
0.0
 40
0.0
 40
0.0
 40
0.0
 40
0.125004358
 40
0.250010076
 40
0.3750121424
 40
0.5000131564
 40
0.6250102695
 40
0.7500068097
 40
0.8750021543
 40
1.0
 40
1.0
 40
1.0
 40
1.0
 10
4.8483785532
 20
3.268598652
 30
0.0
 10
4.849262012
 20
3.2688353741
 30
0.0
 10
4.8510113482
 20
3.269378284
 30
0.0
 10
4.8535553516
 20
3.2704161182
 30
0.0
 10
4.8559887645
 20
3.2716937413
 30
0.0
 10
4.8582788814
 20
3.2732142166
 30
0.0
 10
4.8603914832
 20
3.2749734865
 30
0.0
 10
4.862299684
 20
3.2769525847
 30
0.0
 10
4.8639836075
 20
3.2791249235
 30
0.0
 10
4.8649535315
 20
3.2806797665
 30
0.0
 10
4.865400405
 20
3.2814777351
 30
0.0
  0
SPLINE
  5
378
100
AcDbEntity
  8
0
100
AcDbSpline
 62
7
  6
CONTINUOUS
 70
0
 71
3
 72
15
 73
11
 74
0
 42
0.0000001
 43
0.0000001
 44
0.0000000001
 40
0.0
 40
0.0
 40
0.0
 40
0.0
 40
0.1249972156
 40
0.2499917444
 40
0.3749880275
 40
0.4999850248
 40
0.6249866419
 40
0.7499890299
 40
0.8749953536
 40
1.0
 40
1.0
 40
1.0
 40
1.0
 10
4.8275917392
 20
3.2710131625
 30
0.0
 10
4.8283658542
 20
3.2705615866
 30
0.0
 10
4.8299583233
 20
3.2697315603
 30
0.0
 10
4.8324618137
 20
3.2687379824
 30
0.0
 10
4.8350588846
 20
3.2680217273
 30
0.0
 10
4.8377186336
 20
3.2675936982
 30
0.0
 10
4.8404085768
 20
3.267453967
 30
0.0
 10
4.8430983807
 20
3.2675853286
 30
0.0
 10
4.8457633341
 20
3.2679667812
 30
0.0
 10
4.8475128387
 20
3.2683666845
 30
0.0
 10
4.8483785532
 20
3.268598652
 30
0.0
  0
SPLINE
  5
379
100
AcDbEntity
  8
0
100
AcDbSpline
 62
7
  6
CONTINUOUS
 70
0
 71
3
 72
15
 73
11
 74
0
 42
0.0000001
 43
0.0000001
 44
0.0000000001
 40
0.0
 40
0.0
 40
0.0
 40
0.0
 40
0.1250058877
 40
0.2500138776
 40
0.3750165755
 40
0.5000182371
 40
0.6250143638
 40
0.7500096501
 40
0.8750030872
 40
1.0
 40
1.0
 40
1.0
 40
1.0
 10
4.815148715
 20
3.2880094749
 30
0.0
 10
4.8153820515
 20
3.2871386511
 30
0.0
 10
4.8159116415
 20
3.2854129871
 30
0.0
 10
4.8169108806
 20
3.282896285
 30
0.0
 10
4.8181350019
 20
3.2804799811
 30
0.0
 10
4.8195913134
 20
3.2781954205
 30
0.0
 10
4.8212814292
 20
3.2760774019
 30
0.0
 10
4.8231915116
 20
3.2741552078
 30
0.0
 10
4.8252984332
 20
3.2724518619
 30
0.0
 10
4.8268130651
 20
3.2714673979
 30
0.0
 10
4.8275917392
 20
3.2710131625
 30
0.0
  0
SPLINE
  5
37A
100
AcDbEntity
  8
0
100
AcDbSpline
 62
7
  6
CONTINUOUS
 70
0
 71
3
 72
15
 73
11
 74
0
 42
0.0000001
 43
0.0000001
 44
0.0000000001
 40
0.0
 40
0.0
 40
0.0
 40
0.0
 40
0.1249983828
 40
0.2500005301
 40
0.3749994188
 40
0.5000002048
 40
0.625000906
 40
0.7499996768
 40
0.8750016812
 40
1.0
 40
1.0
 40
1.0
 40
1.0
 10
4.8149234838
 20
3.3027261738
 30
0.0
 10
4.814779412
 20
3.3021234275
 30
0.0
 10
4.8145265655
 20
3.3009091453
 30
0.0
 10
4.8142582914
 20
3.2990682414
 30
0.0
 10
4.8141080417
 20
3.2972137949
 30
0.0
 10
4.8140782333
 20
3.2953535361
 30
0.0
 10
4.8141683615
 20
3.2934952374
 30
0.0
 10
4.8143773342
 20
3.2916465341
 30
0.0
 10
4.814701207
 20
3.289814659
 30
0.0
 10
4.8149883183
 20
3.2886080835
 30
0.0
 10
4.815148715
 20
3.2880094749
 30
0.0
  0
SPLINE
  5
37B
100
AcDbEntity
  8
0
100
AcDbSpline
 62
7
  6
CONTINUOUS
 70
0
 71
3
 72
15
 73
11
 74
0
 42
0.0000001
 43
0.0000001
 44
0.0000000001
 40
0.0
 40
0.0
 40
0.0
 40
0.0
 40
0.1249929865
 40
0.2500010406
 40
0.374997255
 40
0.4999995006
 40
0.6250014624
 40
0.74999795
 40
0.8750067796
 40
1.0
 40
1.0
 40
1.0
 40
1.0
 10
4.8222879278
 20
3.315091074
 30
0.0
 10
4.8218321785
 20
3.3146869377
 30
0.0
 10
4.8209502379
 20
3.3138444447
 30
0.0
 10
4.8197276769
 20
3.3124838093
 30
0.0
 10
4.8186148501
 20
3.3110317769
 30
0.0
 10
4.8176200316
 20
3.3094965466
 30
0.0
 10
4.8167486997
 20
3.3078880431
 30
0.0
 10
4.8160050142
 20
3.3062166915
 30
0.0
 10
4.8153901134
 20
3.3044940592
 30
0.0
 10
4.8150650915
 20
3.3033186114
 30
0.0
 10
4.8149234838
 20
3.3027261738
 30
0.0
  0
SPLINE
  5
37C
100
AcDbEntity
  8
0
100
AcDbSpline
 62
7
  6
CONTINUOUS
 70
0
 71
3
 72
15
 73
11
 74
0
 42
0.0000001
 43
0.0000001
 44
0.0000000001
 40
0.0
 40
0.0
 40
0.0
 40
0.0
 40
0.1249987915
 40
0.2500008352
 40
0.3749996783
 40
0.5000003862
 40
0.6250002827
 40
0.7499992578
 40
0.8750011149
 40
1.0
 40
1.0
 40
1.0
 40
1.0
 10
4.8346833838
 20
3.3218445152
 30
0.0
 10
4.8341100674
 20
3.3216908955
 30
0.0
 10
4.8329720353
 20
3.3213503731
 30
0.0
 10
4.8312981095
 20
3.3207402294
 30
0.0
 10
4.8296643679
 20
3.3200291658
 30
0.0
 10
4.8280770163
 20
3.3192199343
 30
0.0
 10
4.8265412702
 20
3.318316644
 30
0.0
 10
4.8250616023
 20
3.3173242381
 30
0.0
 10
4.823640393
 20
3.3162500655
 30
0.0
 10
4.822732017
 20
3.3154848708
 30
0.0
 10
4.8222879278
 20
3.315091074
 30
0.0
  0
SPLINE
  5
37D
100
AcDbEntity
  8
0
100
AcDbSpline
 62
7
  6
CONTINUOUS
 70
0
 71
3
 72
15
 73
11
 74
0
 42
0.0000001
 43
0.0000001
 44
0.0000000001
 40
0.0
 40
0.0
 40
0.0
 40
0.0
 40
0.1249974496
 40
0.2499924437
 40
0.3749890324
 40
0.499986252
 40
0.6249876906
 40
0.7499898744
 40
0.8749956875
 40
1.0
 40
1.0
 40
1.0
 40
1.0
 10
4.8553409992
 20
3.3194668359
 30
0.0
 10
4.8545700342
 20
3.3199119529
 30
0.0
 10
4.8529849988
 20
3.3207301794
 30
0.0
 10
4.8504955572
 20
3.3217102325
 30
0.0
 10
4.8479147263
 20
3.3224175099
 30
0.0
 10
4.8452724799
 20
3.3228409033
 30
0.0
 10
4.8426004926
 20
3.3229796477
 30
0.0
 10
4.8399285838
 20
3.3228499442
 30
0.0
 10
4.8372812498
 20
3.3224719317
 30
0.0
 10
4.8355433308
 20
3.3220749373
 30
0.0
 10
4.8346833838
 20
3.3218445152
 30
0.0
  0
SPLINE
  5
37E
100
AcDbEntity
  8
0
100
AcDbSpline
 62
7
  6
CONTINUOUS
 70
0
 71
3
 72
15
 73
11
 74
0
 42
0.0000001
 43
0.0000001
 44
0.0000000001
 40
0.0
 40
0.0
 40
0.0
 40
0.0
 40
0.1250043957
 40
0.2500102898
 40
0.3750123481
 40
0.5000134802
 40
0.6250104484
 40
0.7500069372
 40
0.8750021674
 40
1.0
 40
1.0
 40
1.0
 40
1.0
 10
4.8678417214
 20
3.30270054
 30
0.0
 10
4.8676099713
 20
3.3035654432
 30
0.0
 10
4.8670806147
 20
3.305278558
 30
0.0
 10
4.8660734544
 20
3.3077725632
 30
0.0
 10
4.8648353614
 20
3.310161324
 30
0.0
 10
4.8633622203
 20
3.3124133387
 30
0.0
 10
4.8616565176
 20
3.3144951504
 30
0.0
 10
4.8597362496
 20
3.316380841
 30
0.0
 10
4.8576268923
 20
3.3180513366
 30
0.0
 10
4.8561164094
 20
3.3190191525
 30
0.0
 10
4.8553409992
 20
3.3194668359
 30
0.0
  0
SPLINE
  5
37F
100
AcDbEntity
  8
0
100
AcDbSpline
 62
7
  6
CONTINUOUS
 70
0
 71
3
 72
15
 73
11
 74
0
 42
0.0000001
 43
0.0000001
 44
0.0000000001
 40
0.0
 40
0.0
 40
0.0
 40
0.0
 40
0.1249969576
 40
0.2499909889
 40
0.3749868567
 40
0.4999838114
 40
0.6249853727
 40
0.7499879576
 40
0.874994814
 40
1.0
 40
1.0
 40
1.0
 40
1.0
 10
4.8309829087
 20
3.2160073032
 30
0.0
 10
4.8315573093
 20
3.2171558581
 30
0.0
 10
4.8328153838
 20
3.2194003775
 30
0.0
 10
4.8350275242
 20
3.222562252
 30
0.0
 10
4.8375534587
 20
3.2254802532
 30
0.0
 10
4.8403641836
 20
3.228124676
 30
0.0
 10
4.8434231115
 20
3.2304766671
 30
0.0
 10
4.8466865689
 20
3.2325342588
 30
0.0
 10
4.8501142008
 20
3.2343026343
 30
0.0
 10
4.852483218
 20
3.235302064
 30
0.0
 10
4.8536831819
 20
3.2357596862
 30
0.0
  0
SPLINE
  5
380
100
AcDbEntity
  8
0
100
AcDbSpline
 62
7
  6
CONTINUOUS
 70
0
 71
3
 72
18
 73
14
 74
0
 42
0.0000001
 43
0.0000001
 44
0.0000000001
 40
0.0
 40
0.0
 40
0.0
 40
0.0
 40
0.1249953861
 40
0.249992891
 40
0.3125003355
 40
0.3750100761
 40
0.437520974
 40
0.5000317418
 40
0.5625421279
 40
0.6250538767
 40
0.7500366184
 40
0.875016507
 40
1.0
 40
1.0
 40
1.0
 40
1.0
 10
4.8288450476
 20
3.1842359554
 30
0.0
 10
4.8284937606
 20
3.1855469766
 30
0.0
 10
4.8278711604
 20
3.1881913137
 30
0.0
 10
4.8273198464
 20
3.191542816
 30
0.0
 10
4.8270362766
 20
3.1942434227
 30
0.0
 10
4.8269072055
 20
3.1962762303
 30
0.0
 10
4.8268658349
 20
3.1983127883
 30
0.0
 10
4.8269165093
 20
3.2003492036
 30
0.0
 10
4.8270640483
 20
3.2023810422
 30
0.0
 10
4.8273942545
 20
3.20507647
 30
0.0
 10
4.8280637789
 20
3.2084096863
 30
0.0
 10
4.8292874164
 20
3.2123005026
 30
0.0
 10
4.8303758731
 20
3.2147934925
 30
0.0
 10
4.8309829087
 20
3.2160073032
 30
0.0
  0
SPLINE
  5
381
100
AcDbEntity
  8
0
100
AcDbSpline
 62
7
  6
CONTINUOUS
 70
0
 71
3
 72
22
 73
18
 74
0
 42
0.0000001
 43
0.0000001
 44
0.0000000001
 40
0.0
 40
0.0
 40
0.0
 40
0.0
 40
0.1249591278
 40
0.187461062
 40
0.2499648436
 40
0.3124681895
 40
0.3749697299
 40
0.4374709258
 40
0.4999720599
 40
0.5624739007
 40
0.6249769161
 40
0.6874818509
 40
0.7499874394
 40
0.8124924231
 40
0.8749957558
 40
0.9375013402
 40
1.0
 40
1.0
 40
1.0
 40
1.0
 10
4.8538354641
 20
3.1541901373
 30
0.0
 10
4.8522871069
 20
3.1548632847
 30
0.0
 10
4.8500133716
 20
3.1559940591
 30
0.0
 10
4.8471270934
 20
3.1577505918
 30
0.0
 10
4.845043817
 20
3.1591951724
 30
0.0
 10
4.8430526432
 20
3.1607641729
 30
0.0
 10
4.8411632478
 20
3.1624544523
 30
0.0
 10
4.8393844706
 20
3.1642607408
 30
0.0
 10
4.8377229288
 20
3.166175387
 30
0.0
 10
4.8361834494
 20
3.1681894401
 30
0.0
 10
4.8347689866
 20
3.1702931352
 30
0.0
 10
4.8334803749
 20
3.1724761012
 30
0.0
 10
4.832315653
 20
3.174727489
 30
0.0
 10
4.8312725294
 20
3.1770375841
 30
0.0
 10
4.8303476217
 20
3.1793973616
 30
0.0
 10
4.8295346455
 20
3.1817977188
 30
0.0
 10
4.8290636034
 20
3.1834202941
 30
0.0
 10
4.8288450476
 20
3.1842359554
 30
0.0
  0
SPLINE
  5
382
100
AcDbEntity
  8
0
100
AcDbSpline
 62
7
  6
CONTINUOUS
 70
0
 71
3
 72
14
 73
10
 74
0
 42
0.0000001
 43
0.0000001
 44
0.0000000001
 40
0.0
 40
0.0
 40
0.0
 40
0.0
 40
0.249878589
 40
0.3749011988
 40
0.4999229842
 40
0.6249425826
 40
0.7499617248
 40
0.874980086
 40
1.0
 40
1.0
 40
1.0
 40
1.0
 10
4.8872175072
 20
3.1521135611
 30
0.0
 10
4.8844743664
 20
3.1513785387
 30
0.0
 10
4.8802727967
 20
3.1505543543
 30
0.0
 10
4.8746014042
 20
3.15013696
 30
0.0
 10
4.8703333461
 20
3.1501849108
 30
0.0
 10
4.8660864009
 20
3.1506109792
 30
0.0
 10
4.8618948858
 20
3.1514179954
 30
0.0
 10
4.8577936541
 20
3.1525994407
 30
0.0
 10
4.8551385176
 20
3.1536236356
 30
0.0
 10
4.8538354641
 20
3.1541901373
 30
0.0
  0
SPLINE
  5
383
100
AcDbEntity
  8
0
100
AcDbSpline
 62
7
  6
CONTINUOUS
 70
0
 71
3
 72
17
 73
13
 74
0
 42
0.0000001
 43
0.0000001
 44
0.0000000001
 40
0.0
 40
0.0
 40
0.0
 40
0.0
 40
0.1250078585
 40
0.2500048039
 40
0.3749948135
 40
0.4999807451
 40
0.6249674374
 40
0.7499577442
 40
0.8124692858
 40
0.8749793167
 40
0.9374916432
 40
1.0
 40
1.0
 40
1.0
 40
1.0
 10
4.9144640615
 20
3.172022384
 30
0.0
 10
4.913738336
 20
3.1707735731
 30
0.0
 10
4.9121623347
 20
3.1683457231
 30
0.0
 10
4.9094286859
 20
3.164973745
 30
0.0
 10
4.9063435731
 20
3.161919393
 30
0.0
 10
4.902944782
 20
3.1592192371
 30
0.0
 10
4.8992817752
 20
3.1568918698
 30
0.0
 10
4.8960538697
 20
3.1552615074
 30
0.0
 10
4.8933931159
 20
3.154134986
 30
0.0
 10
4.8913627527
 20
3.1533762949
 30
0.0
 10
4.8893038391
 20
3.1526995508
 30
0.0
 10
4.887915134
 20
3.1523004896
 30
0.0
 10
4.8872175072
 20
3.1521135611
 30
0.0
  0
SPLINE
  5
384
100
AcDbEntity
  8
0
100
AcDbSpline
 62
7
  6
CONTINUOUS
 70
0
 71
3
 72
15
 73
11
 74
0
 42
0.0000001
 43
0.0000001
 44
0.0000000001
 40
0.0
 40
0.0
 40
0.0
 40
0.0
 40
0.1250066125
 40
0.2500109822
 40
0.3750085327
 40
0.5000038585
 40
0.6249983546
 40
0.7499942577
 40
0.8749954605
 40
1.0
 40
1.0
 40
1.0
 40
1.0
 10
4.9186002421
 20
3.2039956727
 30
0.0
 10
4.9189575477
 20
3.2026621899
 30
0.0
 10
4.9195626016
 20
3.1999641484
 30
0.0
 10
4.9200988315
 20
3.1958515147
 30
0.0
 10
4.9202276796
 20
3.1917049777
 30
0.0
 10
4.9199244286
 20
3.1875670996
 30
0.0
 10
4.9191814952
 20
3.1834850625
 30
0.0
 10
4.918010831
 20
3.1795047939
 30
0.0
 10
4.9164420189
 20
3.1756650659
 30
0.0
 10
4.9151576952
 20
3.1732159722
 30
0.0
 10
4.9144640615
 20
3.172022384
 30
0.0
  0
SPLINE
  5
385
100
AcDbEntity
  8
0
100
AcDbSpline
 62
7
  6
CONTINUOUS
 70
0
 71
3
 72
15
 73
11
 74
0
 42
0.0000001
 43
0.0000001
 44
0.0000000001
 40
0.0
 40
0.0
 40
0.0
 40
0.0
 40
0.1250029376
 40
0.2500056141
 40
0.3750052984
 40
0.5000046473
 40
0.6250033207
 40
0.7500024191
 40
0.8750009928
 40
1.0
 40
1.0
 40
1.0
 40
1.0
 10
4.9038148792
 20
3.226441964
 30
0.0
 10
4.9046828871
 20
3.2257065945
 30
0.0
 10
4.9063763229
 20
3.224184604
 30
0.0
 10
4.9087675405
 20
3.2217461091
 30
0.0
 10
4.9109830046
 20
3.2191461916
 30
0.0
 10
4.9129996765
 20
3.2163888266
 30
0.0
 10
4.9147922571
 20
3.2134803682
 30
0.0
 10
4.9163402791
 20
3.210434367
 30
0.0
 10
4.917626718
 20
3.2072691785
 30
0.0
 10
4.9183058106
 20
3.2050945061
 30
0.0
 10
4.9186002421
 20
3.2039956727
 30
0.0
  0
SPLINE
  5
386
100
AcDbEntity
  8
0
100
AcDbSpline
 62
7
  6
CONTINUOUS
 70
0
 71
3
 72
14
 73
10
 74
0
 42
0.0000001
 43
0.0000001
 44
0.0000000001
 40
0.0
 40
0.0
 40
0.0
 40
0.0
 40
0.2499311978
 40
0.3749443768
 40
0.4999566225
 40
0.624969476
 40
0.7499795218
 40
0.8750006861
 40
1.0
 40
1.0
 40
1.0
 40
1.0
 10
4.8960293985
 20
3.2175030739
 30
0.0
 10
4.8952179714
 20
3.218337154
 30
0.0
 10
4.893935147
 20
3.219527945
 30
0.0
 10
4.8920967991
 20
3.2209575876
 30
0.0
 10
4.8906539557
 20
3.2219432547
 30
0.0
 10
4.889150393
 20
3.2228335654
 30
0.0
 10
4.8875901093
 20
3.2236206442
 30
0.0
 10
4.8859792097
 20
3.224297864
 30
0.0
 10
4.8848760107
 20
3.224672931
 30
0.0
 10
4.8843187448
 20
3.2248407502
 30
0.0
  0
SPLINE
  5
387
100
AcDbEntity
  8
0
100
AcDbSpline
 62
7
  6
CONTINUOUS
 70
0
 71
3
 72
11
 73
7
 74
0
 42
0.0000001
 43
0.0000001
 44
0.0000000001
 40
0.0
 40
0.0
 40
0.0
 40
0.0
 40
0.25002058
 40
0.5000230199
 40
0.7500126582
 40
1.0
 40
1.0
 40
1.0
 40
1.0
 10
4.903313239
 20
3.2044756493
 30
0.0
 10
4.9029879592
 20
3.2056896099
 30
0.0
 10
4.9021983862
 20
3.2080830587
 30
0.0
 10
4.9005832838
 20
3.211500578
 30
0.0
 10
4.898539636
 20
3.2146811061
 30
0.0
 10
4.8969056458
 20
3.2166023641
 30
0.0
 10
4.8960293985
 20
3.2175030739
 30
0.0
  0
SPLINE
  5
388
100
AcDbEntity
  8
0
100
AcDbSpline
 62
7
  6
CONTINUOUS
 70
0
 71
3
 72
15
 73
11
 74
0
 42
0.0000001
 43
0.0000001
 44
0.0000000001
 40
0.0
 40
0.0
 40
0.0
 40
0.0
 40
0.1249961448
 40
0.2499886878
 40
0.3749836705
 40
0.4999798984
 40
0.6249822104
 40
0.7499854692
 40
0.8749939124
 40
1.0
 40
1.0
 40
1.0
 40
1.0
 10
4.9007556143
 20
3.1822683188
 30
0.0
 10
4.9012450667
 20
3.1830916221
 30
0.0
 10
4.902142334
 20
3.1847886057
 30
0.0
 10
4.9032085611
 20
3.1874628518
 30
0.0
 10
4.9039696846
 20
3.1902399348
 30
0.0
 10
4.9044170439
 20
3.1930842637
 30
0.0
 10
4.9045547475
 20
3.1959597186
 30
0.0
 10
4.9044041902
 20
3.1988338716
 30
0.0
 10
4.9039899743
 20
3.2016810129
 30
0.0
 10
4.9035611571
 20
3.2035504063
 30
0.0
 10
4.903313239
 20
3.2044756493
 30
0.0
  0
SPLINE
  5
389
100
AcDbEntity
  8
0
100
AcDbSpline
 62
7
  6
CONTINUOUS
 70
0
 71
3
 72
16
 73
12
 74
0
 42
0.0000001
 43
0.0000001
 44
0.0000000001
 40
0.0
 40
0.0
 40
0.0
 40
0.0
 40
0.1250070938
 40
0.2500117481
 40
0.3750117037
 40
0.5000064295
 40
0.6249952282
 40
0.7499808634
 40
0.8124967947
 40
0.8750141959
 40
1.0
 40
1.0
 40
1.0
 40
1.0
 10
4.881242027
 20
3.1687215852
 30
0.0
 10
4.882223126
 20
3.1689844699
 30
0.0
 10
4.8841696102
 20
3.1695714354
 30
0.0
 10
4.8870215661
 20
3.1706520668
 30
0.0
 10
4.8897772907
 20
3.1719607582
 30
0.0
 10
4.8924047519
 20
3.1735125372
 30
0.0
 10
4.8948624475
 20
3.1753225562
 30
0.0
 10
4.8967335652
 20
3.1770475855
 30
0.0
 10
4.8981030834
 20
3.1785494261
 30
0.0
 10
4.8993822859
 20
3.1801286312
 30
0.0
 10
4.9002366611
 20
3.1813953927
 30
0.0
 10
4.9007556143
 20
3.1822683188
 30
0.0
  0
SPLINE
  5
38A
100
AcDbEntity
  8
0
100
AcDbSpline
 62
7
  6
CONTINUOUS
 70
0
 71
3
 72
16
 73
12
 74
0
 42
0.0000001
 43
0.0000001
 44
0.0000000001
 40
0.0
 40
0.0
 40
0.0
 40
0.0
 40
0.1249867123
 40
0.1875028364
 40
0.2500175864
 40
0.375005023
 40
0.4999951032
 40
0.6249901688
 40
0.7499898441
 40
0.8749936717
 40
1.0
 40
1.0
 40
1.0
 40
1.0
 10
4.8559557976
 20
3.1705025937
 30
0.0
 10
4.8569150181
 20
3.1700034541
 30
0.0
 10
4.8583972342
 20
3.1693335223
 30
0.0
 10
4.8604367976
 20
3.1686107997
 30
0.0
 10
4.8625137584
 20
3.1680030699
 30
0.0
 10
4.8651678211
 20
3.1674592554
 30
0.0
 10
4.8684017964
 20
3.167142767
 30
0.0
 10
4.8716504979
 20
3.1671393675
 30
0.0
 10
4.8748866266
 20
3.167416377
 30
0.0
 10
4.878090398
 20
3.1679453981
 30
0.0
 10
4.880197392
 20
3.1684416761
 30
0.0
 10
4.881242027
 20
3.1687215852
 30
0.0
  0
SPLINE
  5
38B
100
AcDbEntity
  8
0
100
AcDbSpline
 62
7
  6
CONTINUOUS
 70
0
 71
3
 72
15
 73
11
 74
0
 42
0.0000001
 43
0.0000001
 44
0.0000000001
 40
0.0
 40
0.0
 40
0.0
 40
0.0
 40
0.1250053825
 40
0.2500073059
 40
0.3750026406
 40
0.4999963856
 40
0.6249910542
 40
0.7499876836
 40
0.8749927536
 40
1.0
 40
1.0
 40
1.0
 40
1.0
 10
4.8420095751
 20
3.18776338
 30
0.0
 10
4.8422562755
 20
3.1868426818
 30
0.0
 10
4.8428329127
 20
3.1850222148
 30
0.0
 10
4.8439625963
 20
3.1823900523
 30
0.0
 10
4.8453683047
 20
3.1798934208
 30
0.0
 10
4.8470437185
 20
3.1775688636
 30
0.0
 10
4.8489720852
 20
3.1754495428
 30
0.0
 10
4.8511213745
 20
3.1735551876
 30
0.0
 10
4.8534559368
 20
3.1718960319
 30
0.0
 10
4.855110235
 20
3.1709425903
 30
0.0
 10
4.8559557976
 20
3.1705025937
 30
0.0
  0
SPLINE
  5
38C
100
AcDbEntity
  8
0
100
AcDbSpline
 62
7
  6
CONTINUOUS
 70
0
 71
3
 72
15
 73
11
 74
0
 42
0.0000001
 43
0.0000001
 44
0.0000000001
 40
0.0
 40
0.0
 40
0.0
 40
0.0
 40
0.1249988143
 40
0.2499966172
 40
0.3749951976
 40
0.49999385
 40
0.6249941777
 40
0.7499948185
 40
0.8749976265
 40
1.0
 40
1.0
 40
1.0
 40
1.0
 10
4.8437378118
 20
3.2058635724
 30
0.0
 10
4.8433851487
 20
3.2051729002
 30
0.0
 10
4.8427401118
 20
3.2037596943
 30
0.0
 10
4.8419731891
 20
3.2015596271
 30
0.0
 10
4.8414250082
 20
3.1992947054
 30
0.0
 10
4.8411026321
 20
3.1969868245
 30
0.0
 10
4.8410079893
 20
3.1946586334
 30
0.0
 10
4.8411321063
 20
3.1923320812
 30
0.0
 10
4.8414637097
 20
3.1900265125
 30
0.0
 10
4.8418088554
 20
3.1885124762
 30
0.0
 10
4.8420095751
 20
3.18776338
 30
0.0
  0
SPLINE
  5
38D
100
AcDbEntity
  8
0
100
AcDbSpline
 62
7
  6
CONTINUOUS
 70
0
 71
3
 72
15
 73
11
 74
0
 42
0.0000001
 43
0.0000001
 44
0.0000000001
 40
0.0
 40
0.0
 40
0.0
 40
0.0
 40
0.1250129621
 40
0.2500238902
 40
0.3750300355
 40
0.5000323885
 40
0.6250296695
 40
0.7500249056
 40
0.8750121161
 40
1.0
 40
1.0
 40
1.0
 40
1.0
 10
4.8602376762
 20
3.2195839305
 30
0.0
 10
4.8594000452
 20
3.2192229562
 30
0.0
 10
4.8577419503
 20
3.2184602886
 30
0.0
 10
4.855319426
 20
3.2171849909
 30
0.0
 10
4.8529817445
 20
3.2157589423
 30
0.0
 10
4.8507549381
 20
3.2141643775
 30
0.0
 10
4.8486685954
 20
3.2123887279
 30
0.0
 10
4.8467641126
 20
3.2104175545
 30
0.0
 10
4.8450877533
 20
3.2082481774
 30
0.0
 10
4.844152512
 20
3.2066757412
 30
0.0
 10
4.8437378118
 20
3.2058635724
 30
0.0
  0
SPLINE
  5
38E
100
AcDbEntity
  8
0
100
AcDbSpline
 62
7
  6
CONTINUOUS
 70
0
 71
3
 72
17
 73
13
 74
0
 42
0.0000001
 43
0.0000001
 44
0.0000000001
 40
0.0
 40
0.0
 40
0.0
 40
0.0
 40
0.0625013319
 40
0.1250053597
 40
0.2500019402
 40
0.3749998013
 40
0.4375008672
 40
0.5000016919
 40
0.6250005109
 40
0.7499998284
 40
0.8749997848
 40
1.0
 40
1.0
 40
1.0
 40
1.0
 10
4.7530480296
 20
2.6793717804
 30
0.0
 10
4.7537069606
 20
2.6788931031
 30
0.0
 10
4.755012112
 20
2.6779180769
 30
0.0
 10
4.7575751012
 20
2.6759067602
 30
0.0
 10
4.7606968953
 20
2.673290148
 30
0.0
 10
4.7637165686
 20
2.6705569469
 30
0.0
 10
4.7660782363
 20
2.6683128753
 30
0.0
 10
4.7684064769
 20
2.6660341174
 30
0.0
 10
4.7712568797
 20
2.6631252223
 30
0.0
 10
4.7745894717
 20
2.6595508169
 30
0.0
 10
4.7778426022
 20
2.6559040415
 30
0.0
 10
4.7799633225
 20
2.6534308477
 30
0.0
 10
4.781012538
 20
2.6521849219
 30
0.0
  0
SPLINE
  5
38F
100
AcDbEntity
  8
0
100
AcDbSpline
 62
7
  6
CONTINUOUS
 70
0
 71
3
 72
11
 73
7
 74
0
 42
0.0000001
 43
0.0000001
 44
0.0000000001
 40
0.0
 40
0.0
 40
0.0
 40
0.0
 40
0.2499907393
 40
0.499992797
 40
0.7500013997
 40
1.0
 40
1.0
 40
1.0
 40
1.0
 10
4.7700581009
 20
2.6389468899
 30
0.0
 10
4.7680862593
 20
2.641394903
 30
0.0
 10
4.7639869214
 20
2.6461676302
 30
0.0
 10
4.7574332927
 20
2.6529552817
 30
0.0
 10
4.750527957
 20
2.659384023
 30
0.0
 10
4.745722267
 20
2.6634418046
 30
0.0
 10
4.7432764943
 20
2.6654165818
 30
0.0
  0
SPLINE
  5
390
100
AcDbEntity
  8
0
100
AcDbSpline
 62
7
  6
CONTINUOUS
 70
0
 71
3
 72
11
 73
7
 74
0
 42
0.0000001
 43
0.0000001
 44
0.0000000001
 40
0.0
 40
0.0
 40
0.0
 40
0.0
 40
0.2500004851
 40
0.5000007941
 40
0.7500004698
 40
1.0
 40
1.0
 40
1.0
 40
1.0
 10
4.7971340072
 20
2.5960917915
 30
0.0
 10
4.7952928063
 20
2.5999033837
 30
0.0
 10
4.7913991345
 20
2.6074267062
 30
0.0
 10
4.7849281102
 20
2.6183610965
 30
0.0
 10
4.7778379717
 20
2.6289046616
 30
0.0
 10
4.7727134362
 20
2.6356503291
 30
0.0
 10
4.7700581009
 20
2.6389468899
 30
0.0
  0
SPLINE
  5
391
100
AcDbEntity
  8
0
100
AcDbSpline
 62
7
  6
CONTINUOUS
 70
0
 71
3
 72
16
 73
12
 74
0
 42
0.0000001
 43
0.0000001
 44
0.0000000001
 40
0.0
 40
0.0
 40
0.0
 40
0.0
 40
0.1249976998
 40
0.2499954698
 40
0.3749944475
 40
0.4374961082
 40
0.4999975488
 40
0.624997358
 40
0.7499977315
 40
0.874998725
 40
1.0
 40
1.0
 40
1.0
 40
1.0
 10
4.8123422048
 20
2.5542146668
 30
0.0
 10
4.8119625909
 20
2.5560363081
 30
0.0
 10
4.8111111906
 20
2.5596608193
 30
0.0
 10
4.8096036203
 20
2.5650371471
 30
0.0
 10
4.8081780898
 20
2.5694664621
 30
0.0
 10
4.8069516703
 20
2.5729803459
 30
0.0
 10
4.805672128
 20
2.5764752727
 30
0.0
 10
4.8039775479
 20
2.5808083922
 30
0.0
 10
4.8018115771
 20
2.5859540684
 30
0.0
 10
4.7995313417
 20
2.5910500404
 30
0.0
 10
4.7979434006
 20
2.5944162127
 30
0.0
 10
4.7971340072
 20
2.5960917915
 30
0.0
  0
SPLINE
  5
392
100
AcDbEntity
  8
0
100
AcDbSpline
 62
7
  6
CONTINUOUS
 70
0
 71
3
 72
15
 73
11
 74
0
 42
0.0000001
 43
0.0000001
 44
0.0000000001
 40
0.0
 40
0.0
 40
0.0
 40
0.0
 40
0.1250008974
 40
0.2500018074
 40
0.3750020484
 40
0.5000019373
 40
0.6250016402
 40
0.7500012874
 40
0.875000545
 40
1.0
 40
1.0
 40
1.0
 40
1.0
 10
4.8067677988
 20
2.6132026609
 30
0.0
 10
4.8075749803
 20
2.6116148545
 30
0.0
 10
4.8091565404
 20
2.6084224237
 30
0.0
 10
4.8114226047
 20
2.6035826248
 30
0.0
 10
4.8135724167
 20
2.598689958
 30
0.0
 10
4.8155917649
 20
2.5937419196
 30
0.0
 10
4.8174688962
 20
2.5887380987
 30
0.0
 10
4.819189391
 20
2.5836780843
 30
0.0
 10
4.8207350458
 20
2.5785618696
 30
0.0
 10
4.8216382029
 20
2.5751147828
 30
0.0
 10
4.822054118
 20
2.5733828438
 30
0.0
  0
SPLINE
  5
393
100
AcDbEntity
  8
0
100
AcDbSpline
 62
7
  6
CONTINUOUS
 70
0
 71
3
 72
11
 73
7
 74
0
 42
0.0000001
 43
0.0000001
 44
0.0000000001
 40
0.0
 40
0.0
 40
0.0
 40
0.0
 40
0.2499989291
 40
0.4999982515
 40
0.7499989634
 40
1.0
 40
1.0
 40
1.0
 40
1.0
 10
4.781012538
 20
2.6521849219
 30
0.0
 10
4.7835257012
 20
2.6492005825
 30
0.0
 10
4.7883790188
 20
2.6430836843
 30
0.0
 10
4.7951088966
 20
2.6334993304
 30
0.0
 10
4.8012725445
 20
2.6235415552
 30
0.0
 10
4.8049997183
 20
2.6166806515
 30
0.0
 10
4.8067677988
 20
2.6132026609
 30
0.0
  0
SPLINE
  5
394
100
AcDbEntity
  8
0
100
AcDbSpline
 62
7
  6
CONTINUOUS
 70
0
 71
3
 72
14
 73
10
 74
0
 42
0.0000001
 43
0.0000001
 44
0.0000000001
 40
0.0
 40
0.0
 40
0.0
 40
0.0
 40
0.2499311978
 40
0.3749443768
 40
0.4999566225
 40
0.624969476
 40
0.7499795218
 40
0.8750006861
 40
1.0
 40
1.0
 40
1.0
 40
1.0
 10
4.746254531
 20
2.545530876
 30
0.0
 10
4.7463718982
 20
2.5466886016
 30
0.0
 10
4.7464595133
 20
2.5484367278
 30
0.0
 10
4.7463730159
 20
2.5507639405
 30
0.0
 10
4.7462006388
 20
2.5525027973
 30
0.0
 10
4.7459161849
 20
2.5542268738
 30
0.0
 10
4.7455161912
 20
2.555928045
 30
0.0
 10
4.7449995054
 20
2.5575973741
 30
0.0
 10
4.7445777007
 20
2.5586835621
 30
0.0
 10
4.7443480541
 20
2.5592183247
 30
0.0
  0
SPLINE
  5
395
100
AcDbEntity
  8
0
100
AcDbSpline
 62
7
  6
CONTINUOUS
 70
0
 71
3
 72
11
 73
7
 74
0
 42
0.0000001
 43
0.0000001
 44
0.0000000001
 40
0.0
 40
0.0
 40
0.0
 40
0.0
 40
0.25002058
 40
0.5000230199
 40
0.7500126582
 40
1.0
 40
1.0
 40
1.0
 40
1.0
 10
4.7409569072
 20
2.5315772633
 30
0.0
 10
4.7416777692
 20
2.5326067609
 30
0.0
 10
4.7430037296
 20
2.5347500882
 30
0.0
 10
4.7445835334
 20
2.5381840675
 30
0.0
 10
4.7457063278
 20
2.5417939966
 30
0.0
 10
4.7461277882
 20
2.5442806666
 30
0.0
 10
4.746254531
 20
2.545530876
 30
0.0
  0
SPLINE
  5
396
100
AcDbEntity
  8
0
100
AcDbSpline
 62
7
  6
CONTINUOUS
 70
0
 71
3
 72
15
 73
11
 74
0
 42
0.0000001
 43
0.0000001
 44
0.0000000001
 40
0.0
 40
0.0
 40
0.0
 40
0.0
 40
0.1249961448
 40
0.2499886878
 40
0.3749836705
 40
0.4999798984
 40
0.6249822104
 40
0.7499854692
 40
0.8749939124
 40
1.0
 40
1.0
 40
1.0
 40
1.0
 10
4.7223010956
 20
2.5192619207
 30
0.0
 10
4.7232463965
 20
2.5194161875
 30
0.0
 10
4.7251231136
 20
2.5198196409
 30
0.0
 10
4.7278570626
 20
2.5207218358
 30
0.0
 10
4.7304736724
 20
2.5219238559
 30
0.0
 10
4.7329401117
 20
2.5234094582
 30
0.0
 10
4.7352313521
 20
2.5251522779
 30
0.0
 10
4.7373363047
 20
2.5271150814
 30
0.0
 10
4.7392510886
 20
2.5292624964
 30
0.0
 10
4.7404074887
 20
2.5307926123
 30
0.0
 10
4.7409569072
 20
2.5315772633
 30
0.0
  0
SPLINE
  5
397
100
AcDbEntity
  8
0
100
AcDbSpline
 62
7
  6
CONTINUOUS
 70
0
 71
3
 72
16
 73
12
 74
0
 42
0.0000001
 43
0.0000001
 44
0.0000000001
 40
0.0
 40
0.0
 40
0.0
 40
0.0
 40
0.1250070929
 40
0.2500117454
 40
0.3750116996
 40
0.5000064239
 40
0.6249952214
 40
0.7499808559
 40
0.8124967874
 40
0.875014191
 40
1.0
 40
1.0
 40
1.0
 40
1.0
 10
4.6993806035
 20
2.5255025233
 30
0.0
 10
4.7002126231
 20
2.5249199369
 30
0.0
 10
4.7019134407
 20
2.5238061376
 30
0.0
 10
4.7045744542
 20
2.5223160291
 30
0.0
 10
4.7073483156
 20
2.5210462322
 30
0.0
 10
4.7102259468
 20
2.5200309445
 30
0.0
 10
4.713192278
 20
2.5193116982
 30
0.0
 10
4.7157164584
 20
2.5189871663
 30
0.0
 10
4.7177472444
 20
2.5189034191
 30
0.0
 10
4.7197792412
 20
2.5189385865
 30
0.0
 10
4.7212988187
 20
2.5190983558
 30
0.0
 10
4.7223010956
 20
2.5192619207
 30
0.0
  0
SPLINE
  5
398
100
AcDbEntity
  8
0
100
AcDbSpline
 62
7
  6
CONTINUOUS
 70
0
 71
3
 72
16
 73
12
 74
0
 42
0.0000001
 43
0.0000001
 44
0.0000000001
 40
0.0
 40
0.0
 40
0.0
 40
0.0
 40
0.1249867123
 40
0.1875028364
 40
0.2500175864
 40
0.375005023
 40
0.4999951032
 40
0.6249901688
 40
0.7499898441
 40
0.8749936717
 40
1.0
 40
1.0
 40
1.0
 40
1.0
 10
4.6844912602
 20
2.5460177089
 30
0.0
 10
4.6847254721
 20
2.5449620627
 30
0.0
 10
4.6851650247
 20
2.5433959955
 30
0.0
 10
4.6859223932
 20
2.5413690421
 30
0.0
 10
4.6867918898
 20
2.5393873567
 30
0.0
 10
4.6880813024
 20
2.5370046694
 30
0.0
 10
4.6899176174
 20
2.5343238658
 30
0.0
 10
4.6920032383
 20
2.5318330309
 30
0.0
 10
4.6942955833
 20
2.5295320708
 30
0.0
 10
4.6967601816
 20
2.5274178877
 30
0.0
 10
4.6984947023
 20
2.526122838
 30
0.0
 10
4.6993806035
 20
2.5255025233
 30
0.0
  0
SPLINE
  5
399
100
AcDbEntity
  8
0
100
AcDbSpline
 62
7
  6
CONTINUOUS
 70
0
 71
3
 72
15
 73
11
 74
0
 42
0.0000001
 43
0.0000001
 44
0.0000000001
 40
0.0
 40
0.0
 40
0.0
 40
0.0
 40
0.1250053825
 40
0.2500073059
 40
0.3750026406
 40
0.4999963856
 40
0.6249910542
 40
0.7499876836
 40
0.8749927536
 40
1.0
 40
1.0
 40
1.0
 40
1.0
 10
4.6887493306
 20
2.5677961547
 30
0.0
 10
4.6882026108
 20
2.5670153579
 30
0.0
 10
4.6871787075
 20
2.5654034546
 30
0.0
 10
4.6858885006
 20
2.5628461453
 30
0.0
 10
4.6848795418
 20
2.5601645064
 30
0.0
 10
4.6841757629
 20
2.5573868684
 30
0.0
 10
4.6837917993
 20
2.5545473806
 30
0.0
 10
4.6837221755
 20
2.5516832614
 30
0.0
 10
4.6839518162
 20
2.5488283983
 30
0.0
 10
4.6842848
 20
2.5469482719
 30
0.0
 10
4.6844912602
 20
2.5460177089
 30
0.0
  0
SPLINE
  5
39A
100
AcDbEntity
  8
0
100
AcDbSpline
 62
7
  6
CONTINUOUS
 70
0
 71
3
 72
15
 73
11
 74
0
 42
0.0000001
 43
0.0000001
 44
0.0000000001
 40
0.0
 40
0.0
 40
0.0
 40
0.0
 40
0.1249988143
 40
0.2499966172
 40
0.3749951976
 40
0.49999385
 40
0.6249941777
 40
0.7499948185
 40
0.8749976265
 40
1.0
 40
1.0
 40
1.0
 40
1.0
 10
4.7037257715
 20
2.5781068281
 30
0.0
 10
4.7029699985
 20
2.5779330282
 30
0.0
 10
4.7014727983
 20
2.5775187639
 30
0.0
 10
4.6992944805
 20
2.5766920848
 30
0.0
 10
4.697207086
 20
2.5756561521
 30
0.0
 10
4.6952319273
 20
2.5744196292
 30
0.0
 10
4.6933875942
 20
2.5729955975
 30
0.0
 10
4.6916851327
 20
2.5714050393
 30
0.0
 10
4.6901321152
 20
2.5696690255
 30
0.0
 10
4.6891941515
 20
2.5684314248
 30
0.0
 10
4.6887493306
 20
2.5677961547
 30
0.0
  0
SPLINE
  5
39B
100
AcDbEntity
  8
0
100
AcDbSpline
 62
7
  6
CONTINUOUS
 70
0
 71
3
 72
15
 73
11
 74
0
 42
0.0000001
 43
0.0000001
 44
0.0000000001
 40
0.0
 40
0.0
 40
0.0
 40
0.0
 40
0.1250125068
 40
0.2500228917
 40
0.3750286299
 40
0.5000307208
 40
0.6250279665
 40
0.7500234735
 40
0.8750113869
 40
1.0
 40
1.0
 40
1.0
 40
1.0
 10
4.7245393974
 20
2.5744375041
 30
0.0
 10
4.7237346715
 20
2.5748360541
 30
0.0
 10
4.7221055894
 20
2.5755942928
 30
0.0
 10
4.7196046021
 20
2.5765994352
 30
0.0
 10
4.7170446585
 20
2.5774450887
 30
0.0
 10
4.7144291411
 20
2.5781010572
 30
0.0
 10
4.7117673982
 20
2.5785375844
 30
0.0
 10
4.7090747913
 20
2.5787155348
 30
0.0
 10
4.7063781578
 20
2.5785995633
 30
0.0
 10
4.7046007738
 20
2.5783080464
 30
0.0
 10
4.7037257715
 20
2.5781068281
 30
0.0
  0
SPLINE
  5
39C
100
AcDbEntity
  8
0
100
AcDbSpline
 62
7
  6
CONTINUOUS
 70
0
 71
3
 72
15
 73
11
 74
0
 42
0.0000001
 43
0.0000001
 44
0.0000000001
 40
0.0
 40
0.0
 40
0.0
 40
0.0
 40
0.1249967927
 40
0.2499904845
 40
0.3749861261
 40
0.4999829331
 40
0.6249846325
 40
0.7499873729
 40
0.8749945884
 40
1.0
 40
1.0
 40
1.0
 40
1.0
 10
4.7032976265
 20
2.5943979152
 30
0.0
 10
4.7045603823
 20
2.5946994456
 30
0.0
 10
4.7071165314
 20
2.5951823985
 30
0.0
 10
4.7110034603
 20
2.5955174558
 30
0.0
 10
4.7149046929
 20
2.595446423
 30
0.0
 10
4.7187774698
 20
2.5949729918
 30
0.0
 10
4.7225827881
 20
2.5941142082
 30
0.0
 10
4.7262905552
 20
2.5929038271
 30
0.0
 10
4.7298786457
 20
2.5913774796
 30
0.0
 10
4.7321849453
 20
2.590178342
 30
0.0
 10
4.7333152765
 20
2.5895395489
 30
0.0
  0
SPLINE
  5
39D
100
AcDbEntity
  8
0
100
AcDbSpline
 62
7
  6
CONTINUOUS
 70
0
 71
3
 72
18
 73
14
 74
0
 42
0.0000001
 43
0.0000001
 44
0.0000000001
 40
0.0
 40
0.0
 40
0.0
 40
0.0
 40
0.1249953861
 40
0.249992891
 40
0.3125003355
 40
0.3750100761
 40
0.437520974
 40
0.5000317418
 40
0.5625421279
 40
0.6250538767
 40
0.7500366184
 40
0.875016507
 40
1.0
 40
1.0
 40
1.0
 40
1.0
 10
4.6775851715
 20
2.5756133831
 30
0.0
 10
4.678363669
 20
2.5767251928
 30
0.0
 10
4.679989149
 20
2.5789018793
 30
0.0
 10
4.682202171
 20
2.5814785145
 30
0.0
 10
4.6840886805
 20
2.5834316581
 30
0.0
 10
4.6855629362
 20
2.5848371958
 30
0.0
 10
4.6870964376
 20
2.5861779617
 30
0.0
 10
4.6886889951
 20
2.5874481255
 30
0.0
 10
4.69034031
 20
2.5886411447
 30
0.0
 10
4.69261738
 20
2.5901207796
 30
0.0
 10
4.6956011338
 20
2.5917504444
 30
0.0
 10
4.6993682111
 20
2.5933140522
 30
0.0
 10
4.7019775986
 20
2.5940827089
 30
0.0
 10
4.7032976265
 20
2.5943979152
 30
0.0
  0
SPLINE
  5
39E
100
AcDbEntity
  8
0
100
AcDbSpline
 62
7
  6
CONTINUOUS
 70
0
 71
3
 72
22
 73
18
 74
0
 42
0.0000001
 43
0.0000001
 44
0.0000000001
 40
0.0
 40
0.0
 40
0.0
 40
0.0
 40
0.1249591278
 40
0.187461062
 40
0.2499648436
 40
0.3124681895
 40
0.3749697299
 40
0.4374709258
 40
0.4999720599
 40
0.5624739007
 40
0.6249769161
 40
0.6874818509
 40
0.7499874394
 40
0.8124924231
 40
0.8749957558
 40
0.9375013402
 40
1.0
 40
1.0
 40
1.0
 40
1.0
 10
4.6706322695
 20
2.5371565339
 30
0.0
 10
4.6701526655
 20
2.5387753351
 30
0.0
 10
4.6695573601
 20
2.5412439651
 30
0.0
 10
4.6690476783
 20
2.5445840599
 30
0.0
 10
4.668815187
 20
2.5471085007
 30
0.0
 10
4.6687372092
 20
2.5496423625
 30
0.0
 10
4.6688175585
 20
2.552176214
 30
0.0
 10
4.6690578798
 20
2.5546998962
 30
0.0
 10
4.6694565654
 20
2.557203422
 30
0.0
 10
4.6700098613
 20
2.55967734
 30
0.0
 10
4.6707121861
 20
2.5621131105
 30
0.0
 10
4.6715561314
 20
2.5645034278
 30
0.0
 10
4.6725321258
 20
2.5668428207
 30
0.0
 10
4.6736312544
 20
2.5691268003
 30
0.0
 10
4.6748444296
 20
2.5713521565
 30
0.0
 10
4.6761606388
 20
2.5735178522
 30
0.0
 10
4.6771008236
 20
2.5749216627
 30
0.0
 10
4.6775851715
 20
2.5756133831
 30
0.0
  0
SPLINE
  5
39F
100
AcDbEntity
  8
0
100
AcDbSpline
 62
7
  6
CONTINUOUS
 70
0
 71
3
 72
14
 73
10
 74
0
 42
0.0000001
 43
0.0000001
 44
0.0000000001
 40
0.0
 40
0.0
 40
0.0
 40
0.0
 40
0.249878589
 40
0.3749011988
 40
0.4999229842
 40
0.6249425826
 40
0.7499617248
 40
0.874980086
 40
1.0
 40
1.0
 40
1.0
 40
1.0
 10
4.6904990836
 20
2.5102496077
 30
0.0
 10
4.6881727668
 20
2.5118785122
 30
0.0
 10
4.684840688
 20
2.5145673258
 30
0.0
 10
4.6808754445
 20
2.5186435687
 30
0.0
 10
4.6781687222
 20
2.521943913
 30
0.0
 10
4.6757652258
 20
2.5254711333
 30
0.0
 10
4.673689182
 20
2.5292007601
 30
0.0
 10
4.6719580007
 20
2.5331019043
 30
0.0
 10
4.6710358906
 20
2.5357941966
 30
0.0
 10
4.6706322695
 20
2.5371565339
 30
0.0
  0
SPLINE
  5
3A0
100
AcDbEntity
  8
0
100
AcDbSpline
 62
7
  6
CONTINUOUS
 70
0
 71
3
 72
17
 73
13
 74
0
 42
0.0000001
 43
0.0000001
 44
0.0000000001
 40
0.0
 40
0.0
 40
0.0
 40
0.0
 40
0.1250078585
 40
0.2500048039
 40
0.3749948135
 40
0.4999807451
 40
0.6249674374
 40
0.7499577442
 40
0.8124692858
 40
0.8749793167
 40
0.9374916432
 40
1.0
 40
1.0
 40
1.0
 40
1.0
 10
4.7232638742
 20
2.502174681
 30
0.0
 10
4.7218407422
 20
2.5019278988
 30
0.0
 10
4.7189678671
 20
2.5015745938
 30
0.0
 10
4.7146276264
 20
2.5015012246
 30
0.0
 10
4.7103047847
 20
2.5019012585
 30
0.0
 10
4.7060516445
 20
2.5027692568
 30
0.0
 10
4.7019142424
 20
2.5040792799
 30
0.0
 10
4.6985904547
 20
2.5055040223
 30
0.0
 10
4.6960171897
 20
2.5068181639
 30
0.0
 10
4.6941309062
 20
2.5078858351
 30
0.0
 10
4.692289046
 20
2.5090280517
 30
0.0
 10
4.691090705
 20
2.5098353499
 30
0.0
 10
4.6904990836
 20
2.5102496077
 30
0.0
  0
SPLINE
  5
3A1
100
AcDbEntity
  8
0
100
AcDbSpline
 62
7
  6
CONTINUOUS
 70
0
 71
3
 72
15
 73
11
 74
0
 42
0.0000001
 43
0.0000001
 44
0.0000000001
 40
0.0
 40
0.0
 40
0.0
 40
0.0
 40
0.1250066125
 40
0.2500109822
 40
0.3750085327
 40
0.5000038585
 40
0.6249983546
 40
0.7499942577
 40
0.8749954605
 40
1.0
 40
1.0
 40
1.0
 40
1.0
 10
4.75041552
 20
2.5195582166
 30
0.0
 10
4.7496236845
 20
2.5184273584
 30
0.0
 10
4.7479457859
 20
2.5162295926
 30
0.0
 10
4.7451400077
 20
2.5131752666
 30
0.0
 10
4.7420463981
 20
2.5104112207
 30
0.0
 10
4.7386816735
 20
2.5079837476
 30
0.0
 10
4.7350771033
 20
2.5059289848
 30
0.0
 10
4.7312755523
 20
2.5042672982
 30
0.0
 10
4.7273257369
 20
2.5030009485
 30
0.0
 10
4.724624075
 20
2.5024105504
 30
0.0
 10
4.7232638742
 20
2.502174681
 30
0.0
  0
SPLINE
  5
3A2
100
AcDbEntity
  8
0
100
AcDbSpline
 62
7
  6
CONTINUOUS
 70
0
 71
3
 72
14
 73
10
 74
0
 42
0.0000001
 43
0.0000001
 44
0.0000000001
 40
0.0
 40
0.0
 40
0.0
 40
0.0
 40
0.1250269842
 40
0.2500537485
 40
0.4999119606
 40
0.6249337307
 40
0.7499560909
 40
0.8749777987
 40
1.0
 40
1.0
 40
1.0
 40
1.0
 10
4.7580883246
 20
2.5470975085
 30
0.0
 10
4.7581184739
 20
2.545885917
 30
0.0
 10
4.7581067435
 20
2.5434599899
 30
0.0
 10
4.757771987
 20
2.5386234597
 30
0.0
 10
4.7569132416
 20
2.5338303658
 30
0.0
 10
4.7554711598
 20
2.5291989328
 30
0.0
 10
4.7540909787
 20
2.5258299052
 30
0.0
 10
4.7524151007
 20
2.5225982445
 30
0.0
 10
4.7511106488
 20
2.5205509635
 30
0.0
 10
4.75041552
 20
2.5195582166
 30
0.0
  0
SPLINE
  5
3A3
100
AcDbEntity
  8
0
100
AcDbSpline
 62
2
  6
CONTINUOUS
 70
0
 71
3
 72
11
 73
7
 74
0
 42
0.0000001
 43
0.0000001
 44
0.0000000001
 40
0.0
 40
0.0
 40
0.0
 40
0.0
 40
0.249995258
 40
0.5000207258
 40
0.7500095024
 40
1.0
 40
1.0
 40
1.0
 40
1.0
 10
4.6866306035
 20
2.5675025233
 30
0.0
 10
4.6857971868
 20
2.5680860879
 30
0.0
 10
4.6841628856
 20
2.5693009383
 30
0.0
 10
4.6818328625
 20
2.5712762424
 30
0.0
 10
4.6796501978
 20
2.573413875
 30
0.0
 10
4.6783133599
 20
2.5749517289
 30
0.0
 10
4.6776805147
 20
2.5757483458
 30
0.0
  0
SPLINE
  5
3A4
100
AcDbEntity
  8
0
100
AcDbSpline
 62
2
  6
CONTINUOUS
 70
0
 71
3
 72
9
 73
5
 74
0
 42
0.0000001
 43
0.0000001
 44
0.0000000001
 40
0.0
 40
0.0
 40
0.0
 40
0.0
 40
0.4999907287
 40
1.0
 40
1.0
 40
1.0
 40
1.0
 10
4.6698449254
 20
2.5588983107
 30
0.0
 10
4.6710534295
 20
2.5576699105
 30
0.0
 10
4.6735944167
 20
2.5553324662
 30
0.0
 10
4.676337461
 20
2.5532380364
 30
0.0
 10
4.6777490836
 20
2.5522496077
 30
0.0
  0
SPLINE
  5
3A5
100
AcDbEntity
  8
0
100
AcDbSpline
 62
2
  6
CONTINUOUS
 70
0
 71
3
 72
9
 73
5
 74
0
 42
0.0000001
 43
0.0000001
 44
0.0000000001
 40
0.0
 40
0.0
 40
0.0
 40
0.0
 40
0.4999795683
 40
1.0
 40
1.0
 40
1.0
 40
1.0
 10
4.6777490836
 20
2.5522496077
 30
0.0
 10
4.678756726
 20
2.5515440489
 30
0.0
 10
4.6808155774
 20
2.5501937743
 30
0.0
 10
4.6829611648
 20
2.5489849437
 30
0.0
 10
4.6840545874
 20
2.5484211788
 30
0.0
  0
SPLINE
  5
3A6
100
AcDbEntity
  8
0
100
AcDbSpline
 62
2
  6
CONTINUOUS
 70
0
 71
3
 72
16
 73
12
 74
0
 42
0.0000001
 43
0.0000001
 44
0.0000000001
 40
0.0
 40
0.0
 40
0.0
 40
0.0
 40
0.124993797
 40
0.2499951486
 40
0.3749987213
 40
0.4999996312
 40
0.6249961318
 40
0.7499951475
 40
0.8124989129
 40
0.8750074351
 40
1.0
 40
1.0
 40
1.0
 40
1.0
 10
4.7843840072
 20
2.6380917915
 30
0.0
 10
4.7851933546
 20
2.6364163077
 30
0.0
 10
4.7867821077
 20
2.6330506253
 30
0.0
 10
4.7890622837
 20
2.6279546586
 30
0.0
 10
4.7912269676
 20
2.6228083288
 30
0.0
 10
4.793260452
 20
2.6176086667
 30
0.0
 10
4.7951429817
 20
2.6123523826
 30
0.0
 10
4.7965680883
 20
2.6079229121
 30
0.0
 10
4.7976074005
 20
2.6043489245
 30
0.0
 10
4.7985747938
 20
2.6007549971
 30
0.0
 10
4.7992126053
 20
2.5980362389
 30
0.0
 10
4.7995922048
 20
2.5962146668
 30
0.0
  0
SPLINE
  5
3A7
100
AcDbEntity
  8
0
100
AcDbSpline
 62
2
  6
CONTINUOUS
 70
0
 71
3
 72
11
 73
7
 74
0
 42
0.0000001
 43
0.0000001
 44
0.0000000001
 40
0.0
 40
0.0
 40
0.0
 40
0.0
 40
0.2499906625
 40
0.4999833669
 40
0.7499912601
 40
1.0
 40
1.0
 40
1.0
 40
1.0
 10
4.8274901852
 20
3.2054014056
 30
0.0
 10
4.8284547557
 20
3.2044194246
 30
0.0
 10
4.8304866749
 20
3.2025534951
 30
0.0
 10
4.8338021406
 20
3.2000805204
 30
0.0
 10
4.8373425572
 20
3.1979429447
 30
0.0
 10
4.8398230336
 20
3.1967389783
 30
0.0
 10
4.841085464
 20
3.1961901373
 30
0.0
  0
SPLINE
  5
3A8
100
AcDbEntity
  8
0
100
AcDbSpline
 62
2
  6
CONTINUOUS
 70
0
 71
3
 72
11
 73
7
 74
0
 42
0.0000001
 43
0.0000001
 44
0.0000000001
 40
0.0
 40
0.0
 40
0.0
 40
0.0
 40
0.2499878638
 40
0.5000108299
 40
0.7500028681
 40
1.0
 40
1.0
 40
1.0
 40
1.0
 10
4.9017140615
 20
3.214022384
 30
0.0
 10
4.9021871633
 20
3.2148364863
 30
0.0
 10
4.9030854157
 20
3.2164933384
 30
0.0
 10
4.9042733152
 20
3.2190584803
 30
0.0
 10
4.9052879453
 20
3.2216971755
 30
0.0
 10
4.9058404674
 20
3.2234994681
 30
0.0
 10
4.9060841206
 20
3.2244090212
 30
0.0
  0
SPLINE
  5
3A9
100
AcDbEntity
  8
0
100
AcDbSpline
 62
2
  6
CONTINUOUS
 70
0
 71
3
 72
11
 73
7
 74
0
 42
0.0000001
 43
0.0000001
 44
0.0000000001
 40
0.0
 40
0.0
 40
0.0
 40
0.0
 40
0.2499909646
 40
0.4999856411
 40
0.7499834362
 40
1.0
 40
1.0
 40
1.0
 40
1.0
 10
4.9066083088
 20
3.2266200276
 30
0.0
 10
4.9068732712
 20
3.2279027457
 30
0.0
 10
4.9072738433
 20
3.2304969109
 30
0.0
 10
4.9074786132
 20
3.2344273392
 30
0.0
 10
4.9072975469
 20
3.2383586091
 30
0.0
 10
4.9069346319
 20
3.2409572146
 30
0.0
 10
4.9066979946
 20
3.2422455953
 30
0.0
  0
SPLINE
  5
3AA
100
AcDbEntity
  8
0
100
AcDbSpline
 62
2
  6
CONTINUOUS
 70
0
 71
3
 72
15
 73
11
 74
0
 42
0.0000001
 43
0.0000001
 44
0.0000000001
 40
0.0
 40
0.0
 40
0.0
 40
0.0
 40
0.124997312
 40
0.2500007739
 40
0.3750013791
 40
0.5000000305
 40
0.6249996506
 40
0.7499934696
 40
0.8750070608
 40
1.0
 40
1.0
 40
1.0
 40
1.0
 10
4.8915817532
 20
3.2411028861
 30
0.0
 10
4.8916597537
 20
3.2403771216
 30
0.0
 10
4.8917657388
 20
3.2389195818
 30
0.0
 10
4.8917616635
 20
3.2367276199
 30
0.0
 10
4.8915841144
 20
3.2345424951
 30
0.0
 10
4.8912263565
 20
3.2323794239
 30
0.0
 10
4.8906862261
 20
3.2302545012
 30
0.0
 10
4.8899669896
 20
3.2281832522
 30
0.0
 10
4.8890772688
 20
3.2261796644
 30
0.0
 10
4.888378613
 20
3.2248957364
 30
0.0
 10
4.8880056143
 20
3.2242683188
 30
0.0
  0
SPLINE
  5
3AB
100
AcDbEntity
  8
0
100
AcDbSpline
 62
2
  6
CONTINUOUS
 70
0
 71
3
 72
13
 73
9
 74
0
 42
0.0000001
 43
0.0000001
 44
0.0000000001
 40
0.0
 40
0.0
 40
0.0
 40
0.0
 40
0.2499595786
 40
0.4999144608
 40
0.6249328696
 40
0.7499559811
 40
0.8749776016
 40
1.0
 40
1.0
 40
1.0
 40
1.0
 10
4.8432057976
 20
3.2125025937
 30
0.0
 10
4.842274571
 20
3.2129871664
 30
0.0
 10
4.8404565321
 20
3.2140450987
 30
0.0
 10
4.8383361421
 20
3.2156016414
 30
0.0
 10
4.8367573732
 20
3.2169877613
 30
0.0
 10
4.835637314
 20
3.2180967176
 30
0.0
 10
4.8345876054
 20
3.2192724253
 30
0.0
 10
4.8339377382
 20
3.2200983182
 30
0.0
 10
4.833626044
 20
3.2205208499
 30
0.0
  0
SPLINE
  5
3AC
100
AcDbEntity
  8
0
100
AcDbSpline
 62
2
  6
CONTINUOUS
 70
0
 71
3
 72
13
 73
9
 74
0
 42
0.0000001
 43
0.0000001
 44
0.0000000001
 40
0.0
 40
0.0
 40
0.0
 40
0.0
 40
0.1250061546
 40
0.2500263575
 40
0.3750417633
 40
0.5000606671
 40
0.7500215684
 40
1.0
 40
1.0
 40
1.0
 40
1.0
 10
4.8334981094
 20
3.2517204507
 30
0.0
 10
4.8339495902
 20
3.2522813712
 30
0.0
 10
4.834903547
 20
3.2533631389
 30
0.0
 10
4.8364620206
 20
3.2548620672
 30
0.0
 10
4.8381270522
 20
3.2562414446
 30
0.0
 10
4.8404630041
 20
3.2579289644
 30
0.0
 10
4.8435618358
 20
3.2597752508
 30
0.0
 10
4.8461653414
 20
3.2610140747
 30
0.0
 10
4.8474876762
 20
3.2615839305
 30
0.0
  0
SPLINE
  5
3AD
100
AcDbEntity
  8
0
100
AcDbSpline
 62
2
  6
CONTINUOUS
 70
0
 71
3
 72
11
 73
7
 74
0
 42
0.0000001
 43
0.0000001
 44
0.0000000001
 40
0.0
 40
0.0
 40
0.0
 40
0.0
 40
0.2499952838
 40
0.4999873008
 40
0.749983129
 40
1.0
 40
1.0
 40
1.0
 40
1.0
 10
4.8274960447
 20
3.2699392231
 30
0.0
 10
4.8265814332
 20
3.269152072
 30
0.0
 10
4.8248245368
 20
3.267491241
 30
0.0
 10
4.8224418054
 20
3.2647585976
 30
0.0
 10
4.8203337679
 20
3.2618088573
 30
0.0
 10
4.8191196569
 20
3.2597183519
 30
0.0
 10
4.8185608214
 20
3.2586487373
 30
0.0
  0
LINE
  5
3AE
100
AcDbEntity
  8
0
100
AcDbLine
 62
2
  6
CONTINUOUS
 10
4.8187285475
 20
3.3111429832
 11
4.8148417392
 21
3.3130131625
  0
SPLINE
  5
3AF
100
AcDbEntity
  8
0
100
AcDbSpline
 62
2
  6
CONTINUOUS
 70
0
 71
3
 72
11
 73
7
 74
0
 42
0.0000001
 43
0.0000001
 44
0.0000000001
 40
0.0
 40
0.0
 40
0.0
 40
0.0
 40
0.2500093548
 40
0.5000075928
 40
0.7500010809
 40
1.0
 40
1.0
 40
1.0
 40
1.0
 10
4.8148417392
 20
3.3130131625
 30
0.0
 10
4.813988001
 20
3.3135111862
 30
0.0
 10
4.8123316173
 20
3.3145985322
 30
0.0
 10
4.8100500278
 20
3.3165025797
 30
0.0
 10
4.8080112336
 20
3.3186648668
 30
0.0
 10
4.8068324311
 20
3.3202581083
 30
0.0
 10
4.8062906096
 20
3.3210846943
 30
0.0
  0
SPLINE
  5
3B0
100
AcDbEntity
  8
0
100
AcDbSpline
 62
2
  6
CONTINUOUS
 70
0
 71
3
 72
13
 73
9
 74
0
 42
0.0000001
 43
0.0000001
 44
0.0000000001
 40
0.0
 40
0.0
 40
0.0
 40
0.0
 40
0.1250276319
 40
0.2500560996
 40
0.3750836747
 40
0.5001125032
 40
0.7500459656
 40
1.0
 40
1.0
 40
1.0
 40
1.0
 10
4.8561759751
 20
3.3363015055
 30
0.0
 10
4.8561665163
 20
3.3357417309
 30
0.0
 10
4.8561131333
 20
3.3346224312
 30
0.0
 10
4.8559272567
 20
3.332952101
 30
0.0
 10
4.8556349519
 20
3.3312969347
 30
0.0
 10
4.8551048855
 20
3.3291203556
 30
0.0
 10
4.8541841541
 20
3.3264697501
 30
0.0
 10
4.8531972875
 20
3.3244542865
 30
0.0
 10
4.852650405
 20
3.3234777351
 30
0.0
  0
SPLINE
  5
3B1
100
AcDbEntity
  8
0
100
AcDbSpline
 62
2
  6
CONTINUOUS
 70
0
 71
3
 72
11
 73
7
 74
0
 42
0.0000001
 43
0.0000001
 44
0.0000000001
 40
0.0
 40
0.0
 40
0.0
 40
0.0
 40
0.2499912107
 40
0.4999826788
 40
0.7500224786
 40
1.0
 40
1.0
 40
1.0
 40
1.0
 10
4.9096731307
 20
3.3490009971
 30
0.0
 10
4.9095637927
 20
3.3484007705
 30
0.0
 10
4.9092913081
 20
3.3472094194
 30
0.0
 10
4.9087269461
 20
3.3454658597
 30
0.0
 10
4.9080179959
 20
3.3437761752
 30
0.0
 10
4.9074579951
 20
3.3426904298
 30
0.0
 10
4.9071587839
 20
3.3421587734
 30
0.0
  0
SPLINE
  5
3B2
100
AcDbEntity
  8
0
100
AcDbSpline
 62
2
  6
CONTINUOUS
 70
0
 71
3
 72
15
 73
11
 74
0
 42
0.0000001
 43
0.0000001
 44
0.0000000001
 40
0.0
 40
0.0
 40
0.0
 40
0.0
 40
0.1249866578
 40
0.2500085105
 40
0.3750072538
 40
0.5000010733
 40
0.6250004442
 40
0.7500005072
 40
0.8749915129
 40
1.0
 40
1.0
 40
1.0
 40
1.0
 10
4.9071587839
 20
3.3421587734
 30
0.0
 10
4.906874285
 20
3.3416532587
 30
0.0
 10
4.9062691157
 20
3.3406618218
 30
0.0
 10
4.905249987
 20
3.3392487845
 30
0.0
 10
4.9041178074
 20
3.3379241153
 30
0.0
 10
4.9028752438
 20
3.3367023463
 30
0.0
 10
4.9015293126
 20
3.3355953635
 30
0.0
 10
4.9000901954
 20
3.3346126255
 30
0.0
 10
4.8985714571
 20
3.3337585404
 30
0.0
 10
4.8975151598
 20
3.3332749498
 30
0.0
 10
4.8969786607
 20
3.3330541082
 30
0.0
  0
SPLINE
  5
3B3
100
AcDbEntity
  8
0
100
AcDbSpline
 62
2
  6
CONTINUOUS
 70
0
 71
3
 72
15
 73
11
 74
0
 42
0.0000001
 43
0.0000001
 44
0.0000000001
 40
0.0
 40
0.0
 40
0.0
 40
0.0
 40
0.1250106742
 40
0.2500205005
 40
0.3750087132
 40
0.5000038302
 40
0.6249994232
 40
0.7499888741
 40
0.8750057545
 40
1.0
 40
1.0
 40
1.0
 40
1.0
 10
4.8936090601
 20
3.3319541348
 30
0.0
 10
4.8929595843
 20
3.3317927537
 30
0.0
 10
4.891646341
 20
3.3315240331
 30
0.0
 10
4.8896479183
 20
3.3313038561
 30
0.0
 10
4.8876370769
 20
3.3312822265
 30
0.0
 10
4.8856346543
 20
3.3314683126
 30
0.0
 10
4.8836626398
 20
3.3318623933
 30
0.0
 10
4.8817411068
 20
3.3324550509
 30
0.0
 10
4.8798858999
 20
3.3332292509
 30
0.0
 10
4.8786994524
 20
3.3338526017
 30
0.0
 10
4.8781199623
 20
3.3341871702
 30
0.0
  0
SPLINE
  5
3B4
100
AcDbEntity
  8
0
100
AcDbSpline
 62
2
  6
CONTINUOUS
 70
0
 71
3
 72
9
 73
5
 74
0
 42
0.0000001
 43
0.0000001
 44
0.0000000001
 40
0.0
 40
0.0
 40
0.0
 40
0.0
 40
0.4999894938
 40
1.0
 40
1.0
 40
1.0
 40
1.0
 10
4.8781199623
 20
3.3341871702
 30
0.0
 10
4.87744292
 20
3.3345780606
 30
0.0
 10
4.8761313613
 20
3.3354364716
 30
0.0
 10
4.8749312052
 20
3.3364454851
 30
0.0
 10
4.8743645093
 20
3.3369840838
 30
0.0
  0
SPLINE
  5
3B5
100
AcDbEntity
  8
0
100
AcDbSpline
 62
2
  6
CONTINUOUS
 70
0
 71
3
 72
11
 73
7
 74
0
 42
0.0000001
 43
0.0000001
 44
0.0000000001
 40
0.0
 40
0.0
 40
0.0
 40
0.0
 40
0.2499929018
 40
0.4999901489
 40
0.7500248705
 40
1.0
 40
1.0
 40
1.0
 40
1.0
 10
4.8003798321
 20
3.3054478068
 30
0.0
 10
4.8010067676
 20
3.3047804145
 30
0.0
 10
4.8023071811
 20
3.3034884425
 30
0.0
 10
4.8043881817
 20
3.301691661
 30
0.0
 10
4.8065892423
 20
3.3000443222
 30
0.0
 10
4.8081284296
 20
3.2990488095
 30
0.0
 10
4.8089133612
 20
3.2985774031
 30
0.0
  0
LINE
  5
3B6
100
AcDbEntity
  8
0
100
AcDbLine
 62
2
  6
CONTINUOUS
 10
4.8089133612
 20
3.2985774031
 11
4.8140959807
 21
3.2959099759
  0
SPLINE
  5
3B7
100
AcDbEntity
  8
0
100
AcDbSpline
 62
2
  6
CONTINUOUS
 70
0
 71
3
 72
11
 73
7
 74
0
 42
0.0000001
 43
0.0000001
 44
0.0000000001
 40
0.0
 40
0.0
 40
0.0
 40
0.0
 40
0.2499739114
 40
0.4999612731
 40
0.7499693561
 40
1.0
 40
1.0
 40
1.0
 40
1.0
 10
4.8632896886
 20
3.3124288796
 30
0.0
 10
4.8638395416
 20
3.3135558917
 30
0.0
 10
4.8648107684
 20
3.3158748846
 30
0.0
 10
4.8658901594
 20
3.3194852069
 30
0.0
 10
4.8666225226
 20
3.3231807358
 30
0.0
 10
4.8669041917
 20
3.3256762195
 30
0.0
 10
4.8669998071
 20
3.3269268458
 30
0.0
  0
SPLINE
  5
3B8
100
AcDbEntity
  8
0
100
AcDbSpline
 62
2
  6
CONTINUOUS
 70
0
 71
3
 72
11
 73
7
 74
0
 42
0.0000001
 43
0.0000001
 44
0.0000000001
 40
0.0
 40
0.0
 40
0.0
 40
0.0
 40
0.2500030024
 40
0.5000067426
 40
0.7499894757
 40
1.0
 40
1.0
 40
1.0
 40
1.0
 10
4.8708633908
 20
3.3231889746
 30
0.0
 10
4.8715431307
 20
3.3224843129
 30
0.0
 10
4.8729612208
 20
3.3211298421
 30
0.0
 10
4.8752666236
 20
3.3193025898
 30
0.0
 10
4.877747501
 20
3.3177202196
 30
0.0
 10
4.8795098771
 20
3.3168552385
 30
0.0
 10
4.8804125246
 20
3.3164759241
 30
0.0
  0
SPLINE
  5
3B9
100
AcDbEntity
  8
0
100
AcDbSpline
 62
2
  6
CONTINUOUS
 70
0
 71
3
 72
9
 73
5
 74
0
 42
0.0000001
 43
0.0000001
 44
0.0000000001
 40
0.0
 40
0.0
 40
0.0
 40
0.0
 40
0.5000294349
 40
1.0
 40
1.0
 40
1.0
 40
1.0
 10
4.9162484435
 20
3.3272091984
 30
0.0
 10
4.9168931279
 20
3.3280313256
 30
0.0
 10
4.9181085929
 20
3.3297345489
 30
0.0
 10
4.919176446
 20
3.3315333117
 30
0.0
 10
4.9196747816
 20
3.3324514161
 30
0.0
  0
SPLINE
  5
3BA
100
AcDbEntity
  8
0
100
AcDbSpline
 62
2
  6
CONTINUOUS
 70
0
 71
3
 72
12
 73
8
 74
0
 42
0.0000001
 43
0.0000001
 44
0.0000000001
 40
0.0
 40
0.0
 40
0.0
 40
0.0
 40
0.1250107173
 40
0.2500153943
 40
0.5000021748
 40
0.7500053187
 40
1.0
 40
1.0
 40
1.0
 40
1.0
 10
4.2175668349
 20
3.9183808919
 30
0.0
 10
4.2176742762
 20
3.9176663842
 30
0.0
 10
4.2178736612
 20
3.9162350372
 30
0.0
 10
4.2182184982
 20
3.9133656332
 30
0.0
 10
4.2185583811
 20
3.909768626
 30
0.0
 10
4.2188432657
 20
3.9054427878
 30
0.0
 10
4.2189667144
 20
3.9025552626
 30
0.0
 10
4.2190137069
 20
3.9011111003
 30
0.0
  0
SPLINE
  5
3BB
100
AcDbEntity
  8
0
100
AcDbSpline
 62
2
  6
CONTINUOUS
 70
0
 71
3
 72
9
 73
5
 74
0
 42
0.0000001
 43
0.0000001
 44
0.0000000001
 40
0.0
 40
0.0
 40
0.0
 40
0.0
 40
0.4999421872
 40
1.0
 40
1.0
 40
1.0
 40
1.0
 10
4.1780464982
 20
3.8431533126
 30
0.0
 10
4.1770660474
 20
3.8439871475
 30
0.0
 10
4.1752323084
 20
3.8458084513
 30
0.0
 10
4.173646802
 20
3.847844067
 30
0.0
 10
4.1729085417
 20
3.8488987245
 30
0.0
  0
SPLINE
  5
3BC
100
AcDbEntity
  8
0
100
AcDbSpline
 62
2
  6
CONTINUOUS
 70
0
 71
3
 72
23
 73
19
 74
0
 42
0.0000001
 43
0.0000001
 44
0.0000000001
 40
0.0
 40
0.0
 40
0.0
 40
0.0
 40
0.0624906141
 40
0.1249920231
 40
0.15624917
 40
0.1875023542
 40
0.2500100881
 40
0.3125124614
 40
0.3750169235
 40
0.4375189664
 40
0.5000179215
 40
0.5625204254
 40
0.6250188234
 40
0.6875142714
 40
0.7500121468
 40
0.8125119283
 40
0.8750095773
 40
1.0
 40
1.0
 40
1.0
 40
1.0
 10
4.1729085417
 20
3.8488987245
 30
0.0
 10
4.1724264814
 20
3.8495873819
 30
0.0
 10
4.1715521951
 20
3.8510287757
 30
0.0
 10
4.1706435912
 20
3.8529267337
 30
0.0
 10
4.1700058723
 20
3.8544830704
 30
0.0
 10
4.1694206046
 20
3.8560599648
 30
0.0
 10
4.1687797945
 20
3.8580631475
 30
0.0
 10
4.1681271047
 20
3.8605004313
 30
0.0
 10
4.1675737662
 20
3.8629619238
 30
0.0
 10
4.167102702
 20
3.865440228
 30
0.0
 10
4.1667024148
 20
3.867930835
 30
0.0
 10
4.1663647524
 20
3.8704305724
 30
0.0
 10
4.1660800955
 20
3.8729367928
 30
0.0
 10
4.1658428819
 20
3.875447858
 30
0.0
 10
4.1656487032
 20
3.8779626081
 30
0.0
 10
4.1654928576
 20
3.8804800336
 30
0.0
 10
4.1653298729
 20
3.8838389481
 30
0.0
 10
4.1652543566
 20
3.8863601695
 30
0.0
 10
4.1652216448
 20
3.8880412021
 30
0.0
  0
SPLINE
  5
3BD
100
AcDbEntity
  8
0
100
AcDbSpline
 62
2
  6
CONTINUOUS
 70
0
 71
3
 72
15
 73
11
 74
0
 42
0.0000001
 43
0.0000001
 44
0.0000000001
 40
0.0
 40
0.0
 40
0.0
 40
0.0
 40
0.124992201
 40
0.2500084025
 40
0.3750044873
 40
0.500002897
 40
0.6250014364
 40
0.7500004274
 40
0.8749994459
 40
1.0
 40
1.0
 40
1.0
 40
1.0
 10
4.1614557552
 20
3.8382819463
 30
0.0
 10
4.1620275509
 20
3.8375583172
 30
0.0
 10
4.1632201856
 20
3.8361486958
 30
0.0
 10
4.1651560345
 20
3.8341681964
 30
0.0
 10
4.1672371652
 20
3.8323402836
 30
0.0
 10
4.1694567647
 20
3.8306832085
 30
0.0
 10
4.171803433
 20
3.8292114167
 30
0.0
 10
4.1742619713
 20
3.8279352325
 30
0.0
 10
4.1768144036
 20
3.8268598423
 30
0.0
 10
4.1785663359
 20
3.8262758714
 30
0.0
 10
4.1794514221
 20
3.8260164
 30
0.0
  0
SPLINE
  5
3BE
100
AcDbEntity
  8
0
100
AcDbSpline
 62
2
  6
CONTINUOUS
 70
0
 71
3
 72
15
 73
11
 74
0
 42
0.0000001
 43
0.0000001
 44
0.0000000001
 40
0.0
 40
0.0
 40
0.0
 40
0.0
 40
0.1250094072
 40
0.2500094912
 40
0.3750080851
 40
0.5000010246
 40
0.6250074176
 40
0.7500110906
 40
0.8750118542
 40
1.0
 40
1.0
 40
1.0
 40
1.0
 10
4.2318174343
 20
3.8565824723
 30
0.0
 10
4.2322657123
 20
3.8580573744
 30
0.0
 10
4.2330633693
 20
3.8610377001
 30
0.0
 10
4.2340130848
 20
3.865565236
 30
0.0
 10
4.2347517847
 20
3.8701314032
 30
0.0
 10
4.2353130184
 20
3.8747224071
 30
0.0
 10
4.2357178162
 20
3.879329672
 30
0.0
 10
4.2359894214
 20
3.8839466065
 30
0.0
 10
4.2361416905
 20
3.8885686694
 30
0.0
 10
4.2361725397
 20
3.8916514632
 30
0.0
 10
4.2361725397
 20
3.8931927228
 30
0.0
  0
LINE
  5
3BF
100
AcDbEntity
  8
0
100
AcDbLine
 62
2
  6
CONTINUOUS
 10
4.2361725397
 20
3.8931927228
 11
4.2358445294
 21
3.905463413
  0
SPLINE
  5
3C0
100
AcDbEntity
  8
0
100
AcDbSpline
 62
2
  6
CONTINUOUS
 70
0
 71
3
 72
12
 73
8
 74
0
 42
0.0000001
 43
0.0000001
 44
0.0000000001
 40
0.0
 40
0.0
 40
0.0
 40
0.0
 40
0.1250107173
 40
0.2500153944
 40
0.5000021749
 40
0.7500053188
 40
1.0
 40
1.0
 40
1.0
 40
1.0
 10
4.1126793797
 20
3.9183808938
 30
0.0
 10
4.1127868206
 20
3.9176663865
 30
0.0
 10
4.1129862048
 20
3.9162350404
 30
0.0
 10
4.1133310403
 20
3.9133656383
 30
0.0
 10
4.1136709217
 20
3.9097686335
 30
0.0
 10
4.113955805
 20
3.9054427983
 30
0.0
 10
4.1140792532
 20
3.9025552751
 30
0.0
 10
4.1141262454
 20
3.9011111139
 30
0.0
  0
SPLINE
  5
3C1
100
AcDbEntity
  8
0
100
AcDbSpline
 62
2
  6
CONTINUOUS
 70
0
 71
3
 72
9
 73
5
 74
0
 42
0.0000001
 43
0.0000001
 44
0.0000000001
 40
0.0
 40
0.0
 40
0.0
 40
0.0
 40
0.4999421872
 40
1.0
 40
1.0
 40
1.0
 40
1.0
 10
4.0731590526
 20
3.8431533126
 30
0.0
 10
4.0721786019
 20
3.8439871475
 30
0.0
 10
4.0703448628
 20
3.8458084513
 30
0.0
 10
4.0687593564
 20
3.847844067
 30
0.0
 10
4.0680210961
 20
3.8488987245
 30
0.0
  0
SPLINE
  5
3C2
100
AcDbEntity
  8
0
100
AcDbSpline
 62
2
  6
CONTINUOUS
 70
0
 71
3
 72
23
 73
19
 74
0
 42
0.0000001
 43
0.0000001
 44
0.0000000001
 40
0.0
 40
0.0
 40
0.0
 40
0.0
 40
0.0624906141
 40
0.1249920231
 40
0.15624917
 40
0.1875023542
 40
0.2500100881
 40
0.3125124613
 40
0.3750169235
 40
0.4375189664
 40
0.5000179215
 40
0.5625204254
 40
0.6250188234
 40
0.6875142714
 40
0.7500121468
 40
0.8125119283
 40
0.8750095773
 40
1.0
 40
1.0
 40
1.0
 40
1.0
 10
4.0680210961
 20
3.8488987245
 30
0.0
 10
4.0675390357
 20
3.849587382
 30
0.0
 10
4.0666647492
 20
3.8510287763
 30
0.0
 10
4.0657561451
 20
3.8529267348
 30
0.0
 10
4.0651184261
 20
3.8544830719
 30
0.0
 10
4.0645331584
 20
3.8560599667
 30
0.0
 10
4.0638923482
 20
3.8580631499
 30
0.0
 10
4.0632396584
 20
3.8605004344
 30
0.0
 10
4.0626863199
 20
3.8629619276
 30
0.0
 10
4.0622152556
 20
3.8654402323
 30
0.0
 10
4.0618149685
 20
3.86793084
 30
0.0
 10
4.0614773061
 20
3.8704305781
 30
0.0
 10
4.0611926493
 20
3.8729367992
 30
0.0
 10
4.0609554357
 20
3.875447865
 30
0.0
 10
4.0607612571
 20
3.8779626157
 30
0.0
 10
4.0606054116
 20
3.8804800419
 30
0.0
 10
4.060442427
 20
3.8838389572
 30
0.0
 10
4.0603669108
 20
3.8863601793
 30
0.0
 10
4.060334199
 20
3.8880412123
 30
0.0
  0
SPLINE
  5
3C3
100
AcDbEntity
  8
0
100
AcDbSpline
 62
2
  6
CONTINUOUS
 70
0
 71
3
 72
15
 73
11
 74
0
 42
0.0000001
 43
0.0000001
 44
0.0000000001
 40
0.0
 40
0.0
 40
0.0
 40
0.0
 40
0.124992201
 40
0.2500084025
 40
0.3750044873
 40
0.500002897
 40
0.6250014365
 40
0.7500004274
 40
0.8749994459
 40
1.0
 40
1.0
 40
1.0
 40
1.0
 10
4.0565683043
 20
3.8382819484
 30
0.0
 10
4.0571401003
 20
3.8375583193
 30
0.0
 10
4.0583327356
 20
3.8361486978
 30
0.0
 10
4.0602685852
 20
3.8341681982
 30
0.0
 10
4.0623497166
 20
3.8323402851
 30
0.0
 10
4.0645693167
 20
3.8306832097
 30
0.0
 10
4.0669159856
 20
3.8292114176
 30
0.0
 10
4.0693745245
 20
3.8279352331
 30
0.0
 10
4.0719269574
 20
3.8268598426
 30
0.0
 10
4.0736788901
 20
3.8262758715
 30
0.0
 10
4.0745639766
 20
3.8260164
 30
0.0
  0
SPLINE
  5
3C4
100
AcDbEntity
  8
0
100
AcDbSpline
 62
2
  6
CONTINUOUS
 70
0
 71
3
 72
15
 73
11
 74
0
 42
0.0000001
 43
0.0000001
 44
0.0000000001
 40
0.0
 40
0.0
 40
0.0
 40
0.0
 40
0.1250094069
 40
0.250009491
 40
0.375008085
 40
0.5000010244
 40
0.6250074174
 40
0.7500110904
 40
0.8750118541
 40
1.0
 40
1.0
 40
1.0
 40
1.0
 10
4.1269299737
 20
3.8565824542
 30
0.0
 10
4.1273782514
 20
3.8580573572
 30
0.0
 10
4.1281759079
 20
3.8610376846
 30
0.0
 10
4.1291256229
 20
3.8655652227
 30
0.0
 10
4.1298643226
 20
3.8701313923
 30
0.0
 10
4.1304255564
 20
3.8747223984
 30
0.0
 10
4.1308303542
 20
3.8793296654
 30
0.0
 10
4.1311019596
 20
3.8839466021
 30
0.0
 10
4.1312542288
 20
3.8885686672
 30
0.0
 10
4.131285078
 20
3.8916514625
 30
0.0
 10
4.131285078
 20
3.8931927228
 30
0.0
  0
LINE
  5
3C5
100
AcDbEntity
  8
0
100
AcDbLine
 62
2
  6
CONTINUOUS
 10
4.131285078
 20
3.8931927228
 11
4.1309570705
 21
3.9054634309
  0
SPLINE
  5
3C6
100
AcDbEntity
  8
0
100
AcDbSpline
 62
2
  6
CONTINUOUS
 70
0
 71
3
 72
11
 73
7
 74
0
 42
0.0000001
 43
0.0000001
 44
0.0000000001
 40
0.0
 40
0.0
 40
0.0
 40
0.0
 40
0.2499941579
 40
0.4999791537
 40
0.7500069691
 40
1.0
 40
1.0
 40
1.0
 40
1.0
 10
3.4043578439
 20
3.4253033849
 30
0.0
 10
3.4043918649
 20
3.424485491
 30
0.0
 10
3.4043803947
 20
3.4228453716
 30
0.0
 10
3.404130756
 20
3.4203988266
 30
0.0
 10
3.4036621585
 20
3.4179849675
 30
0.0
 10
3.4032159456
 20
3.4164075004
 30
0.0
 10
3.402962985
 20
3.415628968
 30
0.0
  0
SPLINE
  5
3C7
100
AcDbEntity
  8
0
100
AcDbSpline
 62
2
  6
CONTINUOUS
 70
0
 71
3
 72
11
 73
7
 74
0
 42
0.0000001
 43
0.0000001
 44
0.0000000001
 40
0.0
 40
0.0
 40
0.0
 40
0.0
 40
0.2499773272
 40
0.5000137268
 40
0.7500096992
 40
1.0
 40
1.0
 40
1.0
 40
1.0
 10
3.402962985
 20
3.415628968
 30
0.0
 10
3.4027561807
 20
3.4149924898
 30
0.0
 10
3.402301254
 20
3.4137322945
 30
0.0
 10
3.4014885601
 20
3.4118943248
 30
0.0
 10
3.400540199
 20
3.4101222775
 30
0.0
 10
3.3998157179
 20
3.4089946479
 30
0.0
 10
3.3994309368
 20
3.4084470509
 30
0.0
  0
SPLINE
  5
3C8
100
AcDbEntity
  8
0
100
AcDbSpline
 62
2
  6
CONTINUOUS
 70
0
 71
3
 72
10
 73
6
 74
0
 42
0.0000001
 43
0.0000001
 44
0.0000000001
 40
0.0
 40
0.0
 40
0.0
 40
0.0
 40
0.250035267
 40
0.500080496
 40
1.0
 40
1.0
 40
1.0
 40
1.0
 10
3.4106590131
 20
3.399737157
 30
0.0
 10
3.4112157821
 20
3.400650811
 30
0.0
 10
3.4122664306
 20
3.4025173066
 30
0.0
 10
3.4141246432
 20
3.4063740606
 30
0.0
 10
3.415263805
 20
3.4093828817
 30
0.0
 10
3.4159248599
 20
3.4114173995
 30
0.0
  0
LINE
  5
3C9
100
AcDbEntity
  8
0
100
AcDbLine
 62
2
  6
CONTINUOUS
 10
3.4159248599
 20
3.4114173995
 11
3.417301229
 21
3.4163877927
  0
SPLINE
  5
3CA
100
AcDbEntity
  8
0
100
AcDbSpline
 62
2
  6
CONTINUOUS
 70
0
 71
3
 72
9
 73
5
 74
0
 42
0.0000001
 43
0.0000001
 44
0.0000000001
 40
0.0
 40
0.0
 40
0.0
 40
0.0
 40
0.4999935549
 40
1.0
 40
1.0
 40
1.0
 40
1.0
 10
3.2721972878
 20
3.3296852717
 30
0.0
 10
3.2728740703
 20
3.3272169513
 30
0.0
 10
3.2740359746
 20
3.322226016
 30
0.0
 10
3.2748391193
 20
3.3171661752
 30
0.0
 10
3.275158735
 20
3.3146267217
 30
0.0
  0
SPLINE
  5
3CB
100
AcDbEntity
  8
0
100
AcDbSpline
 62
2
  6
CONTINUOUS
 70
0
 71
3
 72
12
 73
8
 74
0
 42
0.0000001
 43
0.0000001
 44
0.0000000001
 40
0.0
 40
0.0
 40
0.0
 40
0.0
 40
0.2499824369
 40
0.3750017794
 40
0.5000052853
 40
0.7500012822
 40
1.0
 40
1.0
 40
1.0
 40
1.0
 10
3.2903976962
 20
3.309675283
 30
0.0
 10
3.2903612259
 20
3.3109384425
 30
0.0
 10
3.2902482009
 20
3.3128320092
 30
0.0
 10
3.2900051572
 20
3.3153479658
 30
0.0
 10
3.2897077133
 20
3.3178582486
 30
0.0
 10
3.2892426232
 20
3.3209839841
 30
0.0
 10
3.2887909916
 20
3.3234712274
 30
0.0
 10
3.2885483109
 20
3.3247114758
 30
0.0
  0
SPLINE
  5
3CC
100
AcDbEntity
  8
0
100
AcDbSpline
 62
2
  6
CONTINUOUS
 70
0
 71
3
 72
9
 73
5
 74
0
 42
0.0000001
 43
0.0000001
 44
0.0000000001
 40
0.0
 40
0.0
 40
0.0
 40
0.0
 40
0.4999935549
 40
1.0
 40
1.0
 40
1.0
 40
1.0
 10
3.2397852851
 20
3.2299313746
 30
0.0
 10
3.2404620673
 20
3.227463055
 30
0.0
 10
3.2416239711
 20
3.2224721212
 30
0.0
 10
3.2424271152
 20
3.217412282
 30
0.0
 10
3.2427467306
 20
3.2148728293
 30
0.0
  0
SPLINE
  5
3CD
100
AcDbEntity
  8
0
100
AcDbSpline
 62
2
  6
CONTINUOUS
 70
0
 71
3
 72
12
 73
8
 74
0
 42
0.0000001
 43
0.0000001
 44
0.0000000001
 40
0.0
 40
0.0
 40
0.0
 40
0.0
 40
0.2499824371
 40
0.3750017797
 40
0.5000052857
 40
0.7500012826
 40
1.0
 40
1.0
 40
1.0
 40
1.0
 10
3.2579856918
 20
3.2099213906
 30
0.0
 10
3.2579492215
 20
3.2111845505
 30
0.0
 10
3.2578361963
 20
3.2130781178
 30
0.0
 10
3.257593152
 20
3.2155940752
 30
0.0
 10
3.2572957077
 20
3.2181043587
 30
0.0
 10
3.256830617
 20
3.2212300951
 30
0.0
 10
3.2563789853
 20
3.2237173392
 30
0.0
 10
3.2561363047
 20
3.224957588
 30
0.0
  0
SPLINE
  5
3CE
100
AcDbEntity
  8
0
100
AcDbSpline
 62
2
  6
CONTINUOUS
 70
0
 71
3
 72
11
 73
7
 74
0
 42
0.0000001
 43
0.0000001
 44
0.0000000001
 40
0.0
 40
0.0
 40
0.0
 40
0.0
 40
0.2500087181
 40
0.5000155438
 40
0.7500081933
 40
1.0
 40
1.0
 40
1.0
 40
1.0
 10
3.3391599518
 20
2.638356513
 30
0.0
 10
3.3400443336
 20
2.6376248595
 30
0.0
 10
3.3418748511
 20
2.6362340185
 30
0.0
 10
3.3447997427
 20
2.6344072973
 30
0.0
 10
3.3478920196
 20
2.6328796258
 30
0.0
 10
3.3500506465
 20
2.6320836814
 30
0.0
 10
3.351147502
 20
2.6317457795
 30
0.0
  0
SPLINE
  5
3CF
100
AcDbEntity
  8
0
100
AcDbSpline
 62
2
  6
CONTINUOUS
 70
0
 71
3
 72
10
 73
6
 74
0
 42
0.0000001
 43
0.0000001
 44
0.0000000001
 40
0.0
 40
0.0
 40
0.0
 40
0.0
 40
0.2500809811
 40
0.500175301
 40
1.0
 40
1.0
 40
1.0
 40
1.0
 10
3.440208635
 20
2.6831721948
 30
0.0
 10
3.4408585308
 20
2.6841882069
 30
0.0
 10
3.4421088037
 20
2.6862529763
 30
0.0
 10
3.4443742235
 20
2.6905116501
 30
0.0
 10
3.445767877
 20
2.69386709
 30
0.0
 10
3.4465085973
 20
2.6961610101
 30
0.0
  0
SPLINE
  5
3D0
100
AcDbEntity
  8
0
100
AcDbSpline
 62
2
  6
CONTINUOUS
 70
0
 71
3
 72
15
 73
11
 74
0
 42
0.0000001
 43
0.0000001
 44
0.0000000001
 40
0.0
 40
0.0
 40
0.0
 40
0.0
 40
0.124999182
 40
0.2499983248
 40
0.3749938325
 40
0.499985799
 40
0.6249801741
 40
0.749976425
 40
0.8749787476
 40
1.0
 40
1.0
 40
1.0
 40
1.0
 10
3.3591050036
 20
2.6453441515
 30
0.0
 10
3.3584060474
 20
2.6453766506
 30
0.0
 10
3.3570100271
 20
2.6455028198
 30
0.0
 10
3.3549438105
 20
2.6458914192
 30
0.0
 10
3.3529276036
 20
2.6464891835
 30
0.0
 10
3.3509861076
 20
2.6472975522
 30
0.0
 10
3.3491419554
 20
2.6483082854
 30
0.0
 10
3.3474126689
 20
2.6495045381
 30
0.0
 10
3.3458089233
 20
2.650863747
 30
0.0
 10
3.3448255158
 20
2.6518623821
 30
0.0
 10
3.3443551185
 20
2.6523805473
 30
0.0
  0
SPLINE
  5
3D1
100
AcDbEntity
  8
0
100
AcDbSpline
 62
2
  6
CONTINUOUS
 70
0
 71
3
 72
14
 73
10
 74
0
 42
0.0000001
 43
0.0000001
 44
0.0000000001
 40
0.0
 40
0.0
 40
0.0
 40
0.0
 40
0.1249865556
 40
0.1875229181
 40
0.2500398076
 40
0.3750491633
 40
0.5000532093
 40
0.7500295384
 40
1.0
 40
1.0
 40
1.0
 40
1.0
 10
3.4321850226
 20
2.7025445436
 30
0.0
 10
3.4320306528
 20
2.7019630772
 30
0.0
 10
3.4317573046
 20
2.7011012793
 30
0.0
 10
3.4313266824
 20
2.699977277
 30
0.0
 10
3.4308567822
 20
2.6988688796
 30
0.0
 10
3.4302025788
 20
2.6975131774
 30
0.0
 10
3.4290427324
 20
2.6954034847
 30
0.0
 10
3.4274176774
 20
2.6928681171
 30
0.0
 10
3.4259897617
 20
2.6909294865
 30
0.0
 10
3.4252517976
 20
2.6899791649
 30
0.0
  0
SPLINE
  5
3D2
100
AcDbEntity
  8
0
100
AcDbSpline
 62
2
  6
CONTINUOUS
 70
0
 71
3
 72
9
 73
5
 74
0
 42
0.0000001
 43
0.0000001
 44
0.0000000001
 40
0.0
 40
0.0
 40
0.0
 40
0.0
 40
0.5000583207
 40
1.0
 40
1.0
 40
1.0
 40
1.0
 10
3.5031594892
 20
2.6067860032
 30
0.0
 10
3.505649611
 20
2.6067853029
 30
0.0
 10
3.5106323901
 20
2.6069898511
 30
0.0
 10
3.5155724561
 20
2.6077231613
 30
0.0
 10
3.5180044042
 20
2.6082555549
 30
0.0
  0
SPLINE
  5
3D3
100
AcDbEntity
  8
0
100
AcDbSpline
 62
2
  6
CONTINUOUS
 70
0
 71
3
 72
12
 73
8
 74
0
 42
0.0000001
 43
0.0000001
 44
0.0000000001
 40
0.0
 40
0.0
 40
0.0
 40
0.0
 40
0.2500296866
 40
0.5000227521
 40
0.6250210459
 40
0.7500143759
 40
1.0
 40
1.0
 40
1.0
 40
1.0
 10
3.5057910153
 20
2.6227392369
 30
0.0
 10
3.5049441435
 20
2.6226838501
 30
0.0
 10
3.5032468681
 20
2.6226267081
 30
0.0
 10
3.501125076
 20
2.6226491331
 30
0.0
 10
3.4994288413
 20
2.6227046355
 30
0.0
 10
3.4977333746
 20
2.6227793929
 30
0.0
 10
3.4964626204
 20
2.6228523131
 30
0.0
 10
3.4956156582
 20
2.6229038946
 30
0.0
  0
SPLINE
  5
3D4
100
AcDbEntity
  8
0
100
AcDbSpline
 62
2
  6
CONTINUOUS
 70
0
 71
3
 72
15
 73
11
 74
0
 42
0.0000001
 43
0.0000001
 44
0.0000000001
 40
0.0
 40
0.0
 40
0.0
 40
0.0
 40
0.124986389
 40
0.250011556
 40
0.3125297599
 40
0.3750398419
 40
0.5000407496
 40
0.6250289162
 40
0.7500153067
 40
1.0
 40
1.0
 40
1.0
 40
1.0
 10
3.4956156582
 20
2.6229038946
 30
0.0
 10
3.4950794688
 20
2.6229365495
 30
0.0
 10
3.4940082458
 20
2.6230242596
 30
0.0
 10
3.49267309
 20
2.6231720607
 30
0.0
 10
3.4916063115
 20
2.6233024283
 30
0.0
 10
3.4905402681
 20
2.6234378643
 30
0.0
 10
3.4892090595
 20
2.6236163222
 30
0.0
 10
3.4876133572
 20
2.6238423415
 30
0.0
 10
3.4854875667
 20
2.6241559439
 30
0.0
 10
3.4838947361
 20
2.6244013155
 30
0.0
 10
3.48283337
 20
2.6245682697
 30
0.0
  0
LINE
  5
3D5
100
AcDbEntity
  8
0
100
AcDbLine
 62
2
  6
CONTINUOUS
 10
3.4447269505
 20
2.6303147905
 11
3.435659744
 21
2.6309588995
  0
SPLINE
  5
3D6
100
AcDbEntity
  8
0
100
AcDbSpline
 62
2
  6
CONTINUOUS
 70
0
 71
3
 72
12
 73
8
 74
0
 42
0.0000001
 43
0.0000001
 44
0.0000000001
 40
0.0
 40
0.0
 40
0.0
 40
0.0
 40
0.2499944089
 40
0.3750095158
 40
0.5000284049
 40
0.7500183097
 40
1.0
 40
1.0
 40
1.0
 40
1.0
 10
3.435659744
 20
2.6309588995
 30
0.0
 10
3.4343782391
 20
2.6309973839
 30
0.0
 10
3.4324543834
 20
2.6310181893
 30
0.0
 10
3.4298905201
 20
2.630957989
 30
0.0
 10
3.4273289014
 20
2.6308347
 30
0.0
 10
3.4241344861
 20
2.6305508703
 30
0.0
 10
3.4215978711
 20
2.630158937
 30
0.0
 10
3.4203396209
 20
2.6299132236
 30
0.0
  0
SPLINE
  5
3D7
100
AcDbEntity
  8
0
100
AcDbSpline
 62
2
  6
CONTINUOUS
 70
0
 71
3
 72
13
 73
9
 74
0
 42
0.0000001
 43
0.0000001
 44
0.0000000001
 40
0.0
 40
0.0
 40
0.0
 40
0.0
 40
0.1250186214
 40
0.2500381965
 40
0.3750580914
 40
0.500070268
 40
0.7500405589
 40
1.0
 40
1.0
 40
1.0
 40
1.0
 10
3.3920311414
 20
2.6091776774
 30
0.0
 10
3.3917608026
 20
2.6086380482
 30
0.0
 10
3.3912487937
 20
2.6075441301
 30
0.0
 10
3.3905706421
 20
2.6058643419
 30
0.0
 10
3.389983339
 20
2.6041506294
 30
0.0
 10
3.3893230215
 20
2.6018278058
 30
0.0
 10
3.3887261537
 20
2.5988647538
 30
0.0
 10
3.3884836161
 20
2.5964593668
 30
0.0
 10
3.3884167392
 20
2.59525448
 30
0.0
  0
SPLINE
  5
3D8
100
AcDbEntity
  8
0
100
AcDbSpline
 62
2
  6
CONTINUOUS
 70
0
 71
3
 72
11
 73
7
 74
0
 42
0.0000001
 43
0.0000001
 44
0.0000000001
 40
0.0
 40
0.0
 40
0.0
 40
0.0
 40
0.2500377802
 40
0.5000383889
 40
0.7500293903
 40
1.0
 40
1.0
 40
1.0
 40
1.0
 10
3.4026283048
 20
2.5617684551
 30
0.0
 10
3.4036663709
 20
2.5606769769
 30
0.0
 10
3.4058154622
 20
2.5585619466
 30
0.0
 10
3.4092743634
 20
2.5556467969
 30
0.0
 10
3.4129806186
 20
2.5530517353
 30
0.0
 10
3.4156184699
 20
2.5515831593
 30
0.0
 10
3.4169743198
 20
2.550927905
 30
0.0
  0
SPLINE
  5
3D9
100
AcDbEntity
  8
0
100
AcDbSpline
 62
2
  6
CONTINUOUS
 70
0
 71
3
 72
13
 73
9
 74
0
 42
0.0000001
 43
0.0000001
 44
0.0000000001
 40
0.0
 40
0.0
 40
0.0
 40
0.0
 40
0.1250197889
 40
0.2500411502
 40
0.3750662907
 40
0.5000929744
 40
0.7500236963
 40
1.0
 40
1.0
 40
1.0
 40
1.0
 10
3.4233521848
 20
2.5642687511
 30
0.0
 10
3.4227272744
 20
2.564470855
 30
0.0
 10
3.4214946261
 20
2.5649304579
 30
0.0
 10
3.4197121775
 20
2.5657753482
 30
0.0
 10
3.4180044776
 20
2.5667625865
 30
0.0
 10
3.4158353098
 20
2.5682475036
 30
0.0
 10
3.4133276866
 20
2.5703815315
 30
0.0
 10
3.4115321724
 20
2.5723049085
 30
0.0
 10
3.4106812002
 20
2.5733051131
 30
0.0
  0
SPLINE
  5
3DA
100
AcDbEntity
  8
0
100
AcDbSpline
 62
2
  6
CONTINUOUS
 70
0
 71
3
 72
14
 73
10
 74
0
 42
0.0000001
 43
0.0000001
 44
0.0000000001
 40
0.0
 40
0.0
 40
0.0
 40
0.0
 40
0.1250144884
 40
0.250027204
 40
0.3750406778
 40
0.5000550348
 40
0.6250646069
 40
0.7500819715
 40
1.0
 40
1.0
 40
1.0
 40
1.0
 10
3.4051586134
 20
2.5974107389
 30
0.0
 10
3.4053197353
 20
2.5979174317
 30
0.0
 10
3.4056794047
 20
2.5989193744
 30
0.0
 10
3.4063303377
 20
2.6003771618
 30
0.0
 10
3.4070891622
 20
2.6017819007
 30
0.0
 10
3.4079503803
 20
2.6031261522
 30
0.0
 10
3.4089062702
 20
2.6044048283
 30
0.0
 10
3.4102947014
 20
2.6060168497
 30
0.0
 10
3.4114524083
 20
2.607121115
 30
0.0
 10
3.4122619661
 20
2.6078098852
 30
0.0
  0
SPLINE
  5
3DB
100
AcDbEntity
  8
0
100
AcDbSpline
 62
2
  6
CONTINUOUS
 70
0
 71
3
 72
13
 73
9
 74
0
 42
0.0000001
 43
0.0000001
 44
0.0000000001
 40
0.0
 40
0.0
 40
0.0
 40
0.0
 40
0.125006257
 40
0.2500385484
 40
0.3750566358
 40
0.5000762448
 40
0.7500252753
 40
1.0
 40
1.0
 40
1.0
 40
1.0
 10
3.4122619661
 20
2.6078098852
 30
0.0
 10
3.4127403006
 20
2.6082168513
 30
0.0
 10
3.413733059
 20
2.60898949
 30
0.0
 10
3.4153114195
 20
2.6100220972
 30
0.0
 10
3.4169636801
 20
2.6109316848
 30
0.0
 10
3.4192446569
 20
2.6119878238
 30
0.0
 10
3.422212726
 20
2.6130345137
 30
0.0
 10
3.424658113
 20
2.613624055
 30
0.0
 10
3.4258901936
 20
2.6138673693
 30
0.0
  0
LINE
  5
3DC
100
AcDbEntity
  8
0
100
AcDbLine
 62
2
  6
CONTINUOUS
 10
3.4976748366
 20
2.6069694511
 11
3.5031594892
 21
2.6067860032
  0
SPLINE
  5
3DD
100
AcDbEntity
  8
0
100
AcDbSpline
 62
2
  6
CONTINUOUS
 70
0
 71
3
 72
9
 73
5
 74
0
 42
0.0000001
 43
0.0000001
 44
0.0000000001
 40
0.0
 40
0.0
 40
0.0
 40
0.0
 40
0.2500417929
 40
1.0
 40
1.0
 40
1.0
 40
1.0
 10
3.5042804454
 20
2.485441545
 30
0.0
 10
3.5050930386
 20
2.4851470504
 30
0.0
 10
3.508328139
 20
2.4839288019
 30
0.0
 10
3.5115046036
 20
2.4825565329
 30
0.0
 10
3.5138514555
 20
2.48145535
 30
0.0
  0
SPLINE
  5
3DE
100
AcDbEntity
  8
0
100
AcDbSpline
 62
2
  6
CONTINUOUS
 70
0
 71
3
 72
9
 73
5
 74
0
 42
0.0000001
 43
0.0000001
 44
0.0000000001
 40
0.0
 40
0.0
 40
0.0
 40
0.0
 40
0.4999879939
 40
1.0
 40
1.0
 40
1.0
 40
1.0
 10
3.5263668443
 20
2.4920091861
 30
0.0
 10
3.524907983
 20
2.4928467189
 30
0.0
 10
3.5219173999
 20
2.4943959317
 30
0.0
 10
3.5188417933
 20
2.4957630239
 30
0.0
 10
3.5172900765
 20
2.4964127808
 30
0.0
  0
ENDSEC
  0
SECTION
  2
OBJECTS
  0
DICTIONARY
  5
C
100
AcDbDictionary
280
0
281
1
  3
ACAD_GROUP
350
D
  3
ACAD_MLINESTYLE
350
17
  3
ACAD_LAYOUT
350
1A
  3
ACAD_PLOTSETTINGS
350
19
  3
ACAD_PLOTSTYLENAME
350
E
  0
DICTIONARY
  5
D
102
{ACAD_REACTORS
330
C
102
}
100
AcDbDictionary
280
0
281
1
  0
ACDBDICTIONARYWDFLT
  5
E
102
{ACAD_REACTORS
330
C
102
}
100
AcDbDictionary
281
1
  3
Normal
350
F
100
AcDbDictionaryWithDefault
340
F
  0
DICTIONARY
  5
17
102
{ACAD_REACTORS
330
C
102
}
100
AcDbDictionary
280
0
281
1
  3
Standard
350
18
  0
DICTIONARY
  5
19
102
{ACAD_REACTORS
330
C
102
}
100
AcDbDictionary
281
1
  0
DICTIONARY
  5
1A
102
{ACAD_REACTORS
330
C
102
}
100
AcDbDictionary
281
1
  3
Model
350
3DF
  3
Layout1
350
3E0
  0
ACDBPLACEHOLDER
  5
F
102
{ACAD_REACTORS
330
E
102
}
  0
MLINESTYLE
  5
18
102
{ACAD_REACTORS
330
17
102
}
100
AcDbMlineStyle
  2
STANDARD
 70
0
  3

 62
256
 51
90.0
 52
90.0
 71
2
 49
0.5
 62
256
  6
BYLAYER
 49
-0.5
 62
256
  6
BYLAYER
  0
LAYOUT
  5
3DF
102
{ACAD_REACTORS
330
1A
102
}
100
AcDbPlotSettings
  1

  2
none_device
  4
ANSI_A_(11.00_x_8.50_Inches)
  6

 40
0.0
 41
0.0
 42
0.0
 43
0.0
 44
279.4
 45
215.9
 46
0.0
 47
0.0
 48
0.0
 49
0.0
140
0.0
141
0.0
142
1.0
143
1.0
 70
1024
 72
0
 73
0
 74
0
  7

 75
0
147
1.0
148
0.0
149
0.0
100
AcDbLayout
  1
Model
 70
0
 71
0
 10
0.0
 20
0.0
 11
11.0
 21
8.5
 12
0.0
 22
0.0
 32
0.0
 14
0.0
 24
0.0
 34
0.0
 15
0.0
 25
0.0
 35
0.0
146
0.0
 13
0.0
 23
0.0
 33
0.0
 16
1.0
 26
0.0
 36
0.0
 17
0.0
 27
1.0
 37
0.0
 76
0
330
21E
345
0
346
0
  0
LAYOUT
  5
3E0
102
{ACAD_REACTORS
330
1A
102
}
100
AcDbPlotSettings
  1

  2
none_device
  4
ANSI_A_(11.00_x_8.50_Inches)
  6

 40
0.0
 41
0.0
 42
0.0
 43
0.0
 44
279.4
 45
215.9
 46
0.0
 47
0.0
 48
0.0
 49
0.0
140
0.0
141
0.0
142
1.0
143
1.0
 70
0
 72
0
 73
0
 74
0
  7

 75
0
147
1.0
148
0.0
149
0.0
100
AcDbLayout
  1
Layout1
 70
0
 71
1
 10
0.0
 20
0.0
 11
11.0
 21
8.5
 12
0.0
 22
0.0
 32
0.0
 14
0.0
 24
0.0
 34
0.0
 15
0.0
 25
0.0
 35
0.0
146
0.0
 13
0.0
 23
0.0
 33
0.0
 16
1.0
 26
0.0
 36
0.0
 17
0.0
 27
1.0
 37
0.0
 76
0
330
21F
345
0
346
0
  0
ENDSEC
  0
EOF
