999
DXF file: 3-913tr_TOP.dxf
999
Pro/ENGINEER 2013150 by Parametric Technology Corporation
  0
SECTION
  2
HEADER
  9
$ACADVER
  1
AC1021
  9
$DWGCODEPAGE
  3
ANSI_1252
  9
$EXTMAX
 10
11.0
 20
8.5
 30
0.0
  9
$EXTMIN
 10
0.0
 20
0.0
 30
0.0
  9
$LIMMIN
 10
0.0
 20
0.0
  9
$LIMMAX
 10
11.0
 20
8.5
  9
$VIEWCTR
 10
5.5
 20
4.25
  9
$VIEWSIZE
 40
8.5
  9
$CLAYER
  8
0
  9
$LTSCALE
 40
0.605
  9
$CELTYPE
  6
BYLAYER
  9
$DIMSCALE
 40
1.0
  9
$DIMASZ
 40
0.1
  9
$DIMEXO
 40
0.0625
  9
$DIMDLI
 40
0.418
  9
$DIMEXE
 40
0.125
  9
$DIMCEN
 40
0.099
  9
$DIMLFAC
 40
1.0
  9
$DIMBLK
  1
_FILLED
  9
$DIMTXT
 40
0.08
  9
$DIMTOL
 70
1
  9
$DIMLIM
 70
0
  9
$DIMTFAC
 40
1.0
  9
$DIMTP
 40
0.001
  9
$DIMTM
 40
0.001
  9
$DIMGAP
 40
0.09
  9
$DIMDSEP
 70
46
  9
$PDMODE
 70
3
  9
$PDSIZE
 40
0.06
  9
$HANDSEED
  5
30C
  9
$TILEMODE
 70
1
  9
$MEASUREMENT
 70
0
  9
$INSUNITS
 70
1
  0
ENDSEC
  0
SECTION
  2
CLASSES
  0
CLASS
  1
ACDBDICTIONARYWDFLT
  2
AcDbDictionaryWithDefault
  3
AutoCAD 2000
 90
0
 91
1
280
0
281
0
  0
CLASS
  1
ACDBPLACEHOLDER
  2
AcDbPlaceHolder
  3
AutoCAD 2000
 90
0
 91
1
280
0
281
0
  0
CLASS
  1
LAYOUT
  2
AcDbLayout
  3
AutoCAD 2000
 90
0
 91
0
280
0
281
0
  0
ENDSEC
  0
SECTION
  2
TABLES
  0
TABLE
  2
VPORT
  5
8
100
AcDbSymbolTable
 70
2
  0
VPORT
  5
1F4
100
AcDbSymbolTableRecord
100
AcDbViewportTableRecord
  2
*ACTIVE
 70
0
 10
0.0
 20
0.0
 11
1.0
 21
1.0
 12
5.5
 22
4.25
 13
0.0
 23
0.0
 14
1.0
 24
1.0
 15
0.0
 25
0.0
 16
0.0
 26
0.0
 36
1.0
 17
0.0
 27
0.0
 37
0.0
 40
8.5
 41
1.2941176471
 42
50.0
 43
0.0
 44
0.0
 50
0.0
 51
0.0
 71
0
 72
100
 73
1
 74
1
 75
0
 76
0
 77
0
 78
0
  0
ENDTAB
  0
TABLE
  2
LTYPE
  5
5
100
AcDbSymbolTable
 70
6
  0
LTYPE
  5
14
100
AcDbSymbolTableRecord
100
AcDbLinetypeTableRecord
  2
BYBLOCK
 70
0
  3

 72
65
 73
0
 40
0.0
  0
LTYPE
  5
15
100
AcDbSymbolTableRecord
100
AcDbLinetypeTableRecord
  2
BYLAYER
 70
0
  3

 72
65
 73
0
 40
0.0
  0
LTYPE
  5
16
100
AcDbSymbolTableRecord
100
AcDbLinetypeTableRecord
  2
CONTINUOUS
 70
64
  3
Solid line
 72
65
 73
0
 40
0.0
  0
LTYPE
  5
1F5
100
AcDbSymbolTableRecord
100
AcDbLinetypeTableRecord
  2
CENTER
 70
64
  3
____ _ ____ _ ____ _ ____ _ ____ _ ____ _ ____
 72
65
 73
4
 40
0.6
 49
0.375
 74
0
 49
-0.075
 74
0
 49
0.075
 74
0
 49
-0.075
 74
0
  0
LTYPE
  5
1F6
100
AcDbSymbolTableRecord
100
AcDbLinetypeTableRecord
  2
HIDDEN
 70
64
  3
- - - - - - - - - - - - - - - - - - - -
 72
65
 73
2
 40
0.2
 49
0.1
 74
0
 49
-0.1
 74
0
  0
LTYPE
  5
1F7
100
AcDbSymbolTableRecord
100
AcDbLinetypeTableRecord
  2
PHANTOM
 70
64
  3
_____ _ _ _____ _ _ _____ _ _ _____
 72
65
 73
6
 40
0.8
 49
0.45
 74
0
 49
-0.05
 74
0
 49
0.1
 74
0
 49
-0.05
 74
0
 49
0.1
 74
0
 49
-0.05
 74
0
  0
LTYPE
  5
1F8
100
AcDbSymbolTableRecord
100
AcDbLinetypeTableRecord
  2
DOT
 70
64
  3
. . . . . . . . . . . . . . . . . . . .
 72
65
 73
2
 40
0.2
 49
0.1
 74
0
 49
-0.1
 74
0
  0
LTYPE
  5
1F9
100
AcDbSymbolTableRecord
100
AcDbLinetypeTableRecord
  2
DASHED
 70
64
  3
- - - - - - - - - - - - - - - - - - - -
 72
65
 73
2
 40
0.2
 49
0.1
 74
0
 49
-0.1
 74
0
  0
ENDTAB
  0
TABLE
  2
LAYER
  5
2
100
AcDbSymbolTable
 70
36
  0
LAYER
  5
10
100
AcDbSymbolTableRecord
100
AcDbLayerTableRecord
  2
0
 70
0
 62
7
  6
CONTINUOUS
370
-3
390
F
  0
LAYER
  5
1FA
100
AcDbSymbolTableRecord
100
AcDbLayerTableRecord
  2
DEFAULT_1
 70
0
 62
7
  6
CENTER
370
-3
390
F
  0
LAYER
  5
1FB
100
AcDbSymbolTableRecord
100
AcDbLayerTableRecord
  2
DEFAULT_2
 70
0
 62
8
  6
HIDDEN
370
-3
390
F
  0
LAYER
  5
1FC
100
AcDbSymbolTableRecord
100
AcDbLayerTableRecord
  2
DEFAULT_3
 70
0
 62
7
  6
PHANTOM
370
-3
390
F
  0
LAYER
  5
1FD
100
AcDbSymbolTableRecord
100
AcDbLayerTableRecord
  2
ALL_ASSEMBLY_MEMBERS
 70
0
 62
7
  6
CONTINUOUS
370
-3
390
F
  0
LAYER
  5
1FE
100
AcDbSymbolTableRecord
100
AcDbLayerTableRecord
  2
ALL_FEATURES
 70
0
 62
7
  6
CONTINUOUS
370
-3
390
F
  0
LAYER
  5
1FF
100
AcDbSymbolTableRecord
100
AcDbLayerTableRecord
  2
AXES_FEATURES
 70
0
 62
7
  6
CONTINUOUS
370
-3
390
F
  0
LAYER
  5
200
100
AcDbSymbolTableRecord
100
AcDbLayerTableRecord
  2
CHAMFER_FEATURES
 70
0
 62
7
  6
CONTINUOUS
370
-3
390
F
  0
LAYER
  5
201
100
AcDbSymbolTableRecord
100
AcDbLayerTableRecord
  2
COORDINATE_SYSTEMS
 70
0
 62
7
  6
CONTINUOUS
370
-3
390
F
  0
LAYER
  5
202
100
AcDbSymbolTableRecord
100
AcDbLayerTableRecord
  2
CURVES
 70
0
 62
7
  6
CONTINUOUS
370
-3
390
F
  0
LAYER
  5
203
100
AcDbSymbolTableRecord
100
AcDbLayerTableRecord
  2
CUT_FEATURES
 70
0
 62
7
  6
CONTINUOUS
370
-3
390
F
  0
LAYER
  5
204
100
AcDbSymbolTableRecord
100
AcDbLayerTableRecord
  2
DATUM_CURVES
 70
0
 62
7
  6
CONTINUOUS
370
-3
390
F
  0
LAYER
  5
205
100
AcDbSymbolTableRecord
100
AcDbLayerTableRecord
  2
DATUM_PLANES
 70
0
 62
7
  6
CONTINUOUS
370
-3
390
F
  0
LAYER
  5
206
100
AcDbSymbolTableRecord
100
AcDbLayerTableRecord
  2
DATUM_POINTS
 70
0
 62
7
  6
CONTINUOUS
370
-3
390
F
  0
LAYER
  5
207
100
AcDbSymbolTableRecord
100
AcDbLayerTableRecord
  2
DEFAULT_COORDINATE_SYSTEM
 70
0
 62
7
  6
CONTINUOUS
370
-3
390
F
  0
LAYER
  5
208
100
AcDbSymbolTableRecord
100
AcDbLayerTableRecord
  2
DEFAULT_DATUM_AXES
 70
0
 62
7
  6
CONTINUOUS
370
-3
390
F
  0
LAYER
  5
209
100
AcDbSymbolTableRecord
100
AcDbLayerTableRecord
  2
DEFAULT_DATUM_CURVES
 70
0
 62
7
  6
CONTINUOUS
370
-3
390
F
  0
LAYER
  5
20A
100
AcDbSymbolTableRecord
100
AcDbLayerTableRecord
  2
DEFAULT_DATUM_PLANES
 70
0
 62
7
  6
CONTINUOUS
370
-3
390
F
  0
LAYER
  5
20B
100
AcDbSymbolTableRecord
100
AcDbLayerTableRecord
  2
DEFAULT_SURFACES
 70
0
 62
7
  6
CONTINUOUS
370
-3
390
F
  0
LAYER
  5
20C
100
AcDbSymbolTableRecord
100
AcDbLayerTableRecord
  2
DIMENSIONS
 70
0
 62
7
  6
CONTINUOUS
370
-3
390
F
  0
LAYER
  5
20D
100
AcDbSymbolTableRecord
100
AcDbLayerTableRecord
  2
HOLE_FEATURES
 70
0
 62
7
  6
CONTINUOUS
370
-3
390
F
  0
LAYER
  5
20E
100
AcDbSymbolTableRecord
100
AcDbLayerTableRecord
  2
IMPORT_FEATURE
 70
0
 62
7
  6
CONTINUOUS
370
-3
390
F
  0
LAYER
  5
20F
100
AcDbSymbolTableRecord
100
AcDbLayerTableRecord
  2
INTFCLR_1
 70
0
 62
7
  6
CONTINUOUS
370
-3
390
F
  0
LAYER
  5
210
100
AcDbSymbolTableRecord
100
AcDbLayerTableRecord
  2
NOTES
 70
0
 62
7
  6
CONTINUOUS
370
-3
390
F
  0
LAYER
  5
211
100
AcDbSymbolTableRecord
100
AcDbLayerTableRecord
  2
PART_REFERENCE_DIMENSIONS
 70
0
 62
7
  6
CONTINUOUS
370
-3
390
F
  0
LAYER
  5
212
100
AcDbSymbolTableRecord
100
AcDbLayerTableRecord
  2
PLATED_SURFACE_AREA
 70
0
 62
7
  6
CONTINUOUS
370
-3
390
F
  0
LAYER
  5
213
100
AcDbSymbolTableRecord
100
AcDbLayerTableRecord
  2
POINTS
 70
0
 62
7
  6
CONTINUOUS
370
-3
390
F
  0
LAYER
  5
214
100
AcDbSymbolTableRecord
100
AcDbLayerTableRecord
  2
PROTRUSION
 70
0
 62
7
  6
CONTINUOUS
370
-3
390
F
  0
LAYER
  5
215
100
AcDbSymbolTableRecord
100
AcDbLayerTableRecord
  2
PROTRUSION_FEATURES
 70
0
 62
7
  6
CONTINUOUS
370
-3
390
F
  0
LAYER
  5
216
100
AcDbSymbolTableRecord
100
AcDbLayerTableRecord
  2
QUILTS
 70
0
 62
7
  6
CONTINUOUS
370
-3
390
F
  0
LAYER
  5
217
100
AcDbSymbolTableRecord
100
AcDbLayerTableRecord
  2
REFERENCE_DIMENSIONS
 70
0
 62
7
  6
CONTINUOUS
370
-3
390
F
  0
LAYER
  5
218
100
AcDbSymbolTableRecord
100
AcDbLayerTableRecord
  2
ROUND_FEATURES
 70
0
 62
7
  6
CONTINUOUS
370
-3
390
F
  0
LAYER
  5
219
100
AcDbSymbolTableRecord
100
AcDbLayerTableRecord
  2
SHELL_FEATURES
 70
0
 62
7
  6
CONTINUOUS
370
-3
390
F
  0
LAYER
  5
21A
100
AcDbSymbolTableRecord
100
AcDbLayerTableRecord
  2
SIZE_REF
 70
0
 62
7
  6
CONTINUOUS
370
-3
390
F
  0
LAYER
  5
21B
100
AcDbSymbolTableRecord
100
AcDbLayerTableRecord
  2
SURFACE_FEATURES
 70
0
 62
7
  6
CONTINUOUS
370
-3
390
F
  0
ENDTAB
  0
TABLE
  2
STYLE
  5
3
100
AcDbSymbolTable
 70
1
  0
STYLE
  5
11
100
AcDbSymbolTableRecord
100
AcDbTextStyleTableRecord
  2
STANDARD
 70
0
 40
0.0
 41
0.8
 50
0.0
 71
0
 42
0.2
  3
txt
  4

  0
STYLE
  5
21C
100
AcDbSymbolTableRecord
100
AcDbTextStyleTableRecord
  2
TEXTSTYLE_1
 70
0
 40
0.0
 41
0.8
 50
0.0
 71
0
 42
0.2
  3
gdt
  4

  0
ENDTAB
  0
TABLE
  2
VIEW
  5
6
100
AcDbSymbolTable
 70
0
  0
ENDTAB
  0
TABLE
  2
UCS
  5
7
100
AcDbSymbolTable
 70
0
  0
ENDTAB
  0
TABLE
  2
APPID
  5
9
100
AcDbSymbolTable
 70
1
  0
APPID
  5
21D
100
AcDbSymbolTableRecord
100
AcDbRegAppTableRecord
  2
ACAD
 70
0
  0
ENDTAB
  0
TABLE
  2
BLOCK_RECORD
  5
1
100
AcDbSymbolTable
 70
0
  0
BLOCK_RECORD
  5
21E
100
AcDbSymbolTableRecord
100
AcDbBlockTableRecord
  2
*Model_Space
  0
BLOCK_RECORD
  5
21F
100
AcDbSymbolTableRecord
100
AcDbBlockTableRecord
  2
*Paper_Space
  0
ENDTAB
  0
TABLE
  2
DIMSTYLE
  5
A
100
AcDbSymbolTable
 70
1
100
AcDbDimStyleTable
 71
0
  0
DIMSTYLE
105
220
100
AcDbSymbolTableRecord
100
AcDbDimStyleTableRecord
  2
STANDARD
 70
0
  3

  4

 40
1.0
 41
0.1
 42
0.0625
 43
0.38
 44
0.125
 45
0.0
 46
0.0
 47
0.001
 48
0.001
140
0.08
141
0.09
142
0.0
143
25.4
144
1.0
145
0.0
146
1.0
147
0.09
 71
1.0
 72
0.0
 73
1
 74
1
 75
0
 76
0
 77
0
 78
4
170
0
171
2
172
0
173
0
174
0
175
0
176
0
177
0
178
0
270
2
271
3
272
3
273
2
274
2
275
0
280
0
281
0
282
0
283
1
284
4
285
0
286
0
287
3
288
0
340
11
278
46
  0
ENDTAB
  0
ENDSEC
  0
SECTION
  2
BLOCKS
  0
BLOCK
  5
20
100
AcDbEntity
  8
0
100
AcDbBlockBegin
  2
*Model_Space
 70
0
 10
0.0
 20
0.0
 30
0.0
  3
*Model_Space
  1

  0
ENDBLK
  5
21
100
AcDbEntity
  8
0
100
AcDbBlockEnd
  0
BLOCK
  5
1C
100
AcDbEntity
  8
0
100
AcDbBlockBegin
  2
*Paper_Space
 70
0
 10
0.0
 20
0.0
 30
0.0
  3
*Paper_Space
  1

  0
ENDBLK
  5
1D
100
AcDbEntity
  8
0
100
AcDbBlockEnd
  0
ENDSEC
  0
SECTION
  2
ENTITIES
  0
LINE
  5
221
100
AcDbEntity
  8
0
100
AcDbLine
 62
7
  6
CONTINUOUS
 10
0.0
 20
0.0
 11
0.0
 21
8.5
  0
LINE
  5
222
100
AcDbEntity
  8
0
100
AcDbLine
 62
7
  6
CONTINUOUS
 10
0.0
 20
0.0
 11
11.0
 21
0.0
  0
LINE
  5
223
100
AcDbEntity
  8
0
100
AcDbLine
 62
7
  6
CONTINUOUS
 10
0.0
 20
8.5
 11
11.0
 21
8.5
  0
LINE
  5
224
100
AcDbEntity
  8
0
100
AcDbLine
 62
7
  6
CONTINUOUS
 10
11.0
 20
0.0
 11
11.0
 21
8.5
  0
LINE
  5
225
100
AcDbEntity
  8
ALL_FEATURES
100
AcDbLine
 62
7
  6
CONTINUOUS
 10
1.4434283809
 20
5.0035898698
 11
1.4434283809
 21
4.8723398698
  0
LINE
  5
226
100
AcDbEntity
  8
ALL_ASSEMBLY_MEMBERS
100
AcDbLine
 62
7
  6
CONTINUOUS
 10
3.9040372269
 20
2.3132749091
 11
4.2977695349
 21
2.3132749091
  0
LINE
  5
227
100
AcDbEntity
  8
ALL_ASSEMBLY_MEMBERS
100
AcDbLine
 62
9
  6
CONTINUOUS
 10
3.9040283809
 20
2.3357749091
 11
4.2977783809
 21
2.3357749091
  0
LINE
  5
228
100
AcDbEntity
  8
ALL_ASSEMBLY_MEMBERS
100
AcDbLine
 62
7
  6
CONTINUOUS
 10
3.8665283809
 20
2.3507749091
 11
4.3352783809
 21
2.3507749091
  0
LINE
  5
229
100
AcDbEntity
  8
ALL_ASSEMBLY_MEMBERS
100
AcDbLine
 62
7
  6
CONTINUOUS
 10
3.8009058246
 20
2.4070249091
 11
4.4009009372
 21
2.4070249091
  0
LINE
  5
22A
100
AcDbEntity
  8
ALL_ASSEMBLY_MEMBERS
100
AcDbLine
 62
7
  6
CONTINUOUS
 10
3.9040372269
 20
2.5885249091
 11
4.2977695349
 21
2.5885249091
  0
LINE
  5
22B
100
AcDbEntity
  8
ALL_ASSEMBLY_MEMBERS
100
AcDbLine
 62
9
  6
CONTINUOUS
 10
3.9040283809
 20
2.6110249091
 11
4.2977783809
 21
2.6110249091
  0
LINE
  5
22C
100
AcDbEntity
  8
ALL_ASSEMBLY_MEMBERS
100
AcDbLine
 62
7
  6
CONTINUOUS
 10
3.8665283809
 20
2.6260249091
 11
4.3352783809
 21
2.6260249091
  0
LINE
  5
22D
100
AcDbEntity
  8
ALL_ASSEMBLY_MEMBERS
100
AcDbLine
 62
7
  6
CONTINUOUS
 10
3.8009058246
 20
2.6822749091
 11
4.4009009372
 21
2.6822749091
  0
LINE
  5
22E
100
AcDbEntity
  8
ALL_FEATURES
100
AcDbLine
 62
7
  6
CONTINUOUS
 10
3.0887858877
 20
4.727982524
 11
3.0897884238
 21
4.6896972156
  0
LINE
  5
22F
100
AcDbEntity
  8
0
100
AcDbLine
 62
7
  6
CONTINUOUS
 10
3.0897884238
 20
4.6896972156
 11
3.0887858877
 21
4.727982524
  0
LINE
  5
230
100
AcDbEntity
  8
ALL_ASSEMBLY_MEMBERS
100
AcDbLine
 62
7
  6
CONTINUOUS
 10
3.8009058246
 20
3.0385249091
 11
4.4009009372
 21
3.0385249091
  0
LINE
  5
231
100
AcDbEntity
  8
0
100
AcDbLine
 62
9
  6
CONTINUOUS
 10
3.86389787
 20
3.0450688231
 11
3.8070608084
 21
3.0450688287
  0
LINE
  5
232
100
AcDbEntity
  8
0
100
AcDbLine
 62
9
  6
CONTINUOUS
 10
4.3947459534
 20
3.0450688287
 11
4.3379088882
 21
3.0450688287
  0
LINE
  5
233
100
AcDbEntity
  8
ALL_ASSEMBLY_MEMBERS
100
AcDbLine
 62
9
  6
CONTINUOUS
 10
3.8665283809
 20
3.0535249091
 11
4.3352783809
 21
3.0535249091
  0
LINE
  5
234
100
AcDbEntity
  8
0
100
AcDbLine
 62
9
  6
CONTINUOUS
 10
4.4080725065
 20
3.0608814983
 11
4.3352783809
 21
3.060881498
  0
LINE
  5
235
100
AcDbEntity
  8
0
100
AcDbLine
 62
9
  6
CONTINUOUS
 10
3.8665283809
 20
3.0608814972
 11
3.7937342553
 21
3.0608814983
  0
LINE
  5
236
100
AcDbEntity
  8
ALL_FEATURES
100
AcDbLine
 62
7
  6
CONTINUOUS
 10
3.4806533809
 20
3.4576955649
 11
3.4806533809
 21
3.8710898698
  0
LINE
  5
237
100
AcDbEntity
  8
0
100
AcDbLine
 62
7
  6
CONTINUOUS
 10
3.4808258809
 20
4.7425898698
 11
3.4808258809
 21
3.8710898698
  0
LINE
  5
238
100
AcDbEntity
  8
ALL_ASSEMBLY_MEMBERS
100
AcDbLine
 62
7
  6
CONTINUOUS
 10
3.9737549434
 20
3.1269780341
 11
4.0030518184
 21
3.1269780341
  0
LINE
  5
239
100
AcDbEntity
  8
ALL_ASSEMBLY_MEMBERS
100
AcDbLine
 62
7
  6
CONTINUOUS
 10
4.1987549434
 20
3.1269780341
 11
4.2280518184
 21
3.1269780341
  0
LINE
  5
23A
100
AcDbEntity
  8
ALL_ASSEMBLY_MEMBERS
100
AcDbLine
 62
7
  6
CONTINUOUS
 10
4.2427002559
 20
3.1562749091
 11
4.2145752559
 21
3.1562749091
  0
LINE
  5
23B
100
AcDbEntity
  8
ALL_ASSEMBLY_MEMBERS
100
AcDbLine
 62
7
  6
CONTINUOUS
 10
3.9591065059
 20
3.1562749091
 11
3.9872315059
 21
3.1562749091
  0
LINE
  5
23C
100
AcDbEntity
  8
ALL_ASSEMBLY_MEMBERS
100
AcDbLine
 62
7
  6
CONTINUOUS
 10
4.2280518184
 20
3.1855717841
 11
4.1987549434
 21
3.1855717841
  0
LINE
  5
23D
100
AcDbEntity
  8
ALL_ASSEMBLY_MEMBERS
100
AcDbLine
 62
7
  6
CONTINUOUS
 10
4.0030518184
 20
3.1855717841
 11
3.9737549434
 21
3.1855717841
  0
LINE
  5
23E
100
AcDbEntity
  8
ALL_ASSEMBLY_MEMBERS
100
AcDbLine
 62
7
  6
CONTINUOUS
 10
3.8665283809
 20
3.2732749091
 11
4.3352783809
 21
3.2732749091
  0
LINE
  5
23F
100
AcDbEntity
  8
0
100
AcDbLine
 62
7
  6
CONTINUOUS
 10
3.5169023985
 20
3.3926691977
 11
3.5088887656
 21
3.3990605007
  0
LINE
  5
240
100
AcDbEntity
  8
0
100
AcDbLine
 62
7
  6
CONTINUOUS
 10
3.5328447379
 20
3.3669169682
 11
3.5350835106
 21
3.3564693625
  0
LINE
  5
241
100
AcDbEntity
  8
0
100
AcDbLine
 62
7
  6
CONTINUOUS
 10
3.6152783809
 20
3.7585898698
 11
3.6152783809
 21
3.6218685243
  0
LINE
  5
242
100
AcDbEntity
  8
ALL_FEATURES
100
AcDbLine
 62
7
  6
CONTINUOUS
 10
3.6152783809
 20
3.6218685243
 11
3.6152783809
 21
3.7585898698
  0
LINE
  5
243
100
AcDbEntity
  8
0
100
AcDbLine
 62
7
  6
CONTINUOUS
 10
4.3432615341
 20
3.3107749091
 11
3.8585452277
 21
3.3107749091
  0
LINE
  5
244
100
AcDbEntity
  8
0
100
AcDbLine
 62
9
  6
CONTINUOUS
 10
3.5635135544
 20
3.3172177806
 11
3.8399954667
 21
3.3172177797
  0
LINE
  5
245
100
AcDbEntity
  8
0
100
AcDbLine
 62
9
  6
CONTINUOUS
 10
4.3618112919
 20
3.3172177774
 11
4.6382932074
 21
3.3172177806
  0
LINE
  5
246
100
AcDbEntity
  8
0
100
AcDbLine
 62
9
  6
CONTINUOUS
 10
4.3708292182
 20
3.3289417865
 11
3.8309775436
 21
3.3289417865
  0
LINE
  5
247
100
AcDbEntity
  8
0
100
AcDbLine
 62
9
  6
CONTINUOUS
 10
4.3836369774
 20
3.3564693597
 11
4.6667232512
 21
3.3564693625
  0
LINE
  5
248
100
AcDbEntity
  8
0
100
AcDbLine
 62
9
  6
CONTINUOUS
 10
3.5350835106
 20
3.3564693625
 11
3.8181697833
 21
3.3564693618
  0
LINE
  5
249
100
AcDbEntity
  8
0
100
AcDbLine
 62
9
  6
CONTINUOUS
 10
4.6689620239
 20
3.3669169682
 11
4.3889724782
 21
3.3669169651
  0
LINE
  5
24A
100
AcDbEntity
  8
0
100
AcDbLine
 62
9
  6
CONTINUOUS
 10
3.8128342827
 20
3.366916967
 11
3.5328447379
 21
3.3669169682
  0
LINE
  5
24B
100
AcDbEntity
  8
0
100
AcDbLine
 62
9
  6
CONTINUOUS
 10
4.6849043633
 20
3.3926691977
 11
4.4031935171
 21
3.39266919
  0
LINE
  5
24C
100
AcDbEntity
  8
0
100
AcDbLine
 62
9
  6
CONTINUOUS
 10
3.7986132426
 20
3.3926691942
 11
3.5169023985
 21
3.3926691977
  0
LINE
  5
24D
100
AcDbEntity
  8
0
100
AcDbLine
 62
9
  6
CONTINUOUS
 10
4.6929179962
 20
3.3990605007
 11
4.4070203188
 21
3.3990605007
  0
LINE
  5
24E
100
AcDbEntity
  8
0
100
AcDbLine
 62
9
  6
CONTINUOUS
 10
3.7947864427
 20
3.3990605007
 11
3.5088887656
 21
3.3990605007
  0
LINE
  5
24F
100
AcDbEntity
  8
0
100
AcDbLine
 62
9
  6
CONTINUOUS
 10
3.4806533809
 20
3.4576955649
 11
3.7539628929
 21
3.4576955649
  0
LINE
  5
250
100
AcDbEntity
  8
0
100
AcDbLine
 62
9
  6
CONTINUOUS
 10
4.4478438678
 20
3.4576955646
 11
4.7211533809
 21
3.4576955649
  0
LINE
  5
251
100
AcDbEntity
  8
ALL_ASSEMBLY_MEMBERS
100
AcDbLine
 62
7
  6
CONTINUOUS
 10
3.9591065059
 20
3.1562749091
 11
3.9737549434
 21
3.1269780341
  0
LINE
  5
252
100
AcDbEntity
  8
ALL_ASSEMBLY_MEMBERS
100
AcDbLine
 62
7
  6
CONTINUOUS
 10
3.9872315059
 20
3.1562749091
 11
4.0018799434
 21
3.1269780341
  0
LINE
  5
253
100
AcDbEntity
  8
ALL_ASSEMBLY_MEMBERS
100
AcDbLine
 62
7
  6
CONTINUOUS
 10
4.0177002559
 20
3.1562749091
 11
4.0030518184
 21
3.1855717841
  0
LINE
  5
254
100
AcDbEntity
  8
ALL_ASSEMBLY_MEMBERS
100
AcDbLine
 62
7
  6
CONTINUOUS
 10
3.8009033809
 20
2.4070249091
 11
3.8009033809
 21
3.0385249091
  0
LINE
  5
255
100
AcDbEntity
  8
ALL_ASSEMBLY_MEMBERS
100
AcDbLine
 62
7
  6
CONTINUOUS
 10
3.8665283809
 20
3.0535249091
 11
3.8665283809
 21
3.2732749091
  0
LINE
  5
256
100
AcDbEntity
  8
ALL_ASSEMBLY_MEMBERS
100
AcDbLine
 62
7
  6
CONTINUOUS
 10
3.9040283809
 20
2.3132749091
 11
3.9040283809
 21
2.3357749091
  0
LINE
  5
257
100
AcDbEntity
  8
ALL_ASSEMBLY_MEMBERS
100
AcDbLine
 62
7
  6
CONTINUOUS
 10
3.9040283809
 20
2.5885249091
 11
3.9040283809
 21
2.6110249091
  0
LINE
  5
258
100
AcDbEntity
  8
0
100
AcDbLine
 62
9
  6
CONTINUOUS
 10
3.6459911768
 20
3.5613404849
 11
4.555815585
 21
3.5613404849
  0
LINE
  5
259
100
AcDbEntity
  8
0
100
AcDbLine
 62
9
  6
CONTINUOUS
 10
3.6152783809
 20
3.6218685243
 11
4.5865283809
 21
3.6218685243
  0
LINE
  5
25A
100
AcDbEntity
  8
ALL_ASSEMBLY_MEMBERS
100
AcDbLine
 62
7
  6
CONTINUOUS
 10
4.1841065059
 20
3.1562749091
 11
4.1987549434
 21
3.1269780341
  0
LINE
  5
25B
100
AcDbEntity
  8
ALL_ASSEMBLY_MEMBERS
100
AcDbLine
 62
7
  6
CONTINUOUS
 10
4.2145752559
 20
3.1562749091
 11
4.1999268184
 21
3.1855717841
  0
LINE
  5
25C
100
AcDbEntity
  8
ALL_ASSEMBLY_MEMBERS
100
AcDbLine
 62
7
  6
CONTINUOUS
 10
4.2427002559
 20
3.1562749091
 11
4.2280518184
 21
3.1855717841
  0
LINE
  5
25D
100
AcDbEntity
  8
0
100
AcDbLine
 62
7
  6
CONTINUOUS
 10
3.9621533809
 20
3.3107749091
 11
3.9621533809
 21
3.2732749091
  0
LINE
  5
25E
100
AcDbEntity
  8
0
100
AcDbLine
 62
7
  6
CONTINUOUS
 10
4.6084808809
 20
3.7585898698
 11
3.5933258809
 21
3.7585898698
  0
LINE
  5
25F
100
AcDbEntity
  8
0
100
AcDbLine
 62
9
  6
CONTINUOUS
 10
4.7209808809
 20
3.8710898698
 11
3.4808258809
 21
3.8710898698
  0
LINE
  5
260
100
AcDbEntity
  8
0
100
AcDbLine
 62
7
  6
CONTINUOUS
 10
4.2396533809
 20
3.3107749091
 11
4.2396533809
 21
3.2732749091
  0
LINE
  5
261
100
AcDbEntity
  8
ALL_ASSEMBLY_MEMBERS
100
AcDbLine
 62
7
  6
CONTINUOUS
 10
4.2977783809
 20
2.3132749091
 11
4.2977783809
 21
2.3357749091
  0
LINE
  5
262
100
AcDbEntity
  8
ALL_ASSEMBLY_MEMBERS
100
AcDbLine
 62
7
  6
CONTINUOUS
 10
4.2977783809
 20
2.5885249091
 11
4.2977783809
 21
2.6110249091
  0
LINE
  5
263
100
AcDbEntity
  8
ALL_ASSEMBLY_MEMBERS
100
AcDbLine
 62
7
  6
CONTINUOUS
 10
3.9737549434
 20
3.1855717841
 11
3.9591065059
 21
3.1562749091
  0
LINE
  5
264
100
AcDbEntity
  8
ALL_ASSEMBLY_MEMBERS
100
AcDbLine
 62
7
  6
CONTINUOUS
 10
4.0018799434
 20
3.1855717841
 11
3.9872315059
 21
3.1562749091
  0
LINE
  5
265
100
AcDbEntity
  8
ALL_ASSEMBLY_MEMBERS
100
AcDbLine
 62
7
  6
CONTINUOUS
 10
4.3352783809
 20
3.0535249091
 11
4.3352783809
 21
3.2732749091
  0
LINE
  5
266
100
AcDbEntity
  8
ALL_ASSEMBLY_MEMBERS
100
AcDbLine
 62
7
  6
CONTINUOUS
 10
4.4009033809
 20
2.4070249091
 11
4.4009033809
 21
3.0385249091
  0
LINE
  5
267
100
AcDbEntity
  8
ALL_ASSEMBLY_MEMBERS
100
AcDbLine
 62
7
  6
CONTINUOUS
 10
4.0030518184
 20
3.1269780341
 11
4.0177002559
 21
3.1562749091
  0
LINE
  5
268
100
AcDbEntity
  8
ALL_ASSEMBLY_MEMBERS
100
AcDbLine
 62
7
  6
CONTINUOUS
 10
4.1987549434
 20
3.1855717841
 11
4.1841065059
 21
3.1562749091
  0
LINE
  5
269
100
AcDbEntity
  8
ALL_ASSEMBLY_MEMBERS
100
AcDbLine
 62
7
  6
CONTINUOUS
 10
4.1999268184
 20
3.1269780341
 11
4.2145752559
 21
3.1562749091
  0
LINE
  5
26A
100
AcDbEntity
  8
ALL_FEATURES
100
AcDbLine
 62
7
  6
CONTINUOUS
 10
4.5865283809
 20
3.6218685243
 11
4.5865283809
 21
3.7585898698
  0
LINE
  5
26B
100
AcDbEntity
  8
0
100
AcDbLine
 62
7
  6
CONTINUOUS
 10
4.7209808809
 20
4.7425898698
 11
4.7209808809
 21
3.8710898698
  0
LINE
  5
26C
100
AcDbEntity
  8
ALL_FEATURES
100
AcDbLine
 62
7
  6
CONTINUOUS
 10
4.7211533809
 20
3.4576955649
 11
4.7211533809
 21
3.8710898698
  0
LINE
  5
26D
100
AcDbEntity
  8
ALL_ASSEMBLY_MEMBERS
100
AcDbLine
 62
7
  6
CONTINUOUS
 10
4.2280518184
 20
3.1269780341
 11
4.2427002559
 21
3.1562749091
  0
LINE
  5
26E
100
AcDbEntity
  8
0
100
AcDbLine
 62
7
  6
CONTINUOUS
 10
4.6689620239
 20
3.3669169682
 11
4.6667232512
 21
3.3564693625
  0
LINE
  5
26F
100
AcDbEntity
  8
0
100
AcDbLine
 62
7
  6
CONTINUOUS
 10
4.6929179962
 20
3.3990605007
 11
4.6849043633
 21
3.3926691977
  0
LINE
  5
270
100
AcDbEntity
  8
ALL_FEATURES
100
AcDbLine
 62
7
  6
CONTINUOUS
 10
5.0970234781
 20
4.6750898698
 11
4.7209808809
 21
4.6750898698
  0
LINE
  5
271
100
AcDbEntity
  8
ALL_FEATURES
100
AcDbLine
 62
7
  6
CONTINUOUS
 10
3.4808258809
 20
4.6750898698
 11
3.1047832837
 21
4.6750898698
  0
LINE
  5
272
100
AcDbEntity
  8
ALL_FEATURES
100
AcDbLine
 62
9
  6
CONTINUOUS
 10
5.112018338
 20
4.6896972156
 11
4.7209808809
 21
4.6896972155
  0
LINE
  5
273
100
AcDbEntity
  8
ALL_FEATURES
100
AcDbLine
 62
9
  6
CONTINUOUS
 10
3.4808258809
 20
4.6896972156
 11
3.0897884238
 21
4.6896972156
  0
LINE
  5
274
100
AcDbEntity
  8
ALL_FEATURES
100
AcDbLine
 62
9
  6
CONTINUOUS
 10
5.1130208741
 20
4.727982524
 11
4.7209808809
 21
4.727982524
  0
LINE
  5
275
100
AcDbEntity
  8
ALL_FEATURES
100
AcDbLine
 62
9
  6
CONTINUOUS
 10
3.4808258809
 20
4.727982524
 11
3.0887858877
 21
4.727982524
  0
LINE
  5
276
100
AcDbEntity
  8
ALL_FEATURES
100
AcDbLine
 62
7
  6
CONTINUOUS
 10
1.6761533809
 20
4.7425898698
 11
6.5256533809
 21
4.7425898698
  0
LINE
  5
277
100
AcDbEntity
  8
0
100
AcDbLine
 62
7
  6
CONTINUOUS
 10
5.112018338
 20
4.6896972156
 11
5.1130208741
 21
4.727982524
  0
LINE
  5
278
100
AcDbEntity
  8
ALL_FEATURES
100
AcDbLine
 62
9
  6
CONTINUOUS
 10
1.6408159551
 20
4.7541000117
 11
6.5609908067
 21
4.7541000117
  0
LINE
  5
279
100
AcDbEntity
  8
ALL_FEATURES
100
AcDbLine
 62
9
  6
CONTINUOUS
 10
1.4951850728
 20
4.8129088352
 11
6.706621689
 21
4.8129088352
  0
LINE
  5
27A
100
AcDbEntity
  8
ALL_FEATURES
100
AcDbLine
 62
9
  6
CONTINUOUS
 10
1.4434283809
 20
4.8723398698
 11
6.7583783809
 21
4.8723398698
  0
LINE
  5
27B
100
AcDbEntity
  8
ALL_FEATURES
100
AcDbLine
 62
7
  6
CONTINUOUS
 10
1.4434283809
 20
5.0035898698
 11
6.7583783809
 21
5.0035898698
  0
LINE
  5
27C
100
AcDbEntity
  8
ALL_FEATURES
100
AcDbLine
 62
7
  6
CONTINUOUS
 10
6.7583783809
 20
5.0035898698
 11
6.7583783809
 21
4.8723398698
  0
ARC
  5
27D
100
AcDbEntity
  8
0
100
AcDbCircle
 62
7
  6
CONTINUOUS
 10
3.2796533809
 20
2.8307262962
 40
0.56325
100
AcDbArc
 50
24.1181733655
 51
59.7371069019
  0
ARC
  5
27E
100
AcDbEntity
  8
0
100
AcDbCircle
 62
7
  6
CONTINUOUS
 10
3.3133942738
 20
3.1067749091
 40
0.56325
100
AcDbArc
 50
23.2308920706
 51
53.8077823306
  0
ARC
  5
27F
100
AcDbEntity
  8
0
100
AcDbCircle
 62
7
  6
CONTINUOUS
 10
3.5556533809
 20
3.4576955649
 40
0.075
100
AcDbArc
 50
180.0
 51
231.4257570771
  0
ARC
  5
280
100
AcDbEntity
  8
0
100
AcDbCircle
 62
7
  6
CONTINUOUS
 10
3.5937516554
 20
3.3690411078
 40
0.06
100
AcDbArc
 50
192.094757077
 51
239.7371069019
  0
ARC
  5
281
100
AcDbEntity
  8
0
100
AcDbCircle
 62
7
  6
CONTINUOUS
 10
3.4888436293
 20
3.3574881592
 40
0.045
100
AcDbArc
 50
12.094757077
 51
51.425757077
  0
ARC
  5
282
100
AcDbEntity
  8
ALL_ASSEMBLY_MEMBERS
100
AcDbCircle
 62
7
  6
CONTINUOUS
 10
3.8102783809
 20
2.3507749091
 40
0.05625
100
AcDbArc
 50
0.0
 51
90.0
  0
ARC
  5
283
100
AcDbEntity
  8
ALL_ASSEMBLY_MEMBERS
100
AcDbCircle
 62
7
  6
CONTINUOUS
 10
3.8102783809
 20
2.6260249091
 40
0.05625
100
AcDbArc
 50
0.0
 51
90.0
  0
ARC
  5
284
100
AcDbEntity
  8
ALL_ASSEMBLY_MEMBERS
100
AcDbCircle
 62
7
  6
CONTINUOUS
 10
3.8890283809
 20
2.3357749091
 40
0.015
100
AcDbArc
 50
0.0
 51
89.9999976072
  0
ARC
  5
285
100
AcDbEntity
  8
ALL_ASSEMBLY_MEMBERS
100
AcDbCircle
 62
7
  6
CONTINUOUS
 10
3.8890283809
 20
2.6110249091
 40
0.015
100
AcDbArc
 50
0.0
 51
89.9999976072
  0
ARC
  5
286
100
AcDbEntity
  8
ALL_ASSEMBLY_MEMBERS
100
AcDbCircle
 62
7
  6
CONTINUOUS
 10
3.9711497763
 20
3.1572657537
 40
0.0705263129
100
AcDbArc
 50
359.1950085141
 51
2.9459485018
  0
ARC
  5
287
100
AcDbEntity
  8
ALL_ASSEMBLY_MEMBERS
100
AcDbCircle
 62
7
  6
CONTINUOUS
 10
3.9718327187
 20
3.157268182
 40
0.0698434729
100
AcDbArc
 50
354.9010467285
 51
359.1851455997
  0
ARC
  5
288
100
AcDbEntity
  8
ALL_ASSEMBLY_MEMBERS
100
AcDbCircle
 62
7
  6
CONTINUOUS
 10
3.9766054652
 20
3.1679452304
 40
0.0611784496
100
AcDbArc
 50
51.8956092094
 51
56.8494827189
  0
ARC
  5
289
100
AcDbEntity
  8
ALL_ASSEMBLY_MEMBERS
100
AcDbCircle
 62
7
  6
CONTINUOUS
 10
3.9924353558
 20
3.1625930336
 40
0.058043106
100
AcDbArc
 50
126.8522428711
 51
127.4842809353
  0
ARC
  5
28A
100
AcDbEntity
  8
ALL_FEATURES
100
AcDbCircle
 62
7
  6
CONTINUOUS
 10
3.8384033809
 20
3.0917619322
 40
0.0562370231
100
AcDbArc
 50
236.128659452
 51
251.2028777859
  0
ARC
  5
28B
100
AcDbEntity
  8
ALL_ASSEMBLY_MEMBERS
100
AcDbCircle
 62
7
  6
CONTINUOUS
 10
3.9861066358
 20
3.1558489721
 40
0.0551433676
100
AcDbArc
 50
115.939442678
 51
120.6713026223
  0
ARC
  5
28C
100
AcDbEntity
  8
ALL_ASSEMBLY_MEMBERS
100
AcDbCircle
 62
7
  6
CONTINUOUS
 10
3.9898437634
 20
3.1466074459
 40
0.0483385049
100
AcDbArc
 50
302.7044996027
 51
308.1575396872
  0
ARC
  5
28D
100
AcDbEntity
  8
ALL_ASSEMBLY_MEMBERS
100
AcDbCircle
 62
7
  6
CONTINUOUS
 10
3.9874974905
 20
3.1720890652
 40
0.0478683281
100
AcDbArc
 50
84.5293272046
 51
89.9974378
  0
ARC
  5
28E
100
AcDbEntity
  8
ALL_ASSEMBLY_MEMBERS
100
AcDbCircle
 62
7
  6
CONTINUOUS
 10
3.9858356964
 20
3.1484232621
 40
0.046772053
100
AcDbArc
 50
301.4788652971
 51
312.8002135453
  0
ARC
  5
28F
100
AcDbEntity
  8
ALL_ASSEMBLY_MEMBERS
100
AcDbCircle
 62
7
  6
CONTINUOUS
 10
3.9921457846
 20
3.1714807768
 40
0.0462941438
100
AcDbArc
 50
80.6096573349
 51
89.990598424
  0
ARC
  5
290
100
AcDbEntity
  8
ALL_ASSEMBLY_MEMBERS
100
AcDbCircle
 62
7
  6
CONTINUOUS
 10
3.9913907249
 20
3.1441591588
 40
0.0454425205
100
AcDbArc
 50
291.3228051082
 51
302.7311111209
  0
ARC
  5
291
100
AcDbEntity
  8
ALL_ASSEMBLY_MEMBERS
100
AcDbCircle
 62
7
  6
CONTINUOUS
 10
3.9870439315
 20
3.1465583268
 40
0.044550216
100
AcDbArc
 50
298.4761829716
 51
301.4060939872
  0
ARC
  5
292
100
AcDbEntity
  8
ALL_ASSEMBLY_MEMBERS
100
AcDbCircle
 62
7
  6
CONTINUOUS
 10
3.9855716699
 20
3.1441674382
 40
0.0439024658
100
AcDbArc
 50
301.3701766514
 51
304.4252852715
  0
ARC
  5
293
100
AcDbEntity
  8
ALL_ASSEMBLY_MEMBERS
100
AcDbCircle
 62
7
  6
CONTINUOUS
 10
3.9876820551
 20
3.1453313708
 40
0.0431674564
100
AcDbArc
 50
289.5477030531
 51
298.5081495311
  0
ARC
  5
294
100
AcDbEntity
  8
ALL_ASSEMBLY_MEMBERS
100
AcDbCircle
 62
7
  6
CONTINUOUS
 10
3.9863721118
 20
3.1428105403
 40
0.0423272405
100
AcDbArc
 50
291.9899919313
 51
301.4012008432
  0
ARC
  5
295
100
AcDbEntity
  8
ALL_ASSEMBLY_MEMBERS
100
AcDbCircle
 62
7
  6
CONTINUOUS
 10
3.9881769003
 20
3.1439764096
 40
0.0417250218
100
AcDbArc
 50
283.4224599233
 51
289.5298994686
  0
ARC
  5
296
100
AcDbEntity
  8
ALL_ASSEMBLY_MEMBERS
100
AcDbCircle
 62
7
  6
CONTINUOUS
 10
3.9869445043
 20
3.1414308153
 40
0.0408335647
100
AcDbArc
 50
285.5304953705
 51
291.9701795526
  0
ARC
  5
297
100
AcDbEntity
  8
ALL_ASSEMBLY_MEMBERS
100
AcDbCircle
 62
7
  6
CONTINUOUS
 10
3.9832655685
 20
3.1663277229
 40
0.0398339945
100
AcDbArc
 50
105.758340375
 51
107.8561756357
  0
ARC
  5
298
100
AcDbEntity
  8
ALL_ASSEMBLY_MEMBERS
100
AcDbCircle
 62
7
  6
CONTINUOUS
 10
3.9875959784
 20
3.165859977
 40
0.0393693481
100
AcDbArc
 50
63.4415569071
 51
65.287883655
  0
ARC
  5
299
100
AcDbEntity
  8
0
100
AcDbCircle
 62
7
  6
CONTINUOUS
 10
3.8279606784
 20
3.0762047475
 40
0.0375
100
AcDbArc
 50
204.1181733656
 51
236.1286594521
  0
ARC
  5
29A
100
AcDbEntity
  8
0
100
AcDbCircle
 62
7
  6
CONTINUOUS
 10
3.8585452277
 20
3.3407749091
 40
0.03
100
AcDbArc
 50
203.2308920706
 51
270.0
  0
ARC
  5
29B
100
AcDbEntity
  8
ALL_ASSEMBLY_MEMBERS
100
AcDbCircle
 62
7
  6
CONTINUOUS
 10
3.8515283809
 20
3.0535249091
 40
0.015
100
AcDbArc
 50
270.0000182282
 51
360.0
  0
ARC
  5
29C
100
AcDbEntity
  8
ALL_FEATURES
100
AcDbCircle
 62
7
  6
CONTINUOUS
 10
1.4508772916
 20
4.4934670243
 40
0.3225
100
AcDbArc
 50
53.916964529
 51
82.1032437574
  0
ARC
  5
29D
100
AcDbEntity
  8
0
100
AcDbCircle
 62
7
  6
CONTINUOUS
 10
3.6902783809
 20
3.6218685243
 40
0.075
100
AcDbArc
 50
180.0
 51
233.8077823306
  0
ARC
  5
29E
100
AcDbEntity
  8
ALL_FEATURES
100
AcDbCircle
 62
7
  6
CONTINUOUS
 10
1.6761533809
 20
4.8025898698
 40
0.06
100
AcDbArc
 50
233.916964529
 51
270.0
  0
ARC
  5
29F
100
AcDbEntity
  8
ALL_FEATURES
100
AcDbCircle
 62
7
  6
CONTINUOUS
 10
1.5034283809
 20
4.8723398698
 40
0.06
100
AcDbArc
 50
180.0
 51
262.1032437574
  0
ARC
  5
2A0
100
AcDbEntity
  8
ALL_FEATURES
100
AcDbCircle
 62
7
  6
CONTINUOUS
 10
3.1047832837
 20
4.6900898698
 40
0.015
100
AcDbArc
 50
181.5
 51
270.0
  0
ARC
  5
2A1
100
AcDbEntity
  8
ALL_FEATURES
100
AcDbCircle
 62
7
  6
CONTINUOUS
 10
3.0737910278
 20
4.7275898698
 40
0.015
100
AcDbArc
 50
1.5
 51
90.0
  0
ARC
  5
2A2
100
AcDbEntity
  8
ALL_ASSEMBLY_MEMBERS
100
AcDbCircle
 62
7
  6
CONTINUOUS
 10
4.3915283809
 20
2.3507749091
 40
0.05625
100
AcDbArc
 50
90.0
 51
180.0
  0
ARC
  5
2A3
100
AcDbEntity
  8
ALL_ASSEMBLY_MEMBERS
100
AcDbCircle
 62
7
  6
CONTINUOUS
 10
4.3915283809
 20
2.6260249091
 40
0.05625
100
AcDbArc
 50
90.0
 51
180.0
  0
ARC
  5
2A4
100
AcDbEntity
  8
ALL_ASSEMBLY_MEMBERS
100
AcDbCircle
 62
7
  6
CONTINUOUS
 10
4.3127783809
 20
2.3357749091
 40
0.015
100
AcDbArc
 50
90.0000023928
 51
180.0
  0
ARC
  5
2A5
100
AcDbEntity
  8
ALL_ASSEMBLY_MEMBERS
100
AcDbCircle
 62
7
  6
CONTINUOUS
 10
4.3127783809
 20
2.6110249091
 40
0.015
100
AcDbArc
 50
90.0000023928
 51
180.0
  0
ARC
  5
2A6
100
AcDbEntity
  8
ALL_ASSEMBLY_MEMBERS
100
AcDbCircle
 62
7
  6
CONTINUOUS
 10
4.2392487435
 20
3.1562643785
 40
0.079734924
100
AcDbArc
 50
161.2602473169
 51
179.99243289
  0
ARC
  5
2A7
100
AcDbEntity
  8
ALL_ASSEMBLY_MEMBERS
100
AcDbCircle
 62
7
  6
CONTINUOUS
 10
4.2386623291
 20
3.1562762971
 40
0.0791484104
100
AcDbArc
 50
180.0010047422
 51
182.4374329529
  0
ARC
  5
2A8
100
AcDbEntity
  8
ALL_ASSEMBLY_MEMBERS
100
AcDbCircle
 62
7
  6
CONTINUOUS
 10
4.2381443021
 20
3.1565901955
 40
0.0785836608
100
AcDbArc
 50
156.5110328748
 51
161.2265047868
  0
ARC
  5
2A9
100
AcDbEntity
  8
ALL_ASSEMBLY_MEMBERS
100
AcDbCircle
 62
7
  6
CONTINUOUS
 10
4.2371597334
 20
3.1570292313
 40
0.0775056896
100
AcDbArc
 50
151.8516779533
 51
156.5185982595
  0
ARC
  5
2AA
100
AcDbEntity
  8
ALL_ASSEMBLY_MEMBERS
100
AcDbCircle
 62
7
  6
CONTINUOUS
 10
4.2349122217
 20
3.1583139365
 40
0.0749179607
100
AcDbArc
 50
142.4907858249
 51
151.9071136735
  0
ARC
  5
2AB
100
AcDbEntity
  8
ALL_ASSEMBLY_MEMBERS
100
AcDbCircle
 62
7
  6
CONTINUOUS
 10
4.1910678176
 20
3.1584329846
 40
0.0733785526
100
AcDbArc
 50
357.125292332
 51
1.4996891368
  0
ARC
  5
2AC
100
AcDbEntity
  8
ALL_ASSEMBLY_MEMBERS
100
AcDbCircle
 62
7
  6
CONTINUOUS
 10
4.2319161365
 20
3.1606138484
 40
0.0711409088
100
AcDbArc
 50
137.7443503583
 51
142.4908939617
  0
ARC
  5
2AD
100
AcDbEntity
  8
ALL_ASSEMBLY_MEMBERS
100
AcDbCircle
 62
7
  6
CONTINUOUS
 10
4.1955765449
 20
3.1599883117
 40
0.0703176093
100
AcDbArc
 50
356.9728590769
 51
0.7350319338
  0
ARC
  5
2AE
100
AcDbEntity
  8
ALL_ASSEMBLY_MEMBERS
100
AcDbCircle
 62
7
  6
CONTINUOUS
 10
4.1959003054
 20
3.1599788587
 40
0.0699938018
100
AcDbArc
 50
352.6798982359
 51
356.9665906877
  0
ARC
  5
2AF
100
AcDbEntity
  8
ALL_ASSEMBLY_MEMBERS
100
AcDbCircle
 62
7
  6
CONTINUOUS
 10
4.2210464749
 20
3.1616601382
 40
0.0605266188
100
AcDbArc
 50
134.7264186244
 51
143.8737909521
  0
ARC
  5
2B0
100
AcDbEntity
  8
ALL_ASSEMBLY_MEMBERS
100
AcDbCircle
 62
7
  6
CONTINUOUS
 10
4.2192962766
 20
3.1633233924
 40
0.0581133103
100
AcDbArc
 50
133.972668084
 51
134.6544424975
  0
ARC
  5
2B1
100
AcDbEntity
  8
ALL_FEATURES
100
AcDbCircle
 62
7
  6
CONTINUOUS
 10
4.3634033809
 20
3.0917619322
 40
0.0562370231
100
AcDbArc
 50
288.7971336924
 51
303.871340548
  0
ARC
  5
2B2
100
AcDbEntity
  8
ALL_ASSEMBLY_MEMBERS
100
AcDbCircle
 62
7
  6
CONTINUOUS
 10
4.208981954
 20
3.1523717469
 40
0.0545904402
100
AcDbArc
 50
311.1652853586
 51
311.6640942903
  0
ARC
  5
2B3
100
AcDbEntity
  8
ALL_ASSEMBLY_MEMBERS
100
AcDbCircle
 62
7
  6
CONTINUOUS
 10
4.215035782
 20
3.1481634182
 40
0.0496464953
100
AcDbArc
 50
234.3778162224
 51
235.0710966006
  0
ARC
  5
2B4
100
AcDbEntity
  8
ALL_ASSEMBLY_MEMBERS
100
AcDbCircle
 62
7
  6
CONTINUOUS
 10
4.2121675416
 20
3.1492078331
 40
0.0489019966
100
AcDbArc
 50
237.8235290319
 51
241.5450567746
  0
ARC
  5
2B5
100
AcDbEntity
  8
ALL_ASSEMBLY_MEMBERS
100
AcDbCircle
 62
7
  6
CONTINUOUS
 10
4.2143054736
 20
3.1721914152
 40
0.0477659781
100
AcDbArc
 50
89.9980122756
 51
96.0137350396
  0
ARC
  5
2B6
100
AcDbEntity
  8
ALL_ASSEMBLY_MEMBERS
100
AcDbCircle
 62
7
  6
CONTINUOUS
 10
4.211567642
 20
3.1480812883
 40
0.0476257156
100
AcDbArc
 50
241.5338263504
 51
247.5041613283
  0
ARC
  5
2B7
100
AcDbEntity
  8
ALL_ASSEMBLY_MEMBERS
100
AcDbCircle
 62
7
  6
CONTINUOUS
 10
4.2228875572
 20
3.1723595793
 40
0.0470445742
100
AcDbArc
 50
145.5112389032
 51
147.9709537642
  0
ARC
  5
2B8
100
AcDbEntity
  8
ALL_ASSEMBLY_MEMBERS
100
AcDbCircle
 62
7
  6
CONTINUOUS
 10
4.2111133861
 20
3.1608442023
 40
0.046041905
100
AcDbArc
 50
125.4396553848
 51
127.6267084392
  0
ARC
  5
2B9
100
AcDbEntity
  8
ALL_ASSEMBLY_MEMBERS
100
AcDbCircle
 62
7
  6
CONTINUOUS
 10
4.2220451906
 20
3.1729410616
 40
0.046021003
100
AcDbArc
 50
140.5150021595
 51
145.5140947396
  0
ARC
  5
2BA
100
AcDbEntity
  8
ALL_ASSEMBLY_MEMBERS
100
AcDbCircle
 62
7
  6
CONTINUOUS
 10
4.2103771788
 20
3.1619029056
 40
0.0447524671
100
AcDbArc
 50
121.2116127056
 51
125.4576770186
  0
ARC
  5
2BB
100
AcDbEntity
  8
ALL_ASSEMBLY_MEMBERS
100
AcDbCircle
 62
7
  6
CONTINUOUS
 10
4.2210230591
 20
3.1737614179
 40
0.0447104893
100
AcDbArc
 50
137.9375395243
 51
140.4934663785
  0
ARC
  5
2BC
100
AcDbEntity
  8
ALL_ASSEMBLY_MEMBERS
100
AcDbCircle
 62
7
  6
CONTINUOUS
 10
4.2147268475
 20
3.1464909927
 40
0.0444738856
100
AcDbArc
 50
240.0965531419
 51
240.4872434077
  0
ARC
  5
2BD
100
AcDbEntity
  8
ALL_ASSEMBLY_MEMBERS
100
AcDbCircle
 62
7
  6
CONTINUOUS
 10
4.2063152991
 20
3.1676012552
 40
0.0439714296
100
AcDbArc
 50
125.7703049125
 51
127.059913562
  0
ARC
  5
2BE
100
AcDbEntity
  8
ALL_ASSEMBLY_MEMBERS
100
AcDbCircle
 62
7
  6
CONTINUOUS
 10
4.214230375
 20
3.1455617651
 40
0.0434206657
100
AcDbArc
 50
240.4533303175
 51
249.3777045182
  0
ARC
  5
2BF
100
AcDbEntity
  8
ALL_ASSEMBLY_MEMBERS
100
AcDbCircle
 62
7
  6
CONTINUOUS
 10
4.2096040992
 20
3.1631914856
 40
0.0432497875
100
AcDbArc
 50
117.153351895
 51
121.2203020799
  0
ARC
  5
2C0
100
AcDbEntity
  8
ALL_ASSEMBLY_MEMBERS
100
AcDbCircle
 62
7
  6
CONTINUOUS
 10
4.2196421203
 20
3.1750626413
 40
0.0428135372
100
AcDbArc
 50
127.3887661543
 51
137.9922759049
  0
ARC
  5
2C1
100
AcDbEntity
  8
ALL_ASSEMBLY_MEMBERS
100
AcDbCircle
 62
7
  6
CONTINUOUS
 10
4.2137772816
 20
3.1444297777
 40
0.0422016386
100
AcDbArc
 50
249.4121455116
 51
252.4413368189
  0
ARC
  5
2C2
100
AcDbEntity
  8
ALL_ASSEMBLY_MEMBERS
100
AcDbCircle
 62
7
  6
CONTINUOUS
 10
4.2136417229
 20
3.1440075824
 40
0.0417582184
100
AcDbArc
 50
252.4439081184
 51
255.5001109479
  0
ARC
  5
2C3
100
AcDbEntity
  8
ALL_ASSEMBLY_MEMBERS
100
AcDbCircle
 62
7
  6
CONTINUOUS
 10
4.2033972685
 20
3.1727803736
 40
0.0380114046
100
AcDbArc
 50
109.307626933
 51
114.9866691085
  0
ARC
  5
2C4
100
AcDbEntity
  8
0
100
AcDbCircle
 62
7
  6
CONTINUOUS
 10
4.3738460834
 20
3.0762047475
 40
0.0375
100
AcDbArc
 50
303.871340548
 51
335.8818266344
  0
ARC
  5
2C5
100
AcDbEntity
  8
0
100
AcDbCircle
 62
7
  6
CONTINUOUS
 10
4.3432615341
 20
3.3407749091
 40
0.03
100
AcDbArc
 50
270.0
 51
336.7691079294
  0
ARC
  5
2C6
100
AcDbEntity
  8
ALL_ASSEMBLY_MEMBERS
100
AcDbCircle
 62
7
  6
CONTINUOUS
 10
4.3502783809
 20
3.0535249091
 40
0.015
100
AcDbArc
 50
180.0
 51
269.9999817718
  0
ARC
  5
2C7
100
AcDbEntity
  8
0
100
AcDbCircle
 62
7
  6
CONTINUOUS
 10
4.9221533809
 20
2.8307262962
 40
0.56325
100
AcDbArc
 50
120.2628930981
 51
155.8818266345
  0
ARC
  5
2C8
100
AcDbEntity
  8
0
100
AcDbCircle
 62
7
  6
CONTINUOUS
 10
4.888412488
 20
3.1067749091
 40
0.56325
100
AcDbArc
 50
126.1922176694
 51
156.7691079294
  0
ARC
  5
2C9
100
AcDbEntity
  8
0
100
AcDbCircle
 62
7
  6
CONTINUOUS
 10
4.6461533809
 20
3.4576955649
 40
0.075
100
AcDbArc
 50
308.5742429229
 51
360.0
  0
ARC
  5
2CA
100
AcDbEntity
  8
0
100
AcDbCircle
 62
7
  6
CONTINUOUS
 10
4.6080551064
 20
3.3690411078
 40
0.06
100
AcDbArc
 50
300.2628930981
 51
347.905242923
  0
ARC
  5
2CB
100
AcDbEntity
  8
0
100
AcDbCircle
 62
7
  6
CONTINUOUS
 10
4.7129631325
 20
3.3574881592
 40
0.045
100
AcDbArc
 50
128.574242923
 51
167.905242923
  0
ARC
  5
2CC
100
AcDbEntity
  8
ALL_FEATURES
100
AcDbCircle
 62
7
  6
CONTINUOUS
 10
6.7509294702
 20
4.4934670243
 40
0.3225
100
AcDbArc
 50
97.8967562426
 51
126.083035471
  0
ARC
  5
2CD
100
AcDbEntity
  8
0
100
AcDbCircle
 62
7
  6
CONTINUOUS
 10
4.5115283809
 20
3.6218685243
 40
0.075
100
AcDbArc
 50
306.1922176694
 51
360.0
  0
ARC
  5
2CE
100
AcDbEntity
  8
0
100
AcDbCircle
 62
7
  6
CONTINUOUS
 10
4.6084852418
 20
3.8279573483
 40
0.0693674786
100
AcDbArc
 50
269.9963980156
 51
274.1689072229
  0
ARC
  5
2CF
100
AcDbEntity
  8
0
100
AcDbCircle
 62
7
  6
CONTINUOUS
 10
4.6516134024
 20
3.8710855089
 40
0.0693674786
100
AcDbArc
 50
355.8310920191
 51
0.003601985
  0
ARC
  5
2D0
100
AcDbEntity
  8
0
100
AcDbCircle
 62
7
  6
CONTINUOUS
 10
4.6516777552
 20
3.8710831687
 40
0.069303126
100
AcDbArc
 50
355.8291539348
 51
0.0055400693
  0
ARC
  5
2D1
100
AcDbEntity
  8
0
100
AcDbCircle
 62
7
  6
CONTINUOUS
 10
4.608487582
 20
3.8278929954
 40
0.069303126
100
AcDbArc
 50
269.9944599293
 51
274.1708453092
  0
ARC
  5
2D2
100
AcDbEntity
  8
ALL_FEATURES
100
AcDbCircle
 62
7
  6
CONTINUOUS
 10
6.5256533809
 20
4.8025898698
 40
0.06
100
AcDbArc
 50
270.0
 51
306.083035471
  0
ARC
  5
2D3
100
AcDbEntity
  8
ALL_FEATURES
100
AcDbCircle
 62
7
  6
CONTINUOUS
 10
6.6983783809
 20
4.8723398698
 40
0.06
100
AcDbArc
 50
277.8967562426
 51
360.0
  0
ARC
  5
2D4
100
AcDbEntity
  8
ALL_FEATURES
100
AcDbCircle
 62
7
  6
CONTINUOUS
 10
5.0970234781
 20
4.6900898698
 40
0.015
100
AcDbArc
 50
270.0
 51
358.5
  0
ARC
  5
2D5
100
AcDbEntity
  8
ALL_FEATURES
100
AcDbCircle
 62
7
  6
CONTINUOUS
 10
5.128015734
 20
4.7275898698
 40
0.015
100
AcDbArc
 50
90.0
 51
178.5
  0
SPLINE
  5
2D6
100
AcDbEntity
  8
ALL_ASSEMBLY_MEMBERS
100
AcDbSpline
 62
7
  6
CONTINUOUS
 70
0
 71
3
 72
27
 73
23
 74
0
 42
0.0000001
 43
0.0000001
 44
0.0000000001
 40
0.0
 40
0.0
 40
0.0
 40
0.0
 40
0.066312821
 40
0.1326265703
 40
0.1987681387
 40
0.2645935267
 40
0.3299559635
 40
0.3624312656
 40
0.3947447884
 40
0.4588190486
 40
0.4905747611
 40
0.522125464
 40
0.5534645376
 40
0.5845870169
 40
0.6154907034
 40
0.6461753796
 40
0.7068787831
 40
0.7667581689
 40
0.8258898624
 40
0.8843803691
 40
0.9423663333
 40
1.0
 40
1.0
 40
1.0
 40
1.0
 10
4.2554939388
 20
3.1516928919
 30
0.0
 10
4.2556238159
 20
3.1532836322
 30
0.0
 10
4.2557480034
 20
3.1564778595
 30
0.0
 10
4.2555275706
 20
3.1612622558
 30
0.0
 10
4.2549024449
 20
3.1659993756
 30
0.0
 10
4.2538789315
 20
3.1706430124
 30
0.0
 10
4.2526990872
 20
3.1744069964
 30
0.0
 10
4.2515656616
 20
3.1773282563
 30
0.0
 10
4.2503159317
 20
3.1801677031
 30
0.0
 10
4.2488838506
 20
3.1829050168
 30
0.0
 10
4.2472775209
 20
3.1855173384
 30
0.0
 10
4.2459945196
 20
3.187400689
 30
0.0
 10
4.2446331804
 20
3.1892091249
 30
0.0
 10
4.2431966031
 20
3.1909382163
 30
0.0
 10
4.2416883124
 20
3.1925839213
 30
0.0
 10
4.2395944006
 20
3.1946538288
 30
0.0
 10
4.2368161577
 20
3.1970172453
 30
0.0
 10
4.2332447992
 20
3.1994710512
 30
0.0
 10
4.2294810298
 20
3.2015094672
 30
0.0
 10
4.2255609627
 20
3.2031123621
 30
0.0
 10
4.2215231308
 20
3.2042636704
 30
0.0
 10
4.2187715886
 20
3.204723673
 30
0.0
 10
4.2173926812
 20
3.2048745897
 30
0.0
  0
SPLINE
  5
2D7
100
AcDbEntity
  8
ALL_ASSEMBLY_MEMBERS
100
AcDbSpline
 62
7
  6
CONTINUOUS
 70
0
 71
3
 72
15
 73
11
 74
0
 42
0.0000001
 43
0.0000001
 44
0.0000000001
 40
0.0
 40
0.0
 40
0.0
 40
0.0
 40
0.1205437606
 40
0.2427052429
 40
0.3663686468
 40
0.491386035
 40
0.6175417446
 40
0.7445697623
 40
0.8721736321
 40
1.0
 40
1.0
 40
1.0
 40
1.0
 10
4.2426146442
 20
3.1141053768
 30
0.0
 10
4.2436729864
 20
3.115348014
 30
0.0
 10
4.2456845805
 20
3.1179542336
 30
0.0
 10
4.2483367914
 20
3.1221547532
 30
0.0
 10
4.2506156892
 20
3.1266374376
 30
0.0
 10
4.2524939629
 20
3.1313602568
 30
0.0
 10
4.2539474613
 20
3.1362781174
 30
0.0
 10
4.2549558135
 20
3.1413420279
 30
0.0
 10
4.2555021333
 20
3.1464987598
 30
0.0
 10
4.2555502735
 20
3.1499629487
 30
0.0
 10
4.2554939388
 20
3.1516928919
 30
0.0
  0
SPLINE
  5
2D8
100
AcDbEntity
  8
ALL_ASSEMBLY_MEMBERS
100
AcDbSpline
 62
7
  6
CONTINUOUS
 70
0
 71
3
 72
24
 73
20
 74
0
 42
0.0000001
 43
0.0000001
 44
0.0000000001
 40
0.0
 40
0.0
 40
0.0
 40
0.0
 40
0.0649538253
 40
0.1293919738
 40
0.1932851965
 40
0.2566630634
 40
0.3195795291
 40
0.3820890247
 40
0.4132134947
 40
0.4442576434
 40
0.506130136
 40
0.5677904198
 40
0.6293156825
 40
0.690784979
 40
0.7522776062
 40
0.8138724059
 40
0.8756445897
 40
0.9376655672
 40
1.0
 40
1.0
 40
1.0
 40
1.0
 10
4.2426146442
 20
3.1141053768
 30
0.0
 10
4.2417887868
 20
3.1132987023
 30
0.0
 10
4.240088428
 20
3.1117471316
 30
0.0
 10
4.2373952276
 20
3.1096102026
 30
0.0
 10
4.2345815778
 20
3.1076833148
 30
0.0
 10
4.2316613656
 20
3.1059749921
 30
0.0
 10
4.2286476657
 20
3.1044925476
 30
0.0
 10
4.2260655732
 20
3.1034485741
 30
0.0
 10
4.2239679758
 20
3.1027326688
 30
0.0
 10
4.2218561445
 20
3.1020982286
 30
0.0
 10
4.219182399
 20
3.1014546002
 30
0.0
 10
4.2159331278
 20
3.1009251218
 30
0.0
 10
4.2126603788
 20
3.1006411511
 30
0.0
 10
4.2093785628
 20
3.1006028503
 30
0.0
 10
4.2061018628
 20
3.100810304
 30
0.0
 10
4.202844323
 20
3.1012612038
 30
0.0
 10
4.1996198325
 20
3.1019536007
 30
0.0
 10
4.1964420607
 20
3.1028830453
 30
0.0
 10
4.1943689794
 20
3.103655927
 30
0.0
 10
4.1933452654
 20
3.1040795408
 30
0.0
  0
SPLINE
  5
2D9
100
AcDbEntity
  8
ALL_ASSEMBLY_MEMBERS
100
AcDbSpline
 62
7
  6
CONTINUOUS
 70
0
 71
3
 72
15
 73
11
 74
0
 42
0.0000001
 43
0.0000001
 44
0.0000000001
 40
0.0
 40
0.0
 40
0.0
 40
0.0
 40
0.1248119722
 40
0.2491414003
 40
0.3732683428
 40
0.4974667608
 40
0.6220036804
 40
0.7471276416
 40
0.8730636721
 40
1.0
 40
1.0
 40
1.0
 40
1.0
 10
4.2173926812
 20
3.2048745897
 30
0.0
 10
4.2162531042
 20
3.2051772617
 30
0.0
 10
4.2139480868
 20
3.2056735372
 30
0.0
 10
4.2104408299
 20
3.2060848401
 30
0.0
 10
4.2069159464
 20
3.2061622404
 30
0.0
 10
4.2033975801
 20
3.2059086222
 30
0.0
 10
4.1999086008
 20
3.2053291526
 30
0.0
 10
4.196470945
 20
3.2044308612
 30
0.0
 10
4.1931059468
 20
3.2032227221
 30
0.0
 10
4.1909330809
 20
3.2022218023
 30
0.0
 10
4.189866036
 20
3.2016746376
 30
0.0
  0
SPLINE
  5
2DA
100
AcDbEntity
  8
ALL_ASSEMBLY_MEMBERS
100
AcDbSpline
 62
7
  6
CONTINUOUS
 70
0
 71
3
 72
38
 73
34
 74
0
 42
0.0000001
 43
0.0000001
 44
0.0000000001
 40
0.0
 40
0.0
 40
0.0
 40
0.0
 40
0.0300875761
 40
0.0604588497
 40
0.0910914703
 40
0.1219748073
 40
0.1531032558
 40
0.1844651589
 40
0.2160416143
 40
0.2478116322
 40
0.2797523674
 40
0.3118392115
 40
0.3440452817
 40
0.3763420002
 40
0.4086999688
 40
0.4410887571
 40
0.4734778449
 40
0.5058364915
 40
0.5381343552
 40
0.5703420193
 40
0.6343503563
 40
0.6661229548
 40
0.6977020309
 40
0.7290672953
 40
0.7602011422
 40
0.7910895172
 40
0.8217212524
 40
0.8520894402
 40
0.8821904999
 40
0.9120252532
 40
0.9415984593
 40
0.9709189629
 40
1.0
 40
1.0
 40
1.0
 40
1.0
 10
4.183004139
 20
3.1973096277
 30
0.0
 10
4.1822712875
 20
3.1965857486
 30
0.0
 10
4.1808439871
 20
3.1950845219
 30
0.0
 10
4.1788360512
 20
3.1926959399
 30
0.0
 10
4.176959289
 20
3.1901688467
 30
0.0
 10
4.1752211747
 20
3.1875135275
 30
0.0
 10
4.1736281036
 20
3.1847399409
 30
0.0
 10
4.1721860057
 20
3.1818584352
 30
0.0
 10
4.1709000906
 20
3.1788800153
 30
0.0
 10
4.1697757016
 20
3.175815856
 30
0.0
 10
4.1688165961
 20
3.1726777629
 30
0.0
 10
4.1680268378
 20
3.1694774727
 30
0.0
 10
4.1674090204
 20
3.1662272068
 30
0.0
 10
4.1669657179
 20
3.1629392198
 30
0.0
 10
4.166698559
 20
3.1596259947
 30
0.0
 10
4.1666084009
 20
3.1563000783
 30
0.0
 10
4.1666959092
 20
3.1529740607
 30
0.0
 10
4.1669602929
 20
3.1496605692
 30
0.0
 10
4.1674011092
 20
3.1463720144
 30
0.0
 10
4.1682192271
 20
3.1420473391
 30
0.0
 10
4.1693825042
 20
3.1378118736
 30
0.0
 10
4.1708818821
 20
3.1337156347
 30
0.0
 10
4.1721653594
 20
3.1307357354
 30
0.0
 10
4.1736050954
 20
3.1278526388
 30
0.0
 10
4.1751961286
 20
3.1250773348
 30
0.0
 10
4.1769319823
 20
3.1224201417
 30
0.0
 10
4.1788065154
 20
3.119891386
 30
0.0
 10
4.1808123437
 20
3.1175004795
 30
0.0
 10
4.1829420449
 20
3.1152566073
 30
0.0
 10
4.1851875612
 20
3.1131683502
 30
0.0
 10
4.1875402939
 20
3.1112434554
 30
0.0
 10
4.1899914335
 20
3.1094896735
 30
0.0
 10
4.1916917677
 20
3.1084344163
 30
0.0
 10
4.1925548414
 20
3.1079380596
 30
0.0
  0
SPLINE
  5
2DB
100
AcDbEntity
  8
ALL_ASSEMBLY_MEMBERS
100
AcDbSpline
 62
7
  6
CONTINUOUS
 70
0
 71
3
 72
22
 73
18
 74
0
 42
0.0000001
 43
0.0000001
 44
0.0000000001
 40
0.0
 40
0.0
 40
0.0
 40
0.0
 40
0.0617895877
 40
0.1233952842
 40
0.184878291
 40
0.2463013059
 40
0.3077284573
 40
0.3692230717
 40
0.4308481695
 40
0.492664831
 40
0.5547313762
 40
0.617101036
 40
0.679820317
 40
0.7429337016
 40
0.8064872623
 40
0.8705223054
 40
1.0
 40
1.0
 40
1.0
 40
1.0
 10
4.2031863783
 20
3.1035794415
 30
0.0
 10
4.204035529
 20
3.1033599036
 30
0.0
 10
4.2057457275
 20
3.1029751701
 30
0.0
 10
4.2083393361
 20
3.1025641897
 30
0.0
 10
4.2109489222
 20
3.1023211014
 30
0.0
 10
4.2135662077
 20
3.102247088
 30
0.0
 10
4.2161829748
 20
3.1023422224
 30
0.0
 10
4.2187910269
 20
3.1026060516
 30
0.0
 10
4.2213821273
 20
3.1030381277
 30
0.0
 10
4.2239482305
 20
3.1036366411
 30
0.0
 10
4.2264812193
 20
3.104400058
 30
0.0
 10
4.2289731171
 20
3.1053258218
 30
0.0
 10
4.2314161934
 20
3.1064107738
 30
0.0
 10
4.2338026501
 20
3.1076518595
 30
0.0
 10
4.2361255369
 20
3.10904512
 30
0.0
 10
4.2391379134
 20
3.1111069647
 30
0.0
 10
4.2412645332
 20
3.112858396
 30
0.0
 10
4.2426146442
 20
3.1141053768
 30
0.0
  0
SPLINE
  5
2DC
100
AcDbEntity
  8
ALL_ASSEMBLY_MEMBERS
100
AcDbSpline
 62
7
  6
CONTINUOUS
 70
0
 71
3
 72
15
 73
11
 74
0
 42
0.0000001
 43
0.0000001
 44
0.0000000001
 40
0.0
 40
0.0
 40
0.0
 40
0.0
 40
0.1205437606
 40
0.2427052429
 40
0.3663686468
 40
0.491386035
 40
0.6175417446
 40
0.7445697623
 40
0.8721736321
 40
1.0
 40
1.0
 40
1.0
 40
1.0
 10
4.0176146442
 20
3.1141053768
 30
0.0
 10
4.0186729864
 20
3.115348014
 30
0.0
 10
4.0206845805
 20
3.1179542336
 30
0.0
 10
4.0233367914
 20
3.1221547532
 30
0.0
 10
4.0256156892
 20
3.1266374376
 30
0.0
 10
4.0274939629
 20
3.1313602568
 30
0.0
 10
4.0289474613
 20
3.1362781174
 30
0.0
 10
4.0299558135
 20
3.1413420279
 30
0.0
 10
4.0305021333
 20
3.1464987598
 30
0.0
 10
4.0305502735
 20
3.1499629487
 30
0.0
 10
4.0304939388
 20
3.1516928919
 30
0.0
  0
SPLINE
  5
2DD
100
AcDbEntity
  8
ALL_ASSEMBLY_MEMBERS
100
AcDbSpline
 62
7
  6
CONTINUOUS
 70
0
 71
3
 72
10
 73
6
 74
0
 42
0.0000001
 43
0.0000001
 44
0.0000000001
 40
0.0
 40
0.0
 40
0.0
 40
0.0
 40
0.5037214584
 40
0.7528265812
 40
1.0
 40
1.0
 40
1.0
 40
1.0
 10
4.0176146442
 20
3.1141053768
 30
0.0
 10
4.0165113373
 20
3.1129528682
 30
0.0
 10
4.0147744271
 20
3.1113111672
 30
0.0
 10
4.0123102507
 20
3.1093196937
 30
0.0
 10
4.0110368977
 20
3.108396439
 30
0.0
 10
4.0103910983
 20
3.1079538707
 30
0.0
  0
SPLINE
  5
2DE
100
AcDbEntity
  8
ALL_ASSEMBLY_MEMBERS
100
AcDbSpline
 62
7
  6
CONTINUOUS
 70
0
 71
3
 72
15
 73
11
 74
0
 42
0.0000001
 43
0.0000001
 44
0.0000000001
 40
0.0
 40
0.0
 40
0.0
 40
0.0
 40
0.1255693921
 40
0.2507108745
 40
0.3755548841
 40
0.500236051
 40
0.6248876814
 40
0.749644875
 40
0.8746399261
 40
1.0
 40
1.0
 40
1.0
 40
1.0
 10
3.9978777413
 20
3.1020881624
 30
0.0
 10
3.9970616819
 20
3.1018615459
 30
0.0
 10
3.9954176523
 20
3.1014601499
 30
0.0
 10
3.9929222115
 20
3.101015965
 30
0.0
 10
3.9904094284
 20
3.1007320068
 30
0.0
 10
3.9878870153
 20
3.1006083398
 30
0.0
 10
3.9853624266
 20
3.1006452585
 30
0.0
 10
3.9828431407
 20
3.1008423186
 30
0.0
 10
3.9803366386
 20
3.1011982319
 30
0.0
 10
3.9786817143
 20
3.1015402248
 30
0.0
 10
3.9778593796
 20
3.1017369079
 30
0.0
  0
SPLINE
  5
2DF
100
AcDbEntity
  8
ALL_ASSEMBLY_MEMBERS
100
AcDbSpline
 62
7
  6
CONTINUOUS
 70
0
 71
3
 72
45
 73
41
 74
0
 42
0.0000001
 43
0.0000001
 44
0.0000000001
 40
0.0
 40
0.0
 40
0.0
 40
0.0
 40
0.0280296329
 40
0.0421194651
 40
0.0562647378
 40
0.084736019
 40
0.0990772099
 40
0.1134922062
 40
0.1279845212
 40
0.1425571527
 40
0.1572126716
 40
0.1719532571
 40
0.2016904761
 40
0.2166942118
 40
0.2317868814
 40
0.2622330816
 40
0.2930277669
 40
0.3241585631
 40
0.355607042
 40
0.3873499525
 40
0.4193592173
 40
0.4516032993
 40
0.4840471647
 40
0.516653726
 40
0.5493837618
 40
0.5821973568
 40
0.6150538222
 40
0.6479130526
 40
0.6807355375
 40
0.6971229403
 40
0.713487148
 40
0.7461243157
 40
0.7786175536
 40
0.8109371009
 40
0.8430559104
 40
0.8749498499
 40
0.9066008538
 40
0.9380016341
 40
0.969142949
 40
1.0
 40
1.0
 40
1.0
 40
1.0
 10
3.9778593796
 20
3.1017369079
 30
0.0
 10
3.9767111773
 20
3.1020115308
 30
0.0
 10
3.975002516
 20
3.1024991797
 30
0.0
 10
3.9727691803
 20
3.1032933375
 30
0.0
 10
3.9705539653
 20
3.1041879225
 30
0.0
 10
3.9683872092
 20
3.1052252411
 30
0.0
 10
3.966280386
 20
3.1063972357
 30
0.0
 10
3.9647251923
 20
3.1073467075
 30
0.0
 10
3.9632010652
 20
3.1083628686
 30
0.0
 10
3.9617099806
 20
3.1094442621
 30
0.0
 10
3.9602539538
 20
3.1105894486
 30
0.0
 10
3.9583567152
 20
3.1122038133
 30
0.0
 10
3.9565424685
 20
3.113935641
 30
0.0
 10
3.9548184359
 20
3.1157744047
 30
0.0
 10
3.9531432551
 20
3.1176976598
 30
0.0
 10
3.9511643889
 20
3.1202354083
 30
0.0
 10
3.9489924065
 20
3.123467023
 30
0.0
 10
3.9470265382
 20
3.1268768086
 30
0.0
 10
3.9452769032
 20
3.1304468279
 30
0.0
 10
3.943751937
 20
3.1341583839
 30
0.0
 10
3.9424592595
 20
3.1379923853
 30
0.0
 10
3.9414049364
 20
3.1419291625
 30
0.0
 10
3.9405940749
 20
3.1459488088
 30
0.0
 10
3.9400303153
 20
3.1500311024
 30
0.0
 10
3.9397162083
 20
3.1541557365
 30
0.0
 10
3.9396529823
 20
3.1583023251
 30
0.0
 10
3.9398406306
 20
3.1624506014
 30
0.0
 10
3.9402780261
 20
3.1665803117
 30
0.0
 10
3.9408488845
 20
3.169991855
 30
0.0
 10
3.9414279488
 20
3.1726927755
 30
0.0
 10
3.94208655
 20
3.175367368
 30
0.0
 10
3.9430586505
 20
3.178661737
 30
0.0
 10
3.944459538
 20
3.1825224699
 30
0.0
 10
3.9460867798
 20
3.1862697216
 30
0.0
 10
3.9479328566
 20
3.1898858456
 30
0.0
 10
3.9499884192
 20
3.193354509
 30
0.0
 10
3.9522443718
 20
3.19665981
 30
0.0
 10
3.9546900703
 20
3.1997872861
 30
0.0
 10
3.9573139899
 20
3.2027219306
 30
0.0
 10
3.9591820272
 20
3.2045499526
 30
0.0
 10
3.960141445
 20
3.2054266939
 30
0.0
  0
SPLINE
  5
2E0
100
AcDbEntity
  8
ALL_ASSEMBLY_MEMBERS
100
AcDbSpline
 62
7
  6
CONTINUOUS
 70
0
 71
3
 72
17
 73
13
 74
0
 42
0.0000001
 43
0.0000001
 44
0.0000000001
 40
0.0
 40
0.0
 40
0.0
 40
0.0
 40
0.1224788117
 40
0.1838125589
 40
0.245246729
 40
0.3685073189
 40
0.4925254838
 40
0.617508202
 40
0.7436475582
 40
0.8072251014
 40
0.8711517493
 40
1.0
 40
1.0
 40
1.0
 40
1.0
 10
3.9921533809
 20
3.21777492
 30
0.0
 10
3.9907224138
 20
3.2177749344
 30
0.0
 10
3.9885731198
 20
3.2176746997
 30
0.0
 10
3.9857264205
 20
3.2173422891
 30
0.0
 10
3.9828889637
 20
3.2168768639
 30
0.0
 10
3.9793732813
 20
3.2160469261
 30
0.0
 10
3.975243789
 20
3.2146632338
 30
0.0
 10
3.9712247271
 20
3.2129004337
 30
0.0
 10
3.9679970789
 20
3.2111289229
 30
0.0
 10
3.9654965858
 20
3.2095370146
 30
0.0
 10
3.9630409959
 20
3.2078210533
 30
0.0
 10
3.9612780808
 20
3.2064137293
 30
0.0
 10
3.960141445
 20
3.2054266939
 30
0.0
  0
SPLINE
  5
2E1
100
AcDbEntity
  8
ALL_ASSEMBLY_MEMBERS
100
AcDbSpline
 62
7
  6
CONTINUOUS
 70
0
 71
3
 72
15
 73
11
 74
0
 42
0.0000001
 43
0.0000001
 44
0.0000000001
 40
0.0
 40
0.0
 40
0.0
 40
0.0
 40
0.1254174998
 40
0.2504399092
 40
0.3751961318
 40
0.4998372978
 40
0.6245020124
 40
0.7493293952
 40
0.8744534293
 40
1.0
 40
1.0
 40
1.0
 40
1.0
 10
3.9923926812
 20
3.2048745897
 30
0.0
 10
3.9915771566
 20
3.2050911932
 30
0.0
 10
3.9899334023
 20
3.2054684234
 30
0.0
 10
3.9874384941
 20
3.2058644733
 30
0.0
 10
3.9849275415
 20
3.2060896223
 30
0.0
 10
3.9824095715
 20
3.2061444065
 30
0.0
 10
3.9798931587
 20
3.2060298987
 30
0.0
 10
3.9773867333
 20
3.2057477487
 30
0.0
 10
3.9748986291
 20
3.2053001533
 30
0.0
 10
3.9732603561
 20
3.2048939658
 30
0.0
 10
3.9724474304
 20
3.2046645851
 30
0.0
  0
SPLINE
  5
2E2
100
AcDbEntity
  8
ALL_ASSEMBLY_MEMBERS
100
AcDbSpline
 62
7
  6
CONTINUOUS
 70
0
 71
3
 72
11
 73
7
 74
0
 42
0.0000001
 43
0.0000001
 44
0.0000000001
 40
0.0
 40
0.0
 40
0.0
 40
0.0
 40
0.2466085267
 40
0.4952739413
 40
0.7463464232
 40
1.0
 40
1.0
 40
1.0
 40
1.0
 10
3.9710513236
 20
3.2042428827
 30
0.0
 10
3.969889867
 20
3.2038687924
 30
0.0
 10
3.9675903387
 20
3.2030104162
 30
0.0
 10
3.9642546239
 20
3.2014154082
 30
0.0
 10
3.9610390131
 20
3.1995210215
 30
0.0
 10
3.9589982248
 20
3.1980757895
 30
0.0
 10
3.958004139
 20
3.1973096277
 30
0.0
  0
SPLINE
  5
2E3
100
AcDbEntity
  8
ALL_ASSEMBLY_MEMBERS
100
AcDbSpline
 62
7
  6
CONTINUOUS
 70
0
 71
3
 72
38
 73
34
 74
0
 42
0.0000001
 43
0.0000001
 44
0.0000000001
 40
0.0
 40
0.0
 40
0.0
 40
0.0
 40
0.0299929757
 40
0.0602579739
 40
0.0907741777
 40
0.121530565
 40
0.1525223193
 40
0.1837403196
 40
0.2151681368
 40
0.2467869137
 40
0.2785763172
 40
0.3105143267
 40
0.342577252
 40
0.3747393648
 40
0.4069741456
 40
0.4392541356
 40
0.5038166466
 40
0.5360641269
 40
0.5682451703
 40
0.6003329746
 40
0.632301667
 40
0.6641270899
 40
0.6957863525
 40
0.727258894
 40
0.7585262509
 40
0.789572364
 40
0.8203843331
 40
0.8509517146
 40
0.8812678269
 40
0.9113289536
 40
0.9411350268
 40
0.9706897386
 40
1.0
 40
1.0
 40
1.0
 40
1.0
 10
3.958004139
 20
3.1973096277
 30
0.0
 10
3.9573018246
 20
3.1966159119
 30
0.0
 10
3.9559324472
 20
3.1951793725
 30
0.0
 10
3.9540002573
 20
3.1928985178
 30
0.0
 10
3.9521879292
 20
3.1904896914
 30
0.0
 10
3.9505022624
 20
3.1879618797
 30
0.0
 10
3.9489488337
 20
3.1853239079
 30
0.0
 10
3.9475331057
 20
3.1825846927
 30
0.0
 10
3.946259596
 20
3.17975392
 30
0.0
 10
3.9451332254
 20
3.1768413018
 30
0.0
 10
3.9441575865
 20
3.1738571493
 30
0.0
 10
3.9433361828
 20
3.1708117875
 30
0.0
 10
3.9426719337
 20
3.1677157971
 30
0.0
 10
3.9421668592
 20
3.1645800397
 30
0.0
 10
3.9418231532
 20
3.1614152227
 30
0.0
 10
3.9415810035
 20
3.1571724134
 30
0.0
 10
3.9416650674
 20
3.1529155897
 30
0.0
 10
3.9420743491
 20
3.1486884715
 30
0.0
 10
3.942542854
 20
3.1455450465
 30
0.0
 10
3.9431709448
 20
3.1424390504
 30
0.0
 10
3.9439568971
 20
3.1393812317
 30
0.0
 10
3.9448976124
 20
3.1363821966
 30
0.0
 10
3.9459900182
 20
3.1334524163
 30
0.0
 10
3.9472303546
 20
3.1306021307
 30
0.0
 10
3.9486140811
 20
3.127841149
 30
0.0
 10
3.9501367787
 20
3.125179291
 30
0.0
 10
3.9517927433
 20
3.1226256036
 30
0.0
 10
3.9535765733
 20
3.1201891987
 30
0.0
 10
3.955481885
 20
3.1178784638
 30
0.0
 10
3.9575020532
 20
3.1157014448
 30
0.0
 10
3.9596302713
 20
3.1136659154
 30
0.0
 10
3.9618587238
 20
3.1117787678
 30
0.0
 10
3.9634127924
 20
3.110619358
 30
0.0
 10
3.9642037432
 20
3.110067067
 30
0.0
  0
SPLINE
  5
2E4
100
AcDbEntity
  8
ALL_ASSEMBLY_MEMBERS
100
AcDbSpline
 62
7
  6
CONTINUOUS
 70
0
 71
3
 72
21
 73
17
 74
0
 42
0.0000001
 43
0.0000001
 44
0.0000000001
 40
0.0
 40
0.0
 40
0.0
 40
0.0
 40
0.0642782924
 40
0.1281677941
 40
0.1916914762
 40
0.2548765782
 40
0.3177529098
 40
0.3803536883
 40
0.5048327337
 40
0.6286738746
 40
0.6904847811
 40
0.7522669491
 40
0.8140653375
 40
0.8759242879
 40
0.9378880878
 40
1.0
 40
1.0
 40
1.0
 40
1.0
 10
3.9642037432
 20
3.110067067
 30
0.0
 10
3.964824981
 20
3.1096332802
 30
0.0
 10
3.9660852677
 20
3.1087987345
 30
0.0
 10
3.9680302063
 20
3.1076466833
 30
0.0
 10
3.9700198201
 20
3.1066008828
 30
0.0
 10
3.9720495542
 20
3.1056634353
 30
0.0
 10
3.974115106
 20
3.1048364083
 30
0.0
 10
3.976905092
 20
3.1038856117
 30
0.0
 10
3.9804637706
 20
3.1029787667
 30
0.0
 10
3.9840899925
 20
3.1024590214
 30
0.0
 10
3.9870023466
 20
3.1022794552
 30
0.0
 10
3.9891887485
 20
3.1022629242
 30
0.0
 10
3.9913733608
 20
3.1023642788
 30
0.0
 10
3.9935515143
 20
3.1025832999
 30
0.0
 10
3.9957183095
 20
3.1029197413
 30
0.0
 10
3.997150305
 20
3.1032212735
 30
0.0
 10
3.9978624967
 20
3.1033911085
 30
0.0
  0
SPLINE
  5
2E5
100
AcDbEntity
  8
ALL_ASSEMBLY_MEMBERS
100
AcDbSpline
 62
7
  6
CONTINUOUS
 70
0
 71
3
 72
23
 73
19
 74
0
 42
0.0000001
 43
0.0000001
 44
0.0000000001
 40
0.0
 40
0.0
 40
0.0
 40
0.0
 40
0.064562083
 40
0.128854452
 40
0.1928294606
 40
0.2564788298
 40
0.3198107329
 40
0.3828331374
 40
0.4455532881
 40
0.5079840221
 40
0.5701460706
 40
0.632061546
 40
0.6937561169
 40
0.7552560375
 40
0.8165975092
 40
0.8778206082
 40
0.9389521723
 40
1.0
 40
1.0
 40
1.0
 40
1.0
 10
3.958004139
 20
3.1973096277
 30
0.0
 10
3.9586626759
 20
3.1980966879
 30
0.0
 10
3.9600190345
 20
3.1996328972
 30
0.0
 10
3.9621681679
 20
3.2018202008
 30
0.0
 10
3.964420949
 20
3.2038793021
 30
0.0
 10
3.9667695694
 20
3.2058043554
 30
0.0
 10
3.9692067962
 20
3.2075904467
 30
0.0
 10
3.9717251613
 20
3.2092333106
 30
0.0
 10
3.9743170725
 20
3.210729065
 30
0.0
 10
3.9769749642
 20
3.212074146
 30
0.0
 10
3.9796910578
 20
3.2132659715
 30
0.0
 10
3.9824578442
 20
3.2143019375
 30
0.0
 10
3.9852675145
 20
3.2151805615
 30
0.0
 10
3.9881126107
 20
3.215900297
 30
0.0
 10
3.9909857337
 20
3.2164604187
 30
0.0
 10
3.9938795902
 20
3.2168604463
 30
0.0
 10
3.9967863041
 20
3.2171003739
 30
0.0
 10
3.998728758
 20
3.2171541702
 30
0.0
 10
3.9996991218
 20
3.2171545641
 30
0.0
  0
SPLINE
  5
2E6
100
AcDbEntity
  8
ALL_ASSEMBLY_MEMBERS
100
AcDbSpline
 62
7
  6
CONTINUOUS
 70
0
 71
3
 72
23
 73
19
 74
0
 42
0.0000001
 43
0.0000001
 44
0.0000000001
 40
0.0
 40
0.0
 40
0.0
 40
0.0
 40
0.0651572782
 40
0.1303512328
 40
0.1954527956
 40
0.2603767586
 40
0.3250278691
 40
0.3893146657
 40
0.4531564543
 40
0.5164812148
 40
0.5792271294
 40
0.6413441399
 40
0.7027960279
 40
0.7635624439
 40
0.8236416032
 40
0.8830494368
 40
0.9418188405
 40
1.0
 40
1.0
 40
1.0
 40
1.0
 10
4.0304939388
 20
3.1516928919
 30
0.0
 10
4.030597837
 20
3.1529654414
 30
0.0
 10
4.0307188574
 20
3.1555191923
 30
0.0
 10
4.0306400873
 20
3.1593511652
 30
0.0
 10
4.0303012907
 20
3.1631645546
 30
0.0
 10
4.0297046698
 20
3.1669353911
 30
0.0
 10
4.0288539673
 20
3.170640821
 30
0.0
 10
4.0277542591
 20
3.1742580224
 30
0.0
 10
4.0264122338
 20
3.1777647452
 30
0.0
 10
4.0248361874
 20
3.1811394979
 30
0.0
 10
4.0230356735
 20
3.1843614685
 30
0.0
 10
4.0210216911
 20
3.1874107279
 30
0.0
 10
4.0188067349
 20
3.1902685041
 30
0.0
 10
4.0164042899
 20
3.1929170728
 30
0.0
 10
4.0138291378
 20
3.195340118
 30
0.0
 10
4.0110969495
 20
3.1975227555
 30
0.0
 10
4.0082247324
 20
3.1994513453
 30
0.0
 10
4.0062182116
 20
3.2005652914
 30
0.0
 10
4.0051984248
 20
3.2010750227
 30
0.0
  0
SPLINE
  5
2E7
100
AcDbEntity
  8
ALL_ASSEMBLY_MEMBERS
100
AcDbSpline
 62
7
  6
CONTINUOUS
 70
0
 71
3
 72
11
 73
7
 74
0
 42
0.0000001
 43
0.0000001
 44
0.0000000001
 40
0.0
 40
0.0
 40
0.0
 40
0.0
 40
0.2521460427
 40
0.502622626
 40
0.7518114416
 40
1.0
 40
1.0
 40
1.0
 40
1.0
 10
4.004054696
 20
3.2016238719
 30
0.0
 10
4.0031265542
 20
3.202050967
 30
0.0
 10
4.0012422154
 20
3.2028302628
 30
0.0
 10
3.9983402427
 20
3.2037672952
 30
0.0
 10
3.9953877021
 20
3.2044634475
 30
0.0
 10
3.9933923694
 20
3.2047651772
 30
0.0
 10
3.9923926812
 20
3.2048745897
 30
0.0
  0
SPLINE
  5
2E8
100
AcDbEntity
  8
ALL_ASSEMBLY_MEMBERS
100
AcDbSpline
 62
7
  6
CONTINUOUS
 70
0
 71
3
 72
11
 73
7
 74
0
 42
0.0000001
 43
0.0000001
 44
0.0000000001
 40
0.0
 40
0.0
 40
0.0
 40
0.0
 40
0.2483965544
 40
0.497746059
 40
0.7481780525
 40
1.0
 40
1.0
 40
1.0
 40
1.0
 10
3.9923926812
 20
3.2048745897
 30
0.0
 10
3.9934872178
 20
3.2047598796
 30
0.0
 10
3.9956720081
 20
3.2044391444
 30
0.0
 10
3.9989048719
 20
3.2036906704
 30
0.0
 10
4.0020806198
 20
3.2026772517
 30
0.0
 10
4.0041420192
 20
3.201831815
 30
0.0
 10
4.0051567443
 20
3.2013679873
 30
0.0
  0
SPLINE
  5
2E9
100
AcDbEntity
  8
ALL_ASSEMBLY_MEMBERS
100
AcDbSpline
 62
7
  6
CONTINUOUS
 70
0
 71
3
 72
36
 73
32
 74
0
 42
0.0000001
 43
0.0000001
 44
0.0000000001
 40
0.0
 40
0.0
 40
0.0
 40
0.0
 40
0.0297111144
 40
0.0595956579
 40
0.089665048
 40
0.1199285644
 40
0.1503924646
 40
0.1810602155
 40
0.211931253
 40
0.2430017855
 40
0.2742651402
 40
0.3057111018
 40
0.337327073
 40
0.3690973964
 40
0.4010038931
 40
0.4330264472
 40
0.4651424948
 40
0.4973280558
 40
0.561783089
 40
0.5940196581
 40
0.6262178744
 40
0.6903649073
 40
0.7222788801
 40
0.7540431574
 40
0.7856318487
 40
0.8170201062
 40
0.8790839396
 40
0.9097426183
 40
0.9401230995
 40
0.970212029
 40
1.0
 40
1.0
 40
1.0
 40
1.0
 10
4.0051567443
 20
3.2013679873
 30
0.0
 10
4.0059670986
 20
3.2009975769
 30
0.0
 10
4.0075695072
 20
3.2002030383
 30
0.0
 10
4.0099012516
 20
3.1988606246
 30
0.0
 10
4.0121601863
 20
3.1973685847
 30
0.0
 10
4.0143385624
 20
3.1957322413
 30
0.0
 10
4.0164293911
 20
3.1939576045
 30
0.0
 10
4.0184254243
 20
3.1920505649
 30
0.0
 10
4.0203203804
 20
3.1900181681
 30
0.0
 10
4.0221078478
 20
3.187867381
 30
0.0
 10
4.0237818895
 20
3.1856057405
 30
0.0
 10
4.0253373258
 20
3.1832413783
 30
0.0
 10
4.026768703
 20
3.1807823374
 30
0.0
 10
4.0280717651
 20
3.1782374715
 30
0.0
 10
4.0292421889
 20
3.1756155952
 30
0.0
 10
4.0302761537
 20
3.1729259158
 30
0.0
 10
4.0311707977
 20
3.1701778451
 30
0.0
 10
4.0321739167
 20
3.1664478214
 30
0.0
 10
4.0328875943
 20
3.1626411451
 30
0.0
 10
4.0333058539
 20
3.15879723
 30
0.0
 10
4.0335266867
 20
3.1549461969
 30
0.0
 10
4.0334514014
 20
3.1510925183
 30
0.0
 10
4.0330802556
 20
3.1472758984
 30
0.0
 10
4.0326562977
 20
3.1444492362
 30
0.0
 10
4.0320885363
 20
3.1416639611
 30
0.0
 10
4.0311462407
 20
3.1380331612
 30
0.0
 10
4.0299247561
 20
3.1345081644
 30
0.0
 10
4.028431797
 20
3.1311302354
 30
0.0
 10
4.0271892876
 20
3.128694492
 30
0.0
 10
4.0258240952
 20
3.1263557027
 30
0.0
 10
4.0248305041
 20
3.1248585773
 30
0.0
 10
4.0243148361
 20
3.1241291413
 30
0.0
  0
SPLINE
  5
2EA
100
AcDbEntity
  8
ALL_ASSEMBLY_MEMBERS
100
AcDbSpline
 62
7
  6
CONTINUOUS
 70
0
 71
3
 72
15
 73
11
 74
0
 42
0.0000001
 43
0.0000001
 44
0.0000000001
 40
0.0
 40
0.0
 40
0.0
 40
0.0
 40
0.1187382
 40
0.2395711467
 40
0.3623668073
 40
0.4871230784
 40
0.6136554501
 40
0.7415962448
 40
0.8705580404
 40
1.0
 40
1.0
 40
1.0
 40
1.0
 10
4.0108546971
 20
3.2139653065
 30
0.0
 10
4.0130416115
 20
3.2126990676
 30
0.0
 10
4.0172806084
 20
3.2098324832
 30
0.0
 10
4.0230533809
 20
3.2046867767
 30
0.0
 10
4.0281926133
 20
3.1987370029
 30
0.0
 10
4.0326089509
 20
3.1920883136
 30
0.0
 10
4.0362298767
 20
3.1848531644
 30
0.0
 10
4.0389895477
 20
3.177152886
 30
0.0
 10
4.0408394751
 20
3.1691228583
 30
0.0
 10
4.0414414047
 20
3.1636415845
 30
0.0
 10
4.041582886
 20
3.1608903724
 30
0.0
  0
SPLINE
  5
2EB
100
AcDbEntity
  8
ALL_ASSEMBLY_MEMBERS
100
AcDbSpline
 62
7
  6
CONTINUOUS
 70
0
 71
3
 72
14
 73
10
 74
0
 42
0.0000001
 43
0.0000001
 44
0.0000000001
 40
0.0
 40
0.0
 40
0.0
 40
0.0
 40
0.2597487989
 40
0.3878308097
 40
0.5142355888
 40
0.6387806092
 40
0.7613049138
 40
0.8817076628
 40
1.0
 40
1.0
 40
1.0
 40
1.0
 10
4.0413997994
 20
3.1510607665
 30
0.0
 10
4.0410229414
 20
3.1468369472
 30
0.0
 10
4.0398831485
 20
3.1405589046
 30
0.0
 10
4.0372103741
 20
3.1325906803
 30
0.0
 10
4.0346773857
 20
3.126932935
 30
0.0
 10
4.0316316307
 20
3.1216388783
 30
0.0
 10
4.0281111762
 20
3.1167670517
 30
0.0
 10
4.0241533157
 20
3.1123800146
 30
0.0
 10
4.0212273169
 20
3.1097910117
 30
0.0
 10
4.0197085413
 20
3.1085981563
 30
0.0
  0
SPLINE
  5
2EC
100
AcDbEntity
  8
ALL_ASSEMBLY_MEMBERS
100
AcDbSpline
 62
7
  6
CONTINUOUS
 70
0
 71
3
 72
14
 73
10
 74
0
 42
0.0000001
 43
0.0000001
 44
0.0000000001
 40
0.0
 40
0.0
 40
0.0
 40
0.0
 40
0.126088728
 40
0.2513338027
 40
0.5000661393
 40
0.6243734856
 40
0.7489460718
 40
0.874063484
 40
1.0
 40
1.0
 40
1.0
 40
1.0
 10
4.0079146267
 20
3.1018273346
 30
0.0
 10
4.0067102545
 20
3.1013588036
 30
0.0
 10
4.0042664905
 20
3.1005303825
 30
0.0
 10
3.9992784115
 20
3.0993313269
 30
0.0
 10
3.9941612
 20
3.0988260261
 30
0.0
 10
3.9890599275
 20
3.099040773
 30
0.0
 10
3.985256076
 20
3.0995599218
 30
0.0
 10
3.9815012962
 20
3.1004331774
 30
0.0
 10
3.9790555456
 20
3.1012464299
 30
0.0
 10
3.9778506728
 20
3.10170934
 30
0.0
  0
SPLINE
  5
2ED
100
AcDbEntity
  8
ALL_ASSEMBLY_MEMBERS
100
AcDbSpline
 62
7
  6
CONTINUOUS
 70
0
 71
3
 72
15
 73
11
 74
0
 42
0.0000001
 43
0.0000001
 44
0.0000000001
 40
0.0
 40
0.0
 40
0.0
 40
0.0
 40
0.1169409088
 40
0.2364085191
 40
0.3583315263
 40
0.4827472236
 40
0.6094981238
 40
0.7382350117
 40
0.8685809458
 40
1.0
 40
1.0
 40
1.0
 40
1.0
 10
4.2376621967
 20
3.2139653065
 30
0.0
 10
4.239749883
 20
3.2126968575
 30
0.0
 10
4.2437897772
 20
3.209823291
 30
0.0
 10
4.2492533308
 20
3.2046749965
 30
0.0
 10
4.2540812122
 20
3.1987230906
 30
0.0
 10
4.2581844036
 20
3.1920727832
 30
0.0
 10
4.2614905153
 20
3.1848363828
 30
0.0
 10
4.2639337014
 20
3.1771352465
 30
0.0
 10
4.265465511
 20
3.1691045755
 30
0.0
 10
4.2658533037
 20
3.1636354139
 30
0.0
 10
4.265888368
 20
3.1608903724
 30
0.0
  0
SPLINE
  5
2EE
100
AcDbEntity
  8
ALL_ASSEMBLY_MEMBERS
100
AcDbSpline
 62
7
  6
CONTINUOUS
 70
0
 71
3
 72
9
 73
5
 74
0
 42
0.0000001
 43
0.0000001
 44
0.0000000001
 40
0.0
 40
0.0
 40
0.0
 40
0.0
 40
0.2527267792
 40
1.0
 40
1.0
 40
1.0
 40
1.0
 10
4.1643575397
 20
3.1832720428
 30
0.0
 10
4.1648674551
 20
3.1845299574
 30
0.0
 10
4.167033627
 20
3.1894454313
 30
0.0
 10
4.169790494
 20
3.1941037316
 30
0.0
 10
4.1721578974
 20
3.1973445686
 30
0.0
  0
SPLINE
  5
2EF
100
AcDbEntity
  8
ALL_ASSEMBLY_MEMBERS
100
AcDbSpline
 62
7
  6
CONTINUOUS
 70
0
 71
3
 72
13
 73
9
 74
0
 42
0.0000001
 43
0.0000001
 44
0.0000000001
 40
0.0
 40
0.0
 40
0.0
 40
0.0
 40
0.1290617698
 40
0.2567594733
 40
0.5081956229
 40
0.6323612323
 40
0.7556288047
 40
1.0
 40
1.0
 40
1.0
 40
1.0
 10
4.1789473252
 20
3.2051458619
 30
0.0
 10
4.1800081316
 20
3.2061692824
 30
0.0
 10
4.1821974423
 20
3.2081258899
 30
0.0
 10
4.1868192086
 20
3.2116435608
 30
0.0
 10
4.1918015622
 20
3.2145708563
 30
0.0
 10
4.1970425652
 20
3.2168206148
 30
0.0
 10
4.202377638
 20
3.2185926203
 30
0.0
 10
4.2065255907
 20
3.2194021175
 30
0.0
 10
4.2093011816
 20
3.219694528
 30
0.0
  0
SPLINE
  5
2F0
100
AcDbEntity
  8
ALL_ASSEMBLY_MEMBERS
100
AcDbSpline
 62
7
  6
CONTINUOUS
 70
0
 71
3
 72
14
 73
10
 74
0
 42
0.0000001
 43
0.0000001
 44
0.0000000001
 40
0.0
 40
0.0
 40
0.0
 40
0.0
 40
0.2558057528
 40
0.382822432
 40
0.5088357138
 40
0.6336868885
 40
0.7572380005
 40
0.8793633868
 40
1.0
 40
1.0
 40
1.0
 40
1.0
 10
4.2653236439
 20
3.1510607665
 30
0.0
 10
4.264832859
 20
3.1472382747
 30
0.0
 10
4.2636254996
 20
3.141561997
 30
0.0
 10
4.2610822354
 20
3.1343232508
 30
0.0
 10
4.2587358822
 20
3.1291276746
 30
0.0
 10
4.2559639277
 20
3.124206403
 30
0.0
 10
4.2527894631
 20
3.1196049477
 30
0.0
 10
4.2492420247
 20
3.1153671816
 30
0.0
 10
4.2466293707
 20
3.1127978685
 30
0.0
 10
4.2452716221
 20
3.1115896901
 30
0.0
  0
SPLINE
  5
2F1
100
AcDbEntity
  8
ALL_ASSEMBLY_MEMBERS
100
AcDbSpline
 62
7
  6
CONTINUOUS
 70
0
 71
3
 72
16
 73
12
 74
0
 42
0.0000001
 43
0.0000001
 44
0.0000000001
 40
0.0
 40
0.0
 40
0.0
 40
0.0
 40
0.1288347593
 40
0.2558810655
 40
0.3813794816
 40
0.5056555527
 40
0.6291456884
 40
0.7523358758
 40
0.8140209045
 40
0.8758302144
 40
1.0
 40
1.0
 40
1.0
 40
1.0
 10
4.2449152085
 20
3.1112753068
 30
0.0
 10
4.2433104551
 20
3.109872175
 30
0.0
 10
4.2399561716
 20
3.107269119
 30
0.0
 10
4.2345198835
 20
3.1040341362
 30
0.0
 10
4.2287858516
 20
3.1015421746
 30
0.0
 10
4.2228321682
 20
3.099833263
 30
0.0
 10
4.2167414443
 20
3.0989400164
 30
0.0
 10
4.2116225854
 20
3.0988853627
 30
0.0
 10
4.2075553723
 20
3.099260107
 30
0.0
 10
4.2035074244
 20
3.0999115989
 30
0.0
 10
4.200522718
 20
3.1007092657
 30
0.0
 10
4.1985778767
 20
3.101371455
 30
0.0
  0
SPLINE
  5
2F2
100
AcDbEntity
  8
ALL_ASSEMBLY_MEMBERS
100
AcDbSpline
 62
7
  6
CONTINUOUS
 70
0
 71
3
 72
9
 73
5
 74
0
 42
0.0000001
 43
0.0000001
 44
0.0000000001
 40
0.0
 40
0.0
 40
0.0
 40
0.0
 40
0.4965542548
 40
1.0
 40
1.0
 40
1.0
 40
1.0
 10
4.1985778767
 20
3.101371455
 30
0.0
 10
4.1964687885
 20
3.1020895678
 30
0.0
 10
4.1923215476
 20
3.103846593
 30
0.0
 10
4.1884622131
 20
3.1061667352
 30
0.0
 10
4.1866102078
 20
3.1074600863
 30
0.0
  0
SPLINE
  5
2F3
100
AcDbEntity
  8
ALL_ASSEMBLY_MEMBERS
100
AcDbSpline
 62
7
  6
CONTINUOUS
 70
0
 71
3
 72
11
 73
7
 74
0
 42
0.0000001
 43
0.0000001
 44
0.0000000001
 40
0.0
 40
0.0
 40
0.0
 40
0.0
 40
0.2476746116
 40
0.4967374296
 40
0.7474744183
 40
1.0
 40
1.0
 40
1.0
 40
1.0
 10
3.9920610769
 20
3.2197393591
 30
0.0
 10
3.9936869525
 20
3.2195836619
 30
0.0
 10
3.9969342662
 20
3.2191040919
 30
0.0
 10
4.0017196167
 20
3.2178883518
 30
0.0
 10
4.006390167
 20
3.21619204
 30
0.0
 10
4.0093892523
 20
3.2147563234
 30
0.0
 10
4.0108546971
 20
3.2139653065
 30
0.0
  0
SPLINE
  5
2F4
100
AcDbEntity
  8
ALL_ASSEMBLY_MEMBERS
100
AcDbSpline
 62
7
  6
CONTINUOUS
 70
0
 71
3
 72
15
 73
11
 74
0
 42
0.0000001
 43
0.0000001
 44
0.0000000001
 40
0.0
 40
0.0
 40
0.0
 40
0.0
 40
0.1327511392
 40
0.2647650836
 40
0.3948457489
 40
0.522254253
 40
0.6465662945
 40
0.7675031861
 40
0.8851718014
 40
1.0
 40
1.0
 40
1.0
 40
1.0
 10
4.2681237696
 20
3.1562749091
 30
0.0
 10
4.2681237696
 20
3.1593800324
 30
0.0
 10
4.2678614269
 20
3.1655762544
 30
0.0
 10
4.2666830951
 20
3.1747476768
 30
0.0
 10
4.2647141157
 20
3.1836566603
 30
0.0
 10
4.2619463338
 20
3.1921635695
 30
0.0
 10
4.2583746004
 20
3.2001349333
 30
0.0
 10
4.2539872696
 20
3.2074299219
 30
0.0
 10
4.2487798975
 20
3.2138860383
 30
0.0
 10
4.2447253737
 20
3.2175555699
 30
0.0
 10
4.242580922
 20
3.2191727781
 30
0.0
  0
SPLINE
  5
2F5
100
AcDbEntity
  8
ALL_ASSEMBLY_MEMBERS
100
AcDbSpline
 62
7
  6
CONTINUOUS
 70
0
 71
3
 72
22
 73
18
 74
0
 42
0.0000001
 43
0.0000001
 44
0.0000000001
 40
0.0
 40
0.0
 40
0.0
 40
0.0
 40
0.0594712425
 40
0.1185998494
 40
0.1775839729
 40
0.2366799478
 40
0.2961030088
 40
0.3560353628
 40
0.4166659151
 40
0.4781301228
 40
0.5404865639
 40
0.6037526458
 40
0.6679305775
 40
0.732974708
 40
0.7987877607
 40
0.865290051
 40
1.0
 40
1.0
 40
1.0
 40
1.0
 10
4.242580922
 20
3.2191727781
 30
0.0
 10
4.2414598032
 20
3.2200182541
 30
0.0
 10
4.2391435534
 20
3.2216009228
 30
0.0
 10
4.2354610509
 20
3.2236198462
 30
0.0
 10
4.2315992447
 20
3.2252501252
 30
0.0
 10
4.2275790574
 20
3.2264626549
 30
0.0
 10
4.2234307261
 20
3.227244434
 30
0.0
 10
4.2191867269
 20
3.2275858711
 30
0.0
 10
4.2148824171
 20
3.227473529
 30
0.0
 10
4.2105560524
 20
3.2269144518
 30
0.0
 10
4.2062446431
 20
3.2259219443
 30
0.0
 10
4.2019862614
 20
3.2245053176
 30
0.0
 10
4.1978147291
 20
3.2226869058
 30
0.0
 10
4.1937595219
 20
3.2204939684
 30
0.0
 10
4.1898490659
 20
3.2179500666
 30
0.0
 10
4.1848425622
 20
3.2141107485
 30
0.0
 10
4.1814002325
 20
3.2108056633
 30
0.0
 10
4.179261063
 20
3.2084518264
 30
0.0
  0
SPLINE
  5
2F6
100
AcDbEntity
  8
ALL_ASSEMBLY_MEMBERS
100
AcDbSpline
 62
7
  6
CONTINUOUS
 70
0
 71
3
 72
36
 73
32
 74
0
 42
0.0000001
 43
0.0000001
 44
0.0000000001
 40
0.0
 40
0.0
 40
0.0
 40
0.0
 40
0.0666689554
 40
0.0999918102
 40
0.1332333605
 40
0.1993504452
 40
0.2322295565
 40
0.2649006109
 40
0.2973183194
 40
0.3294092927
 40
0.3610969104
 40
0.3923275351
 40
0.423023663
 40
0.4381637048
 40
0.4531607515
 40
0.4827149563
 40
0.5117348496
 40
0.5403267614
 40
0.568644049
 40
0.5968500558
 40
0.6251486917
 40
0.6536967308
 40
0.6826349248
 40
0.7120777703
 40
0.7420755576
 40
0.7726625755
 40
0.803837288
 40
0.8677531129
 40
0.9004309779
 40
0.9334659927
 40
1.0
 40
1.0
 40
1.0
 40
1.0
 10
4.1595855277
 20
3.1529102418
 30
0.0
 10
4.1597692908
 20
3.1485883426
 30
0.0
 10
4.1605742553
 20
3.1421126884
 30
0.0
 10
4.1626800565
 20
3.1337208634
 30
0.0
 10
4.1654545753
 20
3.1255629264
 30
0.0
 10
4.1692127143
 20
3.117797268
 30
0.0
 10
4.1738787577
 20
3.1106313003
 30
0.0
 10
4.177797327
 20
3.1056152692
 30
0.0
 10
4.1821126482
 20
3.1010059758
 30
0.0
 10
4.1867891272
 20
3.0968579384
 30
0.0
 10
4.1917866197
 20
3.0932304537
 30
0.0
 10
4.1970567576
 20
3.0901877763
 30
0.0
 10
4.2016470738
 20
3.0881743855
 30
0.0
 10
4.205391335
 20
3.0869181004
 30
0.0
 10
4.2091344082
 20
3.0859151315
 30
0.0
 10
4.2138550929
 20
3.0851153004
 30
0.0
 10
4.2195250028
 20
3.0849191475
 30
0.0
 10
4.2250877401
 20
3.0855078396
 30
0.0
 10
4.2304632918
 20
3.0868512756
 30
0.0
 10
4.2355786362
 20
3.0889291615
 30
0.0
 10
4.2403812407
 20
3.0916793132
 30
0.0
 10
4.2448330943
 20
3.0950438504
 30
0.0
 10
4.2489074012
 20
3.098961781
 30
0.0
 10
4.2525944851
 20
3.1033670644
 30
0.0
 10
4.2558872419
 20
3.10820247
 30
0.0
 10
4.2587846298
 20
3.1134124239
 30
0.0
 10
4.2621505553
 20
3.1208477686
 30
0.0
 10
4.2646957396
 20
3.1287725389
 30
0.0
 10
4.2664681208
 20
3.136998694
 30
0.0
 10
4.267744375
 20
3.1454884728
 30
0.0
 10
4.2681237696
 20
3.1519578611
 30
0.0
 10
4.2681237696
 20
3.1562749091
 30
0.0
  0
SPLINE
  5
2F7
100
AcDbEntity
  8
ALL_ASSEMBLY_MEMBERS
100
AcDbSpline
 62
7
  6
CONTINUOUS
 70
0
 71
3
 72
11
 73
7
 74
0
 42
0.0000001
 43
0.0000001
 44
0.0000000001
 40
0.0
 40
0.0
 40
0.0
 40
0.0
 40
0.2463005518
 40
0.4951928952
 40
0.7466677917
 40
1.0
 40
1.0
 40
1.0
 40
1.0
 10
3.9579773321
 20
3.2032782169
 30
0.0
 10
3.9559409442
 20
3.2020711999
 30
0.0
 10
3.9519969153
 20
3.1993818404
 30
0.0
 10
3.9465854901
 20
3.1946440342
 30
0.0
 10
3.9417145926
 20
3.1892619725
 30
0.0
 10
3.9388678335
 20
3.1853194116
 30
0.0
 10
3.9375500401
 20
3.1832720428
 30
0.0
  0
SPLINE
  5
2F8
100
AcDbEntity
  8
ALL_ASSEMBLY_MEMBERS
100
AcDbSpline
 62
7
  6
CONTINUOUS
 70
0
 71
3
 72
18
 73
14
 74
0
 42
0.0000001
 43
0.0000001
 44
0.0000000001
 40
0.0
 40
0.0
 40
0.0
 40
0.0
 40
0.1328447912
 40
0.2636083539
 40
0.3917179369
 40
0.454818385
 40
0.5172879087
 40
0.6403870539
 40
0.701190386
 40
0.7615447557
 40
0.881123974
 40
0.9406133618
 40
1.0
 40
1.0
 40
1.0
 40
1.0
 10
3.9375500401
 20
3.1832720428
 30
0.0
 10
3.9386437489
 20
3.1859701221
 30
0.0
 10
3.941160999
 20
3.1911913034
 30
0.0
 10
3.9458833494
 20
3.1983892522
 30
0.0
 10
3.9505475136
 20
3.2037183124
 30
0.0
 10
3.9546407729
 20
3.2074868235
 30
0.0
 10
3.9589124683
 20
3.2108768922
 30
0.0
 10
3.9635095606
 20
3.2137553545
 30
0.0
 10
3.968349865
 20
3.2160522268
 30
0.0
 10
3.9732839483
 20
3.2179323368
 30
0.0
 10
3.9784007875
 20
3.2192107083
 30
0.0
 10
3.9835914739
 20
3.2198509468
 30
0.0
 10
3.9861981576
 20
3.2199574157
 30
0.0
 10
3.9874996311
 20
3.2199573932
 30
0.0
  0
SPLINE
  5
2F9
100
AcDbEntity
  8
ALL_ASSEMBLY_MEMBERS
100
AcDbSpline
 62
7
  6
CONTINUOUS
 70
0
 71
3
 72
9
 73
5
 74
0
 42
0.0000001
 43
0.0000001
 44
0.0000000001
 40
0.0
 40
0.0
 40
0.0
 40
0.0
 40
0.2472718588
 40
1.0
 40
1.0
 40
1.0
 40
1.0
 10
4.1873409706
 20
3.2072341423
 30
0.0
 10
4.1867571606
 20
3.2069625515
 30
0.0
 10
4.1844233972
 20
3.2058062911
 30
0.0
 10
4.1822027637
 20
3.2044238909
 30
0.0
 10
4.1806123609
 20
3.2032782169
 30
0.0
  0
SPLINE
  5
2FA
100
AcDbEntity
  8
ALL_ASSEMBLY_MEMBERS
100
AcDbSpline
 62
7
  6
CONTINUOUS
 70
0
 71
3
 72
9
 73
5
 74
0
 42
0.0000001
 43
0.0000001
 44
0.0000000001
 40
0.0
 40
0.0
 40
0.0
 40
0.0
 40
0.4937720417
 40
1.0
 40
1.0
 40
1.0
 40
1.0
 10
4.179815925
 20
3.2026907094
 30
0.0
 10
4.1783173645
 20
3.2015590392
 30
0.0
 10
4.1754259298
 20
3.1990720268
 30
0.0
 10
4.1728493463
 20
3.1962621363
 30
0.0
 10
4.1716288297
 20
3.194773225
 30
0.0
  0
SPLINE
  5
2FB
100
AcDbEntity
  8
ALL_ASSEMBLY_MEMBERS
100
AcDbSpline
 62
7
  6
CONTINUOUS
 70
0
 71
3
 72
9
 73
5
 74
0
 42
0.0000001
 43
0.0000001
 44
0.0000000001
 40
0.0
 40
0.0
 40
0.0
 40
0.0
 40
0.2455297459
 40
1.0
 40
1.0
 40
1.0
 40
1.0
 10
4.1716288297
 20
3.194773225
 30
0.0
 10
4.1709218735
 20
3.1939108074
 30
0.0
 10
4.1681559442
 20
3.1903062649
 30
0.0
 10
4.1658403994
 20
3.1863612276
 30
0.0
 10
4.1643575397
 20
3.1832720428
 30
0.0
  0
SPLINE
  5
2FC
100
AcDbEntity
  8
ALL_ASSEMBLY_MEMBERS
100
AcDbSpline
 62
7
  6
CONTINUOUS
 70
0
 71
3
 72
11
 73
7
 74
0
 42
0.0000001
 43
0.0000001
 44
0.0000000001
 40
0.0
 40
0.0
 40
0.0
 40
0.0
 40
0.2549849595
 40
0.507216422
 40
0.7555938392
 40
1.0
 40
1.0
 40
1.0
 40
1.0
 10
3.9375500401
 20
3.1832720428
 30
0.0
 10
3.9386530082
 20
3.185791945
 30
0.0
 10
3.9411477174
 20
3.1906790762
 30
0.0
 10
3.9457120635
 20
3.1974567189
 30
0.0
 10
3.9510186517
 20
3.2035208266
 30
0.0
 10
3.9550213904
 20
3.207046939
 30
0.0
 10
3.9571135865
 20
3.2086514179
 30
0.0
  0
SPLINE
  5
2FD
100
AcDbEntity
  8
ALL_ASSEMBLY_MEMBERS
100
AcDbSpline
 62
7
  6
CONTINUOUS
 70
0
 71
3
 72
12
 73
8
 74
0
 42
0.0000001
 43
0.0000001
 44
0.0000000001
 40
0.0
 40
0.0
 40
0.0
 40
0.0
 40
0.2543004714
 40
0.5052143846
 40
0.6296742429
 40
0.753568781
 40
1.0
 40
1.0
 40
1.0
 40
1.0
 10
3.9576238019
 20
3.2090382472
 30
0.0
 10
3.9596571318
 20
3.2105622581
 30
0.0
 10
3.9639011561
 20
3.2133278845
 30
0.0
 10
3.9696081656
 20
3.2160264685
 30
0.0
 10
3.9743220718
 20
3.2176719469
 30
0.0
 10
3.9790959438
 20
3.2189689469
 30
0.0
 10
3.9827663973
 20
3.2195564064
 30
0.0
 10
3.9852197183
 20
3.2197681052
 30
0.0
  0
SPLINE
  5
2FE
100
AcDbEntity
  8
ALL_ASSEMBLY_MEMBERS
100
AcDbSpline
 62
7
  6
CONTINUOUS
 70
0
 71
3
 72
30
 73
26
 74
0
 42
0.0000001
 43
0.0000001
 44
0.0000000001
 40
0.0
 40
0.0
 40
0.0
 40
0.0
 40
0.0678367118
 40
0.1352211099
 40
0.2014787132
 40
0.2662185839
 40
0.3292125789
 40
0.3903562572
 40
0.4202953319
 40
0.4498375722
 40
0.4790470973
 40
0.5080136477
 40
0.5368160663
 40
0.5655549165
 40
0.5943582183
 40
0.6233302164
 40
0.6525618205
 40
0.6821463412
 40
0.7121460898
 40
0.742587006
 40
0.8047500921
 40
0.8685812248
 40
0.9010429001
 40
0.9338063658
 40
1.0
 40
1.0
 40
1.0
 40
1.0
 10
3.9336829922
 20
3.1562749091
 30
0.0
 10
3.9336829922
 20
3.1529534824
 30
0.0
 10
3.9339828723
 20
3.146328836
 30
0.0
 10
3.935330005
 20
3.1365425294
 30
0.0
 10
3.9375826914
 20
3.1270771428
 30
0.0
 10
3.9407510245
 20
3.1181020048
 30
0.0
 10
3.9448411845
 20
3.1097820793
 30
0.0
 10
3.949064951
 20
3.103495834
 30
0.0
 10
3.9529133766
 20
3.0990082905
 30
0.0
 10
3.9560079419
 20
3.0959540335
 30
0.0
 10
3.9593257581
 20
3.0932172247
 30
0.0
 10
3.9628589503
 20
3.0908276652
 30
0.0
 10
3.9665914323
 20
3.0888102406
 30
0.0
 10
3.9705055265
 20
3.0871917064
 30
0.0
 10
3.9745793983
 20
3.0860014185
 30
0.0
 10
3.9787811915
 20
3.0852515509
 30
0.0
 10
3.9830774055
 20
3.0849525541
 30
0.0
 10
3.9874309379
 20
3.0851174752
 30
0.0
 10
3.9918026997
 20
3.0857366585
 30
0.0
 10
3.9976431857
 20
3.0871596649
 30
0.0
 10
4.0047901928
 20
3.090037981
 30
0.0
 10
4.0114236152
 20
3.0941280741
 30
0.0
 10
4.0163878116
 20
3.0980459936
 30
0.0
 10
4.0211343896
 20
3.1023967916
 30
0.0
 10
4.0243490774
 20
3.1060490726
 30
0.0
 10
4.0263235986
 20
3.1086191322
 30
0.0
  0
SPLINE
  5
2FF
100
AcDbEntity
  8
ALL_ASSEMBLY_MEMBERS
100
AcDbSpline
 62
7
  6
CONTINUOUS
 70
0
 71
3
 72
13
 73
9
 74
0
 42
0.0000001
 43
0.0000001
 44
0.0000000001
 40
0.0
 40
0.0
 40
0.0
 40
0.0
 40
0.2477111427
 40
0.3724665218
 40
0.4976115524
 40
0.6230888549
 40
0.7488132909
 40
1.0
 40
1.0
 40
1.0
 40
1.0
 10
4.0263235986
 20
3.1086191322
 30
0.0
 10
4.0288954555
 20
3.1119666908
 30
0.0
 10
4.0323345558
 20
3.1173488526
 30
0.0
 10
4.0359884768
 20
3.1250081695
 30
0.0
 10
4.0382664878
 20
3.1309940448
 30
0.0
 10
4.0400561666
 20
3.1371607288
 30
0.0
 10
4.0417691405
 20
3.1455555868
 30
0.0
 10
4.042292843
 20
3.1519942344
 30
0.0
 10
4.042292843
 20
3.1562749091
 30
0.0
  0
SPLINE
  5
300
100
AcDbEntity
  8
ALL_ASSEMBLY_MEMBERS
100
AcDbSpline
 62
7
  6
CONTINUOUS
 70
0
 71
3
 72
13
 73
9
 74
0
 42
0.0000001
 43
0.0000001
 44
0.0000000001
 40
0.0
 40
0.0
 40
0.0
 40
0.0
 40
0.1258765759
 40
0.2519129332
 40
0.3778305745
 40
0.5034296128
 40
0.7530824829
 40
1.0
 40
1.0
 40
1.0
 40
1.0
 10
4.042292843
 20
3.1562749091
 30
0.0
 10
4.042292843
 20
3.1586666892
 30
0.0
 10
4.0420749239
 20
3.1634560306
 30
0.0
 10
4.0411069462
 20
3.1705787217
 30
0.0
 10
4.039504313
 20
3.1775818878
 30
0.0
 10
4.0365436055
 20
3.1866442993
 30
0.0
 10
4.0313576363
 20
3.1973431
 30
0.0
 10
4.0257012917
 20
3.2049795389
 30
0.0
 10
4.0225458924
 20
3.2084516134
 30
0.0
  0
SPLINE
  5
301
100
AcDbEntity
  8
ALL_ASSEMBLY_MEMBERS
100
AcDbSpline
 62
7
  6
CONTINUOUS
 70
0
 71
3
 72
9
 73
5
 74
0
 42
0.0000001
 43
0.0000001
 44
0.0000000001
 40
0.0
 40
0.0
 40
0.0
 40
0.0
 40
0.2518460202
 40
1.0
 40
1.0
 40
1.0
 40
1.0
 10
4.0225458924
 20
3.2084516134
 30
0.0
 10
4.0219134432
 20
3.2091475351
 30
0.0
 10
4.019346756
 20
3.2118597353
 30
0.0
 10
4.0165570718
 20
3.2143624444
 30
0.0
 10
4.0143584527
 20
3.216085802
 30
0.0
  0
SPLINE
  5
302
100
AcDbEntity
  8
ALL_ASSEMBLY_MEMBERS
100
AcDbSpline
 62
7
  6
CONTINUOUS
 70
0
 71
3
 72
29
 73
25
 74
0
 42
0.0000001
 43
0.0000001
 44
0.0000000001
 40
0.0
 40
0.0
 40
0.0
 40
0.0
 40
0.0639837119
 40
0.1264832704
 40
0.1571771784
 40
0.1874898725
 40
0.2174375747
 40
0.2470557413
 40
0.2764083876
 40
0.3055646985
 40
0.3345908931
 40
0.3635662448
 40
0.3925872204
 40
0.4217319468
 40
0.4510591625
 40
0.4806319584
 40
0.5407067437
 40
0.6022610373
 40
0.665407418
 40
0.730101151
 40
0.7961943282
 40
0.8634784788
 40
0.9315917882
 40
1.0
 40
1.0
 40
1.0
 40
1.0
 10
4.0100603106
 20
3.2191660857
 30
0.0
 10
4.0078356605
 20
3.2206167132
 30
0.0
 10
4.0032374764
 20
3.2231910729
 30
0.0
 10
3.997110883
 20
3.2255144595
 30
0.0
 10
3.9921251376
 20
3.2267298473
 30
0.0
 10
3.9883906542
 20
3.2273145185
 30
0.0
 10
3.9846638438
 20
3.2275700359
 30
0.0
 10
3.980968774
 20
3.227487554
 30
0.0
 10
3.9773294889
 20
3.2270707222
 30
0.0
 10
3.9737676699
 20
3.2263277137
 30
0.0
 10
3.9703042222
 20
3.225264777
 30
0.0
 10
3.966958468
 20
3.2238903618
 30
0.0
 10
3.9637435841
 20
3.2222228757
 30
0.0
 10
3.9606708922
 20
3.2202790946
 30
0.0
 10
3.957750989
 20
3.2180745808
 30
0.0
 10
3.9540536205
 20
3.2147944623
 30
0.0
 10
3.9498388918
 20
3.2101132144
 30
0.0
 10
3.9454938866
 20
3.2037700092
 30
0.0
 10
3.9418331432
 20
3.1967948043
 30
0.0
 10
3.9388490087
 20
3.1893046049
 30
0.0
 10
3.9365357447
 20
3.1814036394
 30
0.0
 10
3.9348889126
 20
3.1731938721
 30
0.0
 10
3.9339025967
 20
3.1647835459
 30
0.0
 10
3.9336829922
 20
3.1591143818
 30
0.0
 10
3.9336829922
 20
3.1562749091
 30
0.0
  0
SPLINE
  5
303
100
AcDbEntity
  8
ALL_ASSEMBLY_MEMBERS
100
AcDbSpline
 62
7
  6
CONTINUOUS
 70
0
 71
3
 72
11
 73
7
 74
0
 42
0.0000001
 43
0.0000001
 44
0.0000000001
 40
0.0
 40
0.0
 40
0.0
 40
0.0
 40
0.2476094727
 40
0.4963836294
 40
0.7470996135
 40
1.0
 40
1.0
 40
1.0
 40
1.0
 10
4.2143071307
 20
3.2199573932
 30
0.0
 10
4.2163164691
 20
3.2199573585
 30
0.0
 10
4.2203492113
 20
3.2197029856
 30
0.0
 10
4.2263185559
 20
3.2185582243
 30
0.0
 10
4.2321398234
 20
3.2166680201
 30
0.0
 10
4.2358562232
 20
3.2149401337
 30
0.0
 10
4.2376621967
 20
3.2139653065
 30
0.0
  0
SPLINE
  5
304
100
AcDbEntity
  8
ALL_ASSEMBLY_MEMBERS
100
AcDbSpline
 62
7
  6
CONTINUOUS
 70
0
 71
3
 72
11
 73
7
 74
0
 42
0.0000001
 43
0.0000001
 44
0.0000000001
 40
0.0
 40
0.0
 40
0.0
 40
0.0
 40
0.2470113402
 40
0.4954098748
 40
0.7461410012
 40
1.0
 40
1.0
 40
1.0
 40
1.0
 10
4.2143021518
 20
3.2199067101
 30
0.0
 10
4.2161283505
 20
3.2198201932
 30
0.0
 10
4.2197842893
 20
3.2194217713
 30
0.0
 10
4.2251728539
 20
3.2181539942
 30
0.0
 10
4.2304172897
 20
3.2162308165
 30
0.0
 10
4.2337576786
 20
3.2145385414
 30
0.0
 10
4.2353824648
 20
3.2135949066
 30
0.0
  0
SPLINE
  5
305
100
AcDbEntity
  8
ALL_ASSEMBLY_MEMBERS
100
AcDbSpline
 62
7
  6
CONTINUOUS
 70
0
 71
3
 72
9
 73
5
 74
0
 42
0.0000001
 43
0.0000001
 44
0.0000000001
 40
0.0
 40
0.0
 40
0.0
 40
0.0
 40
0.4965000118
 40
1.0
 40
1.0
 40
1.0
 40
1.0
 10
4.2353824648
 20
3.2135949066
 30
0.0
 10
4.2367924725
 20
3.2127760098
 30
0.0
 10
4.239551938
 20
3.2109845936
 30
0.0
 10
4.2421276138
 20
3.2089384425
 30
0.0
 10
4.2433735825
 20
3.2078513489
 30
0.0
  0
SPLINE
  5
306
100
AcDbEntity
  8
ALL_ASSEMBLY_MEMBERS
100
AcDbSpline
 62
7
  6
CONTINUOUS
 70
0
 71
3
 72
15
 73
11
 74
0
 42
0.0000001
 43
0.0000001
 44
0.0000000001
 40
0.0
 40
0.0
 40
0.0
 40
0.0
 40
0.1180074548
 40
0.2382601441
 40
0.3607318494
 40
0.4853190855
 40
0.6118299758
 40
0.7399965029
 40
0.869509279
 40
1.0
 40
1.0
 40
1.0
 40
1.0
 10
4.2433735825
 20
3.2078513489
 30
0.0
 10
4.2449568109
 20
3.20647
 30
0.0
 10
4.247992257
 20
3.2034906312
 30
0.0
 10
4.2520479321
 20
3.1984943476
 30
0.0
 10
4.2556054725
 20
3.192991595
 30
0.0
 10
4.2586137899
 20
3.1870460296
 30
0.0
 10
4.2610392487
 20
3.1807317148
 30
0.0
 10
4.2628490339
 20
3.1741232864
 30
0.0
 10
4.2640175362
 20
3.1673010226
 30
0.0
 10
4.2643603148
 20
3.1626760069
 30
0.0
 10
4.2644212356
 20
3.1603534132
 30
0.0
  0
SPLINE
  5
307
100
AcDbEntity
  8
ALL_ASSEMBLY_MEMBERS
100
AcDbSpline
 62
7
  6
CONTINUOUS
 70
0
 71
3
 72
11
 73
7
 74
0
 42
0.0000001
 43
0.0000001
 44
0.0000000001
 40
0.0
 40
0.0
 40
0.0
 40
0.0
 40
0.2513732975
 40
0.502399855
 40
0.7522104686
 40
1.0
 40
1.0
 40
1.0
 40
1.0
 10
4.2643540301
 20
3.1547528986
 30
0.0
 10
4.2642233353
 20
3.1521442312
 30
0.0
 10
4.2636857955
 20
3.1469400721
 30
0.0
 10
4.2620558747
 20
3.1392811283
 30
0.0
 10
4.2596249766
 20
3.1318766194
 30
0.0
 10
4.2574805023
 20
3.1271581247
 30
0.0
 10
4.2562844103
 20
3.1248781133
 30
0.0
  0
SPLINE
  5
308
100
AcDbEntity
  8
0
100
AcDbSpline
 62
7
  6
CONTINUOUS
 70
0
 71
3
 72
35
 73
31
 74
0
 42
0.0000001
 43
0.0000001
 44
0.0000000001
 40
0.0
 40
0.0
 40
0.0
 40
0.0
 40
0.0198798482
 40
0.0389061
 40
0.0572349263
 40
0.0750085906
 40
0.1093037191
 40
0.1423092093
 40
0.1743589853
 40
0.2056530689
 40
0.2363464043
 40
0.2665723801
 40
0.3259971954
 40
0.3844687642
 40
0.4423690724
 40
0.5
 40
0.5576309276
 40
0.6155312358
 40
0.6740028046
 40
0.7334276199
 40
0.7636535957
 40
0.7943469311
 40
0.8256410147
 40
0.8576907907
 40
0.8906962809
 40
0.9249914094
 40
0.9427650737
 40
0.9610939
 40
0.9801201518
 40
1.0
 40
1.0
 40
1.0
 40
1.0
 10
3.5933258809
 20
3.7585898698
 30
0.0
 10
3.592181873
 20
3.7585898698
 30
0.0
 10
3.5899425585
 20
3.7586448756
 30
0.0
 10
3.5866565931
 20
3.7588859974
 30
0.0
 10
3.5835054729
 20
3.7592621944
 30
0.0
 10
3.579505209
 20
3.7599070756
 30
0.0
 10
3.5747150672
 20
3.7609377777
 30
0.0
 10
3.569211416
 20
3.7624977516
 30
0.0
 10
3.5639659597
 20
3.7643022325
 30
0.0
 10
3.5589459589
 20
3.7663292545
 30
0.0
 10
3.5541269328
 20
3.7685558395
 30
0.0
 10
3.5479751023
 20
3.7717399987
 30
0.0
 10
3.5406439282
 20
3.7761071025
 30
0.0
 10
3.5323632065
 20
3.7819335015
 30
0.0
 10
3.5245924567
 20
3.7882612629
 30
0.0
 10
3.5173103211
 20
3.79507431
 30
0.0
 10
3.5104972741
 20
3.8023564456
 30
0.0
 10
3.5041695126
 20
3.8101271953
 30
0.0
 10
3.4983431136
 20
3.8184079171
 30
0.0
 10
3.4939760098
 20
3.8257390911
 30
0.0
 10
3.4907918506
 20
3.8318909216
 30
0.0
 10
3.4885652656
 20
3.8367099478
 30
0.0
 10
3.4865382436
 20
3.8417299486
 30
0.0
 10
3.4847337627
 20
3.8469754049
 30
0.0
 10
3.4831737888
 20
3.8524790561
 30
0.0
 10
3.4821430868
 20
3.8572691978
 30
0.0
 10
3.4814982056
 20
3.8612694618
 30
0.0
 10
3.4811220085
 20
3.864420582
 30
0.0
 10
3.4808808867
 20
3.8677065474
 30
0.0
 10
3.4808258809
 20
3.8699458619
 30
0.0
 10
3.4808258809
 20
3.8710898698
 30
0.0
  0
SPLINE
  5
309
100
AcDbEntity
  8
0
100
AcDbSpline
 62
7
  6
CONTINUOUS
 70
0
 71
3
 72
39
 73
35
 74
0
 42
0.0000001
 43
0.0000001
 44
0.0000000001
 40
0.0
 40
0.0
 40
0.0
 40
0.0
 40
0.0189207966
 40
0.0372305348
 40
0.0550542325
 40
0.0724822351
 40
0.1063471836
 40
0.1228752505
 40
0.1391807571
 40
0.171207758
 40
0.2025842549
 40
0.2334432417
 40
0.2638984405
 40
0.2940325334
 40
0.3239014194
 40
0.3830310758
 40
0.4416392352
 40
0.5000000007
 40
0.5583607662
 40
0.6169689255
 40
0.6760985819
 40
0.7059674678
 40
0.7361015607
 40
0.7665567595
 40
0.7974157462
 40
0.828792243
 40
0.8608192437
 40
0.8771247503
 40
0.8936528172
 40
0.9275177655
 40
0.944945768
 40
0.9627694655
 40
0.9810792036
 40
1.0
 40
1.0
 40
1.0
 40
1.0
 10
4.6135280475
 20
3.7587734108
 30
0.0
 10
4.6145504917
 20
3.7588479405
 30
0.0
 10
4.6165593884
 20
3.7590390993
 30
0.0
 10
4.6195152127
 20
3.7594455198
 30
0.0
 10
4.622374339
 20
3.7599462203
 30
0.0
 10
4.6260405712
 20
3.7607120037
 30
0.0
 10
4.6296006254
 20
3.7616330852
 30
0.0
 10
4.6330579784
 20
3.7626859847
 30
0.0
 10
4.6363924282
 20
3.763796773
 30
0.0
 10
4.640436564
 20
3.7653177773
 30
0.0
 10
4.645125964
 20
3.7673456894
 30
0.0
 10
4.6496425068
 20
3.7695452573
 30
0.0
 10
4.6540065067
 20
3.7718942081
 30
0.0
 10
4.6582333342
 20
3.7743774846
 30
0.0
 10
4.6636753237
 20
3.7778509187
 30
0.0
 10
4.6701830382
 20
3.7825115226
 30
0.0
 10
4.6775577206
 20
3.7885760249
 30
0.0
 10
4.6844893092
 20
3.795081441
 30
0.0
 10
4.6909947253
 20
3.8020130296
 30
0.0
 10
4.6970592276
 20
3.8093877119
 30
0.0
 10
4.7017198316
 20
3.8158954264
 30
0.0
 10
4.7051932657
 20
3.8213374159
 30
0.0
 10
4.7076765423
 20
3.8255642433
 30
0.0
 10
4.7100254931
 20
3.8299282433
 30
0.0
 10
4.7122250609
 20
3.834444786
 30
0.0
 10
4.7142529731
 20
3.839134186
 30
0.0
 10
4.7157739774
 20
3.8431783217
 30
0.0
 10
4.7168847658
 20
3.8465127716
 30
0.0
 10
4.7179376652
 20
3.8499701245
 30
0.0
 10
4.7188587468
 20
3.8535301786
 30
0.0
 10
4.7196245302
 20
3.8571964109
 30
0.0
 10
4.7201252308
 20
3.8600555371
 30
0.0
 10
4.7205316513
 20
3.8630113614
 30
0.0
 10
4.7207228101
 20
3.8650202581
 30
0.0
 10
4.7207973398
 20
3.8660427023
 30
0.0
  0
ENDSEC
  0
SECTION
  2
OBJECTS
  0
DICTIONARY
  5
C
100
AcDbDictionary
280
0
281
1
  3
ACAD_GROUP
350
D
  3
ACAD_MLINESTYLE
350
17
  3
ACAD_LAYOUT
350
1A
  3
ACAD_PLOTSETTINGS
350
19
  3
ACAD_PLOTSTYLENAME
350
E
  0
DICTIONARY
  5
D
102
{ACAD_REACTORS
330
C
102
}
100
AcDbDictionary
280
0
281
1
  0
ACDBDICTIONARYWDFLT
  5
E
102
{ACAD_REACTORS
330
C
102
}
100
AcDbDictionary
281
1
  3
Normal
350
F
100
AcDbDictionaryWithDefault
340
F
  0
DICTIONARY
  5
17
102
{ACAD_REACTORS
330
C
102
}
100
AcDbDictionary
280
0
281
1
  3
Standard
350
18
  0
DICTIONARY
  5
19
102
{ACAD_REACTORS
330
C
102
}
100
AcDbDictionary
281
1
  0
DICTIONARY
  5
1A
102
{ACAD_REACTORS
330
C
102
}
100
AcDbDictionary
281
1
  3
Model
350
30A
  3
Layout1
350
30B
  0
ACDBPLACEHOLDER
  5
F
102
{ACAD_REACTORS
330
E
102
}
  0
MLINESTYLE
  5
18
102
{ACAD_REACTORS
330
17
102
}
100
AcDbMlineStyle
  2
STANDARD
 70
0
  3

 62
256
 51
90.0
 52
90.0
 71
2
 49
0.5
 62
256
  6
BYLAYER
 49
-0.5
 62
256
  6
BYLAYER
  0
LAYOUT
  5
30A
102
{ACAD_REACTORS
330
1A
102
}
100
AcDbPlotSettings
  1

  2
none_device
  4
ANSI_A_(11.00_x_8.50_Inches)
  6

 40
0.0
 41
0.0
 42
0.0
 43
0.0
 44
279.4
 45
215.9
 46
0.0
 47
0.0
 48
0.0
 49
0.0
140
0.0
141
0.0
142
1.0
143
1.0
 70
1024
 72
0
 73
0
 74
0
  7

 75
0
147
1.0
148
0.0
149
0.0
100
AcDbLayout
  1
Model
 70
0
 71
0
 10
0.0
 20
0.0
 11
11.0
 21
8.5
 12
0.0
 22
0.0
 32
0.0
 14
0.0
 24
0.0
 34
0.0
 15
0.0
 25
0.0
 35
0.0
146
0.0
 13
0.0
 23
0.0
 33
0.0
 16
1.0
 26
0.0
 36
0.0
 17
0.0
 27
1.0
 37
0.0
 76
0
330
21E
345
0
346
0
  0
LAYOUT
  5
30B
102
{ACAD_REACTORS
330
1A
102
}
100
AcDbPlotSettings
  1

  2
none_device
  4
ANSI_A_(11.00_x_8.50_Inches)
  6

 40
0.0
 41
0.0
 42
0.0
 43
0.0
 44
279.4
 45
215.9
 46
0.0
 47
0.0
 48
0.0
 49
0.0
140
0.0
141
0.0
142
1.0
143
1.0
 70
0
 72
0
 73
0
 74
0
  7

 75
0
147
1.0
148
0.0
149
0.0
100
AcDbLayout
  1
Layout1
 70
0
 71
1
 10
0.0
 20
0.0
 11
11.0
 21
8.5
 12
0.0
 22
0.0
 32
0.0
 14
0.0
 24
0.0
 34
0.0
 15
0.0
 25
0.0
 35
0.0
146
0.0
 13
0.0
 23
0.0
 33
0.0
 16
1.0
 26
0.0
 36
0.0
 17
0.0
 27
1.0
 37
0.0
 76
0
330
21F
345
0
346
0
  0
ENDSEC
  0
EOF
