999
DXF file: 3-913ts_TOP.dxf
999
Pro/ENGINEER 2013150 by Parametric Technology Corporation
  0
SECTION
  2
HEADER
  9
$ACADVER
  1
AC1021
  9
$DWGCODEPAGE
  3
ANSI_1252
  9
$EXTMAX
 10
11.0
 20
8.5
 30
0.0
  9
$EXTMIN
 10
0.0
 20
0.0
 30
0.0
  9
$LIMMIN
 10
0.0
 20
0.0
  9
$LIMMAX
 10
11.0
 20
8.5
  9
$VIEWCTR
 10
5.5
 20
4.25
  9
$VIEWSIZE
 40
8.5
  9
$CLAYER
  8
0
  9
$LTSCALE
 40
0.605
  9
$CELTYPE
  6
BYLAYER
  9
$DIMSCALE
 40
1.0
  9
$DIMASZ
 40
0.1
  9
$DIMEXO
 40
0.0625
  9
$DIMDLI
 40
0.418
  9
$DIMEXE
 40
0.125
  9
$DIMCEN
 40
0.099
  9
$DIMLFAC
 40
1.0
  9
$DIMBLK
  1
_FILLED
  9
$DIMTXT
 40
0.08
  9
$DIMTOL
 70
1
  9
$DIMLIM
 70
0
  9
$DIMTFAC
 40
1.0
  9
$DIMTP
 40
0.001
  9
$DIMTM
 40
0.001
  9
$DIMGAP
 40
0.09
  9
$DIMDSEP
 70
46
  9
$PDMODE
 70
3
  9
$PDSIZE
 40
0.06
  9
$HANDSEED
  5
3BD
  9
$TILEMODE
 70
1
  9
$MEASUREMENT
 70
0
  9
$INSUNITS
 70
1
  0
ENDSEC
  0
SECTION
  2
CLASSES
  0
CLASS
  1
ACDBDICTIONARYWDFLT
  2
AcDbDictionaryWithDefault
  3
AutoCAD 2000
 90
0
 91
1
280
0
281
0
  0
CLASS
  1
ACDBPLACEHOLDER
  2
AcDbPlaceHolder
  3
AutoCAD 2000
 90
0
 91
1
280
0
281
0
  0
CLASS
  1
LAYOUT
  2
AcDbLayout
  3
AutoCAD 2000
 90
0
 91
0
280
0
281
0
  0
ENDSEC
  0
SECTION
  2
TABLES
  0
TABLE
  2
VPORT
  5
8
100
AcDbSymbolTable
 70
2
  0
VPORT
  5
1F4
100
AcDbSymbolTableRecord
100
AcDbViewportTableRecord
  2
*ACTIVE
 70
0
 10
0.0
 20
0.0
 11
1.0
 21
1.0
 12
5.5
 22
4.25
 13
0.0
 23
0.0
 14
1.0
 24
1.0
 15
0.0
 25
0.0
 16
0.0
 26
0.0
 36
1.0
 17
0.0
 27
0.0
 37
0.0
 40
8.5
 41
1.2941176471
 42
50.0
 43
0.0
 44
0.0
 50
0.0
 51
0.0
 71
0
 72
100
 73
1
 74
1
 75
0
 76
0
 77
0
 78
0
  0
ENDTAB
  0
TABLE
  2
LTYPE
  5
5
100
AcDbSymbolTable
 70
6
  0
LTYPE
  5
14
100
AcDbSymbolTableRecord
100
AcDbLinetypeTableRecord
  2
BYBLOCK
 70
0
  3

 72
65
 73
0
 40
0.0
  0
LTYPE
  5
15
100
AcDbSymbolTableRecord
100
AcDbLinetypeTableRecord
  2
BYLAYER
 70
0
  3

 72
65
 73
0
 40
0.0
  0
LTYPE
  5
16
100
AcDbSymbolTableRecord
100
AcDbLinetypeTableRecord
  2
CONTINUOUS
 70
64
  3
Solid line
 72
65
 73
0
 40
0.0
  0
LTYPE
  5
1F5
100
AcDbSymbolTableRecord
100
AcDbLinetypeTableRecord
  2
CENTER
 70
64
  3
____ _ ____ _ ____ _ ____ _ ____ _ ____ _ ____
 72
65
 73
4
 40
0.6
 49
0.375
 74
0
 49
-0.075
 74
0
 49
0.075
 74
0
 49
-0.075
 74
0
  0
LTYPE
  5
1F6
100
AcDbSymbolTableRecord
100
AcDbLinetypeTableRecord
  2
HIDDEN
 70
64
  3
- - - - - - - - - - - - - - - - - - - -
 72
65
 73
2
 40
0.2
 49
0.1
 74
0
 49
-0.1
 74
0
  0
LTYPE
  5
1F7
100
AcDbSymbolTableRecord
100
AcDbLinetypeTableRecord
  2
PHANTOM
 70
64
  3
_____ _ _ _____ _ _ _____ _ _ _____
 72
65
 73
6
 40
0.8
 49
0.45
 74
0
 49
-0.05
 74
0
 49
0.1
 74
0
 49
-0.05
 74
0
 49
0.1
 74
0
 49
-0.05
 74
0
  0
LTYPE
  5
1F8
100
AcDbSymbolTableRecord
100
AcDbLinetypeTableRecord
  2
DOT
 70
64
  3
. . . . . . . . . . . . . . . . . . . .
 72
65
 73
2
 40
0.2
 49
0.1
 74
0
 49
-0.1
 74
0
  0
LTYPE
  5
1F9
100
AcDbSymbolTableRecord
100
AcDbLinetypeTableRecord
  2
DASHED
 70
64
  3
- - - - - - - - - - - - - - - - - - - -
 72
65
 73
2
 40
0.2
 49
0.1
 74
0
 49
-0.1
 74
0
  0
ENDTAB
  0
TABLE
  2
LAYER
  5
2
100
AcDbSymbolTable
 70
36
  0
LAYER
  5
10
100
AcDbSymbolTableRecord
100
AcDbLayerTableRecord
  2
0
 70
0
 62
7
  6
CONTINUOUS
370
-3
390
F
  0
LAYER
  5
1FA
100
AcDbSymbolTableRecord
100
AcDbLayerTableRecord
  2
DEFAULT_1
 70
0
 62
7
  6
CENTER
370
-3
390
F
  0
LAYER
  5
1FB
100
AcDbSymbolTableRecord
100
AcDbLayerTableRecord
  2
DEFAULT_2
 70
0
 62
8
  6
HIDDEN
370
-3
390
F
  0
LAYER
  5
1FC
100
AcDbSymbolTableRecord
100
AcDbLayerTableRecord
  2
DEFAULT_3
 70
0
 62
7
  6
PHANTOM
370
-3
390
F
  0
LAYER
  5
1FD
100
AcDbSymbolTableRecord
100
AcDbLayerTableRecord
  2
ALL_ASSEMBLY_MEMBERS
 70
0
 62
7
  6
CONTINUOUS
370
-3
390
F
  0
LAYER
  5
1FE
100
AcDbSymbolTableRecord
100
AcDbLayerTableRecord
  2
ALL_FEATURES
 70
0
 62
7
  6
CONTINUOUS
370
-3
390
F
  0
LAYER
  5
1FF
100
AcDbSymbolTableRecord
100
AcDbLayerTableRecord
  2
AXES_FEATURES
 70
0
 62
7
  6
CONTINUOUS
370
-3
390
F
  0
LAYER
  5
200
100
AcDbSymbolTableRecord
100
AcDbLayerTableRecord
  2
CHAMFER_FEATURES
 70
0
 62
7
  6
CONTINUOUS
370
-3
390
F
  0
LAYER
  5
201
100
AcDbSymbolTableRecord
100
AcDbLayerTableRecord
  2
COSMETIC_SKETCHES
 70
0
 62
7
  6
CONTINUOUS
370
-3
390
F
  0
LAYER
  5
202
100
AcDbSymbolTableRecord
100
AcDbLayerTableRecord
  2
CURVES
 70
0
 62
7
  6
CONTINUOUS
370
-3
390
F
  0
LAYER
  5
203
100
AcDbSymbolTableRecord
100
AcDbLayerTableRecord
  2
CUT_FEATURES
 70
0
 62
7
  6
CONTINUOUS
370
-3
390
F
  0
LAYER
  5
204
100
AcDbSymbolTableRecord
100
AcDbLayerTableRecord
  2
DATUM_CURVES
 70
0
 62
7
  6
CONTINUOUS
370
-3
390
F
  0
LAYER
  5
205
100
AcDbSymbolTableRecord
100
AcDbLayerTableRecord
  2
DATUM_PLANES
 70
0
 62
7
  6
CONTINUOUS
370
-3
390
F
  0
LAYER
  5
206
100
AcDbSymbolTableRecord
100
AcDbLayerTableRecord
  2
DATUM_POINTS
 70
0
 62
7
  6
CONTINUOUS
370
-3
390
F
  0
LAYER
  5
207
100
AcDbSymbolTableRecord
100
AcDbLayerTableRecord
  2
DEFAULT_COORDINATE_SYSTEM
 70
0
 62
7
  6
CONTINUOUS
370
-3
390
F
  0
LAYER
  5
208
100
AcDbSymbolTableRecord
100
AcDbLayerTableRecord
  2
DEFAULT_DATUM_AXES
 70
0
 62
7
  6
CONTINUOUS
370
-3
390
F
  0
LAYER
  5
209
100
AcDbSymbolTableRecord
100
AcDbLayerTableRecord
  2
DEFAULT_DATUM_CURVES
 70
0
 62
7
  6
CONTINUOUS
370
-3
390
F
  0
LAYER
  5
20A
100
AcDbSymbolTableRecord
100
AcDbLayerTableRecord
  2
DEFAULT_DATUM_PLANES
 70
0
 62
7
  6
CONTINUOUS
370
-3
390
F
  0
LAYER
  5
20B
100
AcDbSymbolTableRecord
100
AcDbLayerTableRecord
  2
DEFAULT_SURFACES
 70
0
 62
7
  6
CONTINUOUS
370
-3
390
F
  0
LAYER
  5
20C
100
AcDbSymbolTableRecord
100
AcDbLayerTableRecord
  2
DIMENSIONS
 70
0
 62
7
  6
CONTINUOUS
370
-3
390
F
  0
LAYER
  5
20D
100
AcDbSymbolTableRecord
100
AcDbLayerTableRecord
  2
HOLE_FEATURES
 70
0
 62
7
  6
CONTINUOUS
370
-3
390
F
  0
LAYER
  5
20E
100
AcDbSymbolTableRecord
100
AcDbLayerTableRecord
  2
HOLE_PATTERN
 70
0
 62
7
  6
CONTINUOUS
370
-3
390
F
  0
LAYER
  5
20F
100
AcDbSymbolTableRecord
100
AcDbLayerTableRecord
  2
INTFCLR_1
 70
0
 62
7
  6
CONTINUOUS
370
-3
390
F
  0
LAYER
  5
210
100
AcDbSymbolTableRecord
100
AcDbLayerTableRecord
  2
NOTES
 70
0
 62
7
  6
CONTINUOUS
370
-3
390
F
  0
LAYER
  5
211
100
AcDbSymbolTableRecord
100
AcDbLayerTableRecord
  2
PART_REFERENCE_DIMENSIONS
 70
0
 62
7
  6
CONTINUOUS
370
-3
390
F
  0
LAYER
  5
212
100
AcDbSymbolTableRecord
100
AcDbLayerTableRecord
  2
PLATED_SURFACE_AREA
 70
0
 62
7
  6
CONTINUOUS
370
-3
390
F
  0
LAYER
  5
213
100
AcDbSymbolTableRecord
100
AcDbLayerTableRecord
  2
POINTS
 70
0
 62
7
  6
CONTINUOUS
370
-3
390
F
  0
LAYER
  5
214
100
AcDbSymbolTableRecord
100
AcDbLayerTableRecord
  2
PROTRUSION
 70
0
 62
7
  6
CONTINUOUS
370
-3
390
F
  0
LAYER
  5
215
100
AcDbSymbolTableRecord
100
AcDbLayerTableRecord
  2
PROTRUSION_FEATURES
 70
0
 62
7
  6
CONTINUOUS
370
-3
390
F
  0
LAYER
  5
216
100
AcDbSymbolTableRecord
100
AcDbLayerTableRecord
  2
QUILTS
 70
0
 62
7
  6
CONTINUOUS
370
-3
390
F
  0
LAYER
  5
217
100
AcDbSymbolTableRecord
100
AcDbLayerTableRecord
  2
REFERENCE_DIMENSIONS
 70
0
 62
7
  6
CONTINUOUS
370
-3
390
F
  0
LAYER
  5
218
100
AcDbSymbolTableRecord
100
AcDbLayerTableRecord
  2
ROUND_FEATURES
 70
0
 62
7
  6
CONTINUOUS
370
-3
390
F
  0
LAYER
  5
219
100
AcDbSymbolTableRecord
100
AcDbLayerTableRecord
  2
SATIN_DIRECTION
 70
0
 62
7
  6
CONTINUOUS
370
-3
390
F
  0
LAYER
  5
21A
100
AcDbSymbolTableRecord
100
AcDbLayerTableRecord
  2
SHELL_FEATURES
 70
0
 62
7
  6
CONTINUOUS
370
-3
390
F
  0
LAYER
  5
21B
100
AcDbSymbolTableRecord
100
AcDbLayerTableRecord
  2
SIZE_REF
 70
0
 62
7
  6
CONTINUOUS
370
-3
390
F
  0
LAYER
  5
21C
100
AcDbSymbolTableRecord
100
AcDbLayerTableRecord
  2
SURFACE_FEATURES
 70
0
 62
7
  6
CONTINUOUS
370
-3
390
F
  0
ENDTAB
  0
TABLE
  2
STYLE
  5
3
100
AcDbSymbolTable
 70
1
  0
STYLE
  5
11
100
AcDbSymbolTableRecord
100
AcDbTextStyleTableRecord
  2
STANDARD
 70
0
 40
0.0
 41
0.8
 50
0.0
 71
0
 42
0.2
  3
txt
  4

  0
STYLE
  5
21D
100
AcDbSymbolTableRecord
100
AcDbTextStyleTableRecord
  2
TEXTSTYLE_1
 70
0
 40
0.0
 41
0.8
 50
0.0
 71
0
 42
0.2
  3
gdt
  4

  0
ENDTAB
  0
TABLE
  2
VIEW
  5
6
100
AcDbSymbolTable
 70
0
  0
ENDTAB
  0
TABLE
  2
UCS
  5
7
100
AcDbSymbolTable
 70
0
  0
ENDTAB
  0
TABLE
  2
APPID
  5
9
100
AcDbSymbolTable
 70
1
  0
APPID
  5
21E
100
AcDbSymbolTableRecord
100
AcDbRegAppTableRecord
  2
ACAD
 70
0
  0
ENDTAB
  0
TABLE
  2
BLOCK_RECORD
  5
1
100
AcDbSymbolTable
 70
0
  0
BLOCK_RECORD
  5
21F
100
AcDbSymbolTableRecord
100
AcDbBlockTableRecord
  2
*Model_Space
  0
BLOCK_RECORD
  5
220
100
AcDbSymbolTableRecord
100
AcDbBlockTableRecord
  2
*Paper_Space
  0
ENDTAB
  0
TABLE
  2
DIMSTYLE
  5
A
100
AcDbSymbolTable
 70
1
100
AcDbDimStyleTable
 71
0
  0
DIMSTYLE
105
221
100
AcDbSymbolTableRecord
100
AcDbDimStyleTableRecord
  2
STANDARD
 70
0
  3

  4

 40
1.0
 41
0.1
 42
0.0625
 43
0.38
 44
0.125
 45
0.0
 46
0.0
 47
0.001
 48
0.001
140
0.08
141
0.09
142
0.0
143
25.4
144
1.0
145
0.0
146
1.0
147
0.09
 71
1.0
 72
0.0
 73
1
 74
1
 75
0
 76
0
 77
0
 78
4
170
0
171
2
172
0
173
0
174
0
175
0
176
0
177
0
178
0
270
2
271
3
272
3
273
2
274
2
275
0
280
0
281
0
282
0
283
1
284
4
285
0
286
0
287
3
288
0
340
11
278
46
  0
ENDTAB
  0
ENDSEC
  0
SECTION
  2
BLOCKS
  0
BLOCK
  5
20
100
AcDbEntity
  8
0
100
AcDbBlockBegin
  2
*Model_Space
 70
0
 10
0.0
 20
0.0
 30
0.0
  3
*Model_Space
  1

  0
ENDBLK
  5
21
100
AcDbEntity
  8
0
100
AcDbBlockEnd
  0
BLOCK
  5
1C
100
AcDbEntity
  8
0
100
AcDbBlockBegin
  2
*Paper_Space
 70
0
 10
0.0
 20
0.0
 30
0.0
  3
*Paper_Space
  1

  0
ENDBLK
  5
1D
100
AcDbEntity
  8
0
100
AcDbBlockEnd
  0
ENDSEC
  0
SECTION
  2
ENTITIES
  0
LINE
  5
222
100
AcDbEntity
  8
0
100
AcDbLine
 62
7
  6
CONTINUOUS
 10
0.0
 20
0.0
 11
0.0
 21
8.5
  0
LINE
  5
223
100
AcDbEntity
  8
0
100
AcDbLine
 62
7
  6
CONTINUOUS
 10
0.0
 20
0.0
 11
11.0
 21
0.0
  0
LINE
  5
224
100
AcDbEntity
  8
0
100
AcDbLine
 62
7
  6
CONTINUOUS
 10
0.0
 20
8.5
 11
11.0
 21
8.5
  0
LINE
  5
225
100
AcDbEntity
  8
0
100
AcDbLine
 62
7
  6
CONTINUOUS
 10
11.0
 20
0.0
 11
11.0
 21
8.5
  0
LINE
  5
226
100
AcDbEntity
  8
0
100
AcDbLine
 62
7
  6
CONTINUOUS
 10
2.0153729839
 20
5.3191184058
 11
2.0153729839
 21
5.5066184058
  0
LINE
  5
227
100
AcDbEntity
  8
ALL_FEATURES
100
AcDbLine
 62
7
  6
CONTINUOUS
 10
2.0153729839
 20
5.3191184058
 11
2.0153729839
 21
5.5066184058
  0
LINE
  5
228
100
AcDbEntity
  8
ALL_FEATURES
100
AcDbLine
 62
7
  6
CONTINUOUS
 10
2.1091229839
 20
5.3191184058
 11
2.1091229839
 21
5.2718684058
  0
LINE
  5
229
100
AcDbEntity
  8
ALL_FEATURES
100
AcDbLine
 62
9
  6
CONTINUOUS
 10
2.3303729839
 20
5.3191184058
 11
2.3303729839
 21
5.2718684058
  0
LINE
  5
22A
100
AcDbEntity
  8
0
100
AcDbLine
 62
9
  6
CONTINUOUS
 10
2.3303729839
 20
5.3191184058
 11
2.3303729839
 21
5.5066184058
  0
LINE
  5
22B
100
AcDbEntity
  8
ALL_FEATURES
100
AcDbLine
 62
9
  6
CONTINUOUS
 10
2.3603729839
 20
5.3191184058
 11
2.3603729839
 21
5.2718684058
  0
LINE
  5
22C
100
AcDbEntity
  8
0
100
AcDbLine
 62
9
  6
CONTINUOUS
 10
2.3603729839
 20
5.3191184058
 11
2.3603729839
 21
5.5066184058
  0
LINE
  5
22D
100
AcDbEntity
  8
0
100
AcDbLine
 62
7
  6
CONTINUOUS
 10
2.3903729839
 20
5.3191184058
 11
2.3903729839
 21
5.5066184058
  0
LINE
  5
22E
100
AcDbEntity
  8
ALL_FEATURES
100
AcDbLine
 62
7
  6
CONTINUOUS
 10
2.3903729839
 20
5.3191184058
 11
2.3903729839
 21
5.5066184058
  0
LINE
  5
22F
100
AcDbEntity
  8
ALL_FEATURES
100
AcDbLine
 62
7
  6
CONTINUOUS
 10
2.4841229839
 20
5.3191184058
 11
2.4841229839
 21
5.2718684058
  0
LINE
  5
230
100
AcDbEntity
  8
ALL_ASSEMBLY_MEMBERS
100
AcDbLine
 62
7
  6
CONTINUOUS
 10
3.8810068299
 20
2.8163034451
 11
4.2747391378
 21
2.8163034451
  0
LINE
  5
231
100
AcDbEntity
  8
ALL_ASSEMBLY_MEMBERS
100
AcDbLine
 62
9
  6
CONTINUOUS
 10
3.8809979839
 20
2.8388034451
 11
4.2747479839
 21
2.8388034451
  0
LINE
  5
232
100
AcDbEntity
  8
ALL_ASSEMBLY_MEMBERS
100
AcDbLine
 62
7
  6
CONTINUOUS
 10
3.8434979839
 20
2.8538034451
 11
4.3122479839
 21
2.8538034451
  0
LINE
  5
233
100
AcDbEntity
  8
ALL_FEATURES
100
AcDbLine
 62
9
  6
CONTINUOUS
 10
2.7053729839
 20
5.3191184058
 11
2.7053729839
 21
5.2718684058
  0
LINE
  5
234
100
AcDbEntity
  8
0
100
AcDbLine
 62
9
  6
CONTINUOUS
 10
2.7053729839
 20
5.3191184058
 11
2.7053729839
 21
5.5066184058
  0
LINE
  5
235
100
AcDbEntity
  8
ALL_ASSEMBLY_MEMBERS
100
AcDbLine
 62
7
  6
CONTINUOUS
 10
3.7778754276
 20
2.9100534451
 11
4.3778705402
 21
2.9100534451
  0
LINE
  5
236
100
AcDbEntity
  8
ALL_ASSEMBLY_MEMBERS
100
AcDbLine
 62
7
  6
CONTINUOUS
 10
3.8810068299
 20
3.0915534451
 11
4.2747391378
 21
3.0915534451
  0
LINE
  5
237
100
AcDbEntity
  8
ALL_ASSEMBLY_MEMBERS
100
AcDbLine
 62
9
  6
CONTINUOUS
 10
3.8809979839
 20
3.1140534451
 11
4.2747479839
 21
3.1140534451
  0
LINE
  5
238
100
AcDbEntity
  8
ALL_ASSEMBLY_MEMBERS
100
AcDbLine
 62
7
  6
CONTINUOUS
 10
3.8434979839
 20
3.1290534451
 11
4.3122479839
 21
3.1290534451
  0
LINE
  5
239
100
AcDbEntity
  8
ALL_ASSEMBLY_MEMBERS
100
AcDbLine
 62
7
  6
CONTINUOUS
 10
3.7778754276
 20
3.1853034451
 11
4.3778705402
 21
3.1853034451
  0
LINE
  5
23A
100
AcDbEntity
  8
0
100
AcDbLine
 62
7
  6
CONTINUOUS
 10
3.0649979839
 20
5.2118684058
 11
3.0649979839
 21
5.2718684058
  0
LINE
  5
23B
100
AcDbEntity
  8
0
100
AcDbLine
 62
7
  6
CONTINUOUS
 10
3.1249979839
 20
5.1833684058
 11
3.1249979839
 21
5.2118684058
  0
LINE
  5
23C
100
AcDbEntity
  8
ALL_ASSEMBLY_MEMBERS
100
AcDbLine
 62
7
  6
CONTINUOUS
 10
3.7778754276
 20
3.5415534451
 11
4.3778705402
 21
3.5415534451
  0
LINE
  5
23D
100
AcDbEntity
  8
0
100
AcDbLine
 62
9
  6
CONTINUOUS
 10
4.3717155564
 20
3.5480973647
 11
4.3148784911
 21
3.5480973647
  0
LINE
  5
23E
100
AcDbEntity
  8
0
100
AcDbLine
 62
9
  6
CONTINUOUS
 10
3.840867473
 20
3.5480973591
 11
3.7840304114
 21
3.5480973647
  0
LINE
  5
23F
100
AcDbEntity
  8
ALL_ASSEMBLY_MEMBERS
100
AcDbLine
 62
9
  6
CONTINUOUS
 10
3.8434979839
 20
3.5565534451
 11
4.3122479839
 21
3.5565534451
  0
LINE
  5
240
100
AcDbEntity
  8
0
100
AcDbLine
 62
9
  6
CONTINUOUS
 10
4.3850421095
 20
3.5639100343
 11
4.3122479839
 21
3.5639100339
  0
LINE
  5
241
100
AcDbEntity
  8
0
100
AcDbLine
 62
9
  6
CONTINUOUS
 10
3.8434979839
 20
3.5639100332
 11
3.7707038583
 21
3.5639100343
  0
LINE
  5
242
100
AcDbEntity
  8
ALL_ASSEMBLY_MEMBERS
100
AcDbLine
 62
7
  6
CONTINUOUS
 10
3.9507245464
 20
3.6300065701
 11
3.9800214214
 21
3.6300065701
  0
LINE
  5
243
100
AcDbEntity
  8
ALL_ASSEMBLY_MEMBERS
100
AcDbLine
 62
7
  6
CONTINUOUS
 10
4.1757245464
 20
3.6300065701
 11
4.2050214214
 21
3.6300065701
  0
LINE
  5
244
100
AcDbEntity
  8
ALL_ASSEMBLY_MEMBERS
100
AcDbLine
 62
7
  6
CONTINUOUS
 10
4.2196698589
 20
3.6593034451
 11
4.1915448589
 21
3.6593034451
  0
LINE
  5
245
100
AcDbEntity
  8
ALL_ASSEMBLY_MEMBERS
100
AcDbLine
 62
7
  6
CONTINUOUS
 10
3.9360761089
 20
3.6593034451
 11
3.9642011089
 21
3.6593034451
  0
LINE
  5
246
100
AcDbEntity
  8
ALL_ASSEMBLY_MEMBERS
100
AcDbLine
 62
7
  6
CONTINUOUS
 10
4.2050214214
 20
3.6886003201
 11
4.1757245464
 21
3.6886003201
  0
LINE
  5
247
100
AcDbEntity
  8
ALL_ASSEMBLY_MEMBERS
100
AcDbLine
 62
7
  6
CONTINUOUS
 10
3.9800214214
 20
3.6886003201
 11
3.9507245464
 21
3.6886003201
  0
LINE
  5
248
100
AcDbEntity
  8
0
100
AcDbLine
 62
7
  6
CONTINUOUS
 10
3.4938720015
 20
3.8956977337
 11
3.4858583685
 21
3.9020890367
  0
LINE
  5
249
100
AcDbEntity
  8
ALL_FEATURES
100
AcDbLine
 62
7
  6
CONTINUOUS
 10
3.4576229839
 20
3.9607241009
 11
3.4576229839
 21
4.4003684058
  0
LINE
  5
24A
100
AcDbEntity
  8
0
100
AcDbLine
 62
7
  6
CONTINUOUS
 10
3.4577954839
 20
5.2718684058
 11
3.4577954839
 21
4.4003684058
  0
LINE
  5
24B
100
AcDbEntity
  8
ALL_ASSEMBLY_MEMBERS
100
AcDbLine
 62
7
  6
CONTINUOUS
 10
3.8434979839
 20
3.7763034451
 11
4.3122479839
 21
3.7763034451
  0
LINE
  5
24C
100
AcDbEntity
  8
0
100
AcDbLine
 62
7
  6
CONTINUOUS
 10
4.3202311371
 20
3.8138034451
 11
3.8355148307
 21
3.8138034451
  0
LINE
  5
24D
100
AcDbEntity
  8
0
100
AcDbLine
 62
9
  6
CONTINUOUS
 10
3.5404831574
 20
3.8202463166
 11
3.8169650696
 21
3.8202463157
  0
LINE
  5
24E
100
AcDbEntity
  8
0
100
AcDbLine
 62
9
  6
CONTINUOUS
 10
4.3387808949
 20
3.8202463134
 11
4.6152628104
 21
3.8202463166
  0
LINE
  5
24F
100
AcDbEntity
  8
0
100
AcDbLine
 62
9
  6
CONTINUOUS
 10
4.3477988212
 20
3.8319703225
 11
3.8079471465
 21
3.8319703225
  0
LINE
  5
250
100
AcDbEntity
  8
0
100
AcDbLine
 62
9
  6
CONTINUOUS
 10
3.5120531135
 20
3.8594978985
 11
3.7951393863
 21
3.8594978977
  0
LINE
  5
251
100
AcDbEntity
  8
0
100
AcDbLine
 62
9
  6
CONTINUOUS
 10
4.3606065804
 20
3.8594978956
 11
4.6436928542
 21
3.8594978985
  0
LINE
  5
252
100
AcDbEntity
  8
0
100
AcDbLine
 62
9
  6
CONTINUOUS
 10
4.6459316269
 20
3.8699455042
 11
4.3659420812
 21
3.869945501
  0
LINE
  5
253
100
AcDbEntity
  8
0
100
AcDbLine
 62
9
  6
CONTINUOUS
 10
3.7898038857
 20
3.8699455029
 11
3.5098143409
 21
3.8699455042
  0
LINE
  5
254
100
AcDbEntity
  8
0
100
AcDbLine
 62
7
  6
CONTINUOUS
 10
3.5098143409
 20
3.8699455042
 11
3.5120531135
 21
3.8594978985
  0
LINE
  5
255
100
AcDbEntity
  8
0
100
AcDbLine
 62
7
  6
CONTINUOUS
 10
3.5922479839
 20
4.2878684058
 11
3.5922479839
 21
4.1248970603
  0
LINE
  5
256
100
AcDbEntity
  8
ALL_FEATURES
100
AcDbLine
 62
7
  6
CONTINUOUS
 10
3.5922479839
 20
4.1248970603
 11
3.5922479839
 21
4.2878684058
  0
LINE
  5
257
100
AcDbEntity
  8
0
100
AcDbLine
 62
9
  6
CONTINUOUS
 10
4.6618739663
 20
3.8956977337
 11
4.3801631201
 21
3.895697726
  0
LINE
  5
258
100
AcDbEntity
  8
0
100
AcDbLine
 62
9
  6
CONTINUOUS
 10
3.7755828455
 20
3.8956977302
 11
3.4938720015
 21
3.8956977337
  0
LINE
  5
259
100
AcDbEntity
  8
0
100
AcDbLine
 62
9
  6
CONTINUOUS
 10
4.6698875992
 20
3.9020890367
 11
4.3839899218
 21
3.9020890367
  0
LINE
  5
25A
100
AcDbEntity
  8
0
100
AcDbLine
 62
9
  6
CONTINUOUS
 10
3.7717560457
 20
3.9020890367
 11
3.4858583685
 21
3.9020890367
  0
LINE
  5
25B
100
AcDbEntity
  8
0
100
AcDbLine
 62
9
  6
CONTINUOUS
 10
3.4576229839
 20
3.9607241009
 11
3.7309324959
 21
3.9607241009
  0
LINE
  5
25C
100
AcDbEntity
  8
0
100
AcDbLine
 62
9
  6
CONTINUOUS
 10
4.4248134708
 20
3.9607241006
 11
4.6981229839
 21
3.9607241009
  0
LINE
  5
25D
100
AcDbEntity
  8
0
100
AcDbLine
 62
9
  6
CONTINUOUS
 10
3.6229607798
 20
4.0643690209
 11
4.532785188
 21
4.0643690209
  0
LINE
  5
25E
100
AcDbEntity
  8
ALL_ASSEMBLY_MEMBERS
100
AcDbLine
 62
7
  6
CONTINUOUS
 10
3.9360761089
 20
3.6593034451
 11
3.9507245464
 21
3.6300065701
  0
LINE
  5
25F
100
AcDbEntity
  8
ALL_ASSEMBLY_MEMBERS
100
AcDbLine
 62
7
  6
CONTINUOUS
 10
3.9642011089
 20
3.6593034451
 11
3.9788495464
 21
3.6300065701
  0
LINE
  5
260
100
AcDbEntity
  8
ALL_ASSEMBLY_MEMBERS
100
AcDbLine
 62
7
  6
CONTINUOUS
 10
3.9946698589
 20
3.6593034451
 11
3.9800214214
 21
3.6886003201
  0
LINE
  5
261
100
AcDbEntity
  8
ALL_ASSEMBLY_MEMBERS
100
AcDbLine
 62
7
  6
CONTINUOUS
 10
3.7778729839
 20
2.9100534451
 11
3.7778729839
 21
3.5415534451
  0
LINE
  5
262
100
AcDbEntity
  8
ALL_ASSEMBLY_MEMBERS
100
AcDbLine
 62
7
  6
CONTINUOUS
 10
3.8434979839
 20
3.5565534451
 11
3.8434979839
 21
3.7763034451
  0
LINE
  5
263
100
AcDbEntity
  8
ALL_ASSEMBLY_MEMBERS
100
AcDbLine
 62
7
  6
CONTINUOUS
 10
3.8809979839
 20
2.8163034451
 11
3.8809979839
 21
2.8388034451
  0
LINE
  5
264
100
AcDbEntity
  8
ALL_ASSEMBLY_MEMBERS
100
AcDbLine
 62
7
  6
CONTINUOUS
 10
3.8809979839
 20
3.0915534451
 11
3.8809979839
 21
3.1140534451
  0
LINE
  5
265
100
AcDbEntity
  8
0
100
AcDbLine
 62
9
  6
CONTINUOUS
 10
3.5922479839
 20
4.1248970603
 11
4.5634979839
 21
4.1248970603
  0
LINE
  5
266
100
AcDbEntity
  8
ALL_ASSEMBLY_MEMBERS
100
AcDbLine
 62
7
  6
CONTINUOUS
 10
4.1610761089
 20
3.6593034451
 11
4.1757245464
 21
3.6300065701
  0
LINE
  5
267
100
AcDbEntity
  8
ALL_ASSEMBLY_MEMBERS
100
AcDbLine
 62
7
  6
CONTINUOUS
 10
4.1915448589
 20
3.6593034451
 11
4.1768964214
 21
3.6886003201
  0
LINE
  5
268
100
AcDbEntity
  8
ALL_ASSEMBLY_MEMBERS
100
AcDbLine
 62
7
  6
CONTINUOUS
 10
4.2196698589
 20
3.6593034451
 11
4.2050214214
 21
3.6886003201
  0
LINE
  5
269
100
AcDbEntity
  8
0
100
AcDbLine
 62
7
  6
CONTINUOUS
 10
3.9391229839
 20
3.8138034451
 11
3.9391229839
 21
3.7763034451
  0
LINE
  5
26A
100
AcDbEntity
  8
0
100
AcDbLine
 62
7
  6
CONTINUOUS
 10
4.5854504839
 20
4.2878684058
 11
3.5702954839
 21
4.2878684058
  0
LINE
  5
26B
100
AcDbEntity
  8
0
100
AcDbLine
 62
9
  6
CONTINUOUS
 10
4.6979504839
 20
4.4003684058
 11
3.4577954839
 21
4.4003684058
  0
LINE
  5
26C
100
AcDbEntity
  8
0
100
AcDbLine
 62
7
  6
CONTINUOUS
 10
4.2166229839
 20
3.8138034451
 11
4.2166229839
 21
3.7763034451
  0
LINE
  5
26D
100
AcDbEntity
  8
ALL_ASSEMBLY_MEMBERS
100
AcDbLine
 62
7
  6
CONTINUOUS
 10
4.2747479839
 20
2.8163034451
 11
4.2747479839
 21
2.8388034451
  0
LINE
  5
26E
100
AcDbEntity
  8
ALL_ASSEMBLY_MEMBERS
100
AcDbLine
 62
7
  6
CONTINUOUS
 10
4.2747479839
 20
3.0915534451
 11
4.2747479839
 21
3.1140534451
  0
LINE
  5
26F
100
AcDbEntity
  8
ALL_ASSEMBLY_MEMBERS
100
AcDbLine
 62
7
  6
CONTINUOUS
 10
4.3122479839
 20
3.5565534451
 11
4.3122479839
 21
3.7763034451
  0
LINE
  5
270
100
AcDbEntity
  8
ALL_ASSEMBLY_MEMBERS
100
AcDbLine
 62
7
  6
CONTINUOUS
 10
4.3778729839
 20
2.9100534451
 11
4.3778729839
 21
3.5415534451
  0
LINE
  5
271
100
AcDbEntity
  8
ALL_ASSEMBLY_MEMBERS
100
AcDbLine
 62
7
  6
CONTINUOUS
 10
3.9507245464
 20
3.6886003201
 11
3.9360761089
 21
3.6593034451
  0
LINE
  5
272
100
AcDbEntity
  8
ALL_ASSEMBLY_MEMBERS
100
AcDbLine
 62
7
  6
CONTINUOUS
 10
3.9788495464
 20
3.6886003201
 11
3.9642011089
 21
3.6593034451
  0
LINE
  5
273
100
AcDbEntity
  8
ALL_ASSEMBLY_MEMBERS
100
AcDbLine
 62
7
  6
CONTINUOUS
 10
3.9800214214
 20
3.6300065701
 11
3.9946698589
 21
3.6593034451
  0
LINE
  5
274
100
AcDbEntity
  8
ALL_FEATURES
100
AcDbLine
 62
7
  6
CONTINUOUS
 10
4.5634979839
 20
4.1248970603
 11
4.5634979839
 21
4.2878684058
  0
LINE
  5
275
100
AcDbEntity
  8
ALL_ASSEMBLY_MEMBERS
100
AcDbLine
 62
7
  6
CONTINUOUS
 10
4.1757245464
 20
3.6886003201
 11
4.1610761089
 21
3.6593034451
  0
LINE
  5
276
100
AcDbEntity
  8
ALL_ASSEMBLY_MEMBERS
100
AcDbLine
 62
7
  6
CONTINUOUS
 10
4.1768964214
 20
3.6300065701
 11
4.1915448589
 21
3.6593034451
  0
LINE
  5
277
100
AcDbEntity
  8
ALL_ASSEMBLY_MEMBERS
100
AcDbLine
 62
7
  6
CONTINUOUS
 10
4.2050214214
 20
3.6300065701
 11
4.2196698589
 21
3.6593034451
  0
LINE
  5
278
100
AcDbEntity
  8
0
100
AcDbLine
 62
7
  6
CONTINUOUS
 10
4.6979504839
 20
5.2718684058
 11
4.6979504839
 21
4.4003684058
  0
LINE
  5
279
100
AcDbEntity
  8
ALL_FEATURES
100
AcDbLine
 62
7
  6
CONTINUOUS
 10
4.6981229839
 20
3.9607241009
 11
4.6981229839
 21
4.4003684058
  0
LINE
  5
27A
100
AcDbEntity
  8
0
100
AcDbLine
 62
7
  6
CONTINUOUS
 10
4.6459316269
 20
3.8699455042
 11
4.6436928542
 21
3.8594978985
  0
LINE
  5
27B
100
AcDbEntity
  8
0
100
AcDbLine
 62
7
  6
CONTINUOUS
 10
3.1956173023
 20
5.1820237456
 11
3.1956551969
 21
5.1820192641
  0
LINE
  5
27C
100
AcDbEntity
  8
0
100
AcDbLine
 62
7
  6
CONTINUOUS
 10
3.2292628134
 20
5.1817614701
 11
3.2293007052
 21
5.1817539045
  0
LINE
  5
27D
100
AcDbEntity
  8
0
100
AcDbLine
 62
7
  6
CONTINUOUS
 10
4.6698875992
 20
3.9020890367
 11
4.6618739663
 21
3.8956977337
  0
LINE
  5
27E
100
AcDbEntity
  8
0
100
AcDbLine
 62
7
  6
CONTINUOUS
 10
4.7903729839
 20
5.1781184058
 11
4.8000612932
 21
5.1783300069
  0
LINE
  5
27F
100
AcDbEntity
  8
0
100
AcDbLine
 62
7
  6
CONTINUOUS
 10
4.9652536944
 20
5.1819379533
 11
5.0307479839
 21
5.1833684058
  0
LINE
  5
280
100
AcDbEntity
  8
0
100
AcDbLine
 62
7
  6
CONTINUOUS
 10
3.4577954839
 20
5.1781184058
 11
3.3653729839
 21
5.1781184058
  0
LINE
  5
281
100
AcDbEntity
  8
0
100
AcDbLine
 62
7
  6
CONTINUOUS
 10
4.6979504839
 20
5.1781184058
 11
4.7903729839
 21
5.1781184058
  0
LINE
  5
282
100
AcDbEntity
  8
0
100
AcDbLine
 62
7
  6
CONTINUOUS
 10
3.4577954839
 20
5.1833684058
 11
3.1249979839
 21
5.1833684058
  0
LINE
  5
283
100
AcDbEntity
  8
0
100
AcDbLine
 62
7
  6
CONTINUOUS
 10
4.6979504839
 20
5.1833684058
 11
5.0307479839
 21
5.1833684058
  0
LINE
  5
284
100
AcDbEntity
  8
0
100
AcDbLine
 62
7
  6
CONTINUOUS
 10
3.4577954839
 20
5.2118684058
 11
3.0650255919
 21
5.2118684058
  0
LINE
  5
285
100
AcDbEntity
  8
0
100
AcDbLine
 62
7
  6
CONTINUOUS
 10
4.6979504839
 20
5.2118684058
 11
5.0907203759
 21
5.2118684058
  0
LINE
  5
286
100
AcDbEntity
  8
ALL_FEATURES
100
AcDbLine
 62
7
  6
CONTINUOUS
 10
6.0466229839
 20
5.2718684058
 11
2.1091229839
 21
5.2718684058
  0
LINE
  5
287
100
AcDbEntity
  8
0
100
AcDbLine
 62
7
  6
CONTINUOUS
 10
5.0307479839
 20
5.1833684058
 11
5.0307479839
 21
5.2118684058
  0
LINE
  5
288
100
AcDbEntity
  8
0
100
AcDbLine
 62
7
  6
CONTINUOUS
 10
5.0907479839
 20
5.2118684058
 11
5.0907479839
 21
5.2718684058
  0
LINE
  5
289
100
AcDbEntity
  8
ALL_FEATURES
100
AcDbLine
 62
7
  6
CONTINUOUS
 10
6.1403729839
 20
5.3191184058
 11
2.0153729839
 21
5.3191184058
  0
LINE
  5
28A
100
AcDbEntity
  8
0
100
AcDbLine
 62
7
  6
CONTINUOUS
 10
2.0153729839
 20
5.5066184058
 11
6.1403729839
 21
5.5066184058
  0
LINE
  5
28B
100
AcDbEntity
  8
ALL_FEATURES
100
AcDbLine
 62
9
  6
CONTINUOUS
 10
5.4503729839
 20
5.3191184058
 11
5.4503729839
 21
5.2718684058
  0
LINE
  5
28C
100
AcDbEntity
  8
0
100
AcDbLine
 62
9
  6
CONTINUOUS
 10
5.4503729839
 20
5.3191184058
 11
5.4503729839
 21
5.5066184058
  0
LINE
  5
28D
100
AcDbEntity
  8
ALL_FEATURES
100
AcDbLine
 62
7
  6
CONTINUOUS
 10
5.6716229839
 20
5.3191184058
 11
5.6716229839
 21
5.2718684058
  0
LINE
  5
28E
100
AcDbEntity
  8
0
100
AcDbLine
 62
7
  6
CONTINUOUS
 10
5.7653729839
 20
5.3191184058
 11
5.7653729839
 21
5.5066184058
  0
LINE
  5
28F
100
AcDbEntity
  8
ALL_FEATURES
100
AcDbLine
 62
9
  6
CONTINUOUS
 10
5.7953729839
 20
5.3191184058
 11
5.7953729839
 21
5.2718684058
  0
LINE
  5
290
100
AcDbEntity
  8
0
100
AcDbLine
 62
9
  6
CONTINUOUS
 10
5.7953729839
 20
5.3191184058
 11
5.7953729839
 21
5.5066184058
  0
LINE
  5
291
100
AcDbEntity
  8
ALL_FEATURES
100
AcDbLine
 62
9
  6
CONTINUOUS
 10
5.8253729839
 20
5.3191184058
 11
5.8253729839
 21
5.2718684058
  0
LINE
  5
292
100
AcDbEntity
  8
0
100
AcDbLine
 62
9
  6
CONTINUOUS
 10
5.8253729839
 20
5.3191184058
 11
5.8253729839
 21
5.5066184058
  0
LINE
  5
293
100
AcDbEntity
  8
ALL_FEATURES
100
AcDbLine
 62
7
  6
CONTINUOUS
 10
6.0466229839
 20
5.3191184058
 11
6.0466229839
 21
5.2718684058
  0
LINE
  5
294
100
AcDbEntity
  8
0
100
AcDbLine
 62
7
  6
CONTINUOUS
 10
6.1403729839
 20
5.3191184058
 11
6.1403729839
 21
5.5066184058
  0
ARC
  5
295
100
AcDbEntity
  8
0
100
AcDbCircle
 62
7
  6
CONTINUOUS
 10
3.2270426627
 20
-0.3305039913
 40
5.5122506667
100
AcDbArc
 50
88.8381976856
 51
89.1108694697
  0
ARC
  5
296
100
AcDbEntity
  8
0
100
AcDbCircle
 62
7
  6
CONTINUOUS
 10
3.258294815
 20
0.852687387
 40
4.3284761599
100
AcDbArc
 50
88.697336761
 51
88.8466124559
  0
ARC
  5
297
100
AcDbEntity
  8
0
100
AcDbCircle
 62
7
  6
CONTINUOUS
 10
3.2616418453
 20
1.0198336234
 40
4.1612965517
100
AcDbArc
 50
88.9985440706
 51
89.1474615936
  0
ARC
  5
298
100
AcDbEntity
  8
0
100
AcDbCircle
 62
7
  6
CONTINUOUS
 10
3.2623363016
 20
1.0594366489
 40
4.1216874379
100
AcDbArc
 50
88.8449304483
 51
88.9985743186
  0
ARC
  5
299
100
AcDbEntity
  8
0
100
AcDbCircle
 62
7
  6
CONTINUOUS
 10
3.2776594714
 20
1.7107249642
 40
3.4702603089
100
AcDbArc
 50
89.5549315376
 51
89.6931911843
  0
ARC
  5
29A
100
AcDbEntity
  8
0
100
AcDbCircle
 62
7
  6
CONTINUOUS
 10
3.2658867435
 20
2.2129515938
 40
2.9684979982
100
AcDbArc
 50
89.1996615502
 51
89.3761360011
  0
ARC
  5
29B
100
AcDbEntity
  8
0
100
AcDbCircle
 62
7
  6
CONTINUOUS
 10
3.291246886
 20
2.3339993983
 40
2.8469725364
100
AcDbArc
 50
88.3502067698
 51
88.5911820287
  0
ARC
  5
29C
100
AcDbEntity
  8
0
100
AcDbCircle
 62
7
  6
CONTINUOUS
 10
3.2847993339
 20
2.5521877851
 40
2.6287674829
100
AcDbArc
 50
89.1551978847
 51
89.5680809875
  0
ARC
  5
29D
100
AcDbEntity
  8
0
100
AcDbCircle
 62
7
  6
CONTINUOUS
 10
3.2990319928
 20
2.5567133484
 40
2.6239632339
100
AcDbArc
 50
88.4788509668
 51
88.6468372081
  0
ARC
  5
29E
100
AcDbEntity
  8
0
100
AcDbCircle
 62
7
  6
CONTINUOUS
 10
3.2697806262
 20
2.5919684353
 40
2.5894612373
100
AcDbArc
 50
89.370976444
 51
89.6489963035
  0
ARC
  5
29F
100
AcDbEntity
  8
0
100
AcDbCircle
 62
7
  6
CONTINUOUS
 10
3.2717013884
 20
2.9112390277
 40
2.2701848695
100
AcDbArc
 50
89.6481087306
 51
89.8373075771
  0
ARC
  5
2A0
100
AcDbEntity
  8
0
100
AcDbCircle
 62
7
  6
CONTINUOUS
 10
3.3307048129
 20
3.7369822607
 40
1.4432695081
100
AcDbArc
 50
88.2359843001
 51
88.4919638287
  0
ARC
  5
2A1
100
AcDbEntity
  8
0
100
AcDbCircle
 62
7
  6
CONTINUOUS
 10
3.3343192603
 20
3.8354902889
 40
1.3448639983
100
AcDbArc
 50
87.9595493771
 51
88.3427971334
  0
ARC
  5
2A2
100
AcDbEntity
  8
0
100
AcDbCircle
 62
7
  6
CONTINUOUS
 10
3.3505714895
 20
4.3802801433
 40
0.7996649359
100
AcDbArc
 50
88.0455032619
 51
88.2398971662
  0
ARC
  5
2A3
100
AcDbEntity
  8
0
100
AcDbCircle
 62
7
  6
CONTINUOUS
 10
3.2903638768
 20
3.6098034451
 40
0.56325
100
AcDbArc
 50
23.2308920706
 51
53.8077823306
  0
ARC
  5
2A4
100
AcDbEntity
  8
0
100
AcDbCircle
 62
7
  6
CONTINUOUS
 10
3.2566229839
 20
3.3337548322
 40
0.56325
100
AcDbArc
 50
24.1181733655
 51
59.7371069019
  0
ARC
  5
2A5
100
AcDbEntity
  8
0
100
AcDbCircle
 62
7
  6
CONTINUOUS
 10
3.5326229839
 20
3.9607241009
 40
0.075
100
AcDbArc
 50
180.0
 51
231.4257570771
  0
ARC
  5
2A6
100
AcDbEntity
  8
0
100
AcDbCircle
 62
7
  6
CONTINUOUS
 10
3.5707212584
 20
3.8720696438
 40
0.06
100
AcDbArc
 50
192.094757077
 51
239.7371069019
  0
ARC
  5
2A7
100
AcDbEntity
  8
0
100
AcDbCircle
 62
7
  6
CONTINUOUS
 10
3.4658132323
 20
3.8605166952
 40
0.045
100
AcDbArc
 50
12.094757077
 51
51.425757077
  0
ARC
  5
2A8
100
AcDbEntity
  8
ALL_ASSEMBLY_MEMBERS
100
AcDbCircle
 62
7
  6
CONTINUOUS
 10
3.7872479839
 20
2.8538034451
 40
0.05625
100
AcDbArc
 50
0.0
 51
90.0
  0
ARC
  5
2A9
100
AcDbEntity
  8
ALL_ASSEMBLY_MEMBERS
100
AcDbCircle
 62
7
  6
CONTINUOUS
 10
3.7872479839
 20
3.1290534451
 40
0.05625
100
AcDbArc
 50
0.0
 51
90.0
  0
ARC
  5
2AA
100
AcDbEntity
  8
0
100
AcDbCircle
 62
7
  6
CONTINUOUS
 10
3.6672479839
 20
4.1248970603
 40
0.075
100
AcDbArc
 50
180.0
 51
233.8077823306
  0
ARC
  5
2AB
100
AcDbEntity
  8
ALL_FEATURES
100
AcDbCircle
 62
7
  6
CONTINUOUS
 10
3.8153729839
 20
3.5947904682
 40
0.0562370231
100
AcDbArc
 50
236.128659452
 51
251.2028777859
  0
ARC
  5
2AC
100
AcDbEntity
  8
0
100
AcDbCircle
 62
7
  6
CONTINUOUS
 10
3.8049302813
 20
3.5792332835
 40
0.0375
100
AcDbArc
 50
204.1181733656
 51
236.1286594521
  0
ARC
  5
2AD
100
AcDbEntity
  8
ALL_ASSEMBLY_MEMBERS
100
AcDbCircle
 62
7
  6
CONTINUOUS
 10
3.8659979839
 20
2.8388034451
 40
0.015
100
AcDbArc
 50
0.0
 51
89.9999976072
  0
ARC
  5
2AE
100
AcDbEntity
  8
ALL_ASSEMBLY_MEMBERS
100
AcDbCircle
 62
7
  6
CONTINUOUS
 10
3.8659979839
 20
3.1140534451
 40
0.015
100
AcDbArc
 50
0.0
 51
89.9999976072
  0
ARC
  5
2AF
100
AcDbEntity
  8
ALL_ASSEMBLY_MEMBERS
100
AcDbCircle
 62
7
  6
CONTINUOUS
 10
3.9481193792
 20
3.6602942897
 40
0.0705263129
100
AcDbArc
 50
359.1950085141
 51
2.9459485018
  0
ARC
  5
2B0
100
AcDbEntity
  8
ALL_ASSEMBLY_MEMBERS
100
AcDbCircle
 62
7
  6
CONTINUOUS
 10
3.9488023217
 20
3.660296718
 40
0.0698434729
100
AcDbArc
 50
354.9010467285
 51
359.1851455997
  0
ARC
  5
2B1
100
AcDbEntity
  8
ALL_ASSEMBLY_MEMBERS
100
AcDbCircle
 62
7
  6
CONTINUOUS
 10
3.9535750682
 20
3.6709737664
 40
0.0611784496
100
AcDbArc
 50
51.8956092094
 51
56.8494827189
  0
ARC
  5
2B2
100
AcDbEntity
  8
ALL_ASSEMBLY_MEMBERS
100
AcDbCircle
 62
7
  6
CONTINUOUS
 10
3.9694049588
 20
3.6656215696
 40
0.058043106
100
AcDbArc
 50
126.8522428713
 51
127.4842809353
  0
ARC
  5
2B3
100
AcDbEntity
  8
ALL_ASSEMBLY_MEMBERS
100
AcDbCircle
 62
7
  6
CONTINUOUS
 10
3.9630762388
 20
3.6588775081
 40
0.0551433676
100
AcDbArc
 50
115.9394426781
 51
120.6713026222
  0
ARC
  5
2B4
100
AcDbEntity
  8
ALL_ASSEMBLY_MEMBERS
100
AcDbCircle
 62
7
  6
CONTINUOUS
 10
3.9668133664
 20
3.6496359819
 40
0.0483385049
100
AcDbArc
 50
302.7044996027
 51
308.1575396872
  0
ARC
  5
2B5
100
AcDbEntity
  8
ALL_ASSEMBLY_MEMBERS
100
AcDbCircle
 62
7
  6
CONTINUOUS
 10
3.9644670935
 20
3.6751176012
 40
0.0478683281
100
AcDbArc
 50
84.5293272047
 51
89.9974377999
  0
ARC
  5
2B6
100
AcDbEntity
  8
ALL_ASSEMBLY_MEMBERS
100
AcDbCircle
 62
7
  6
CONTINUOUS
 10
3.9628052994
 20
3.6514517981
 40
0.046772053
100
AcDbArc
 50
301.4788652873
 51
312.8002135356
  0
ARC
  5
2B7
100
AcDbEntity
  8
ALL_ASSEMBLY_MEMBERS
100
AcDbCircle
 62
7
  6
CONTINUOUS
 10
3.9691153875
 20
3.6745093128
 40
0.0462941438
100
AcDbArc
 50
80.6096573349
 51
89.990598424
  0
ARC
  5
2B8
100
AcDbEntity
  8
ALL_ASSEMBLY_MEMBERS
100
AcDbCircle
 62
7
  6
CONTINUOUS
 10
3.9683603278
 20
3.6471876947
 40
0.0454425205
100
AcDbArc
 50
291.3228051082
 51
302.7311111209
  0
ARC
  5
2B9
100
AcDbEntity
  8
ALL_ASSEMBLY_MEMBERS
100
AcDbCircle
 62
7
  6
CONTINUOUS
 10
3.9640135345
 20
3.6495868627
 40
0.044550216
100
AcDbArc
 50
298.4761829716
 51
301.4060939872
  0
ARC
  5
2BA
100
AcDbEntity
  8
ALL_ASSEMBLY_MEMBERS
100
AcDbCircle
 62
7
  6
CONTINUOUS
 10
3.9625412728
 20
3.6471959742
 40
0.0439024658
100
AcDbArc
 50
301.3701766513
 51
304.4252852716
  0
ARC
  5
2BB
100
AcDbEntity
  8
ALL_ASSEMBLY_MEMBERS
100
AcDbCircle
 62
7
  6
CONTINUOUS
 10
3.9644992036
 20
3.6486692814
 40
0.0435120853
100
AcDbArc
 50
293.7477900852
 51
298.4901225279
  0
ARC
  5
2BC
100
AcDbEntity
  8
ALL_ASSEMBLY_MEMBERS
100
AcDbCircle
 62
7
  6
CONTINUOUS
 10
3.962822807
 20
3.6467443886
 40
0.0433703355
100
AcDbArc
 50
300.8297551268
 51
301.3631746558
  0
ARC
  5
2BD
100
AcDbEntity
  8
ALL_ASSEMBLY_MEMBERS
100
AcDbCircle
 62
7
  6
CONTINUOUS
 10
3.9648507042
 20
3.6478602493
 40
0.0426300033
100
AcDbArc
 50
289.5202950302
 51
293.7532582892
  0
ARC
  5
2BE
100
AcDbEntity
  8
ALL_ASSEMBLY_MEMBERS
100
AcDbCircle
 62
7
  6
CONTINUOUS
 10
3.9633657519
 20
3.6457874826
 40
0.0422703999
100
AcDbArc
 50
291.985966955
 51
300.8625303243
  0
ARC
  5
2BF
100
AcDbEntity
  8
ALL_ASSEMBLY_MEMBERS
100
AcDbCircle
 62
7
  6
CONTINUOUS
 10
3.9651465032
 20
3.6470049456
 40
0.0417250218
100
AcDbArc
 50
283.4224599232
 51
289.5298994686
  0
ARC
  5
2C0
100
AcDbEntity
  8
ALL_ASSEMBLY_MEMBERS
100
AcDbCircle
 62
7
  6
CONTINUOUS
 10
3.9639141073
 20
3.6444593513
 40
0.0408335647
100
AcDbArc
 50
285.5304953705
 51
291.9701795526
  0
ARC
  5
2C1
100
AcDbEntity
  8
ALL_ASSEMBLY_MEMBERS
100
AcDbCircle
 62
7
  6
CONTINUOUS
 10
3.9602351715
 20
3.6693562588
 40
0.0398339945
100
AcDbArc
 50
105.7583403751
 51
107.8561756356
  0
ARC
  5
2C2
100
AcDbEntity
  8
ALL_ASSEMBLY_MEMBERS
100
AcDbCircle
 62
7
  6
CONTINUOUS
 10
3.9645655814
 20
3.668888513
 40
0.0393693481
100
AcDbArc
 50
63.441556907
 51
65.287883655
  0
ARC
  5
2C3
100
AcDbEntity
  8
ALL_ASSEMBLY_MEMBERS
100
AcDbCircle
 62
7
  6
CONTINUOUS
 10
3.9598359781
 20
3.6720465391
 40
0.0371004758
100
AcDbArc
 50
75.1214816295
 51
86.9618978295
  0
ARC
  5
2C4
100
AcDbEntity
  8
0
100
AcDbCircle
 62
7
  6
CONTINUOUS
 10
3.8355148307
 20
3.8438034451
 40
0.03
100
AcDbArc
 50
203.2308920706
 51
270.0
  0
ARC
  5
2C5
100
AcDbEntity
  8
ALL_ASSEMBLY_MEMBERS
100
AcDbCircle
 62
7
  6
CONTINUOUS
 10
3.8284979839
 20
3.5565534451
 40
0.015
100
AcDbArc
 50
270.0000182282
 51
360.0
  0
ARC
  5
2C6
100
AcDbEntity
  8
0
100
AcDbCircle
 62
7
  6
CONTINUOUS
 10
3.2236576328
 20
9.1851409025
 40
4.0029769181
100
AcDbArc
 50
270.3132041652
 51
270.5724981095
  0
ARC
  5
2C7
100
AcDbEntity
  8
0
100
AcDbCircle
 62
7
  6
CONTINUOUS
 10
3.4202547725
 20
8.702198309
 40
3.5237015331
100
AcDbArc
 50
268.7036636598
 51
268.8451901511
  0
ARC
  5
2C8
100
AcDbEntity
  8
0
100
AcDbCircle
 62
7
  6
CONTINUOUS
 10
3.3577361374
 20
4.5050967762
 40
0.6748484302
100
AcDbArc
 50
87.7232976724
 51
87.8830364257
  0
ARC
  5
2C9
100
AcDbEntity
  8
0
100
AcDbCircle
 62
7
  6
CONTINUOUS
 10
3.3603334317
 20
4.6652052662
 40
0.5145726372
100
AcDbArc
 50
87.8966493562
 51
88.0498087191
  0
ARC
  5
2CA
100
AcDbEntity
  8
0
100
AcDbCircle
 62
7
  6
CONTINUOUS
 10
3.361705619
 20
5.6717023788
 40
0.4926395561
100
AcDbArc
 50
269.0520255252
 51
269.7963779377
  0
ARC
  5
2CB
100
AcDbEntity
  8
ALL_ASSEMBLY_MEMBERS
100
AcDbCircle
 62
7
  6
CONTINUOUS
 10
4.2897479839
 20
2.8388034451
 40
0.015
100
AcDbArc
 50
90.0000023928
 51
180.0
  0
ARC
  5
2CC
100
AcDbEntity
  8
ALL_ASSEMBLY_MEMBERS
100
AcDbCircle
 62
7
  6
CONTINUOUS
 10
4.2897479839
 20
3.1140534451
 40
0.015
100
AcDbArc
 50
90.0000023928
 51
180.0
  0
ARC
  5
2CD
100
AcDbEntity
  8
ALL_ASSEMBLY_MEMBERS
100
AcDbCircle
 62
7
  6
CONTINUOUS
 10
4.2162183465
 20
3.6592929145
 40
0.079734924
100
AcDbArc
 50
161.2602473169
 51
179.99243289
  0
ARC
  5
2CE
100
AcDbEntity
  8
ALL_ASSEMBLY_MEMBERS
100
AcDbCircle
 62
7
  6
CONTINUOUS
 10
4.2156319321
 20
3.6593048331
 40
0.0791484104
100
AcDbArc
 50
180.0010047422
 51
182.4374329529
  0
ARC
  5
2CF
100
AcDbEntity
  8
ALL_ASSEMBLY_MEMBERS
100
AcDbCircle
 62
7
  6
CONTINUOUS
 10
4.2151139051
 20
3.6596187315
 40
0.0785836608
100
AcDbArc
 50
156.5110328748
 51
161.2265047867
  0
ARC
  5
2D0
100
AcDbEntity
  8
ALL_ASSEMBLY_MEMBERS
100
AcDbCircle
 62
7
  6
CONTINUOUS
 10
4.2141293364
 20
3.6600577672
 40
0.0775056896
100
AcDbArc
 50
151.8516779533
 51
156.5185982595
  0
ARC
  5
2D1
100
AcDbEntity
  8
ALL_ASSEMBLY_MEMBERS
100
AcDbCircle
 62
7
  6
CONTINUOUS
 10
4.2127401461
 20
3.6608200696
 40
0.0759211812
100
AcDbArc
 50
146.4021180047
 51
151.8643458918
  0
ARC
  5
2D2
100
AcDbEntity
  8
ALL_ASSEMBLY_MEMBERS
100
AcDbCircle
 62
7
  6
CONTINUOUS
 10
4.2109944127
 20
3.6619909803
 40
0.0738191516
100
AcDbArc
 50
142.4706808393
 51
146.409320763
  0
ARC
  5
2D3
100
AcDbEntity
  8
ALL_ASSEMBLY_MEMBERS
100
AcDbCircle
 62
7
  6
CONTINUOUS
 10
4.1680374205
 20
3.6614615206
 40
0.0733785526
100
AcDbArc
 50
357.125292332
 51
1.4996891368
  0
ARC
  5
2D4
100
AcDbEntity
  8
ALL_ASSEMBLY_MEMBERS
100
AcDbCircle
 62
7
  6
CONTINUOUS
 10
4.2088857394
 20
3.6636423844
 40
0.0711409088
100
AcDbArc
 50
137.7443503583
 51
142.4908939616
  0
ARC
  5
2D5
100
AcDbEntity
  8
ALL_ASSEMBLY_MEMBERS
100
AcDbCircle
 62
7
  6
CONTINUOUS
 10
4.1725461479
 20
3.6630168477
 40
0.0703176093
100
AcDbArc
 50
356.9728590769
 51
0.7350319338
  0
ARC
  5
2D6
100
AcDbEntity
  8
ALL_ASSEMBLY_MEMBERS
100
AcDbCircle
 62
7
  6
CONTINUOUS
 10
4.1728699084
 20
3.6630073947
 40
0.0699938018
100
AcDbArc
 50
352.6798982359
 51
356.9665906878
  0
ARC
  5
2D7
100
AcDbEntity
  8
ALL_ASSEMBLY_MEMBERS
100
AcDbCircle
 62
7
  6
CONTINUOUS
 10
4.1980160779
 20
3.6646886742
 40
0.0605266188
100
AcDbArc
 50
134.7264186244
 51
143.8737909521
  0
ARC
  5
2D8
100
AcDbEntity
  8
ALL_ASSEMBLY_MEMBERS
100
AcDbCircle
 62
7
  6
CONTINUOUS
 10
4.1962658796
 20
3.6663519284
 40
0.0581133103
100
AcDbArc
 50
133.9726680842
 51
134.6544424972
  0
ARC
  5
2D9
100
AcDbEntity
  8
ALL_ASSEMBLY_MEMBERS
100
AcDbCircle
 62
7
  6
CONTINUOUS
 10
4.1859515571
 20
3.6554002828
 40
0.0545904401
100
AcDbArc
 50
311.165285358
 51
311.6640942907
  0
ARC
  5
2DA
100
AcDbEntity
  8
ALL_ASSEMBLY_MEMBERS
100
AcDbCircle
 62
7
  6
CONTINUOUS
 10
4.1899425422
 20
3.6535222581
 40
0.050419286
100
AcDbArc
 50
232.2125065546
 51
237.8270230896
  0
ARC
  5
2DB
100
AcDbEntity
  8
ALL_ASSEMBLY_MEMBERS
100
AcDbCircle
 62
7
  6
CONTINUOUS
 10
4.192005385
 20
3.6511919542
 40
0.0496464953
100
AcDbArc
 50
234.3778162222
 51
235.0710966008
  0
ARC
  5
2DC
100
AcDbEntity
  8
ALL_ASSEMBLY_MEMBERS
100
AcDbCircle
 62
7
  6
CONTINUOUS
 10
4.1891371446
 20
3.6522363691
 40
0.0489019966
100
AcDbArc
 50
237.8235290319
 51
241.5450567746
  0
ARC
  5
2DD
100
AcDbEntity
  8
ALL_ASSEMBLY_MEMBERS
100
AcDbCircle
 62
7
  6
CONTINUOUS
 10
4.1912750766
 20
3.6752199512
 40
0.0477659781
100
AcDbArc
 50
89.9980122756
 51
96.0137350396
  0
ARC
  5
2DE
100
AcDbEntity
  8
ALL_ASSEMBLY_MEMBERS
100
AcDbCircle
 62
7
  6
CONTINUOUS
 10
4.188537245
 20
3.6511098243
 40
0.0476257156
100
AcDbArc
 50
241.5338263504
 51
247.5041613284
  0
ARC
  5
2DF
100
AcDbEntity
  8
ALL_ASSEMBLY_MEMBERS
100
AcDbCircle
 62
7
  6
CONTINUOUS
 10
4.1998571602
 20
3.6753881153
 40
0.0470445742
100
AcDbArc
 50
145.5112389031
 51
147.9709537643
  0
ARC
  5
2E0
100
AcDbEntity
  8
ALL_ASSEMBLY_MEMBERS
100
AcDbCircle
 62
7
  6
CONTINUOUS
 10
4.1994350188
 20
3.6756742746
 40
0.0465345935
100
AcDbArc
 50
144.437265872
 51
145.5073332846
  0
ARC
  5
2E1
100
AcDbEntity
  8
ALL_ASSEMBLY_MEMBERS
100
AcDbCircle
 62
7
  6
CONTINUOUS
 10
4.1880829891
 20
3.6638727383
 40
0.046041905
100
AcDbArc
 50
125.4396553848
 51
127.6267084392
  0
ARC
  5
2E2
100
AcDbEntity
  8
ALL_ASSEMBLY_MEMBERS
100
AcDbCircle
 62
7
  6
CONTINUOUS
 10
4.1988544001
 20
3.6760930097
 40
0.0458187385
100
AcDbArc
 50
140.5065713606
 51
144.440952209
  0
ARC
  5
2E3
100
AcDbEntity
  8
ALL_ASSEMBLY_MEMBERS
100
AcDbCircle
 62
7
  6
CONTINUOUS
 10
4.1873467818
 20
3.6649314416
 40
0.0447524671
100
AcDbArc
 50
121.2116127055
 51
125.4576770186
  0
ARC
  5
2E4
100
AcDbEntity
  8
ALL_ASSEMBLY_MEMBERS
100
AcDbCircle
 62
7
  6
CONTINUOUS
 10
4.1979926621
 20
3.6767899539
 40
0.0447104893
100
AcDbArc
 50
137.9375395242
 51
140.4934663786
  0
ARC
  5
2E5
100
AcDbEntity
  8
ALL_ASSEMBLY_MEMBERS
100
AcDbCircle
 62
7
  6
CONTINUOUS
 10
4.1916964505
 20
3.6495195287
 40
0.0444738857
100
AcDbArc
 50
240.0965531424
 51
240.4872434076
  0
ARC
  5
2E6
100
AcDbEntity
  8
ALL_ASSEMBLY_MEMBERS
100
AcDbCircle
 62
7
  6
CONTINUOUS
 10
4.1832849021
 20
3.6706297912
 40
0.0439714296
100
AcDbArc
 50
125.7703049123
 51
127.0599135622
  0
ARC
  5
2E7
100
AcDbEntity
  8
ALL_ASSEMBLY_MEMBERS
100
AcDbCircle
 62
7
  6
CONTINUOUS
 10
4.191199978
 20
3.648590301
 40
0.0434206657
100
AcDbArc
 50
240.4533303175
 51
249.3777045181
  0
ARC
  5
2E8
100
AcDbEntity
  8
ALL_ASSEMBLY_MEMBERS
100
AcDbCircle
 62
7
  6
CONTINUOUS
 10
4.1865737022
 20
3.6662200216
 40
0.0432497875
100
AcDbArc
 50
117.1533518951
 51
121.2203020799
  0
ARC
  5
2E9
100
AcDbEntity
  8
ALL_ASSEMBLY_MEMBERS
100
AcDbCircle
 62
7
  6
CONTINUOUS
 10
4.1966117233
 20
3.6780911772
 40
0.0428135372
100
AcDbArc
 50
127.3887661543
 51
137.9922759048
  0
ARC
  5
2EA
100
AcDbEntity
  8
ALL_ASSEMBLY_MEMBERS
100
AcDbCircle
 62
7
  6
CONTINUOUS
 10
4.1907468846
 20
3.6474583136
 40
0.0422016386
100
AcDbArc
 50
249.4121455116
 51
252.4413368189
  0
ARC
  5
2EB
100
AcDbEntity
  8
ALL_ASSEMBLY_MEMBERS
100
AcDbCircle
 62
7
  6
CONTINUOUS
 10
4.1906113259
 20
3.6470361184
 40
0.0417582184
100
AcDbArc
 50
252.4439081185
 51
255.5001109479
  0
ARC
  5
2EC
100
AcDbEntity
  8
ALL_ASSEMBLY_MEMBERS
100
AcDbCircle
 62
7
  6
CONTINUOUS
 10
4.1803668714
 20
3.6758089095
 40
0.0380114046
100
AcDbArc
 50
109.307626933
 51
114.9866691085
  0
ARC
  5
2ED
100
AcDbEntity
  8
ALL_ASSEMBLY_MEMBERS
100
AcDbCircle
 62
7
  6
CONTINUOUS
 10
4.190329357
 20
3.6711067843
 40
0.0370166886
100
AcDbArc
 50
77.2914989483
 51
83.7452727213
  0
ARC
  5
2EE
100
AcDbEntity
  8
0
100
AcDbCircle
 62
7
  6
CONTINUOUS
 10
4.3202311371
 20
3.8438034451
 40
0.03
100
AcDbArc
 50
270.0
 51
336.7691079294
  0
ARC
  5
2EF
100
AcDbEntity
  8
ALL_ASSEMBLY_MEMBERS
100
AcDbCircle
 62
7
  6
CONTINUOUS
 10
4.3272479839
 20
3.5565534451
 40
0.015
100
AcDbArc
 50
180.0
 51
269.9999817718
  0
ARC
  5
2F0
100
AcDbEntity
  8
ALL_ASSEMBLY_MEMBERS
100
AcDbCircle
 62
7
  6
CONTINUOUS
 10
4.3684979839
 20
2.8538034451
 40
0.05625
100
AcDbArc
 50
90.0
 51
180.0
  0
ARC
  5
2F1
100
AcDbEntity
  8
ALL_ASSEMBLY_MEMBERS
100
AcDbCircle
 62
7
  6
CONTINUOUS
 10
4.3684979839
 20
3.1290534451
 40
0.05625
100
AcDbArc
 50
90.0
 51
180.0
  0
ARC
  5
2F2
100
AcDbEntity
  8
0
100
AcDbCircle
 62
7
  6
CONTINUOUS
 10
4.4884979839
 20
4.1248970603
 40
0.075
100
AcDbArc
 50
306.1922176694
 51
360.0
  0
ARC
  5
2F3
100
AcDbEntity
  8
ALL_FEATURES
100
AcDbCircle
 62
7
  6
CONTINUOUS
 10
4.3403729839
 20
3.5947904682
 40
0.0562370231
100
AcDbArc
 50
288.7971336924
 51
303.871340548
  0
ARC
  5
2F4
100
AcDbEntity
  8
0
100
AcDbCircle
 62
7
  6
CONTINUOUS
 10
4.3508156864
 20
3.5792332835
 40
0.0375
100
AcDbArc
 50
303.871340548
 51
335.8818266344
  0
ARC
  5
2F5
100
AcDbEntity
  8
0
100
AcDbCircle
 62
7
  6
CONTINUOUS
 10
4.9182614723
 20
-0.4121349118
 40
5.5931966115
100
AcDbArc
 50
90.7207102464
 51
90.8884286319
  0
ARC
  5
2F6
100
AcDbEntity
  8
0
100
AcDbCircle
 62
7
  6
CONTINUOUS
 10
4.9795708649
 20
0.8591196
 40
4.3235556932
100
AcDbArc
 50
91.119733813
 51
91.2846436402
  0
ARC
  5
2F7
100
AcDbEntity
  8
0
100
AcDbCircle
 62
7
  6
CONTINUOUS
 10
4.9015039434
 20
0.8767038398
 40
4.3042596149
100
AcDbArc
 50
91.1294499749
 51
91.2816820616
  0
ARC
  5
2F8
100
AcDbEntity
  8
0
100
AcDbCircle
 62
7
  6
CONTINUOUS
 10
4.9028103142
 20
1.0398379944
 40
4.1410432972
100
AcDbArc
 50
90.9455660063
 51
91.1219513709
  0
ARC
  5
2F9
100
AcDbEntity
  8
0
100
AcDbCircle
 62
7
  6
CONTINUOUS
 10
4.8958418674
 20
1.402516084
 40
3.7782982956
100
AcDbArc
 50
91.1239880368
 51
91.2438977598
  0
ARC
  5
2FA
100
AcDbEntity
  8
0
100
AcDbCircle
 62
7
  6
CONTINUOUS
 10
4.8906624812
 20
1.4132714248
 40
3.7675825876
100
AcDbArc
 50
91.0100768817
 51
91.1254520951
  0
ARC
  5
2FB
100
AcDbEntity
  8
0
100
AcDbCircle
 62
7
  6
CONTINUOUS
 10
4.8675865018
 20
2.6427737408
 40
2.5377189332
100
AcDbArc
 50
91.2731025471
 51
91.5780278888
  0
ARC
  5
2FC
100
AcDbEntity
  8
0
100
AcDbCircle
 62
7
  6
CONTINUOUS
 10
4.9330901016
 20
2.827860119
 40
2.3542669504
100
AcDbArc
 50
91.2995696912
 51
91.6087728001
  0
ARC
  5
2FD
100
AcDbEntity
  8
0
100
AcDbCircle
 62
7
  6
CONTINUOUS
 10
4.9455801339
 20
2.9192242632
 40
2.2631677565
100
AcDbArc
 50
90.7219976218
 51
90.8975565724
  0
ARC
  5
2FE
100
AcDbEntity
  8
0
100
AcDbCircle
 62
7
  6
CONTINUOUS
 10
4.9450294987
 20
2.9433553014
 40
2.2389218383
100
AcDbArc
 50
90.8873210506
 51
91.3013202554
  0
ARC
  5
2FF
100
AcDbEntity
  8
0
100
AcDbCircle
 62
7
  6
CONTINUOUS
 10
4.9352457833
 20
3.3500335407
 40
1.8321263762
100
AcDbArc
 50
91.2842647229
 51
91.615313649
  0
ARC
  5
300
100
AcDbEntity
  8
0
100
AcDbCircle
 62
7
  6
CONTINUOUS
 10
4.9063154583
 20
3.8384910256
 40
1.3432836799
100
AcDbArc
 50
91.6774050154
 51
92.1459877138
  0
ARC
  5
301
100
AcDbEntity
  8
0
100
AcDbCircle
 62
7
  6
CONTINUOUS
 10
4.933377811
 20
3.8710314229
 40
1.3112824212
100
AcDbArc
 50
90.514302948
 51
90.7129211843
  0
ARC
  5
302
100
AcDbEntity
  8
0
100
AcDbCircle
 62
7
  6
CONTINUOUS
 10
4.9176256056
 20
3.9803208827
 40
1.2015925845
100
AcDbArc
 50
91.7317314346
 51
92.0163923708
  0
ARC
  5
303
100
AcDbEntity
  8
0
100
AcDbCircle
 62
7
  6
CONTINUOUS
 10
4.828905574
 20
4.0839184783
 40
1.0960560191
100
AcDbArc
 50
91.6313697766
 51
91.7685612841
  0
ARC
  5
304
100
AcDbEntity
  8
0
100
AcDbCircle
 62
7
  6
CONTINUOUS
 10
4.9075475353
 20
4.2706158506
 40
0.9111227768
100
AcDbArc
 50
92.0253421939
 51
92.3266155735
  0
ARC
  5
305
100
AcDbEntity
  8
0
100
AcDbCircle
 62
7
  6
CONTINUOUS
 10
4.8653820909
 20
3.6098034451
 40
0.56325
100
AcDbArc
 50
126.1922176694
 51
156.7691079294
  0
ARC
  5
306
100
AcDbEntity
  8
0
100
AcDbCircle
 62
7
  6
CONTINUOUS
 10
4.8991229839
 20
3.3337548322
 40
0.56325
100
AcDbArc
 50
120.2628930981
 51
155.8818266345
  0
ARC
  5
307
100
AcDbEntity
  8
0
100
AcDbCircle
 62
7
  6
CONTINUOUS
 10
4.6231229839
 20
3.9607241009
 40
0.075
100
AcDbArc
 50
308.5742429229
 51
360.0
  0
ARC
  5
308
100
AcDbEntity
  8
0
100
AcDbCircle
 62
7
  6
CONTINUOUS
 10
4.5854548448
 20
4.3572358842
 40
0.0693674786
100
AcDbArc
 50
269.9963980156
 51
274.1689072229
  0
ARC
  5
309
100
AcDbEntity
  8
0
100
AcDbCircle
 62
7
  6
CONTINUOUS
 10
4.585457185
 20
4.3571715314
 40
0.069303126
100
AcDbArc
 50
269.9944599293
 51
274.1708453092
  0
ARC
  5
30A
100
AcDbEntity
  8
0
100
AcDbCircle
 62
7
  6
CONTINUOUS
 10
4.5850247094
 20
3.8720696438
 40
0.06
100
AcDbArc
 50
300.2628930981
 51
347.905242923
  0
ARC
  5
30B
100
AcDbEntity
  8
0
100
AcDbCircle
 62
7
  6
CONTINUOUS
 10
4.6899327355
 20
3.8605166952
 40
0.045
100
AcDbArc
 50
128.574242923
 51
167.905242923
  0
ARC
  5
30C
100
AcDbEntity
  8
0
100
AcDbCircle
 62
7
  6
CONTINUOUS
 10
4.9450410277
 20
7.9448150051
 40
2.7626500091
100
AcDbArc
 50
270.1044776049
 51
270.3142560795
  0
ARC
  5
30D
100
AcDbEntity
  8
0
100
AcDbCircle
 62
7
  6
CONTINUOUS
 10
4.8179638863
 20
6.3510168063
 40
1.171209792
100
AcDbArc
 50
271.62017782
 51
272.0543221143
  0
ARC
  5
30E
100
AcDbEntity
  8
0
100
AcDbCircle
 62
7
  6
CONTINUOUS
 10
4.8309583665
 20
5.9953277185
 40
0.8152831864
100
AcDbArc
 50
272.1264979584
 51
272.4450590244
  0
ARC
  5
30F
100
AcDbEntity
  8
0
100
AcDbCircle
 62
7
  6
CONTINUOUS
 10
4.8174047727
 20
4.4575709621
 40
0.722226586
100
AcDbArc
 50
91.771453596
 51
91.9543800604
  0
ARC
  5
310
100
AcDbEntity
  8
0
100
AcDbCircle
 62
7
  6
CONTINUOUS
 10
4.9045302872
 20
5.8331498356
 40
0.6515073441
100
AcDbArc
 50
271.4980655407
 51
272.0198471724
  0
ARC
  5
311
100
AcDbEntity
  8
0
100
AcDbCircle
 62
7
  6
CONTINUOUS
 10
4.79339888
 20
4.9117676419
 40
0.2677081717
100
AcDbArc
 50
92.2181604396
 51
92.5138529004
  0
ARC
  5
312
100
AcDbEntity
  8
0
100
AcDbCircle
 62
7
  6
CONTINUOUS
 10
4.9190331229
 20
5.4194018628
 40
0.2375052964
100
AcDbArc
 50
272.0413186863
 51
272.257908356
  0
ARC
  5
313
100
AcDbEntity
  8
0
100
AcDbCircle
 62
7
  6
CONTINUOUS
 10
4.9269150915
 20
4.9721411071
 40
0.2101451708
100
AcDbArc
 50
89.6132850332
 51
89.785569881
  0
ARC
  5
314
100
AcDbEntity
  8
0
100
AcDbCircle
 62
7
  6
CONTINUOUS
 10
4.9273354701
 20
5.032728125
 40
0.1495566961
100
AcDbArc
 50
89.2753084993
 51
89.6176689345
  0
ARC
  5
315
100
AcDbEntity
  8
0
100
AcDbCircle
 62
7
  6
CONTINUOUS
 10
4.7905703794
 20
5.2956822366
 40
0.11655258
100
AcDbArc
 50
269.5841571946
 51
270.2294810299
  0
ARC
  5
316
100
AcDbEntity
  8
0
100
AcDbCircle
 62
7
  6
CONTINUOUS
 10
4.6285830054
 20
4.4003640449
 40
0.0693674786
100
AcDbArc
 50
355.8310920191
 51
0.003601985
  0
ARC
  5
317
100
AcDbEntity
  8
0
100
AcDbCircle
 62
7
  6
CONTINUOUS
 10
4.6286473581
 20
4.4003617047
 40
0.069303126
100
AcDbArc
 50
355.8291539348
 51
0.0055400692
  0
ARC
  5
318
100
AcDbEntity
  8
0
100
AcDbCircle
 62
7
  6
CONTINUOUS
 10
4.9202699358
 20
5.1322373454
 40
0.0498740477
100
AcDbArc
 50
89.0968792832
 51
89.6599520794
  0
SPLINE
  5
319
100
AcDbEntity
  8
ALL_ASSEMBLY_MEMBERS
100
AcDbSpline
 62
7
  6
CONTINUOUS
 70
0
 71
3
 72
32
 73
28
 74
0
 42
0.0000001
 43
0.0000001
 44
0.0000000001
 40
0.0
 40
0.0
 40
0.0
 40
0.0
 40
0.0659613704
 40
0.1319361817
 40
0.1977662495
 40
0.2633283896
 40
0.3284910884
 40
0.3608929474
 40
0.3931529688
 40
0.4252589725
 40
0.4571997658
 40
0.5205327002
 40
0.5519235001
 40
0.5831173174
 40
0.6448821262
 40
0.67546626
 40
0.7058472714
 40
0.7360282953
 40
0.7660140609
 40
0.7958111266
 40
0.8254276341
 40
0.8548737986
 40
0.884161265
 40
0.9133025586
 40
0.9423111759
 40
0.9712038436
 40
1.0
 40
1.0
 40
1.0
 40
1.0
 10
4.2324635418
 20
3.6547214279
 30
0.0
 10
4.2325852894
 20
3.6562125989
 30
0.0
 10
4.2327096512
 20
3.659206337
 30
0.0
 10
4.2325387726
 20
3.663693315
 30
0.0
 10
4.232011754
 20
3.6681437598
 30
0.0
 10
4.2311333958
 20
3.6725194125
 30
0.0
 10
4.2301123497
 20
3.6760804636
 30
0.0
 10
4.2291271956
 20
3.6788561965
 30
0.0
 10
4.2283076225
 20
3.6808930265
 30
0.0
 10
4.2274078485
 20
3.6828842884
 30
0.0
 10
4.2261074819
 20
3.6854650483
 30
0.0
 10
4.2246513523
 20
3.6879466575
 30
0.0
 10
4.2230464932
 20
3.6903101121
 30
0.0
 10
4.2213599875
 20
3.6925717353
 30
0.0
 10
4.2195349462
 20
3.6947041951
 30
0.0
 10
4.2175822727
 20
3.6966893059
 30
0.0
 10
4.2160647158
 20
3.6980944326
 30
0.0
 10
4.2144928722
 20
3.699417515
 30
0.0
 10
4.2128699258
 20
3.7006557216
 30
0.0
 10
4.2111993884
 20
3.7018065252
 30
0.0
 10
4.2094846994
 20
3.7028673948
 30
0.0
 10
4.207729528
 20
3.7038361843
 30
0.0
 10
4.205937514
 20
3.7047107267
 30
0.0
 10
4.2041125258
 20
3.7054892553
 30
0.0
 10
4.2022583834
 20
3.7061700652
 30
0.0
 10
4.2003790189
 20
3.7067516925
 30
0.0
 10
4.1991098647
 20
3.7070730329
 30
0.0
 10
4.1984726933
 20
3.7072166349
 30
0.0
  0
SPLINE
  5
31A
100
AcDbEntity
  8
ALL_ASSEMBLY_MEMBERS
100
AcDbSpline
 62
7
  6
CONTINUOUS
 70
0
 71
3
 72
15
 73
11
 74
0
 42
0.0000001
 43
0.0000001
 44
0.0000000001
 40
0.0
 40
0.0
 40
0.0
 40
0.0
 40
0.1205437606
 40
0.2427052429
 40
0.3663686468
 40
0.491386035
 40
0.6175417446
 40
0.7445697623
 40
0.8721736321
 40
1.0
 40
1.0
 40
1.0
 40
1.0
 10
4.2195842472
 20
3.6171339128
 30
0.0
 10
4.2206425894
 20
3.61837655
 30
0.0
 10
4.2226541834
 20
3.6209827696
 30
0.0
 10
4.2253063944
 20
3.6251832892
 30
0.0
 10
4.2275852921
 20
3.6296659736
 30
0.0
 10
4.2294635659
 20
3.6343887928
 30
0.0
 10
4.2309170643
 20
3.6393066534
 30
0.0
 10
4.2319254164
 20
3.6443705639
 30
0.0
 10
4.2324717363
 20
3.6495272958
 30
0.0
 10
4.2325198765
 20
3.6529914847
 30
0.0
 10
4.2324635418
 20
3.6547214279
 30
0.0
  0
SPLINE
  5
31B
100
AcDbEntity
  8
ALL_ASSEMBLY_MEMBERS
100
AcDbSpline
 62
7
  6
CONTINUOUS
 70
0
 71
3
 72
24
 73
20
 74
0
 42
0.0000001
 43
0.0000001
 44
0.0000000001
 40
0.0
 40
0.0
 40
0.0
 40
0.0
 40
0.0649538253
 40
0.1293919738
 40
0.1932851965
 40
0.2566630634
 40
0.3195795291
 40
0.3820890247
 40
0.4132134947
 40
0.4442576434
 40
0.506130136
 40
0.5677904198
 40
0.6293156825
 40
0.690784979
 40
0.7522776062
 40
0.8138724059
 40
0.8756445897
 40
0.9376655672
 40
1.0
 40
1.0
 40
1.0
 40
1.0
 10
4.2195842472
 20
3.6171339128
 30
0.0
 10
4.2187583897
 20
3.6163272383
 30
0.0
 10
4.217058031
 20
3.6147756676
 30
0.0
 10
4.2143648306
 20
3.6126387385
 30
0.0
 10
4.2115511808
 20
3.6107118507
 30
0.0
 10
4.2086309686
 20
3.6090035281
 30
0.0
 10
4.2056172686
 20
3.6075210836
 30
0.0
 10
4.2030351762
 20
3.6064771101
 30
0.0
 10
4.2009375788
 20
3.6057612048
 30
0.0
 10
4.1988257475
 20
3.6051267646
 30
0.0
 10
4.196152002
 20
3.6044831361
 30
0.0
 10
4.1929027307
 20
3.6039536578
 30
0.0
 10
4.1896299818
 20
3.6036696871
 30
0.0
 10
4.1863481657
 20
3.6036313863
 30
0.0
 10
4.1830714657
 20
3.60383884
 30
0.0
 10
4.179813926
 20
3.6042897398
 30
0.0
 10
4.1765894355
 20
3.6049821367
 30
0.0
 10
4.1734116637
 20
3.6059115813
 30
0.0
 10
4.1713385824
 20
3.606684463
 30
0.0
 10
4.1703148684
 20
3.6071080768
 30
0.0
  0
SPLINE
  5
31C
100
AcDbEntity
  8
ALL_ASSEMBLY_MEMBERS
100
AcDbSpline
 62
7
  6
CONTINUOUS
 70
0
 71
3
 72
15
 73
11
 74
0
 42
0.0000001
 43
0.0000001
 44
0.0000000001
 40
0.0
 40
0.0
 40
0.0
 40
0.0
 40
0.1248119722
 40
0.2491414003
 40
0.3732683428
 40
0.4974667608
 40
0.6220036804
 40
0.7471276416
 40
0.8730636721
 40
1.0
 40
1.0
 40
1.0
 40
1.0
 10
4.1943622842
 20
3.7079031256
 30
0.0
 10
4.1932227072
 20
3.7082057977
 30
0.0
 10
4.1909176898
 20
3.7087020732
 30
0.0
 10
4.1874104328
 20
3.7091133761
 30
0.0
 10
4.1838855494
 20
3.7091907764
 30
0.0
 10
4.1803671831
 20
3.7089371582
 30
0.0
 10
4.1768782038
 20
3.7083576886
 30
0.0
 10
4.1734405479
 20
3.7074593972
 30
0.0
 10
4.1700755498
 20
3.706251258
 30
0.0
 10
4.1679026839
 20
3.7052503383
 30
0.0
 10
4.166835639
 20
3.7047031736
 30
0.0
  0
SPLINE
  5
31D
100
AcDbEntity
  8
ALL_ASSEMBLY_MEMBERS
100
AcDbSpline
 62
7
  6
CONTINUOUS
 70
0
 71
3
 72
38
 73
34
 74
0
 42
0.0000001
 43
0.0000001
 44
0.0000000001
 40
0.0
 40
0.0
 40
0.0
 40
0.0
 40
0.0300875761
 40
0.0604588497
 40
0.0910914703
 40
0.1219748073
 40
0.1531032558
 40
0.1844651589
 40
0.2160416143
 40
0.2478116322
 40
0.2797523674
 40
0.3118392115
 40
0.3440452817
 40
0.3763420002
 40
0.4086999688
 40
0.4410887571
 40
0.4734778449
 40
0.5058364915
 40
0.5381343552
 40
0.5703420193
 40
0.6343503563
 40
0.6661229548
 40
0.6977020309
 40
0.7290672953
 40
0.7602011422
 40
0.7910895172
 40
0.8217212524
 40
0.8520894402
 40
0.8821904999
 40
0.9120252532
 40
0.9415984593
 40
0.9709189629
 40
1.0
 40
1.0
 40
1.0
 40
1.0
 10
4.159973742
 20
3.7003381636
 30
0.0
 10
4.1592408905
 20
3.6996142846
 30
0.0
 10
4.1578135901
 20
3.6981130579
 30
0.0
 10
4.1558056541
 20
3.6957244759
 30
0.0
 10
4.153928892
 20
3.6931973826
 30
0.0
 10
4.1521907777
 20
3.6905420635
 30
0.0
 10
4.1505977066
 20
3.6877684769
 30
0.0
 10
4.1491556087
 20
3.6848869712
 30
0.0
 10
4.1478696935
 20
3.6819085512
 30
0.0
 10
4.1467453046
 20
3.678844392
 30
0.0
 10
4.1457861991
 20
3.6757062989
 30
0.0
 10
4.1449964408
 20
3.6725060087
 30
0.0
 10
4.1443786233
 20
3.6692557427
 30
0.0
 10
4.1439353208
 20
3.6659677558
 30
0.0
 10
4.143668162
 20
3.6626545307
 30
0.0
 10
4.1435780039
 20
3.6593286143
 30
0.0
 10
4.1436655122
 20
3.6560025967
 30
0.0
 10
4.1439298959
 20
3.6526891051
 30
0.0
 10
4.1443707122
 20
3.6494005504
 30
0.0
 10
4.1451888301
 20
3.6450758751
 30
0.0
 10
4.1463521072
 20
3.6408404096
 30
0.0
 10
4.1478514851
 20
3.6367441707
 30
0.0
 10
4.1491349624
 20
3.6337642714
 30
0.0
 10
4.1505746984
 20
3.6308811748
 30
0.0
 10
4.1521657315
 20
3.6281058708
 30
0.0
 10
4.1539015853
 20
3.6254486777
 30
0.0
 10
4.1557761183
 20
3.622919922
 30
0.0
 10
4.1577819467
 20
3.6205290155
 30
0.0
 10
4.1599116479
 20
3.6182851433
 30
0.0
 10
4.1621571642
 20
3.6161968861
 30
0.0
 10
4.1645098969
 20
3.6142719914
 30
0.0
 10
4.1669610365
 20
3.6125182095
 30
0.0
 10
4.1686613707
 20
3.6114629523
 30
0.0
 10
4.1695244444
 20
3.6109665956
 30
0.0
  0
SPLINE
  5
31E
100
AcDbEntity
  8
ALL_ASSEMBLY_MEMBERS
100
AcDbSpline
 62
7
  6
CONTINUOUS
 70
0
 71
3
 72
22
 73
18
 74
0
 42
0.0000001
 43
0.0000001
 44
0.0000000001
 40
0.0
 40
0.0
 40
0.0
 40
0.0
 40
0.0617895877
 40
0.1233952842
 40
0.184878291
 40
0.2463013059
 40
0.3077284573
 40
0.3692230717
 40
0.4308481695
 40
0.492664831
 40
0.5547313762
 40
0.617101036
 40
0.679820317
 40
0.7429337016
 40
0.8064872623
 40
0.8705223054
 40
1.0
 40
1.0
 40
1.0
 40
1.0
 10
4.1801559813
 20
3.6066079775
 30
0.0
 10
4.181005132
 20
3.6063884396
 30
0.0
 10
4.1827153304
 20
3.6060037061
 30
0.0
 10
4.1853089391
 20
3.6055927256
 30
0.0
 10
4.1879185252
 20
3.6053496374
 30
0.0
 10
4.1905358107
 20
3.605275624
 30
0.0
 10
4.1931525778
 20
3.6053707584
 30
0.0
 10
4.1957606299
 20
3.6056345876
 30
0.0
 10
4.1983517303
 20
3.6060666637
 30
0.0
 10
4.2009178335
 20
3.6066651771
 30
0.0
 10
4.2034508222
 20
3.607428594
 30
0.0
 10
4.2059427201
 20
3.6083543578
 30
0.0
 10
4.2083857964
 20
3.6094393098
 30
0.0
 10
4.2107722531
 20
3.6106803955
 30
0.0
 10
4.2130951399
 20
3.612073656
 30
0.0
 10
4.2161075164
 20
3.6141355007
 30
0.0
 10
4.2182341362
 20
3.6158869319
 30
0.0
 10
4.2195842472
 20
3.6171339128
 30
0.0
  0
SPLINE
  5
31F
100
AcDbEntity
  8
ALL_ASSEMBLY_MEMBERS
100
AcDbSpline
 62
7
  6
CONTINUOUS
 70
0
 71
3
 72
15
 73
11
 74
0
 42
0.0000001
 43
0.0000001
 44
0.0000000001
 40
0.0
 40
0.0
 40
0.0
 40
0.0
 40
0.1205437606
 40
0.2427052429
 40
0.3663686468
 40
0.491386035
 40
0.6175417446
 40
0.7445697623
 40
0.8721736321
 40
1.0
 40
1.0
 40
1.0
 40
1.0
 10
3.9945842472
 20
3.6171339128
 30
0.0
 10
3.9956425894
 20
3.61837655
 30
0.0
 10
3.9976541834
 20
3.6209827696
 30
0.0
 10
4.0003063944
 20
3.6251832892
 30
0.0
 10
4.0025852921
 20
3.6296659736
 30
0.0
 10
4.0044635659
 20
3.6343887928
 30
0.0
 10
4.0059170643
 20
3.6393066534
 30
0.0
 10
4.0069254164
 20
3.6443705639
 30
0.0
 10
4.0074717363
 20
3.6495272958
 30
0.0
 10
4.0075198765
 20
3.6529914847
 30
0.0
 10
4.0074635418
 20
3.6547214279
 30
0.0
  0
SPLINE
  5
320
100
AcDbEntity
  8
ALL_ASSEMBLY_MEMBERS
100
AcDbSpline
 62
7
  6
CONTINUOUS
 70
0
 71
3
 72
10
 73
6
 74
0
 42
0.0000001
 43
0.0000001
 44
0.0000000001
 40
0.0
 40
0.0
 40
0.0
 40
0.0
 40
0.5037214584
 40
0.7528265812
 40
1.0
 40
1.0
 40
1.0
 40
1.0
 10
3.9945842472
 20
3.6171339128
 30
0.0
 10
3.9934809403
 20
3.6159814042
 30
0.0
 10
3.9917440301
 20
3.6143397032
 30
0.0
 10
3.9892798537
 20
3.6123482297
 30
0.0
 10
3.9880065007
 20
3.611424975
 30
0.0
 10
3.9873607013
 20
3.6109824066
 30
0.0
  0
SPLINE
  5
321
100
AcDbEntity
  8
ALL_ASSEMBLY_MEMBERS
100
AcDbSpline
 62
7
  6
CONTINUOUS
 70
0
 71
3
 72
15
 73
11
 74
0
 42
0.0000001
 43
0.0000001
 44
0.0000000001
 40
0.0
 40
0.0
 40
0.0
 40
0.0
 40
0.1255693921
 40
0.2507108745
 40
0.3755548841
 40
0.500236051
 40
0.6248876814
 40
0.749644875
 40
0.8746399261
 40
1.0
 40
1.0
 40
1.0
 40
1.0
 10
3.9748473443
 20
3.6051166984
 30
0.0
 10
3.9740312849
 20
3.6048900819
 30
0.0
 10
3.9723872553
 20
3.6044886858
 30
0.0
 10
3.9698918145
 20
3.604044501
 30
0.0
 10
3.9673790314
 20
3.6037605428
 30
0.0
 10
3.9648566183
 20
3.6036368758
 30
0.0
 10
3.9623320296
 20
3.6036737944
 30
0.0
 10
3.9598127436
 20
3.6038708545
 30
0.0
 10
3.9573062415
 20
3.6042267679
 30
0.0
 10
3.9556513172
 20
3.6045687608
 30
0.0
 10
3.9548289826
 20
3.6047654439
 30
0.0
  0
SPLINE
  5
322
100
AcDbEntity
  8
ALL_ASSEMBLY_MEMBERS
100
AcDbSpline
 62
7
  6
CONTINUOUS
 70
0
 71
3
 72
45
 73
41
 74
0
 42
0.0000001
 43
0.0000001
 44
0.0000000001
 40
0.0
 40
0.0
 40
0.0
 40
0.0
 40
0.0280296329
 40
0.0421194651
 40
0.0562647378
 40
0.084736019
 40
0.0990772099
 40
0.1134922062
 40
0.1279845212
 40
0.1425571527
 40
0.1572126716
 40
0.1719532571
 40
0.2016904761
 40
0.2166942118
 40
0.2317868814
 40
0.2622330816
 40
0.2930277669
 40
0.3241585631
 40
0.355607042
 40
0.3873499525
 40
0.4193592173
 40
0.4516032993
 40
0.4840471647
 40
0.516653726
 40
0.5493837618
 40
0.5821973568
 40
0.6150538222
 40
0.6479130526
 40
0.6807355375
 40
0.6971229403
 40
0.713487148
 40
0.7461243157
 40
0.7786175536
 40
0.8109371009
 40
0.8430559104
 40
0.8749498499
 40
0.9066008538
 40
0.9380016341
 40
0.969142949
 40
1.0
 40
1.0
 40
1.0
 40
1.0
 10
3.9548289826
 20
3.6047654439
 30
0.0
 10
3.9536807803
 20
3.6050400668
 30
0.0
 10
3.951972119
 20
3.6055277157
 30
0.0
 10
3.9497387833
 20
3.6063218735
 30
0.0
 10
3.9475235682
 20
3.6072164585
 30
0.0
 10
3.9453568122
 20
3.6082537771
 30
0.0
 10
3.943249989
 20
3.6094257717
 30
0.0
 10
3.9416947952
 20
3.6103752435
 30
0.0
 10
3.9401706682
 20
3.6113914046
 30
0.0
 10
3.9386795836
 20
3.6124727981
 30
0.0
 10
3.9372235568
 20
3.6136179845
 30
0.0
 10
3.9353263182
 20
3.6152323493
 30
0.0
 10
3.9335120715
 20
3.616964177
 30
0.0
 10
3.9317880389
 20
3.6188029407
 30
0.0
 10
3.9301128581
 20
3.6207261957
 30
0.0
 10
3.9281339918
 20
3.6232639443
 30
0.0
 10
3.9259620095
 20
3.626495559
 30
0.0
 10
3.9239961411
 20
3.6299053446
 30
0.0
 10
3.9222465062
 20
3.6334753639
 30
0.0
 10
3.92072154
 20
3.6371869199
 30
0.0
 10
3.9194288625
 20
3.6410209213
 30
0.0
 10
3.9183745394
 20
3.6449576984
 30
0.0
 10
3.9175636778
 20
3.6489773448
 30
0.0
 10
3.9169999183
 20
3.6530596384
 30
0.0
 10
3.9166858113
 20
3.6571842725
 30
0.0
 10
3.9166225853
 20
3.6613308611
 30
0.0
 10
3.9168102336
 20
3.6654791374
 30
0.0
 10
3.9172476291
 20
3.6696088477
 30
0.0
 10
3.9178184875
 20
3.673020391
 30
0.0
 10
3.9183975518
 20
3.6757213115
 30
0.0
 10
3.919056153
 20
3.678395904
 30
0.0
 10
3.9200282534
 20
3.681690273
 30
0.0
 10
3.921429141
 20
3.6855510059
 30
0.0
 10
3.9230563828
 20
3.6892982576
 30
0.0
 10
3.9249024596
 20
3.6929143815
 30
0.0
 10
3.9269580221
 20
3.6963830449
 30
0.0
 10
3.9292139748
 20
3.699688346
 30
0.0
 10
3.9316596733
 20
3.7028158221
 30
0.0
 10
3.9342835929
 20
3.7057504666
 30
0.0
 10
3.9361516302
 20
3.7075784886
 30
0.0
 10
3.9371110479
 20
3.7084552299
 30
0.0
  0
SPLINE
  5
323
100
AcDbEntity
  8
ALL_ASSEMBLY_MEMBERS
100
AcDbSpline
 62
7
  6
CONTINUOUS
 70
0
 71
3
 72
17
 73
13
 74
0
 42
0.0000001
 43
0.0000001
 44
0.0000000001
 40
0.0
 40
0.0
 40
0.0
 40
0.0
 40
0.1224788117
 40
0.1838125589
 40
0.245246729
 40
0.3685073189
 40
0.4925254838
 40
0.617508202
 40
0.7436475582
 40
0.8072251014
 40
0.8711517493
 40
1.0
 40
1.0
 40
1.0
 40
1.0
 10
3.9691229839
 20
3.720803456
 30
0.0
 10
3.9676920168
 20
3.7208034704
 30
0.0
 10
3.9655427228
 20
3.7207032357
 30
0.0
 10
3.9626960234
 20
3.720370825
 30
0.0
 10
3.9598585667
 20
3.7199053999
 30
0.0
 10
3.9563428843
 20
3.7190754621
 30
0.0
 10
3.952213392
 20
3.7176917698
 30
0.0
 10
3.9481943301
 20
3.7159289697
 30
0.0
 10
3.9449666818
 20
3.7141574589
 30
0.0
 10
3.9424661888
 20
3.7125655505
 30
0.0
 10
3.9400105989
 20
3.7108495892
 30
0.0
 10
3.9382476838
 20
3.7094422653
 30
0.0
 10
3.9371110479
 20
3.7084552299
 30
0.0
  0
SPLINE
  5
324
100
AcDbEntity
  8
ALL_ASSEMBLY_MEMBERS
100
AcDbSpline
 62
7
  6
CONTINUOUS
 70
0
 71
3
 72
11
 73
7
 74
0
 42
0.0000001
 43
0.0000001
 44
0.0000000001
 40
0.0
 40
0.0
 40
0.0
 40
0.0
 40
0.2493504893
 40
0.4988563144
 40
0.7489404501
 40
1.0
 40
1.0
 40
1.0
 40
1.0
 10
3.9618023049
 20
3.7090948706
 30
0.0
 10
3.9607633926
 20
3.7091500717
 30
0.0
 10
3.9586792544
 20
3.7091732722
 30
0.0
 10
3.9555591129
 20
3.7089478102
 30
0.0
 10
3.9524610465
 20
3.7084657866
 30
0.0
 10
3.9504251772
 20
3.7079775858
 30
0.0
 10
3.9494170334
 20
3.7076931211
 30
0.0
  0
SPLINE
  5
325
100
AcDbEntity
  8
ALL_ASSEMBLY_MEMBERS
100
AcDbSpline
 62
7
  6
CONTINUOUS
 70
0
 71
3
 72
11
 73
7
 74
0
 42
0.0000001
 43
0.0000001
 44
0.0000000001
 40
0.0
 40
0.0
 40
0.0
 40
0.0
 40
0.2466085267
 40
0.4952739413
 40
0.7463464232
 40
1.0
 40
1.0
 40
1.0
 40
1.0
 10
3.9480209266
 20
3.7072714186
 30
0.0
 10
3.94685947
 20
3.7068973284
 30
0.0
 10
3.9445599417
 20
3.7060389522
 30
0.0
 10
3.9412242269
 20
3.7044439442
 30
0.0
 10
3.9380086161
 20
3.7025495575
 30
0.0
 10
3.9359678278
 20
3.7011043255
 30
0.0
 10
3.934973742
 20
3.7003381636
 30
0.0
  0
SPLINE
  5
326
100
AcDbEntity
  8
ALL_ASSEMBLY_MEMBERS
100
AcDbSpline
 62
7
  6
CONTINUOUS
 70
0
 71
3
 72
38
 73
34
 74
0
 42
0.0000001
 43
0.0000001
 44
0.0000000001
 40
0.0
 40
0.0
 40
0.0
 40
0.0
 40
0.0299929757
 40
0.0602579739
 40
0.0907741777
 40
0.121530565
 40
0.1525223193
 40
0.1837403196
 40
0.2151681368
 40
0.2467869137
 40
0.2785763172
 40
0.3105143267
 40
0.342577252
 40
0.3747393648
 40
0.4069741456
 40
0.4392541356
 40
0.5038166466
 40
0.5360641269
 40
0.5682451703
 40
0.6003329746
 40
0.632301667
 40
0.6641270899
 40
0.6957863525
 40
0.727258894
 40
0.7585262509
 40
0.789572364
 40
0.8203843331
 40
0.8509517146
 40
0.8812678269
 40
0.9113289536
 40
0.9411350268
 40
0.9706897386
 40
1.0
 40
1.0
 40
1.0
 40
1.0
 10
3.934973742
 20
3.7003381636
 30
0.0
 10
3.9342714276
 20
3.6996444478
 30
0.0
 10
3.9329020502
 20
3.6982079085
 30
0.0
 10
3.9309698603
 20
3.6959270538
 30
0.0
 10
3.9291575322
 20
3.6935182274
 30
0.0
 10
3.9274718654
 20
3.6909904157
 30
0.0
 10
3.9259184367
 20
3.6883524439
 30
0.0
 10
3.9245027087
 20
3.6856132287
 30
0.0
 10
3.923229199
 20
3.682782456
 30
0.0
 10
3.9221028283
 20
3.6798698377
 30
0.0
 10
3.9211271895
 20
3.6768856853
 30
0.0
 10
3.9203057858
 20
3.6738403234
 30
0.0
 10
3.9196415367
 20
3.670744333
 30
0.0
 10
3.9191364621
 20
3.6676085756
 30
0.0
 10
3.9187927562
 20
3.6644437587
 30
0.0
 10
3.9185506065
 20
3.6602009494
 30
0.0
 10
3.9186346704
 20
3.6559441257
 30
0.0
 10
3.9190439521
 20
3.6517170074
 30
0.0
 10
3.9195124569
 20
3.6485735825
 30
0.0
 10
3.9201405478
 20
3.6454675864
 30
0.0
 10
3.9209265
 20
3.6424097677
 30
0.0
 10
3.9218672154
 20
3.6394107325
 30
0.0
 10
3.9229596211
 20
3.6364809523
 30
0.0
 10
3.9241999576
 20
3.6336306667
 30
0.0
 10
3.925583684
 20
3.630869685
 30
0.0
 10
3.9271063817
 20
3.628207827
 30
0.0
 10
3.9287623463
 20
3.6256541396
 30
0.0
 10
3.9305461762
 20
3.6232177347
 30
0.0
 10
3.932451488
 20
3.6209069998
 30
0.0
 10
3.9344716562
 20
3.6187299808
 30
0.0
 10
3.9365998742
 20
3.6166944513
 30
0.0
 10
3.9388283268
 20
3.6148073038
 30
0.0
 10
3.9403823953
 20
3.6136478939
 30
0.0
 10
3.9411733462
 20
3.613095603
 30
0.0
  0
SPLINE
  5
327
100
AcDbEntity
  8
ALL_ASSEMBLY_MEMBERS
100
AcDbSpline
 62
7
  6
CONTINUOUS
 70
0
 71
3
 72
21
 73
17
 74
0
 42
0.0000001
 43
0.0000001
 44
0.0000000001
 40
0.0
 40
0.0
 40
0.0
 40
0.0
 40
0.0642782924
 40
0.1281677941
 40
0.1916914762
 40
0.2548765782
 40
0.3177529098
 40
0.3803536883
 40
0.5048327337
 40
0.6286738746
 40
0.6904847811
 40
0.7522669491
 40
0.8140653375
 40
0.8759242879
 40
0.9378880878
 40
1.0
 40
1.0
 40
1.0
 40
1.0
 10
3.9411733462
 20
3.613095603
 30
0.0
 10
3.9417945839
 20
3.6126618162
 30
0.0
 10
3.9430548707
 20
3.6118272705
 30
0.0
 10
3.9449998092
 20
3.6106752192
 30
0.0
 10
3.9469894231
 20
3.6096294188
 30
0.0
 10
3.9490191572
 20
3.6086919713
 30
0.0
 10
3.951084709
 20
3.6078649443
 30
0.0
 10
3.953874695
 20
3.6069141477
 30
0.0
 10
3.9574333736
 20
3.6060073027
 30
0.0
 10
3.9610595955
 20
3.6054875574
 30
0.0
 10
3.9639719495
 20
3.6053079911
 30
0.0
 10
3.9661583514
 20
3.6052914601
 30
0.0
 10
3.9683429638
 20
3.6053928148
 30
0.0
 10
3.9705211172
 20
3.6056118359
 30
0.0
 10
3.9726879125
 20
3.6059482773
 30
0.0
 10
3.9741199079
 20
3.6062498095
 30
0.0
 10
3.9748320997
 20
3.6064196445
 30
0.0
  0
SPLINE
  5
328
100
AcDbEntity
  8
ALL_ASSEMBLY_MEMBERS
100
AcDbSpline
 62
7
  6
CONTINUOUS
 70
0
 71
3
 72
23
 73
19
 74
0
 42
0.0000001
 43
0.0000001
 44
0.0000000001
 40
0.0
 40
0.0
 40
0.0
 40
0.0
 40
0.064562083
 40
0.128854452
 40
0.1928294606
 40
0.2564788298
 40
0.3198107329
 40
0.3828331374
 40
0.4455532881
 40
0.5079840221
 40
0.5701460706
 40
0.632061546
 40
0.6937561169
 40
0.7552560375
 40
0.8165975092
 40
0.8778206082
 40
0.9389521723
 40
1.0
 40
1.0
 40
1.0
 40
1.0
 10
3.934973742
 20
3.7003381636
 30
0.0
 10
3.9356322789
 20
3.7011252239
 30
0.0
 10
3.9369886375
 20
3.7026614331
 30
0.0
 10
3.9391377708
 20
3.7048487368
 30
0.0
 10
3.941390552
 20
3.7069078381
 30
0.0
 10
3.9437391724
 20
3.7088328914
 30
0.0
 10
3.9461763992
 20
3.7106189826
 30
0.0
 10
3.9486947643
 20
3.7122618465
 30
0.0
 10
3.9512866755
 20
3.713757601
 30
0.0
 10
3.9539445672
 20
3.715102682
 30
0.0
 10
3.9566606608
 20
3.7162945075
 30
0.0
 10
3.9594274472
 20
3.7173304735
 30
0.0
 10
3.9622371175
 20
3.7182090974
 30
0.0
 10
3.9650822136
 20
3.7189288329
 30
0.0
 10
3.9679553367
 20
3.7194889547
 30
0.0
 10
3.9708491932
 20
3.7198889823
 30
0.0
 10
3.9737559071
 20
3.7201289099
 30
0.0
 10
3.975698361
 20
3.7201827061
 30
0.0
 10
3.9766687248
 20
3.7201831001
 30
0.0
  0
SPLINE
  5
329
100
AcDbEntity
  8
ALL_ASSEMBLY_MEMBERS
100
AcDbSpline
 62
7
  6
CONTINUOUS
 70
0
 71
3
 72
23
 73
19
 74
0
 42
0.0000001
 43
0.0000001
 44
0.0000000001
 40
0.0
 40
0.0
 40
0.0
 40
0.0
 40
0.0651572782
 40
0.1303512328
 40
0.1954527956
 40
0.2603767586
 40
0.3250278691
 40
0.3893146657
 40
0.4531564543
 40
0.5164812148
 40
0.5792271294
 40
0.6413441399
 40
0.7027960279
 40
0.7635624439
 40
0.8236416032
 40
0.8830494368
 40
0.9418188405
 40
1.0
 40
1.0
 40
1.0
 40
1.0
 10
4.0074635418
 20
3.6547214279
 30
0.0
 10
4.0075674399
 20
3.6559939774
 30
0.0
 10
4.0076884604
 20
3.6585477283
 30
0.0
 10
4.0076096902
 20
3.6623797012
 30
0.0
 10
4.0072708937
 20
3.6661930906
 30
0.0
 10
4.0066742728
 20
3.6699639271
 30
0.0
 10
4.0058235702
 20
3.673669357
 30
0.0
 10
4.0047238621
 20
3.6772865584
 30
0.0
 10
4.0033818367
 20
3.6807932812
 30
0.0
 10
4.0018057903
 20
3.6841680339
 30
0.0
 10
4.0000052765
 20
3.6873900045
 30
0.0
 10
3.9979912941
 20
3.6904392639
 30
0.0
 10
3.9957763378
 20
3.6932970401
 30
0.0
 10
3.9933738929
 20
3.6959456088
 30
0.0
 10
3.9907987408
 20
3.698368654
 30
0.0
 10
3.9880665525
 20
3.7005512914
 30
0.0
 10
3.9851943354
 20
3.7024798813
 30
0.0
 10
3.9831878146
 20
3.7035938273
 30
0.0
 10
3.9821680277
 20
3.7041035587
 30
0.0
  0
SPLINE
  5
32A
100
AcDbEntity
  8
ALL_ASSEMBLY_MEMBERS
100
AcDbSpline
 62
7
  6
CONTINUOUS
 70
0
 71
3
 72
11
 73
7
 74
0
 42
0.0000001
 43
0.0000001
 44
0.0000000001
 40
0.0
 40
0.0
 40
0.0
 40
0.0
 40
0.2521460427
 40
0.502622626
 40
0.7518114416
 40
1.0
 40
1.0
 40
1.0
 40
1.0
 10
3.981024299
 20
3.7046524079
 30
0.0
 10
3.9800961572
 20
3.705079503
 30
0.0
 10
3.9782118184
 20
3.7058587988
 30
0.0
 10
3.9753098457
 20
3.7067958312
 30
0.0
 10
3.9723573051
 20
3.7074919835
 30
0.0
 10
3.9703619724
 20
3.7077937132
 30
0.0
 10
3.9693622842
 20
3.7079031256
 30
0.0
  0
SPLINE
  5
32B
100
AcDbEntity
  8
ALL_ASSEMBLY_MEMBERS
100
AcDbSpline
 62
7
  6
CONTINUOUS
 70
0
 71
3
 72
11
 73
7
 74
0
 42
0.0000001
 43
0.0000001
 44
0.0000000001
 40
0.0
 40
0.0
 40
0.0
 40
0.0
 40
0.2483965544
 40
0.497746059
 40
0.7481780525
 40
1.0
 40
1.0
 40
1.0
 40
1.0
 10
3.9693622842
 20
3.7079031256
 30
0.0
 10
3.9704568208
 20
3.7077884156
 30
0.0
 10
3.9726416111
 20
3.7074676804
 30
0.0
 10
3.9758744749
 20
3.7067192064
 30
0.0
 10
3.9790502228
 20
3.7057057877
 30
0.0
 10
3.9811116221
 20
3.7048603509
 30
0.0
 10
3.9821263473
 20
3.7043965233
 30
0.0
  0
SPLINE
  5
32C
100
AcDbEntity
  8
ALL_ASSEMBLY_MEMBERS
100
AcDbSpline
 62
7
  6
CONTINUOUS
 70
0
 71
3
 72
36
 73
32
 74
0
 42
0.0000001
 43
0.0000001
 44
0.0000000001
 40
0.0
 40
0.0
 40
0.0
 40
0.0
 40
0.0297111144
 40
0.0595956579
 40
0.089665048
 40
0.1199285644
 40
0.1503924646
 40
0.1810602155
 40
0.211931253
 40
0.2430017855
 40
0.2742651402
 40
0.3057111018
 40
0.337327073
 40
0.3690973964
 40
0.4010038931
 40
0.4330264472
 40
0.4651424948
 40
0.4973280558
 40
0.561783089
 40
0.5940196581
 40
0.6262178744
 40
0.6903649073
 40
0.7222788801
 40
0.7540431574
 40
0.7856318487
 40
0.8170201062
 40
0.8790839396
 40
0.9097426183
 40
0.9401230995
 40
0.970212029
 40
1.0
 40
1.0
 40
1.0
 40
1.0
 10
3.9821263473
 20
3.7043965233
 30
0.0
 10
3.9829367015
 20
3.7040261129
 30
0.0
 10
3.9845391102
 20
3.7032315743
 30
0.0
 10
3.9868708546
 20
3.7018891605
 30
0.0
 10
3.9891297893
 20
3.7003971206
 30
0.0
 10
3.9913081653
 20
3.6987607773
 30
0.0
 10
3.9933989941
 20
3.6969861405
 30
0.0
 10
3.9953950273
 20
3.6950791009
 30
0.0
 10
3.9972899833
 20
3.693046704
 30
0.0
 10
3.9990774508
 20
3.6908959169
 30
0.0
 10
4.0007514924
 20
3.6886342764
 30
0.0
 10
4.0023069288
 20
3.6862699142
 30
0.0
 10
4.003738306
 20
3.6838108733
 30
0.0
 10
4.0050413681
 20
3.6812660074
 30
0.0
 10
4.0062117918
 20
3.6786441312
 30
0.0
 10
4.0072457567
 20
3.6759544518
 30
0.0
 10
4.0081404007
 20
3.6732063811
 30
0.0
 10
4.0091435197
 20
3.6694763574
 30
0.0
 10
4.0098571973
 20
3.6656696811
 30
0.0
 10
4.0102754568
 20
3.661825766
 30
0.0
 10
4.0104962897
 20
3.6579747329
 30
0.0
 10
4.0104210044
 20
3.6541210542
 30
0.0
 10
4.0100498586
 20
3.6503044344
 30
0.0
 10
4.0096259007
 20
3.6474777722
 30
0.0
 10
4.0090581393
 20
3.6446924971
 30
0.0
 10
4.0081158437
 20
3.6410616972
 30
0.0
 10
4.006894359
 20
3.6375367004
 30
0.0
 10
4.0054014
 20
3.6341587714
 30
0.0
 10
4.0041588906
 20
3.631723028
 30
0.0
 10
4.0027936982
 20
3.6293842387
 30
0.0
 10
4.0018001071
 20
3.6278871132
 30
0.0
 10
4.001284439
 20
3.6271576772
 30
0.0
  0
SPLINE
  5
32D
100
AcDbEntity
  8
ALL_ASSEMBLY_MEMBERS
100
AcDbSpline
 62
7
  6
CONTINUOUS
 70
0
 71
3
 72
15
 73
11
 74
0
 42
0.0000001
 43
0.0000001
 44
0.0000000001
 40
0.0
 40
0.0
 40
0.0
 40
0.0
 40
0.1187382
 40
0.2395711467
 40
0.3623668073
 40
0.4871230784
 40
0.6136554501
 40
0.7415962448
 40
0.8705580404
 40
1.0
 40
1.0
 40
1.0
 40
1.0
 10
3.9878243001
 20
3.7169938424
 30
0.0
 10
3.9900112145
 20
3.7157276035
 30
0.0
 10
3.9942502114
 20
3.7128610192
 30
0.0
 10
4.0000229839
 20
3.7077153127
 30
0.0
 10
4.0051622162
 20
3.7017655389
 30
0.0
 10
4.0095785539
 20
3.6951168496
 30
0.0
 10
4.0131994797
 20
3.6878817003
 30
0.0
 10
4.0159591506
 20
3.680181422
 30
0.0
 10
4.0178090781
 20
3.6721513943
 30
0.0
 10
4.0184110076
 20
3.6666701205
 30
0.0
 10
4.018552489
 20
3.6639189084
 30
0.0
  0
SPLINE
  5
32E
100
AcDbEntity
  8
ALL_ASSEMBLY_MEMBERS
100
AcDbSpline
 62
7
  6
CONTINUOUS
 70
0
 71
3
 72
14
 73
10
 74
0
 42
0.0000001
 43
0.0000001
 44
0.0000000001
 40
0.0
 40
0.0
 40
0.0
 40
0.0
 40
0.2597487989
 40
0.3878308097
 40
0.5142355888
 40
0.6387806092
 40
0.7613049138
 40
0.8817076628
 40
1.0
 40
1.0
 40
1.0
 40
1.0
 10
4.0183694023
 20
3.6540893025
 30
0.0
 10
4.0179925444
 20
3.6498654831
 30
0.0
 10
4.0168527515
 20
3.6435874406
 30
0.0
 10
4.0141799771
 20
3.6356192163
 30
0.0
 10
4.0116469887
 20
3.629961471
 30
0.0
 10
4.0086012337
 20
3.6246674142
 30
0.0
 10
4.0050807792
 20
3.6197955877
 30
0.0
 10
4.0011229187
 20
3.6154085506
 30
0.0
 10
3.9981969199
 20
3.6128195476
 30
0.0
 10
3.9966781442
 20
3.6116266922
 30
0.0
  0
SPLINE
  5
32F
100
AcDbEntity
  8
ALL_ASSEMBLY_MEMBERS
100
AcDbSpline
 62
7
  6
CONTINUOUS
 70
0
 71
3
 72
14
 73
10
 74
0
 42
0.0000001
 43
0.0000001
 44
0.0000000001
 40
0.0
 40
0.0
 40
0.0
 40
0.0
 40
0.126088728
 40
0.2513338027
 40
0.5000661393
 40
0.6243734856
 40
0.7489460718
 40
0.874063484
 40
1.0
 40
1.0
 40
1.0
 40
1.0
 10
3.9848842297
 20
3.6048558706
 30
0.0
 10
3.9836798575
 20
3.6043873396
 30
0.0
 10
3.9812360935
 20
3.6035589185
 30
0.0
 10
3.9762480145
 20
3.6023598629
 30
0.0
 10
3.971130803
 20
3.6018545621
 30
0.0
 10
3.9660295305
 20
3.602069309
 30
0.0
 10
3.962225679
 20
3.6025884578
 30
0.0
 10
3.9584708992
 20
3.6034617134
 30
0.0
 10
3.9560251486
 20
3.6042749658
 30
0.0
 10
3.9548202758
 20
3.604737876
 30
0.0
  0
SPLINE
  5
330
100
AcDbEntity
  8
ALL_ASSEMBLY_MEMBERS
100
AcDbSpline
 62
7
  6
CONTINUOUS
 70
0
 71
3
 72
15
 73
11
 74
0
 42
0.0000001
 43
0.0000001
 44
0.0000000001
 40
0.0
 40
0.0
 40
0.0
 40
0.0
 40
0.1169409088
 40
0.2364085191
 40
0.3583315263
 40
0.4827472236
 40
0.6094981238
 40
0.7382350117
 40
0.8685809458
 40
1.0
 40
1.0
 40
1.0
 40
1.0
 10
4.2146317997
 20
3.7169938424
 30
0.0
 10
4.216719486
 20
3.7157253935
 30
0.0
 10
4.2207593802
 20
3.712851827
 30
0.0
 10
4.2262229337
 20
3.7077035324
 30
0.0
 10
4.2310508152
 20
3.7017516266
 30
0.0
 10
4.2351540066
 20
3.6951013192
 30
0.0
 10
4.2384601182
 20
3.6878649188
 30
0.0
 10
4.2409033044
 20
3.6801637825
 30
0.0
 10
4.242435114
 20
3.6721331115
 30
0.0
 10
4.2428229066
 20
3.6666639499
 30
0.0
 10
4.242857971
 20
3.6639189084
 30
0.0
  0
SPLINE
  5
331
100
AcDbEntity
  8
ALL_ASSEMBLY_MEMBERS
100
AcDbSpline
 62
7
  6
CONTINUOUS
 70
0
 71
3
 72
9
 73
5
 74
0
 42
0.0000001
 43
0.0000001
 44
0.0000000001
 40
0.0
 40
0.0
 40
0.0
 40
0.0
 40
0.2527267792
 40
1.0
 40
1.0
 40
1.0
 40
1.0
 10
4.1413271426
 20
3.6863005788
 30
0.0
 10
4.141837058
 20
3.6875584934
 30
0.0
 10
4.14400323
 20
3.6924739672
 30
0.0
 10
4.1467600969
 20
3.6971322676
 30
0.0
 10
4.1491275004
 20
3.7003731046
 30
0.0
  0
SPLINE
  5
332
100
AcDbEntity
  8
ALL_ASSEMBLY_MEMBERS
100
AcDbSpline
 62
7
  6
CONTINUOUS
 70
0
 71
3
 72
13
 73
9
 74
0
 42
0.0000001
 43
0.0000001
 44
0.0000000001
 40
0.0
 40
0.0
 40
0.0
 40
0.0
 40
0.1290617698
 40
0.2567594733
 40
0.5081956229
 40
0.6323612323
 40
0.7556288047
 40
1.0
 40
1.0
 40
1.0
 40
1.0
 10
4.1559169282
 20
3.7081743979
 30
0.0
 10
4.1569777346
 20
3.7091978184
 30
0.0
 10
4.1591670452
 20
3.7111544259
 30
0.0
 10
4.1637888115
 20
3.7146720968
 30
0.0
 10
4.1687711651
 20
3.7175993923
 30
0.0
 10
4.1740121682
 20
3.7198491508
 30
0.0
 10
4.179347241
 20
3.7216211563
 30
0.0
 10
4.1834951937
 20
3.7224306534
 30
0.0
 10
4.1862707846
 20
3.7227230639
 30
0.0
  0
SPLINE
  5
333
100
AcDbEntity
  8
ALL_ASSEMBLY_MEMBERS
100
AcDbSpline
 62
7
  6
CONTINUOUS
 70
0
 71
3
 72
14
 73
10
 74
0
 42
0.0000001
 43
0.0000001
 44
0.0000000001
 40
0.0
 40
0.0
 40
0.0
 40
0.0
 40
0.2558057528
 40
0.382822432
 40
0.5088357138
 40
0.6336868885
 40
0.7572380005
 40
0.8793633868
 40
1.0
 40
1.0
 40
1.0
 40
1.0
 10
4.2422932468
 20
3.6540893025
 30
0.0
 10
4.241802462
 20
3.6502668106
 30
0.0
 10
4.2405951025
 20
3.644590533
 30
0.0
 10
4.2380518384
 20
3.6373517868
 30
0.0
 10
4.2357054852
 20
3.6321562105
 30
0.0
 10
4.2329335307
 20
3.6272349389
 30
0.0
 10
4.229759066
 20
3.6226334837
 30
0.0
 10
4.2262116277
 20
3.6183957176
 30
0.0
 10
4.2235989736
 20
3.6158264045
 30
0.0
 10
4.2222412251
 20
3.6146182261
 30
0.0
  0
SPLINE
  5
334
100
AcDbEntity
  8
ALL_ASSEMBLY_MEMBERS
100
AcDbSpline
 62
7
  6
CONTINUOUS
 70
0
 71
3
 72
16
 73
12
 74
0
 42
0.0000001
 43
0.0000001
 44
0.0000000001
 40
0.0
 40
0.0
 40
0.0
 40
0.0
 40
0.1288347593
 40
0.2558810655
 40
0.3813794816
 40
0.5056555527
 40
0.6291456884
 40
0.7523358758
 40
0.8140209045
 40
0.8758302144
 40
1.0
 40
1.0
 40
1.0
 40
1.0
 10
4.2218848115
 20
3.6143038428
 30
0.0
 10
4.2202800581
 20
3.6129007109
 30
0.0
 10
4.2169257746
 20
3.610297655
 30
0.0
 10
4.2114894865
 20
3.6070626722
 30
0.0
 10
4.2057554546
 20
3.6045707106
 30
0.0
 10
4.1998017712
 20
3.602861799
 30
0.0
 10
4.1937110473
 20
3.6019685524
 30
0.0
 10
4.1885921883
 20
3.6019138987
 30
0.0
 10
4.1845249753
 20
3.602288643
 30
0.0
 10
4.1804770274
 20
3.6029401349
 30
0.0
 10
4.177492321
 20
3.6037378017
 30
0.0
 10
4.1755474797
 20
3.604399991
 30
0.0
  0
SPLINE
  5
335
100
AcDbEntity
  8
ALL_ASSEMBLY_MEMBERS
100
AcDbSpline
 62
7
  6
CONTINUOUS
 70
0
 71
3
 72
9
 73
5
 74
0
 42
0.0000001
 43
0.0000001
 44
0.0000000001
 40
0.0
 40
0.0
 40
0.0
 40
0.0
 40
0.4965542548
 40
1.0
 40
1.0
 40
1.0
 40
1.0
 10
4.1755474797
 20
3.604399991
 30
0.0
 10
4.1734383915
 20
3.6051181038
 30
0.0
 10
4.1692911506
 20
3.6068751289
 30
0.0
 10
4.1654318161
 20
3.6091952712
 30
0.0
 10
4.1635798108
 20
3.6104886223
 30
0.0
  0
SPLINE
  5
336
100
AcDbEntity
  8
ALL_ASSEMBLY_MEMBERS
100
AcDbSpline
 62
7
  6
CONTINUOUS
 70
0
 71
3
 72
11
 73
7
 74
0
 42
0.0000001
 43
0.0000001
 44
0.0000000001
 40
0.0
 40
0.0
 40
0.0
 40
0.0
 40
0.2476746116
 40
0.4967374296
 40
0.7474744183
 40
1.0
 40
1.0
 40
1.0
 40
1.0
 10
3.9690306799
 20
3.7227678951
 30
0.0
 10
3.9706565554
 20
3.7226121979
 30
0.0
 10
3.9739038692
 20
3.7221326279
 30
0.0
 10
3.9786892197
 20
3.7209168878
 30
0.0
 10
3.98335977
 20
3.719220576
 30
0.0
 10
3.9863588553
 20
3.7177848593
 30
0.0
 10
3.9878243001
 20
3.7169938424
 30
0.0
  0
SPLINE
  5
337
100
AcDbEntity
  8
ALL_ASSEMBLY_MEMBERS
100
AcDbSpline
 62
7
  6
CONTINUOUS
 70
0
 71
3
 72
15
 73
11
 74
0
 42
0.0000001
 43
0.0000001
 44
0.0000000001
 40
0.0
 40
0.0
 40
0.0
 40
0.0
 40
0.1327511392
 40
0.2647650836
 40
0.3948457489
 40
0.522254253
 40
0.6465662945
 40
0.7675031861
 40
0.8851718014
 40
1.0
 40
1.0
 40
1.0
 40
1.0
 10
4.2450933725
 20
3.6593034451
 30
0.0
 10
4.2450933725
 20
3.6624085684
 30
0.0
 10
4.2448310298
 20
3.6686047904
 30
0.0
 10
4.2436526981
 20
3.6777762128
 30
0.0
 10
4.2416837187
 20
3.6866851963
 30
0.0
 10
4.2389159368
 20
3.6951921054
 30
0.0
 10
4.2353442034
 20
3.7031634693
 30
0.0
 10
4.2309568726
 20
3.7104584579
 30
0.0
 10
4.2257495004
 20
3.7169145743
 30
0.0
 10
4.2216949767
 20
3.7205841059
 30
0.0
 10
4.219550525
 20
3.7222013141
 30
0.0
  0
SPLINE
  5
338
100
AcDbEntity
  8
ALL_ASSEMBLY_MEMBERS
100
AcDbSpline
 62
7
  6
CONTINUOUS
 70
0
 71
3
 72
22
 73
18
 74
0
 42
0.0000001
 43
0.0000001
 44
0.0000000001
 40
0.0
 40
0.0
 40
0.0
 40
0.0
 40
0.0594712425
 40
0.1185998494
 40
0.1775839729
 40
0.2366799478
 40
0.2961030088
 40
0.3560353628
 40
0.4166659151
 40
0.4781301228
 40
0.5404865639
 40
0.6037526458
 40
0.6679305775
 40
0.732974708
 40
0.7987877607
 40
0.865290051
 40
1.0
 40
1.0
 40
1.0
 40
1.0
 10
4.219550525
 20
3.7222013141
 30
0.0
 10
4.2184294062
 20
3.7230467901
 30
0.0
 10
4.2161131564
 20
3.7246294587
 30
0.0
 10
4.2124306539
 20
3.7266483822
 30
0.0
 10
4.2085688477
 20
3.7282786612
 30
0.0
 10
4.2045486604
 20
3.7294911909
 30
0.0
 10
4.2004003291
 20
3.73027297
 30
0.0
 10
4.1961563299
 20
3.7306144071
 30
0.0
 10
4.1918520201
 20
3.730502065
 30
0.0
 10
4.1875256554
 20
3.7299429878
 30
0.0
 10
4.1832142461
 20
3.7289504803
 30
0.0
 10
4.1789558644
 20
3.7275338536
 30
0.0
 10
4.1747843321
 20
3.7257154417
 30
0.0
 10
4.1707291249
 20
3.7235225044
 30
0.0
 10
4.1668186689
 20
3.7209786026
 30
0.0
 10
4.1618121652
 20
3.7171392844
 30
0.0
 10
4.1583698355
 20
3.7138341993
 30
0.0
 10
4.1562306659
 20
3.7114803624
 30
0.0
  0
SPLINE
  5
339
100
AcDbEntity
  8
ALL_ASSEMBLY_MEMBERS
100
AcDbSpline
 62
7
  6
CONTINUOUS
 70
0
 71
3
 72
36
 73
32
 74
0
 42
0.0000001
 43
0.0000001
 44
0.0000000001
 40
0.0
 40
0.0
 40
0.0
 40
0.0
 40
0.0666689554
 40
0.0999918102
 40
0.1332333605
 40
0.1993504452
 40
0.2322295565
 40
0.2649006109
 40
0.2973183194
 40
0.3294092927
 40
0.3610969104
 40
0.3923275351
 40
0.423023663
 40
0.4381637048
 40
0.4531607515
 40
0.4827149563
 40
0.5117348496
 40
0.5403267614
 40
0.568644049
 40
0.5968500558
 40
0.6251486917
 40
0.6536967308
 40
0.6826349248
 40
0.7120777703
 40
0.7420755576
 40
0.7726625755
 40
0.803837288
 40
0.8677531129
 40
0.9004309779
 40
0.9334659927
 40
1.0
 40
1.0
 40
1.0
 40
1.0
 10
4.1365551306
 20
3.6559387778
 30
0.0
 10
4.1367388938
 20
3.6516168786
 30
0.0
 10
4.1375438582
 20
3.6451412243
 30
0.0
 10
4.1396496595
 20
3.6367493993
 30
0.0
 10
4.1424241783
 20
3.6285914624
 30
0.0
 10
4.1461823173
 20
3.620825804
 30
0.0
 10
4.1508483607
 20
3.6136598363
 30
0.0
 10
4.15476693
 20
3.6086438052
 30
0.0
 10
4.1590822512
 20
3.6040345118
 30
0.0
 10
4.1637587302
 20
3.5998864744
 30
0.0
 10
4.1687562227
 20
3.5962589897
 30
0.0
 10
4.1740263606
 20
3.5932163123
 30
0.0
 10
4.1786166768
 20
3.5912029215
 30
0.0
 10
4.182360938
 20
3.5899466364
 30
0.0
 10
4.1861040112
 20
3.5889436675
 30
0.0
 10
4.1908246959
 20
3.5881438363
 30
0.0
 10
4.1964946058
 20
3.5879476835
 30
0.0
 10
4.2020573431
 20
3.5885363756
 30
0.0
 10
4.2074328948
 20
3.5898798116
 30
0.0
 10
4.2125482391
 20
3.5919576975
 30
0.0
 10
4.2173508437
 20
3.5947078492
 30
0.0
 10
4.2218026973
 20
3.5980723864
 30
0.0
 10
4.2258770042
 20
3.6019903169
 30
0.0
 10
4.2295640881
 20
3.6063956004
 30
0.0
 10
4.2328568449
 20
3.611231006
 30
0.0
 10
4.2357542328
 20
3.6164409599
 30
0.0
 10
4.2391201583
 20
3.6238763046
 30
0.0
 10
4.2416653426
 20
3.6318010749
 30
0.0
 10
4.2434377238
 20
3.64002723
 30
0.0
 10
4.2447139779
 20
3.6485170088
 30
0.0
 10
4.2450933725
 20
3.654986397
 30
0.0
 10
4.2450933725
 20
3.6593034451
 30
0.0
  0
SPLINE
  5
33A
100
AcDbEntity
  8
ALL_ASSEMBLY_MEMBERS
100
AcDbSpline
 62
7
  6
CONTINUOUS
 70
0
 71
3
 72
11
 73
7
 74
0
 42
0.0000001
 43
0.0000001
 44
0.0000000001
 40
0.0
 40
0.0
 40
0.0
 40
0.0
 40
0.2463005518
 40
0.4951928952
 40
0.7466677917
 40
1.0
 40
1.0
 40
1.0
 40
1.0
 10
3.9349469351
 20
3.7063067529
 30
0.0
 10
3.9329105471
 20
3.7050997359
 30
0.0
 10
3.9289665183
 20
3.7024103764
 30
0.0
 10
3.9235550931
 20
3.6976725702
 30
0.0
 10
3.9186841956
 20
3.6922905085
 30
0.0
 10
3.9158374364
 20
3.6883479475
 30
0.0
 10
3.9145196431
 20
3.6863005788
 30
0.0
  0
SPLINE
  5
33B
100
AcDbEntity
  8
ALL_ASSEMBLY_MEMBERS
100
AcDbSpline
 62
7
  6
CONTINUOUS
 70
0
 71
3
 72
18
 73
14
 74
0
 42
0.0000001
 43
0.0000001
 44
0.0000000001
 40
0.0
 40
0.0
 40
0.0
 40
0.0
 40
0.1328447912
 40
0.2636083539
 40
0.3917179369
 40
0.454818385
 40
0.5172879087
 40
0.6403870539
 40
0.701190386
 40
0.7615447557
 40
0.881123974
 40
0.9406133618
 40
1.0
 40
1.0
 40
1.0
 40
1.0
 10
3.9145196431
 20
3.6863005788
 30
0.0
 10
3.9156133518
 20
3.6889986581
 30
0.0
 10
3.918130602
 20
3.6942198394
 30
0.0
 10
3.9228529524
 20
3.7014177882
 30
0.0
 10
3.9275171166
 20
3.7067468484
 30
0.0
 10
3.9316103759
 20
3.7105153595
 30
0.0
 10
3.9358820713
 20
3.7139054282
 30
0.0
 10
3.9404791636
 20
3.7167838905
 30
0.0
 10
3.945319468
 20
3.7190807628
 30
0.0
 10
3.9502535513
 20
3.7209608728
 30
0.0
 10
3.9553703905
 20
3.7222392443
 30
0.0
 10
3.9605610769
 20
3.7228794828
 30
0.0
 10
3.9631677606
 20
3.7229859517
 30
0.0
 10
3.9644692341
 20
3.7229859292
 30
0.0
  0
SPLINE
  5
33C
100
AcDbEntity
  8
ALL_ASSEMBLY_MEMBERS
100
AcDbSpline
 62
7
  6
CONTINUOUS
 70
0
 71
3
 72
9
 73
5
 74
0
 42
0.0000001
 43
0.0000001
 44
0.0000000001
 40
0.0
 40
0.0
 40
0.0
 40
0.0
 40
0.2472718588
 40
1.0
 40
1.0
 40
1.0
 40
1.0
 10
4.1643105735
 20
3.7102626783
 30
0.0
 10
4.1637267635
 20
3.7099910874
 30
0.0
 10
4.1613930002
 20
3.7088348271
 30
0.0
 10
4.1591723667
 20
3.7074524269
 30
0.0
 10
4.1575819639
 20
3.7063067529
 30
0.0
  0
SPLINE
  5
33D
100
AcDbEntity
  8
ALL_ASSEMBLY_MEMBERS
100
AcDbSpline
 62
7
  6
CONTINUOUS
 70
0
 71
3
 72
9
 73
5
 74
0
 42
0.0000001
 43
0.0000001
 44
0.0000000001
 40
0.0
 40
0.0
 40
0.0
 40
0.0
 40
0.4937720417
 40
1.0
 40
1.0
 40
1.0
 40
1.0
 10
4.156785528
 20
3.7057192454
 30
0.0
 10
4.1552869674
 20
3.7045875751
 30
0.0
 10
4.1523955328
 20
3.7021005627
 30
0.0
 10
4.1498189493
 20
3.6992906723
 30
0.0
 10
4.1485984327
 20
3.697801761
 30
0.0
  0
SPLINE
  5
33E
100
AcDbEntity
  8
ALL_ASSEMBLY_MEMBERS
100
AcDbSpline
 62
7
  6
CONTINUOUS
 70
0
 71
3
 72
9
 73
5
 74
0
 42
0.0000001
 43
0.0000001
 44
0.0000000001
 40
0.0
 40
0.0
 40
0.0
 40
0.0
 40
0.2455297459
 40
1.0
 40
1.0
 40
1.0
 40
1.0
 10
4.1485984327
 20
3.697801761
 30
0.0
 10
4.1478914765
 20
3.6969393434
 30
0.0
 10
4.1451255472
 20
3.6933348009
 30
0.0
 10
4.1428100024
 20
3.6893897636
 30
0.0
 10
4.1413271426
 20
3.6863005788
 30
0.0
  0
SPLINE
  5
33F
100
AcDbEntity
  8
ALL_ASSEMBLY_MEMBERS
100
AcDbSpline
 62
7
  6
CONTINUOUS
 70
0
 71
3
 72
11
 73
7
 74
0
 42
0.0000001
 43
0.0000001
 44
0.0000000001
 40
0.0
 40
0.0
 40
0.0
 40
0.0
 40
0.2549849595
 40
0.507216422
 40
0.7555938392
 40
1.0
 40
1.0
 40
1.0
 40
1.0
 10
3.9145196431
 20
3.6863005788
 30
0.0
 10
3.9156226112
 20
3.688820481
 30
0.0
 10
3.9181173204
 20
3.6937076122
 30
0.0
 10
3.9226816665
 20
3.7004852549
 30
0.0
 10
3.9279882547
 20
3.7065493626
 30
0.0
 10
3.9319909933
 20
3.710075475
 30
0.0
 10
3.9340831894
 20
3.7116799538
 30
0.0
  0
SPLINE
  5
340
100
AcDbEntity
  8
ALL_ASSEMBLY_MEMBERS
100
AcDbSpline
 62
7
  6
CONTINUOUS
 70
0
 71
3
 72
12
 73
8
 74
0
 42
0.0000001
 43
0.0000001
 44
0.0000000001
 40
0.0
 40
0.0
 40
0.0
 40
0.0
 40
0.2543004714
 40
0.5052143846
 40
0.6296742429
 40
0.753568781
 40
1.0
 40
1.0
 40
1.0
 40
1.0
 10
3.9345934049
 20
3.7120667832
 30
0.0
 10
3.9366267348
 20
3.713590794
 30
0.0
 10
3.9408707591
 20
3.7163564205
 30
0.0
 10
3.9465777686
 20
3.7190550045
 30
0.0
 10
3.9512916748
 20
3.7207004829
 30
0.0
 10
3.9560655468
 20
3.7219974829
 30
0.0
 10
3.9597360003
 20
3.7225849424
 30
0.0
 10
3.9621893212
 20
3.7227966412
 30
0.0
  0
SPLINE
  5
341
100
AcDbEntity
  8
ALL_ASSEMBLY_MEMBERS
100
AcDbSpline
 62
7
  6
CONTINUOUS
 70
0
 71
3
 72
30
 73
26
 74
0
 42
0.0000001
 43
0.0000001
 44
0.0000000001
 40
0.0
 40
0.0
 40
0.0
 40
0.0
 40
0.0678367118
 40
0.1352211099
 40
0.2014787132
 40
0.2662185839
 40
0.3292125789
 40
0.3903562572
 40
0.4202953319
 40
0.4498375722
 40
0.4790470973
 40
0.5080136477
 40
0.5368160663
 40
0.5655549165
 40
0.5943582183
 40
0.6233302164
 40
0.6525618205
 40
0.6821463412
 40
0.7121460898
 40
0.742587006
 40
0.8047500921
 40
0.8685812248
 40
0.9010429001
 40
0.9338063658
 40
1.0
 40
1.0
 40
1.0
 40
1.0
 10
3.9106525952
 20
3.6593034451
 30
0.0
 10
3.9106525952
 20
3.6559820183
 30
0.0
 10
3.9109524753
 20
3.649357372
 30
0.0
 10
3.912299608
 20
3.6395710654
 30
0.0
 10
3.9145522944
 20
3.6301056788
 30
0.0
 10
3.9177206275
 20
3.6211305408
 30
0.0
 10
3.9218107874
 20
3.6128106153
 30
0.0
 10
3.926034554
 20
3.60652437
 30
0.0
 10
3.9298829796
 20
3.6020368265
 30
0.0
 10
3.9329775448
 20
3.5989825695
 30
0.0
 10
3.9362953611
 20
3.5962457607
 30
0.0
 10
3.9398285532
 20
3.5938562012
 30
0.0
 10
3.9435610353
 20
3.5918387765
 30
0.0
 10
3.9474751294
 20
3.5902202424
 30
0.0
 10
3.9515490013
 20
3.5890299544
 30
0.0
 10
3.9557507945
 20
3.5882800869
 30
0.0
 10
3.9600470085
 20
3.5879810901
 30
0.0
 10
3.9644005409
 20
3.5881460112
 30
0.0
 10
3.9687723026
 20
3.5887651945
 30
0.0
 10
3.9746127886
 20
3.5901882009
 30
0.0
 10
3.9817597957
 20
3.5930665169
 30
0.0
 10
3.9883932182
 20
3.5971566101
 30
0.0
 10
3.9933574146
 20
3.6010745296
 30
0.0
 10
3.9981039926
 20
3.6054253276
 30
0.0
 10
4.0013186804
 20
3.6090776086
 30
0.0
 10
4.0032932016
 20
3.6116476682
 30
0.0
  0
SPLINE
  5
342
100
AcDbEntity
  8
ALL_ASSEMBLY_MEMBERS
100
AcDbSpline
 62
7
  6
CONTINUOUS
 70
0
 71
3
 72
13
 73
9
 74
0
 42
0.0000001
 43
0.0000001
 44
0.0000000001
 40
0.0
 40
0.0
 40
0.0
 40
0.0
 40
0.2477111427
 40
0.3724665218
 40
0.4976115524
 40
0.6230888549
 40
0.7488132909
 40
1.0
 40
1.0
 40
1.0
 40
1.0
 10
4.0032932016
 20
3.6116476682
 30
0.0
 10
4.0058650584
 20
3.6149952267
 30
0.0
 10
4.0093041588
 20
3.6203773885
 30
0.0
 10
4.0129580797
 20
3.6280367054
 30
0.0
 10
4.0152360908
 20
3.6340225807
 30
0.0
 10
4.0170257696
 20
3.6401892648
 30
0.0
 10
4.0187387434
 20
3.6485841227
 30
0.0
 10
4.019262446
 20
3.6550227704
 30
0.0
 10
4.019262446
 20
3.6593034451
 30
0.0
  0
SPLINE
  5
343
100
AcDbEntity
  8
ALL_ASSEMBLY_MEMBERS
100
AcDbSpline
 62
7
  6
CONTINUOUS
 70
0
 71
3
 72
13
 73
9
 74
0
 42
0.0000001
 43
0.0000001
 44
0.0000000001
 40
0.0
 40
0.0
 40
0.0
 40
0.0
 40
0.1258765759
 40
0.2519129332
 40
0.3778305745
 40
0.5034296128
 40
0.7530824829
 40
1.0
 40
1.0
 40
1.0
 40
1.0
 10
4.019262446
 20
3.6593034451
 30
0.0
 10
4.019262446
 20
3.6616952252
 30
0.0
 10
4.0190445269
 20
3.6664845666
 30
0.0
 10
4.0180765492
 20
3.6736072577
 30
0.0
 10
4.016473916
 20
3.6806104238
 30
0.0
 10
4.0135132085
 20
3.6896728353
 30
0.0
 10
4.0083272393
 20
3.700371636
 30
0.0
 10
4.0026708946
 20
3.7080080748
 30
0.0
 10
3.9995154954
 20
3.7114801493
 30
0.0
  0
SPLINE
  5
344
100
AcDbEntity
  8
ALL_ASSEMBLY_MEMBERS
100
AcDbSpline
 62
7
  6
CONTINUOUS
 70
0
 71
3
 72
9
 73
5
 74
0
 42
0.0000001
 43
0.0000001
 44
0.0000000001
 40
0.0
 40
0.0
 40
0.0
 40
0.0
 40
0.2518460202
 40
1.0
 40
1.0
 40
1.0
 40
1.0
 10
3.9995154954
 20
3.7114801493
 30
0.0
 10
3.9988830462
 20
3.7121760711
 30
0.0
 10
3.996316359
 20
3.7148882713
 30
0.0
 10
3.9935266747
 20
3.7173909804
 30
0.0
 10
3.9913280557
 20
3.719114338
 30
0.0
  0
SPLINE
  5
345
100
AcDbEntity
  8
ALL_ASSEMBLY_MEMBERS
100
AcDbSpline
 62
7
  6
CONTINUOUS
 70
0
 71
3
 72
29
 73
25
 74
0
 42
0.0000001
 43
0.0000001
 44
0.0000000001
 40
0.0
 40
0.0
 40
0.0
 40
0.0
 40
0.0639837119
 40
0.1264832704
 40
0.1571771784
 40
0.1874898725
 40
0.2174375747
 40
0.2470557413
 40
0.2764083876
 40
0.3055646985
 40
0.3345908931
 40
0.3635662448
 40
0.3925872204
 40
0.4217319468
 40
0.4510591625
 40
0.4806319584
 40
0.5407067437
 40
0.6022610373
 40
0.665407418
 40
0.730101151
 40
0.7961943282
 40
0.8634784788
 40
0.9315917882
 40
1.0
 40
1.0
 40
1.0
 40
1.0
 10
3.9870299136
 20
3.7221946217
 30
0.0
 10
3.9848052635
 20
3.7236452492
 30
0.0
 10
3.9802070794
 20
3.7262196088
 30
0.0
 10
3.974080486
 20
3.7285429954
 30
0.0
 10
3.9690947406
 20
3.7297583833
 30
0.0
 10
3.9653602572
 20
3.7303430545
 30
0.0
 10
3.9616334468
 20
3.7305985719
 30
0.0
 10
3.957938377
 20
3.73051609
 30
0.0
 10
3.9542990919
 20
3.7300992582
 30
0.0
 10
3.9507372728
 20
3.7293562496
 30
0.0
 10
3.9472738252
 20
3.7282933129
 30
0.0
 10
3.943928071
 20
3.7269188978
 30
0.0
 10
3.940713187
 20
3.7252514117
 30
0.0
 10
3.9376404952
 20
3.7233076305
 30
0.0
 10
3.934720592
 20
3.7211031168
 30
0.0
 10
3.9310232235
 20
3.7178229983
 30
0.0
 10
3.9268084948
 20
3.7131417504
 30
0.0
 10
3.9224634896
 20
3.7067985452
 30
0.0
 10
3.9188027462
 20
3.6998233403
 30
0.0
 10
3.9158186117
 20
3.6923331409
 30
0.0
 10
3.9135053476
 20
3.6844321753
 30
0.0
 10
3.9118585155
 20
3.6762224081
 30
0.0
 10
3.9108721997
 20
3.6678120818
 30
0.0
 10
3.9106525952
 20
3.6621429178
 30
0.0
 10
3.9106525952
 20
3.6593034451
 30
0.0
  0
SPLINE
  5
346
100
AcDbEntity
  8
ALL_ASSEMBLY_MEMBERS
100
AcDbSpline
 62
7
  6
CONTINUOUS
 70
0
 71
3
 72
11
 73
7
 74
0
 42
0.0000001
 43
0.0000001
 44
0.0000000001
 40
0.0
 40
0.0
 40
0.0
 40
0.0
 40
0.2476094727
 40
0.4963836294
 40
0.7470996135
 40
1.0
 40
1.0
 40
1.0
 40
1.0
 10
4.1912767337
 20
3.7229859292
 30
0.0
 10
4.1932860721
 20
3.7229858945
 30
0.0
 10
4.1973188142
 20
3.7227315216
 30
0.0
 10
4.2032881589
 20
3.7215867603
 30
0.0
 10
4.2091094264
 20
3.7196965561
 30
0.0
 10
4.2128258262
 20
3.7179686697
 30
0.0
 10
4.2146317997
 20
3.7169938424
 30
0.0
  0
SPLINE
  5
347
100
AcDbEntity
  8
ALL_ASSEMBLY_MEMBERS
100
AcDbSpline
 62
7
  6
CONTINUOUS
 70
0
 71
3
 72
11
 73
7
 74
0
 42
0.0000001
 43
0.0000001
 44
0.0000000001
 40
0.0
 40
0.0
 40
0.0
 40
0.0
 40
0.2470113402
 40
0.4954098748
 40
0.7461410012
 40
1.0
 40
1.0
 40
1.0
 40
1.0
 10
4.1912717548
 20
3.7229352461
 30
0.0
 10
4.1930979535
 20
3.7228487292
 30
0.0
 10
4.1967538922
 20
3.7224503073
 30
0.0
 10
4.2021424568
 20
3.7211825302
 30
0.0
 10
4.2073868927
 20
3.7192593525
 30
0.0
 10
4.2107272816
 20
3.7175670774
 30
0.0
 10
4.2123520678
 20
3.7166234426
 30
0.0
  0
SPLINE
  5
348
100
AcDbEntity
  8
ALL_ASSEMBLY_MEMBERS
100
AcDbSpline
 62
7
  6
CONTINUOUS
 70
0
 71
3
 72
9
 73
5
 74
0
 42
0.0000001
 43
0.0000001
 44
0.0000000001
 40
0.0
 40
0.0
 40
0.0
 40
0.0
 40
0.4965000118
 40
1.0
 40
1.0
 40
1.0
 40
1.0
 10
4.2123520678
 20
3.7166234426
 30
0.0
 10
4.2137620754
 20
3.7158045458
 30
0.0
 10
4.2165215409
 20
3.7140131295
 30
0.0
 10
4.2190972168
 20
3.7119669785
 30
0.0
 10
4.2203431855
 20
3.7108798848
 30
0.0
  0
SPLINE
  5
349
100
AcDbEntity
  8
ALL_ASSEMBLY_MEMBERS
100
AcDbSpline
 62
7
  6
CONTINUOUS
 70
0
 71
3
 72
15
 73
11
 74
0
 42
0.0000001
 43
0.0000001
 44
0.0000000001
 40
0.0
 40
0.0
 40
0.0
 40
0.0
 40
0.1180074548
 40
0.2382601441
 40
0.3607318494
 40
0.4853190855
 40
0.6118299758
 40
0.7399965029
 40
0.869509279
 40
1.0
 40
1.0
 40
1.0
 40
1.0
 10
4.2203431855
 20
3.7108798848
 30
0.0
 10
4.2219264138
 20
3.709498536
 30
0.0
 10
4.22496186
 20
3.7065191671
 30
0.0
 10
4.2290175351
 20
3.7015228836
 30
0.0
 10
4.2325750755
 20
3.696020131
 30
0.0
 10
4.2355833928
 20
3.6900745656
 30
0.0
 10
4.2380088516
 20
3.6837602508
 30
0.0
 10
4.2398186369
 20
3.6771518223
 30
0.0
 10
4.2409871392
 20
3.6703295586
 30
0.0
 10
4.2413299178
 20
3.6657045429
 30
0.0
 10
4.2413908386
 20
3.6633819492
 30
0.0
  0
SPLINE
  5
34A
100
AcDbEntity
  8
ALL_ASSEMBLY_MEMBERS
100
AcDbSpline
 62
7
  6
CONTINUOUS
 70
0
 71
3
 72
11
 73
7
 74
0
 42
0.0000001
 43
0.0000001
 44
0.0000000001
 40
0.0
 40
0.0
 40
0.0
 40
0.0
 40
0.2513732975
 40
0.502399855
 40
0.7522104686
 40
1.0
 40
1.0
 40
1.0
 40
1.0
 10
4.2413236331
 20
3.6577814346
 30
0.0
 10
4.2411929383
 20
3.6551727671
 30
0.0
 10
4.2406553985
 20
3.649968608
 30
0.0
 10
4.2390254776
 20
3.6423096642
 30
0.0
 10
4.2365945796
 20
3.6349051553
 30
0.0
 10
4.2344501053
 20
3.6301866607
 30
0.0
 10
4.2332540133
 20
3.6279066493
 30
0.0
  0
SPLINE
  5
34B
100
AcDbEntity
  8
0
100
AcDbSpline
 62
7
  6
CONTINUOUS
 70
0
 71
3
 72
35
 73
31
 74
0
 42
0.0000001
 43
0.0000001
 44
0.0000000001
 40
0.0
 40
0.0
 40
0.0
 40
0.0
 40
0.0198798482
 40
0.0389061
 40
0.0572349263
 40
0.0750085906
 40
0.1093037191
 40
0.1423092093
 40
0.1743589853
 40
0.2056530689
 40
0.2363464043
 40
0.2665723801
 40
0.3259971954
 40
0.3844687642
 40
0.4423690724
 40
0.5
 40
0.5576309276
 40
0.6155312358
 40
0.6740028046
 40
0.7334276199
 40
0.7636535957
 40
0.7943469311
 40
0.8256410147
 40
0.8576907907
 40
0.8906962809
 40
0.9249914094
 40
0.9427650737
 40
0.9610939
 40
0.9801201518
 40
1.0
 40
1.0
 40
1.0
 40
1.0
 10
3.5702954839
 20
4.2878684058
 30
0.0
 10
3.569151476
 20
4.2878684058
 30
0.0
 10
3.5669121615
 20
4.2879234116
 30
0.0
 10
3.5636261961
 20
4.2881645334
 30
0.0
 10
3.5604750759
 20
4.2885407304
 30
0.0
 10
3.5564748119
 20
4.2891856116
 30
0.0
 10
3.5516846702
 20
4.2902163136
 30
0.0
 10
3.546181019
 20
4.2917762876
 30
0.0
 10
3.5409355627
 20
4.2935807685
 30
0.0
 10
3.5359155619
 20
4.2956077905
 30
0.0
 10
3.5310965357
 20
4.2978343755
 30
0.0
 10
3.5249447052
 20
4.3010185347
 30
0.0
 10
3.5176135312
 20
4.3053856385
 30
0.0
 10
3.5093328094
 20
4.3112120375
 30
0.0
 10
3.5015620597
 20
4.3175397989
 30
0.0
 10
3.4942799241
 20
4.3243528459
 30
0.0
 10
3.487466877
 20
4.3316349816
 30
0.0
 10
3.4811391156
 20
4.3394057313
 30
0.0
 10
3.4753127166
 20
4.3476864531
 30
0.0
 10
3.4709456128
 20
4.3550176271
 30
0.0
 10
3.4677614536
 20
4.3611694576
 30
0.0
 10
3.4655348686
 20
4.3659884837
 30
0.0
 10
3.4635078466
 20
4.3710084846
 30
0.0
 10
3.4617033657
 20
4.3762539409
 30
0.0
 10
3.4601433918
 20
4.381757592
 30
0.0
 10
3.4591126897
 20
4.3865477338
 30
0.0
 10
3.4584678085
 20
4.3905479977
 30
0.0
 10
3.4580916115
 20
4.393699118
 30
0.0
 10
3.4578504897
 20
4.3969850834
 30
0.0
 10
3.4577954839
 20
4.3992243978
 30
0.0
 10
3.4577954839
 20
4.4003684058
 30
0.0
  0
SPLINE
  5
34C
100
AcDbEntity
  8
0
100
AcDbSpline
 62
7
  6
CONTINUOUS
 70
0
 71
3
 72
39
 73
35
 74
0
 42
0.0000001
 43
0.0000001
 44
0.0000000001
 40
0.0
 40
0.0
 40
0.0
 40
0.0
 40
0.0189207966
 40
0.0372305348
 40
0.0550542325
 40
0.0724822351
 40
0.1063471836
 40
0.1228752505
 40
0.1391807571
 40
0.171207758
 40
0.2025842549
 40
0.2334432417
 40
0.2638984405
 40
0.2940325334
 40
0.3239014194
 40
0.3830310758
 40
0.4416392352
 40
0.5000000007
 40
0.5583607662
 40
0.6169689255
 40
0.6760985819
 40
0.7059674678
 40
0.7361015607
 40
0.7665567595
 40
0.7974157462
 40
0.828792243
 40
0.8608192437
 40
0.8771247503
 40
0.8936528172
 40
0.9275177655
 40
0.944945768
 40
0.9627694655
 40
0.9810792036
 40
1.0
 40
1.0
 40
1.0
 40
1.0
 10
4.5904976504
 20
4.2880519468
 30
0.0
 10
4.5915200947
 20
4.2881264765
 30
0.0
 10
4.5935289914
 20
4.2883176353
 30
0.0
 10
4.5964848157
 20
4.2887240557
 30
0.0
 10
4.5993439419
 20
4.2892247563
 30
0.0
 10
4.6030101742
 20
4.2899905397
 30
0.0
 10
4.6065702284
 20
4.2909116212
 30
0.0
 10
4.6100275813
 20
4.2919645207
 30
0.0
 10
4.6133620312
 20
4.293075309
 30
0.0
 10
4.6174061669
 20
4.2945963132
 30
0.0
 10
4.622095567
 20
4.2966242254
 30
0.0
 10
4.6266121097
 20
4.2988237933
 30
0.0
 10
4.6309761097
 20
4.301172744
 30
0.0
 10
4.6352029371
 20
4.3036560206
 30
0.0
 10
4.6406449266
 20
4.3071294547
 30
0.0
 10
4.6471526411
 20
4.3117900586
 30
0.0
 10
4.6545273236
 20
4.3178545609
 30
0.0
 10
4.6614589121
 20
4.324359977
 30
0.0
 10
4.6679643283
 20
4.3312915655
 30
0.0
 10
4.6740288306
 20
4.3386662479
 30
0.0
 10
4.6786894346
 20
4.3451739624
 30
0.0
 10
4.6821628687
 20
4.3506159519
 30
0.0
 10
4.6846461452
 20
4.3548427793
 30
0.0
 10
4.686995096
 20
4.3592067792
 30
0.0
 10
4.6891946639
 20
4.3637233219
 30
0.0
 10
4.6912225761
 20
4.368412722
 30
0.0
 10
4.6927435804
 20
4.3724568577
 30
0.0
 10
4.6938543687
 20
4.3757913075
 30
0.0
 10
4.6949072682
 20
4.3792486605
 30
0.0
 10
4.6958283497
 20
4.3828087146
 30
0.0
 10
4.6965941331
 20
4.3864749469
 30
0.0
 10
4.6970948338
 20
4.3893340731
 30
0.0
 10
4.6975012542
 20
4.3922898974
 30
0.0
 10
4.6976924131
 20
4.3942987941
 30
0.0
 10
4.6977669428
 20
4.3953212383
 30
0.0
  0
LINE
  5
34D
100
AcDbEntity
  8
0
100
AcDbLine
 62
7
  6
CONTINUOUS
 10
4.7885928266
 20
5.1791730416
 11
4.7887312914
 21
5.1791538371
  0
LINE
  5
34E
100
AcDbEntity
  8
0
100
AcDbLine
 62
7
  6
CONTINUOUS
 10
4.7887312914
 20
5.1791538371
 11
4.7891091877
 21
5.1791408718
  0
LINE
  5
34F
100
AcDbEntity
  8
0
100
AcDbLine
 62
7
  6
CONTINUOUS
 10
4.7891091877
 20
5.1791408718
 11
4.7897244685
 21
5.1791327264
  0
LINE
  5
350
100
AcDbEntity
  8
0
100
AcDbLine
 62
7
  6
CONTINUOUS
 10
4.7790978462
 20
5.1790416541
 11
4.7816569494
 21
5.1792181837
  0
LINE
  5
351
100
AcDbEntity
  8
0
100
AcDbLine
 62
7
  6
CONTINUOUS
 10
4.8280085039
 20
5.1803327492
 11
4.8315368142
 21
5.1803893097
  0
LINE
  5
352
100
AcDbEntity
  8
0
100
AcDbLine
 62
7
  6
CONTINUOUS
 10
4.847907812
 20
5.1806192127
 11
4.8501463981
 21
5.1806475675
  0
LINE
  5
353
100
AcDbEntity
  8
0
100
AcDbLine
 62
7
  6
CONTINUOUS
 10
4.8501463981
 20
5.1806475675
 11
4.8516910368
 21
5.1806668119
  0
LINE
  5
354
100
AcDbEntity
  8
0
100
AcDbLine
 62
7
  6
CONTINUOUS
 10
4.8242465779
 20
5.1802685688
 11
4.8280085039
 21
5.1803327492
  0
LINE
  5
355
100
AcDbEntity
  8
0
100
AcDbLine
 62
7
  6
CONTINUOUS
 10
4.7830373602
 20
5.1792752196
 11
4.7957220777
 21
5.179660603
  0
LINE
  5
356
100
AcDbEntity
  8
0
100
AcDbLine
 62
7
  6
CONTINUOUS
 10
4.7957220777
 20
5.179660603
 11
4.7986630496
 21
5.1797338159
  0
LINE
  5
357
100
AcDbEntity
  8
0
100
AcDbLine
 62
7
  6
CONTINUOUS
 10
4.7986630496
 20
5.1797338159
 11
4.801831061
 21
5.1798091256
  0
LINE
  5
358
100
AcDbEntity
  8
0
100
AcDbLine
 62
7
  6
CONTINUOUS
 10
4.801831061
 20
5.1798091256
 11
4.8052275282
 21
5.1798865788
  0
LINE
  5
359
100
AcDbEntity
  8
0
100
AcDbLine
 62
7
  6
CONTINUOUS
 10
4.9292270505
 20
5.1822728583
 11
4.9305515977
 21
5.1822236361
  0
SPLINE
  5
35A
100
AcDbEntity
  8
0
100
AcDbSpline
 62
7
  6
CONTINUOUS
 70
0
 71
3
 72
9
 73
5
 74
0
 42
0.0000001
 43
0.0000001
 44
0.0000000001
 40
0.0
 40
0.0
 40
0.0
 40
0.0
 40
0.3879710723
 40
1.0
 40
1.0
 40
1.0
 40
1.0
 10
4.9305515977
 20
5.1822236361
 30
0.0
 10
4.9305535219
 20
5.1822231048
 30
0.0
 10
4.930557946
 20
5.1822216035
 30
0.0
 10
4.9305647086
 20
5.1822193586
 30
0.0
 10
4.930564906
 20
5.1822162158
 30
0.0
  0
LINE
  5
35B
100
AcDbEntity
  8
0
100
AcDbLine
 62
7
  6
CONTINUOUS
 10
4.9216075312
 20
5.1822610171
 11
4.9277015604
 21
5.1822848062
  0
LINE
  5
35C
100
AcDbEntity
  8
0
100
AcDbLine
 62
7
  6
CONTINUOUS
 10
4.8950808138
 20
5.1818496706
 11
4.9012108237
 21
5.1819645699
  0
LINE
  5
35D
100
AcDbEntity
  8
0
100
AcDbLine
 62
7
  6
CONTINUOUS
 10
4.9012108237
 20
5.1819645699
 11
4.907190395
 21
5.1820673148
  0
LINE
  5
35E
100
AcDbEntity
  8
0
100
AcDbLine
 62
7
  6
CONTINUOUS
 10
4.907190395
 20
5.1820673148
 11
4.9101283426
 21
5.1821143322
  0
LINE
  5
35F
100
AcDbEntity
  8
0
100
AcDbLine
 62
7
  6
CONTINUOUS
 10
4.8796957387
 20
5.1815215042
 11
4.8826394151
 21
5.181588585
  0
LINE
  5
360
100
AcDbEntity
  8
0
100
AcDbLine
 62
7
  6
CONTINUOUS
 10
4.8516910368
 20
5.1806668119
 11
4.8553056178
 21
5.1808060289
  0
LINE
  5
361
100
AcDbEntity
  8
0
100
AcDbLine
 62
7
  6
CONTINUOUS
 10
4.8553056178
 20
5.1808060289
 11
4.8560151333
 21
5.1808326074
  0
LINE
  5
362
100
AcDbEntity
  8
0
100
AcDbLine
 62
7
  6
CONTINUOUS
 10
4.9601935436
 20
5.1822065503
 11
4.9652471224
 21
5.1822388604
  0
LINE
  5
363
100
AcDbEntity
  8
0
100
AcDbLine
 62
7
  6
CONTINUOUS
 10
4.9293252509
 20
5.1817506397
 11
4.9305727927
 21
5.1817757691
  0
LINE
  5
364
100
AcDbEntity
  8
0
100
AcDbLine
 62
7
  6
CONTINUOUS
 10
4.9305727927
 20
5.1817757691
 11
4.9396586512
 21
5.1819590001
  0
LINE
  5
365
100
AcDbEntity
  8
0
100
AcDbLine
 62
7
  6
CONTINUOUS
 10
4.9396586512
 20
5.1819590001
 11
4.950078657
 21
5.1821695889
  0
SPLINE
  5
366
100
AcDbEntity
  8
0
100
AcDbSpline
 62
7
  6
CONTINUOUS
 70
0
 71
3
 72
9
 73
5
 74
0
 42
0.0000001
 43
0.0000001
 44
0.0000000001
 40
0.0
 40
0.0
 40
0.0
 40
0.0
 40
0.7081424666
 40
1.0
 40
1.0
 40
1.0
 40
1.0
 10
4.9215841496
 20
5.1820709717
 30
0.0
 10
4.9215885024
 20
5.1820718843
 30
0.0
 10
4.9215935841
 20
5.182073186
 30
0.0
 10
4.9216013009
 20
5.1820759977
 30
0.0
 10
4.9216013866
 20
5.1820778287
 30
0.0
  0
LINE
  5
367
100
AcDbEntity
  8
0
100
AcDbLine
 62
7
  6
CONTINUOUS
 10
3.1956551969
 20
5.1820192641
 11
3.1959190558
 21
5.181984106
  0
LINE
  5
368
100
AcDbEntity
  8
0
100
AcDbLine
 62
7
  6
CONTINUOUS
 10
3.2251339215
 20
5.1814625303
 11
3.2047047868
 21
5.181927108
  0
LINE
  5
369
100
AcDbEntity
  8
0
100
AcDbLine
 62
7
  6
CONTINUOUS
 10
3.2047047868
 20
5.181927108
 11
3.1956198059
 21
5.1821337792
  0
LINE
  5
36A
100
AcDbEntity
  8
0
100
AcDbLine
 62
7
  6
CONTINUOUS
 10
3.1956198059
 20
5.1821337792
 11
3.1919633183
 21
5.1822169711
  0
LINE
  5
36B
100
AcDbEntity
  8
0
100
AcDbLine
 62
7
  6
CONTINUOUS
 10
3.1919633183
 20
5.1822169711
 11
3.1840897271
 21
5.1823961323
  0
LINE
  5
36C
100
AcDbEntity
  8
0
100
AcDbLine
 62
7
  6
CONTINUOUS
 10
3.2293008115
 20
5.1817590322
 11
3.229563832
 21
5.1816863704
  0
LINE
  5
36D
100
AcDbEntity
  8
0
100
AcDbLine
 62
7
  6
CONTINUOUS
 10
3.3386378811
 20
5.1794418693
 11
3.3405366383
 21
5.1793986392
  0
LINE
  5
36E
100
AcDbEntity
  8
0
100
AcDbLine
 62
7
  6
CONTINUOUS
 10
3.3492385516
 20
5.1792124744
 11
3.3522079498
 21
5.179155715
  0
LINE
  5
36F
100
AcDbEntity
  8
0
100
AcDbLine
 62
7
  6
CONTINUOUS
 10
3.3522079498
 20
5.179155715
 11
3.3535551704
 21
5.179132027
  0
LINE
  5
370
100
AcDbEntity
  8
0
100
AcDbLine
 62
7
  6
CONTINUOUS
 10
3.217736996
 20
5.1822184021
 11
3.2256108255
 21
5.1820376002
  0
LINE
  5
371
100
AcDbEntity
  8
0
100
AcDbLine
 62
7
  6
CONTINUOUS
 10
3.2256108255
 20
5.1820376002
 11
3.2292672261
 21
5.1819536407
  0
LINE
  5
372
100
AcDbEntity
  8
0
100
AcDbLine
 62
7
  6
CONTINUOUS
 10
3.2292672261
 20
5.1819536407
 11
3.2380284591
 21
5.1817524626
  0
LINE
  5
373
100
AcDbEntity
  8
0
100
AcDbLine
 62
7
  6
CONTINUOUS
 10
3.31862905
 20
5.1799017114
 11
3.3386378824
 21
5.1794422763
  0
LINE
  5
374
100
AcDbEntity
  8
0
100
AcDbLine
 62
7
  6
CONTINUOUS
 10
3.3814851418
 20
5.1792072921
 11
3.3825340658
 21
5.1792309744
  0
LINE
  5
375
100
AcDbEntity
  8
0
100
AcDbLine
 62
7
  6
CONTINUOUS
 10
3.3825340658
 20
5.1792309744
 11
3.3826448811
 21
5.1792486076
  0
LINE
  5
376
100
AcDbEntity
  8
0
100
AcDbLine
 62
7
  6
CONTINUOUS
 10
3.3845448259
 20
5.179412502
 11
3.3893746405
 21
5.1791756349
  0
LINE
  5
377
100
AcDbEntity
  8
0
100
AcDbLine
 62
7
  6
CONTINUOUS
 10
3.3893746405
 20
5.1791756349
 11
3.3900468541
 21
5.1791145656
  0
LINE
  5
378
100
AcDbEntity
  8
0
100
AcDbLine
 62
7
  6
CONTINUOUS
 10
3.3900468541
 20
5.1791145656
 11
3.3902525659
 21
5.1790654977
  0
LINE
  5
379
100
AcDbEntity
  8
0
100
AcDbLine
 62
7
  6
CONTINUOUS
 10
3.3519573752
 20
5.1803308313
 11
3.3612426512
 21
5.1801113455
  0
LINE
  5
37A
100
AcDbEntity
  8
0
100
AcDbLine
 62
7
  6
CONTINUOUS
 10
3.3822032162
 20
5.1795015615
 11
3.382664754
 21
5.179484623
  0
LINE
  5
37B
100
AcDbEntity
  8
0
100
AcDbLine
 62
7
  6
CONTINUOUS
 10
3.3388084295
 20
5.180613484
 11
3.3432143503
 21
5.180522273
  0
LINE
  5
37C
100
AcDbEntity
  8
0
100
AcDbLine
 62
7
  6
CONTINUOUS
 10
3.3432143503
 20
5.180522273
 11
3.3519573752
 21
5.1803308313
  0
LINE
  5
37D
100
AcDbEntity
  8
0
100
AcDbLine
 62
7
  6
CONTINUOUS
 10
3.3073509813
 20
5.1811599899
 11
3.3125797423
 21
5.181082969
  0
LINE
  5
37E
100
AcDbEntity
  8
0
100
AcDbLine
 62
7
  6
CONTINUOUS
 10
3.2790585767
 20
5.1819170117
 11
3.2636546204
 21
5.1823638106
  0
LINE
  5
37F
100
AcDbEntity
  8
0
100
AcDbLine
 62
7
  6
CONTINUOUS
 10
4.930564906
 20
5.1822162158
 11
4.9283902938
 21
5.1820809636
  0
LINE
  5
380
100
AcDbEntity
  8
0
100
AcDbLine
 62
7
  6
CONTINUOUS
 10
4.7927741359
 20
5.1793774273
 11
4.7887017883
 21
5.1791946092
  0
LINE
  5
381
100
AcDbEntity
  8
0
100
AcDbLine
 62
7
  6
CONTINUOUS
 10
4.7887017883
 20
5.1791946092
 11
4.7885928266
 21
5.1791730416
  0
LINE
  5
382
100
AcDbEntity
  8
0
100
AcDbLine
 62
7
  6
CONTINUOUS
 10
4.8479073266
 20
5.1805199424
 11
4.8457607362
 21
5.1804900406
  0
LINE
  5
383
100
AcDbEntity
  8
0
100
AcDbLine
 62
7
  6
CONTINUOUS
 10
4.8457607362
 20
5.1804900406
 11
4.8435826869
 21
5.1804587878
  0
LINE
  5
384
100
AcDbEntity
  8
0
100
AcDbLine
 62
7
  6
CONTINUOUS
 10
4.8435826869
 20
5.1804587878
 11
4.8344727845
 21
5.1803173835
  0
LINE
  5
385
100
AcDbEntity
  8
0
100
AcDbLine
 62
7
  6
CONTINUOUS
 10
4.8138210337
 20
5.1799240039
 11
4.8112034555
 21
5.1798662373
  0
LINE
  5
386
100
AcDbEntity
  8
0
100
AcDbLine
 62
7
  6
CONTINUOUS
 10
4.93057384
 20
5.1817231982
 11
4.9318321699
 21
5.181748544
  0
LINE
  5
387
100
AcDbEntity
  8
0
100
AcDbLine
 62
7
  6
CONTINUOUS
 10
4.9318321699
 20
5.181748544
 11
4.9338777719
 21
5.1817534425
  0
LINE
  5
388
100
AcDbEntity
  8
0
100
AcDbLine
 62
7
  6
CONTINUOUS
 10
4.9338777719
 20
5.1817534425
 11
4.935922964
 21
5.1817598896
  0
LINE
  5
389
100
AcDbEntity
  8
0
100
AcDbLine
 62
7
  6
CONTINUOUS
 10
4.935922964
 20
5.1817598896
 11
4.9379677461
 21
5.1817678828
  0
LINE
  5
38A
100
AcDbEntity
  8
0
100
AcDbLine
 62
7
  6
CONTINUOUS
 10
4.9379677461
 20
5.1817678828
 11
4.9440996338
 21
5.1818011103
  0
LINE
  5
38B
100
AcDbEntity
  8
0
100
AcDbLine
 62
7
  6
CONTINUOUS
 10
4.9440996338
 20
5.1818011103
 11
4.9581605336
 21
5.1820919953
  0
LINE
  5
38C
100
AcDbEntity
  8
0
100
AcDbLine
 62
7
  6
CONTINUOUS
 10
4.9581605336
 20
5.1820919953
 11
4.9652471224
 21
5.1822388604
  0
LINE
  5
38D
100
AcDbEntity
  8
0
100
AcDbLine
 62
7
  6
CONTINUOUS
 10
3.3456327155
 20
5.1791111933
 11
3.3452621249
 21
5.1791339241
  0
LINE
  5
38E
100
AcDbEntity
  8
0
100
AcDbLine
 62
7
  6
CONTINUOUS
 10
3.3902525659
 20
5.1790654977
 11
3.3867785783
 21
5.1789514045
  0
LINE
  5
38F
100
AcDbEntity
  8
0
100
AcDbLine
 62
7
  6
CONTINUOUS
 10
3.1959190558
 20
5.181984106
 11
3.191960054
 21
5.1820734985
  0
LINE
  5
390
100
AcDbEntity
  8
0
100
AcDbLine
 62
7
  6
CONTINUOUS
 10
3.1963697615
 20
5.1820236433
 11
3.1956205022
 21
5.1820236764
  0
LINE
  5
391
100
AcDbEntity
  8
0
100
AcDbLine
 62
7
  6
CONTINUOUS
 10
3.2073500689
 20
5.1817965943
 11
3.1963697615
 21
5.1820236433
  0
LINE
  5
392
100
AcDbEntity
  8
0
100
AcDbLine
 62
7
  6
CONTINUOUS
 10
3.2229615331
 20
5.1814427711
 11
3.2073501296
 21
5.1817965929
  0
LINE
  5
393
100
AcDbEntity
  8
0
100
AcDbLine
 62
7
  6
CONTINUOUS
 10
3.191960054
 20
5.1820734985
 11
3.1880233178
 21
5.1822291557
  0
LINE
  5
394
100
AcDbEntity
  8
0
100
AcDbLine
 62
7
  6
CONTINUOUS
 10
3.1880233178
 20
5.1822291557
 11
3.1840897271
 21
5.1823961323
  0
LINE
  5
395
100
AcDbEntity
  8
0
100
AcDbLine
 62
7
  6
CONTINUOUS
 10
3.2295639657
 20
5.1816928085
 11
3.225604992
 21
5.1817835554
  0
LINE
  5
396
100
AcDbEntity
  8
0
100
AcDbLine
 62
7
  6
CONTINUOUS
 10
3.2300152703
 20
5.1817751078
 11
3.2292660469
 21
5.1817614019
  0
LINE
  5
397
100
AcDbEntity
  8
0
100
AcDbLine
 62
7
  6
CONTINUOUS
 10
3.2409962287
 20
5.1815622985
 11
3.2376935687
 21
5.1816365026
  0
LINE
  5
398
100
AcDbEntity
  8
0
100
AcDbLine
 62
7
  6
CONTINUOUS
 10
3.2376935687
 20
5.1816365026
 11
3.2300152703
 21
5.1817751078
  0
LINE
  5
399
100
AcDbEntity
  8
0
100
AcDbLine
 62
7
  6
CONTINUOUS
 10
3.332864682
 20
5.1794541422
 11
3.3176818463
 21
5.1798025243
  0
LINE
  5
39A
100
AcDbEntity
  8
0
100
AcDbLine
 62
7
  6
CONTINUOUS
 10
3.3176818463
 20
5.1798025243
 11
3.3024475811
 21
5.1801520981
  0
LINE
  5
39B
100
AcDbEntity
  8
0
100
AcDbLine
 62
7
  6
CONTINUOUS
 10
3.3452621249
 20
5.1791339241
 11
3.3441540256
 21
5.1791737734
  0
LINE
  5
39C
100
AcDbEntity
  8
0
100
AcDbLine
 62
7
  6
CONTINUOUS
 10
3.3441540256
 20
5.1791737734
 11
3.3349324925
 21
5.1794058676
  0
LINE
  5
39D
100
AcDbEntity
  8
0
100
AcDbLine
 62
7
  6
CONTINUOUS
 10
3.3349324925
 20
5.1794058676
 11
3.3339124814
 21
5.1794297565
  0
LINE
  5
39E
100
AcDbEntity
  8
0
100
AcDbLine
 62
7
  6
CONTINUOUS
 10
3.3339124814
 20
5.1794297565
 11
3.3328646818
 21
5.1794541422
  0
LINE
  5
39F
100
AcDbEntity
  8
0
100
AcDbLine
 62
7
  6
CONTINUOUS
 10
3.3480895579
 20
5.1789815801
 11
3.345501969
 21
5.1790408572
  0
LINE
  5
3A0
100
AcDbEntity
  8
0
100
AcDbLine
 62
7
  6
CONTINUOUS
 10
3.3480895579
 20
5.1789815801
 11
3.3512167858
 21
5.1789675268
  0
LINE
  5
3A1
100
AcDbEntity
  8
0
100
AcDbLine
 62
7
  6
CONTINUOUS
 10
3.3512167858
 20
5.1789675268
 11
3.3574727937
 21
5.1789483215
  0
LINE
  5
3A2
100
AcDbEntity
  8
0
100
AcDbLine
 62
7
  6
CONTINUOUS
 10
3.3826448811
 20
5.1792486076
 11
3.3792193534
 21
5.1794312096
  0
LINE
  5
3A3
100
AcDbEntity
  8
0
100
AcDbLine
 62
7
  6
CONTINUOUS
 10
3.225604992
 20
5.1817835554
 11
3.2216752482
 21
5.1819954961
  0
LINE
  5
3A4
100
AcDbEntity
  8
0
100
AcDbLine
 62
7
  6
CONTINUOUS
 10
3.2216752482
 20
5.1819954961
 11
3.217736996
 21
5.1822184021
  0
LINE
  5
3A5
100
AcDbEntity
  8
0
100
AcDbLine
 62
7
  6
CONTINUOUS
 10
3.2962420158
 20
5.1809355198
 11
3.2905874306
 21
5.1809622886
  0
LINE
  5
3A6
100
AcDbEntity
  8
0
100
AcDbLine
 62
7
  6
CONTINUOUS
 10
3.3609967549
 20
5.179944833
 11
3.3566975431
 21
5.1800448682
  0
LINE
  5
3A7
100
AcDbEntity
  8
0
100
AcDbLine
 62
7
  6
CONTINUOUS
 10
3.3867785783
 20
5.1789514045
 11
3.3780109209
 21
5.1789863361
  0
LINE
  5
3A8
100
AcDbEntity
  8
0
100
AcDbLine
 62
7
  6
CONTINUOUS
 10
3.2644082068
 20
5.1818059245
 11
3.2717371906
 21
5.1818546396
  0
LINE
  5
3A9
100
AcDbEntity
  8
0
100
AcDbLine
 62
7
  6
CONTINUOUS
 10
3.2717371906
 20
5.1818546396
 11
3.2781430919
 21
5.1819084674
  0
LINE
  5
3AA
100
AcDbEntity
  8
0
100
AcDbLine
 62
7
  6
CONTINUOUS
 10
3.2781430919
 20
5.1819084674
 11
3.2790585767
 21
5.1819170117
  0
LINE
  5
3AB
100
AcDbEntity
  8
0
100
AcDbLine
 62
7
  6
CONTINUOUS
 10
3.2905874306
 20
5.1809622886
 11
3.2758090417
 21
5.1813746131
  0
LINE
  5
3AC
100
AcDbEntity
  8
0
100
AcDbLine
 62
7
  6
CONTINUOUS
 10
3.268330761
 20
5.1815838472
 11
3.2607930892
 21
5.1817951241
  0
LINE
  5
3AD
100
AcDbEntity
  8
0
100
AcDbLine
 62
7
  6
CONTINUOUS
 10
3.2607930892
 20
5.1817951241
 11
3.2455395726
 21
5.1822237928
  0
LINE
  5
3AE
100
AcDbEntity
  8
0
100
AcDbLine
 62
7
  6
CONTINUOUS
 10
4.9216013866
 20
5.1820778287
 11
4.9210560394
 21
5.1821051975
  0
LINE
  5
3AF
100
AcDbEntity
  8
0
100
AcDbLine
 62
7
  6
CONTINUOUS
 10
4.7810724884
 20
5.1789692162
 11
4.7792003116
 21
5.1790181638
  0
LINE
  5
3B0
100
AcDbEntity
  8
0
100
AcDbLine
 62
7
  6
CONTINUOUS
 10
4.7792003116
 20
5.1790181638
 11
4.7790978462
 21
5.1790416541
  0
LINE
  5
3B1
100
AcDbEntity
  8
0
100
AcDbLine
 62
7
  6
CONTINUOUS
 10
4.7880230194
 20
5.1789879711
 11
4.7819214406
 21
5.1789640367
  0
LINE
  5
3B2
100
AcDbEntity
  8
0
100
AcDbLine
 62
7
  6
CONTINUOUS
 10
4.861210159
 20
5.180605985
 11
4.8599482473
 21
5.1805597629
  0
LINE
  5
3B3
100
AcDbEntity
  8
0
100
AcDbLine
 62
7
  6
CONTINUOUS
 10
4.8510782843
 20
5.1802752406
 11
4.8493148699
 21
5.180225753
  0
LINE
  5
3B4
100
AcDbEntity
  8
0
100
AcDbLine
 62
7
  6
CONTINUOUS
 10
4.8689618978
 20
5.1808280905
 11
4.8669877376
 21
5.1808024377
  0
LINE
  5
3B5
100
AcDbEntity
  8
0
100
AcDbLine
 62
7
  6
CONTINUOUS
 10
4.8669877376
 20
5.1808024377
 11
4.8657394716
 21
5.1807867749
  0
LINE
  5
3B6
100
AcDbEntity
  8
0
100
AcDbLine
 62
7
  6
CONTINUOUS
 10
4.8836003263
 20
5.1814318604
 11
4.8813137015
 21
5.1813646724
  0
LINE
  5
3B7
100
AcDbEntity
  8
0
100
AcDbLine
 62
7
  6
CONTINUOUS
 10
4.8705596466
 20
5.1809875387
 11
4.8691714297
 21
5.1809295893
  0
LINE
  5
3B8
100
AcDbEntity
  8
0
100
AcDbLine
 62
7
  6
CONTINUOUS
 10
4.9205659343
 20
5.1821105147
 11
4.9150440278
 21
5.1820741882
  0
LINE
  5
3B9
100
AcDbEntity
  8
0
100
AcDbLine
 62
7
  6
CONTINUOUS
 10
4.9150440278
 20
5.1820741882
 11
4.9128660983
 21
5.1820455727
  0
LINE
  5
3BA
100
AcDbEntity
  8
0
100
AcDbLine
 62
7
  6
CONTINUOUS
 10
4.9128660983
 20
5.1820455727
 11
4.9103574324
 21
5.1820086568
  0
ENDSEC
  0
SECTION
  2
OBJECTS
  0
DICTIONARY
  5
C
100
AcDbDictionary
280
0
281
1
  3
ACAD_GROUP
350
D
  3
ACAD_MLINESTYLE
350
17
  3
ACAD_LAYOUT
350
1A
  3
ACAD_PLOTSETTINGS
350
19
  3
ACAD_PLOTSTYLENAME
350
E
  0
DICTIONARY
  5
D
102
{ACAD_REACTORS
330
C
102
}
100
AcDbDictionary
280
0
281
1
  0
ACDBDICTIONARYWDFLT
  5
E
102
{ACAD_REACTORS
330
C
102
}
100
AcDbDictionary
281
1
  3
Normal
350
F
100
AcDbDictionaryWithDefault
340
F
  0
DICTIONARY
  5
17
102
{ACAD_REACTORS
330
C
102
}
100
AcDbDictionary
280
0
281
1
  3
Standard
350
18
  0
DICTIONARY
  5
19
102
{ACAD_REACTORS
330
C
102
}
100
AcDbDictionary
281
1
  0
DICTIONARY
  5
1A
102
{ACAD_REACTORS
330
C
102
}
100
AcDbDictionary
281
1
  3
Model
350
3BB
  3
Layout1
350
3BC
  0
ACDBPLACEHOLDER
  5
F
102
{ACAD_REACTORS
330
E
102
}
  0
MLINESTYLE
  5
18
102
{ACAD_REACTORS
330
17
102
}
100
AcDbMlineStyle
  2
STANDARD
 70
0
  3

 62
256
 51
90.0
 52
90.0
 71
2
 49
0.5
 62
256
  6
BYLAYER
 49
-0.5
 62
256
  6
BYLAYER
  0
LAYOUT
  5
3BB
102
{ACAD_REACTORS
330
1A
102
}
100
AcDbPlotSettings
  1

  2
none_device
  4
ANSI_A_(11.00_x_8.50_Inches)
  6

 40
0.0
 41
0.0
 42
0.0
 43
0.0
 44
279.4
 45
215.9
 46
0.0
 47
0.0
 48
0.0
 49
0.0
140
0.0
141
0.0
142
1.0
143
1.0
 70
1024
 72
0
 73
0
 74
0
  7

 75
0
147
1.0
148
0.0
149
0.0
100
AcDbLayout
  1
Model
 70
0
 71
0
 10
0.0
 20
0.0
 11
11.0
 21
8.5
 12
0.0
 22
0.0
 32
0.0
 14
0.0
 24
0.0
 34
0.0
 15
0.0
 25
0.0
 35
0.0
146
0.0
 13
0.0
 23
0.0
 33
0.0
 16
1.0
 26
0.0
 36
0.0
 17
0.0
 27
1.0
 37
0.0
 76
0
330
21F
345
0
346
0
  0
LAYOUT
  5
3BC
102
{ACAD_REACTORS
330
1A
102
}
100
AcDbPlotSettings
  1

  2
none_device
  4
ANSI_A_(11.00_x_8.50_Inches)
  6

 40
0.0
 41
0.0
 42
0.0
 43
0.0
 44
279.4
 45
215.9
 46
0.0
 47
0.0
 48
0.0
 49
0.0
140
0.0
141
0.0
142
1.0
143
1.0
 70
0
 72
0
 73
0
 74
0
  7

 75
0
147
1.0
148
0.0
149
0.0
100
AcDbLayout
  1
Layout1
 70
0
 71
1
 10
0.0
 20
0.0
 11
11.0
 21
8.5
 12
0.0
 22
0.0
 32
0.0
 14
0.0
 24
0.0
 34
0.0
 15
0.0
 25
0.0
 35
0.0
146
0.0
 13
0.0
 23
0.0
 33
0.0
 16
1.0
 26
0.0
 36
0.0
 17
0.0
 27
1.0
 37
0.0
 76
0
330
220
345
0
346
0
  0
ENDSEC
  0
EOF
