999
DXF file: E:\BT Custom\CADOUTPUT\_TOP.dxf
999
Pro/ENGINEER 2018400 by Parametric Technology Corporation
  0
SECTION
  2
HEADER
  9
$ACADVER
  1
AC1018
  9
$DWGCODEPAGE
  3
ANSI_1252
  9
$EXTMAX
 10
22.0
 20
17.0
 30
0.0
  9
$EXTMIN
 10
0.0
 20
0.0
 30
0.0
  9
$LIMMIN
 10
0.0
 20
0.0
  9
$LIMMAX
 10
22.0
 20
17.0
  9
$VIEWCTR
 10
11.0
 20
8.5
  9
$VIEWSIZE
 40
17.0
  9
$CLAYER
  8
0
  9
$LTSCALE
 40
1.21
  9
$CELTYPE
  6
BYLAYER
  9
$DIMSCALE
 40
1.0
  9
$DIMASZ
 40
0.1
  9
$DIMEXO
 40
0.0625
  9
$DIMDLI
 40
0.836
  9
$DIMEXE
 40
0.125
  9
$DIMCEN
 40
0.198
  9
$DIMLFAC
 40
1.0
  9
$DIMBLK
  1
_FILLED
  9
$DIMALT
 70
1
  9
$DIMALTD
 70
2
  9
$DIMALTTD
 70
2
  9
$DIMALTF
 40
25.4
  9
$DIMTXT
 40
0.08
  9
$DIMTOL
 70
1
  9
$DIMLIM
 70
0
  9
$DIMTFAC
 40
1.0
  9
$DIMTP
 40
0.001
  9
$DIMTM
 40
0.001
  9
$DIMGAP
 40
0.09
  9
$DIMDSEP
 70
46
  9
$AUNITS
 70
0
  9
$PDMODE
 70
3
  9
$PDSIZE
 40
0.06
  9
$HANDSEED
  5
2FD
  9
$TILEMODE
 70
1
  9
$MEASUREMENT
 70
0
  9
$INSUNITS
 70
1
  0
ENDSEC
  0
SECTION
  2
CLASSES
  0
CLASS
  1
ACDBDICTIONARYWDFLT
  2
AcDbDictionaryWithDefault
  3
AutoCAD 2000
 90
0
 91
1
280
0
281
0
  0
CLASS
  1
ACDBPLACEHOLDER
  2
AcDbPlaceHolder
  3
AutoCAD 2000
 90
0
 91
1
280
0
281
0
  0
CLASS
  1
LAYOUT
  2
AcDbLayout
  3
AutoCAD 2000
 90
0
 91
0
280
0
281
0
  0
ENDSEC
  0
SECTION
  2
TABLES
  0
TABLE
  2
VPORT
  5
8
100
AcDbSymbolTable
 70
2
  0
VPORT
  5
1F4
100
AcDbSymbolTableRecord
100
AcDbViewportTableRecord
  2
*ACTIVE
 70
0
 10
0.0
 20
0.0
 11
1.0
 21
1.0
 12
11.0
 22
8.5
 13
0.0
 23
0.0
 14
1.0
 24
1.0
 15
0.0
 25
0.0
 16
0.0
 26
0.0
 36
1.0
 17
0.0
 27
0.0
 37
0.0
 40
17.0
 41
1.2941176471
 42
50.0
 43
0.0
 44
0.0
 50
0.0
 51
0.0
 71
0
 72
100
 73
1
 74
1
 75
0
 76
0
 77
0
 78
0
  0
ENDTAB
  0
TABLE
  2
LTYPE
  5
5
100
AcDbSymbolTable
 70
6
  0
LTYPE
  5
14
100
AcDbSymbolTableRecord
100
AcDbLinetypeTableRecord
  2
BYBLOCK
 70
0
  3

 72
65
 73
0
 40
0.0
  0
LTYPE
  5
15
100
AcDbSymbolTableRecord
100
AcDbLinetypeTableRecord
  2
BYLAYER
 70
0
  3

 72
65
 73
0
 40
0.0
  0
LTYPE
  5
16
100
AcDbSymbolTableRecord
100
AcDbLinetypeTableRecord
  2
CONTINUOUS
 70
64
  3
Solid line
 72
65
 73
0
 40
0.0
  0
LTYPE
  5
1F5
100
AcDbSymbolTableRecord
100
AcDbLinetypeTableRecord
  2
CENTER
 70
64
  3
____ _ ____ _ ____ _ ____ _ ____ _ ____ _ ____
 72
65
 73
4
 40
0.6
 49
0.375
 74
0
 49
-0.075
 74
0
 49
0.075
 74
0
 49
-0.075
 74
0
  0
LTYPE
  5
1F6
100
AcDbSymbolTableRecord
100
AcDbLinetypeTableRecord
  2
HIDDEN
 70
64
  3
- - - - - - - - - - - - - - - - - - - -
 72
65
 73
2
 40
0.2
 49
0.1
 74
0
 49
-0.1
 74
0
  0
LTYPE
  5
1F7
100
AcDbSymbolTableRecord
100
AcDbLinetypeTableRecord
  2
PHANTOM
 70
64
  3
_____ _ _ _____ _ _ _____ _ _ _____
 72
65
 73
6
 40
0.8
 49
0.45
 74
0
 49
-0.05
 74
0
 49
0.1
 74
0
 49
-0.05
 74
0
 49
0.1
 74
0
 49
-0.05
 74
0
  0
LTYPE
  5
1F8
100
AcDbSymbolTableRecord
100
AcDbLinetypeTableRecord
  2
DOT
 70
64
  3
. . . . . . . . . . . . . . . . . . . .
 72
65
 73
2
 40
0.2
 49
0.1
 74
0
 49
-0.1
 74
0
  0
LTYPE
  5
1F9
100
AcDbSymbolTableRecord
100
AcDbLinetypeTableRecord
  2
DASHED
 70
64
  3
- - - - - - - - - - - - - - - - - - - -
 72
65
 73
2
 40
0.2
 49
0.1
 74
0
 49
-0.1
 74
0
  0
ENDTAB
  0
TABLE
  2
LAYER
  5
2
100
AcDbSymbolTable
 70
36
  0
LAYER
  5
10
100
AcDbSymbolTableRecord
100
AcDbLayerTableRecord
  2
0
 70
0
 62
7
  6
CONTINUOUS
370
-3
390
F
  0
LAYER
  5
1FA
100
AcDbSymbolTableRecord
100
AcDbLayerTableRecord
  2
DEFAULT_1
 70
0
 62
7
  6
CENTER
370
-3
390
F
  0
LAYER
  5
1FB
100
AcDbSymbolTableRecord
100
AcDbLayerTableRecord
  2
DEFAULT_2
 70
0
 62
8
  6
HIDDEN
370
-3
390
F
  0
LAYER
  5
1FC
100
AcDbSymbolTableRecord
100
AcDbLayerTableRecord
  2
DEFAULT_3
 70
0
 62
7
  6
PHANTOM
370
-3
390
F
  0
LAYER
  5
1FD
100
AcDbSymbolTableRecord
100
AcDbLayerTableRecord
  2
ALL_FEATURES
 70
0
 62
7
  6
CONTINUOUS
370
-3
390
F
  0
LAYER
  5
1FE
100
AcDbSymbolTableRecord
100
AcDbLayerTableRecord
  2
AXES_FEATURES
 70
0
 62
7
  6
CONTINUOUS
370
-3
390
F
  0
LAYER
  5
1FF
100
AcDbSymbolTableRecord
100
AcDbLayerTableRecord
  2
DEFAULT_COORDINATE_SYSTEM
 70
0
 62
7
  6
CONTINUOUS
370
-3
390
F
  0
LAYER
  5
200
100
AcDbSymbolTableRecord
100
AcDbLayerTableRecord
  2
DEFAULT_DATUM_AXES
 70
0
 62
7
  6
CONTINUOUS
370
-3
390
F
  0
LAYER
  5
201
100
AcDbSymbolTableRecord
100
AcDbLayerTableRecord
  2
DEFAULT_DATUM_PLANES
 70
0
 62
7
  6
CONTINUOUS
370
-3
390
F
  0
LAYER
  5
202
100
AcDbSymbolTableRecord
100
AcDbLayerTableRecord
  2
DIMENSIONS
 70
0
 62
7
  6
CONTINUOUS
370
-3
390
F
  0
ENDTAB
  0
TABLE
  2
STYLE
  5
3
100
AcDbSymbolTable
 70
1
  0
STYLE
  5
11
100
AcDbSymbolTableRecord
100
AcDbTextStyleTableRecord
  2
STANDARD
 70
0
 40
0.0
 41
0.8
 50
0.0
 71
0
 42
0.2
  3
txt
  4

  0
STYLE
  5
203
100
AcDbSymbolTableRecord
100
AcDbTextStyleTableRecord
  2
TEXTSTYLE_1
 70
0
 40
0.0
 41
0.8
 50
0.0
 71
0
 42
0.2
  3
gdt
  4

  0
ENDTAB
  0
TABLE
  2
VIEW
  5
6
100
AcDbSymbolTable
 70
0
  0
ENDTAB
  0
TABLE
  2
UCS
  5
7
100
AcDbSymbolTable
 70
0
  0
ENDTAB
  0
TABLE
  2
APPID
  5
9
100
AcDbSymbolTable
 70
1
  0
APPID
  5
204
100
AcDbSymbolTableRecord
100
AcDbRegAppTableRecord
  2
ACAD
 70
0
  0
ENDTAB
  0
TABLE
  2
BLOCK_RECORD
  5
1
100
AcDbSymbolTable
 70
0
  0
BLOCK_RECORD
  5
205
100
AcDbSymbolTableRecord
100
AcDbBlockTableRecord
  2
*Model_Space
  0
BLOCK_RECORD
  5
206
100
AcDbSymbolTableRecord
100
AcDbBlockTableRecord
  2
*Paper_Space
  0
BLOCK_RECORD
  5
207
100
AcDbSymbolTableRecord
100
AcDbBlockTableRecord
  2
_FILLED
  0
ENDTAB
  0
TABLE
  2
DIMSTYLE
  5
A
100
AcDbSymbolTable
 70
1
100
AcDbDimStyleTable
 71
0
  0
DIMSTYLE
105
208
100
AcDbSymbolTableRecord
100
AcDbDimStyleTableRecord
  2
STANDARD
 70
0
  3

  4

 40
1.0
 41
0.1
 42
0.0625
 43
0.38
 44
0.125
 45
0.0
 46
0.0
 47
0.001
 48
0.001
140
0.08
141
0.09
142
0.0
143
25.4
144
1.0
145
0.0
146
1.0
147
0.09
 71
1.0
 72
0.0
 73
1
 74
1
 75
0
 76
0
 77
0
 78
4
 79
1
170
1
171
2
172
0
173
0
174
0
175
0
176
0
177
0
178
0
270
2
179
3
271
3
272
3
273
2
274
2
275
0
280
0
281
0
282
0
283
1
284
4
285
0
286
0
287
3
288
0
340
11
278
46
341
207
342
207
343
207
344
207
  0
ENDTAB
  0
ENDSEC
  0
SECTION
  2
BLOCKS
  0
BLOCK
  5
20
100
AcDbEntity
  8
0
100
AcDbBlockBegin
  2
*Model_Space
 70
0
 10
0.0
 20
0.0
 30
0.0
  3
*Model_Space
  1

  0
ENDBLK
  5
21
100
AcDbEntity
  8
0
100
AcDbBlockEnd
  0
BLOCK
  5
1C
100
AcDbEntity
  8
0
100
AcDbBlockBegin
  2
*Paper_Space
 70
0
 10
0.0
 20
0.0
 30
0.0
  3
*Paper_Space
  1

  0
ENDBLK
  5
1D
100
AcDbEntity
  8
0
100
AcDbBlockEnd
  0
BLOCK
  5
209
100
AcDbEntity
  8
0
100
AcDbBlockBegin
  2
_FILLED
 70
64
 10
0.0
 20
0.0
  3
_FILLED
  1

  0
SOLID
  5
20A
100
AcDbEntity
  8
0
  6
BYBLOCK
 62
0
100
AcDbTrace
 10
0.0
 20
0.0
 11
-1.0
 21
0.2
 12
-1.0
 22
-0.2
 13
-1.0
 23
-0.2
  0
ENDBLK
  5
20B
100
AcDbEntity
  8
0
  6
BYBLOCK
 62
0
100
AcDbBlockEnd
  0
ENDSEC
  0
SECTION
  2
ENTITIES
  0
LINE
  5
20C
100
AcDbEntity
  8
0
100
AcDbLine
 62
7
  6
CONTINUOUS
 10
9.1423183383
 20
5.3277726261
 11
9.1423183383
 21
5.1983375589
  0
LINE
  5
20D
100
AcDbEntity
  8
0
100
AcDbLine
 62
7
  6
CONTINUOUS
 10
9.4273183383
 20
5.4851550294
 11
9.4273183383
 21
5.4611215783
  0
LINE
  5
20E
100
AcDbEntity
  8
0
100
AcDbLine
 62
7
  6
CONTINUOUS
 10
9.8573183383
 20
11.6072409815
 11
9.8573183383
 21
11.3750677343
  0
LINE
  5
20F
100
AcDbEntity
  8
0
100
AcDbLine
 62
7
  6
CONTINUOUS
 10
11.6884817779
 20
10.0497409815
 11
11.7038183383
 21
10.0650333632
  0
LINE
  5
210
100
AcDbEntity
  8
0
100
AcDbLine
 62
7
  6
CONTINUOUS
 10
10.3063183383
 20
10.4782409815
 11
10.3063183383
 21
10.4162409815
  0
LINE
  5
211
100
AcDbEntity
  8
0
100
AcDbLine
 62
7
  6
CONTINUOUS
 10
11.5878183383
 20
9.5006245427
 11
11.6619523325
 21
9.6065421699
  0
LINE
  5
212
100
AcDbEntity
  8
0
100
AcDbLine
 62
7
  6
CONTINUOUS
 10
11.0463785112
 20
6.5342429401
 11
11.0483363447
 21
6.5342430763
  0
LINE
  5
213
100
AcDbEntity
  8
0
100
AcDbLine
 62
7
  6
CONTINUOUS
 10
10.3908183383
 20
10.0650334748
 11
10.3908183383
 21
10.4162409815
  0
LINE
  5
214
100
AcDbEntity
  8
0
100
AcDbLine
 62
7
  6
CONTINUOUS
 10
10.4723183383
 20
6.6208627351
 11
10.4723183383
 21
5.9561823608
  0
LINE
  5
215
100
AcDbEntity
  8
0
100
AcDbLine
 62
7
  6
CONTINUOUS
 10
10.5948183383
 20
7.1370506854
 11
10.5948183383
 21
6.909271898
  0
LINE
  5
216
100
AcDbEntity
  8
0
100
AcDbLine
 62
7
  6
CONTINUOUS
 10
10.6410683383
 20
11.1903838792
 11
10.6410683383
 21
7.3425012461
  0
LINE
  5
217
100
AcDbEntity
  8
0
100
AcDbLine
 62
7
  6
CONTINUOUS
 10
10.6410683383
 20
7.2603898439
 11
10.6410683383
 21
7.2429926138
  0
LINE
  5
218
100
AcDbEntity
  8
0
100
AcDbLine
 62
7
  6
CONTINUOUS
 10
10.6410683383
 20
7.2091612713
 11
10.6410683383
 21
7.1932751954
  0
LINE
  5
219
100
AcDbEntity
  8
0
100
AcDbLine
 62
7
  6
CONTINUOUS
 10
10.6410683383
 20
7.1578614209
 11
10.6410683383
 21
7.1435459954
  0
LINE
  5
21A
100
AcDbEntity
  8
0
100
AcDbLine
 62
7
  6
CONTINUOUS
 10
10.6410685839
 20
7.3119853632
 11
10.6410683383
 21
7.2927813287
  0
LINE
  5
21B
100
AcDbEntity
  8
0
100
AcDbLine
 62
9
  6
CONTINUOUS
 10
10.6410685839
 20
7.3119853632
 11
10.6434889297
 21
7.312971584
  0
LINE
  5
21C
100
AcDbEntity
  8
0
100
AcDbLine
 62
7
  6
CONTINUOUS
 10
11.1568904109
 20
6.7382189364
 11
11.1568904109
 21
6.5988284967
  0
LINE
  5
21D
100
AcDbEntity
  8
0
100
AcDbLine
 62
7
  6
CONTINUOUS
 10
11.1770814628
 20
6.2247651893
 11
11.1770814628
 21
5.9772778159
  0
LINE
  5
21E
100
AcDbEntity
  8
0
100
AcDbLine
 62
7
  6
CONTINUOUS
 10
11.3727462656
 20
6.82634172
 11
11.3727462656
 21
6.6869512803
  0
LINE
  5
21F
100
AcDbEntity
  8
0
100
AcDbLine
 62
7
  6
CONTINUOUS
 10
11.4535683383
 20
7.2860343074
 11
11.4535683383
 21
7.2678936138
  0
LINE
  5
220
100
AcDbEntity
  8
0
100
AcDbLine
 62
7
  6
CONTINUOUS
 10
11.4535683383
 20
7.2347689064
 11
11.4535683383
 21
7.2182144969
  0
LINE
  5
221
100
AcDbEntity
  8
0
100
AcDbLine
 62
7
  6
CONTINUOUS
 10
11.4535683383
 20
7.1834307389
 11
11.4535683383
 21
7.1684124525
  0
LINE
  5
222
100
AcDbEntity
  8
0
100
AcDbLine
 62
7
  6
CONTINUOUS
 10
11.4675552138
 20
6.3433506016
 11
11.4675552138
 21
6.0958632282
  0
LINE
  5
223
100
AcDbEntity
  8
0
100
AcDbLine
 62
7
  6
CONTINUOUS
 10
11.4535683383
 20
11.1903838792
 11
11.4535680927
 21
7.3421853913
  0
LINE
  5
224
100
AcDbEntity
  8
0
100
AcDbLine
 62
7
  6
CONTINUOUS
 10
11.4998183383
 20
7.1370506854
 11
11.4998183383
 21
6.909271898
  0
LINE
  5
225
100
AcDbEntity
  8
0
100
AcDbLine
 62
7
  6
CONTINUOUS
 10
11.6223183383
 20
6.6208627351
 11
11.6223183383
 21
5.9561823608
  0
LINE
  5
226
100
AcDbEntity
  8
0
100
AcDbLine
 62
7
  6
CONTINUOUS
 10
11.7038183383
 20
10.4162409815
 11
11.7038183383
 21
10.0650334748
  0
LINE
  5
227
100
AcDbEntity
  8
0
100
AcDbLine
 62
7
  6
CONTINUOUS
 10
11.7883183383
 20
10.4782409815
 11
11.7883183383
 21
10.4162409815
  0
LINE
  5
228
100
AcDbEntity
  8
0
100
AcDbLine
 62
7
  6
CONTINUOUS
 10
10.5068183383
 20
9.5006245427
 11
10.4326843441
 21
9.6065421699
  0
LINE
  5
229
100
AcDbEntity
  8
0
100
AcDbLine
 62
7
  6
CONTINUOUS
 10
12.2373183383
 20
11.6072409815
 11
12.2373183383
 21
11.3750677343
  0
LINE
  5
22A
100
AcDbEntity
  8
0
100
AcDbLine
 62
7
  6
CONTINUOUS
 10
11.4675552138
 20
6.3433506016
 11
11.1770814628
 21
6.2247651893
  0
LINE
  5
22B
100
AcDbEntity
  8
0
100
AcDbLine
 62
7
  6
CONTINUOUS
 10
11.4675552138
 20
6.0958632282
 11
11.1770814628
 21
5.9772778159
  0
LINE
  5
22C
100
AcDbEntity
  8
0
100
AcDbLine
 62
7
  6
CONTINUOUS
 10
10.4061548986
 20
10.0497409815
 11
10.3908183383
 21
10.0650333632
  0
LINE
  5
22D
100
AcDbEntity
  8
0
100
AcDbLine
 62
7
  6
CONTINUOUS
 10
12.6673183383
 20
5.4851550294
 11
12.6673183383
 21
5.4611215783
  0
LINE
  5
22E
100
AcDbEntity
  8
0
100
AcDbLine
 62
7
  6
CONTINUOUS
 10
12.9523183383
 20
5.3277726261
 11
12.9523183383
 21
5.1983375589
  0
LINE
  5
22F
100
AcDbEntity
  8
0
100
AcDbLine
 62
9
  6
CONTINUOUS
 10
11.4770580658
 20
9.1946417388
 11
11.4535683383
 21
9.1946417388
  0
LINE
  5
230
100
AcDbEntity
  8
0
100
AcDbLine
 62
9
  6
CONTINUOUS
 10
10.6410683383
 20
9.1946417388
 11
10.6175786107
 21
9.1946417388
  0
LINE
  5
231
100
AcDbEntity
  8
0
100
AcDbLine
 62
9
  6
CONTINUOUS
 10
11.4535683383
 20
9.3572409815
 11
10.6410683383
 21
9.3572409815
  0
LINE
  5
232
100
AcDbEntity
  8
0
100
AcDbLine
 62
9
  6
CONTINUOUS
 10
10.6410683383
 20
9.5006245427
 11
10.5068183383
 21
9.5006245427
  0
LINE
  5
233
100
AcDbEntity
  8
0
100
AcDbLine
 62
9
  6
CONTINUOUS
 10
11.4535683383
 20
9.5006245427
 11
11.5878183383
 21
9.5006245427
  0
LINE
  5
234
100
AcDbEntity
  8
0
100
AcDbLine
 62
9
  6
CONTINUOUS
 10
10.6410683383
 20
9.6065421699
 11
10.4326843441
 21
9.6065421699
  0
LINE
  5
235
100
AcDbEntity
  8
0
100
AcDbLine
 62
9
  6
CONTINUOUS
 10
11.4535683383
 20
9.6065421699
 11
11.6619523325
 21
9.6065421699
  0
LINE
  5
236
100
AcDbEntity
  8
0
100
AcDbLine
 62
9
  6
CONTINUOUS
 10
10.6410683383
 20
9.8347409815
 11
10.4288183383
 21
9.8347409815
  0
LINE
  5
237
100
AcDbEntity
  8
0
100
AcDbLine
 62
9
  6
CONTINUOUS
 10
11.4535683383
 20
9.8347409815
 11
11.6658183383
 21
9.8347409815
  0
LINE
  5
238
100
AcDbEntity
  8
0
100
AcDbLine
 62
9
  6
CONTINUOUS
 10
10.6410683383
 20
10.0497409815
 11
10.4061548986
 21
10.0497409815
  0
LINE
  5
239
100
AcDbEntity
  8
0
100
AcDbLine
 62
9
  6
CONTINUOUS
 10
11.4535683383
 20
10.0497409815
 11
11.6884817779
 21
10.0497409815
  0
LINE
  5
23A
100
AcDbEntity
  8
0
100
AcDbLine
 62
7
  6
CONTINUOUS
 10
10.3063183383
 20
10.4162409815
 11
10.6410683383
 21
10.4162409815
  0
LINE
  5
23B
100
AcDbEntity
  8
0
100
AcDbLine
 62
7
  6
CONTINUOUS
 10
11.4535683383
 20
10.4162409815
 11
11.7883183383
 21
10.4162409815
  0
LINE
  5
23C
100
AcDbEntity
  8
0
100
AcDbLine
 62
7
  6
CONTINUOUS
 10
10.2343156645
 20
10.4782409815
 11
10.6410683383
 21
10.4782409815
  0
LINE
  5
23D
100
AcDbEntity
  8
0
100
AcDbLine
 62
7
  6
CONTINUOUS
 10
11.4535683383
 20
10.4782409815
 11
11.8603210121
 21
10.4782409815
  0
LINE
  5
23E
100
AcDbEntity
  8
0
100
AcDbLine
 62
7
  6
CONTINUOUS
 10
10.0473183383
 20
10.6662409815
 11
10.6410683383
 21
10.6662409815
  0
LINE
  5
23F
100
AcDbEntity
  8
0
100
AcDbLine
 62
7
  6
CONTINUOUS
 10
11.4535683383
 20
10.6662409815
 11
12.0473183383
 21
10.6662409815
  0
LINE
  5
240
100
AcDbEntity
  8
0
100
AcDbLine
 62
7
  6
CONTINUOUS
 10
13.8041570779
 20
10.8532409815
 11
11.4535683383
 21
10.8532409815
  0
LINE
  5
241
100
AcDbEntity
  8
0
100
AcDbLine
 62
7
  6
CONTINUOUS
 10
10.6410683383
 20
10.8532409815
 11
8.2904795986
 21
10.8532409815
  0
LINE
  5
242
100
AcDbEntity
  8
0
100
AcDbLine
 62
7
  6
CONTINUOUS
 10
11.4945333056
 20
11.1903838792
 11
11.4978849088
 21
11.1905716878
  0
LINE
  5
243
100
AcDbEntity
  8
0
100
AcDbLine
 62
9
  6
CONTINUOUS
 10
14.0212377081
 20
10.9792409815
 11
11.4535683383
 21
10.9792409815
  0
LINE
  5
244
100
AcDbEntity
  8
0
100
AcDbLine
 62
9
  6
CONTINUOUS
 10
10.6410683383
 20
10.9792409815
 11
8.0733989685
 21
10.9792409815
  0
LINE
  5
245
100
AcDbEntity
  8
0
100
AcDbLine
 62
7
  6
CONTINUOUS
 10
14.2382345161
 20
11.1052409674
 11
11.4535683383
 21
11.1052409674
  0
LINE
  5
246
100
AcDbEntity
  8
0
100
AcDbLine
 62
7
  6
CONTINUOUS
 10
10.6410683383
 20
11.1052409674
 11
7.8564021604
 21
11.1052409674
  0
LINE
  5
247
100
AcDbEntity
  8
0
100
AcDbLine
 62
7
  6
CONTINUOUS
 10
10.600103371
 20
11.1903838792
 11
11.4945333056
 21
11.1903838792
  0
LINE
  5
248
100
AcDbEntity
  8
0
100
AcDbLine
 62
9
  6
CONTINUOUS
 10
11.4978849088
 20
11.1905716878
 11
10.5967517678
 21
11.1905716878
  0
LINE
  5
249
100
AcDbEntity
  8
0
100
AcDbLine
 62
9
  6
CONTINUOUS
 10
14.4552392802
 20
11.2312437337
 11
11.7742071354
 21
11.2312437337
  0
LINE
  5
24A
100
AcDbEntity
  8
0
100
AcDbLine
 62
9
  6
CONTINUOUS
 10
10.3204295411
 20
11.2312437337
 11
7.6393973963
 21
11.2312437337
  0
LINE
  5
24B
100
AcDbEntity
  8
0
100
AcDbLine
 62
7
  6
CONTINUOUS
 10
10.600103371
 20
11.1903838792
 11
10.5967517678
 21
11.1905716878
  0
LINE
  5
24C
100
AcDbEntity
  8
0
100
AcDbLine
 62
9
  6
CONTINUOUS
 10
12.2007135508
 20
11.3268954572
 11
9.8939231258
 21
11.3268954572
  0
LINE
  5
24D
100
AcDbEntity
  8
0
100
AcDbLine
 62
7
  6
CONTINUOUS
 10
14.6723183383
 20
11.3572409815
 11
12.2338935402
 21
11.3572409815
  0
LINE
  5
24E
100
AcDbEntity
  8
0
100
AcDbLine
 62
7
  6
CONTINUOUS
 10
9.8607431363
 20
11.3572409815
 11
7.4223183383
 21
11.3572409815
  0
LINE
  5
24F
100
AcDbEntity
  8
0
100
AcDbLine
 62
9
  6
CONTINUOUS
 10
12.2373183383
 20
11.3750677343
 11
9.8573183383
 21
11.3750677343
  0
LINE
  5
250
100
AcDbEntity
  8
0
100
AcDbLine
 62
7
  6
CONTINUOUS
 10
7.1723183383
 20
11.6072409815
 11
14.9223183383
 21
11.6072409815
  0
ARC
  5
251
100
AcDbEntity
  8
0
100
AcDbCircle
 62
9
  6
CONTINUOUS
 10
11.0473121262
 20
6.5970355217
 40
2.3027376653
100
AcDbArc
 50
264.6659622286
 51
275.3337653414
  0
ARC
  5
252
100
AcDbEntity
  8
0
100
AcDbCircle
 62
7
  6
CONTINUOUS
 10
10.9476877664
 20
4.7494010932
 40
1.8730052796
100
AcDbArc
 50
112.0765756898
 51
112.2076299845
  0
ARC
  5
253
100
AcDbEntity
  8
0
100
AcDbCircle
 62
7
  6
CONTINUOUS
 10
9.9753468408
 20
4.8977699621
 40
1.0779626045
100
AcDbArc
 50
176.7935540762
 51
188.3555881491
  0
ARC
  5
254
100
AcDbEntity
  8
0
100
AcDbCircle
 62
9
  6
CONTINUOUS
 10
10.237637647
 20
5.4851583798
 40
0.8103192643
100
AcDbArc
 50
180.0002369001
 51
181.698800998
  0
ARC
  5
255
100
AcDbEntity
  8
0
100
AcDbCircle
 62
7
  6
CONTINUOUS
 10
9.9947794362
 20
9.1422376529
 40
0.625
100
AcDbArc
 50
4.8096995456
 51
34.9889904702
  0
ARC
  5
256
100
AcDbEntity
  8
0
100
AcDbCircle
 62
7
  6
CONTINUOUS
 10
11.0472647341
 20
6.4539523684
 40
0.4890629454
100
AcDbArc
 50
28.6910649611
 51
34.9067885354
  0
ARC
  5
257
100
AcDbEntity
  8
0
100
AcDbCircle
 62
7
  6
CONTINUOUS
 10
10.8182791273
 20
6.5712060143
 40
0.2334670666
100
AcDbArc
 50
171.3459188065
 51
175.2338868558
  0
ARC
  5
258
100
AcDbEntity
  8
0
100
AcDbCircle
 62
7
  6
CONTINUOUS
 10
10.8452288073
 20
7.3425360769
 40
0.2041604717
100
AcDbArc
 50
180.0097749445
 51
188.574382824
  0
ARC
  5
259
100
AcDbEntity
  8
0
100
AcDbCircle
 62
7
  6
CONTINUOUS
 10
10.5997934594
 20
9.7235053847
 40
0.2039751211
100
AcDbArc
 50
146.9521644936
 51
214.9889904702
  0
ARC
  5
25A
100
AcDbEntity
  8
0
100
AcDbCircle
 62
7
  6
CONTINUOUS
 10
10.8345614898
 20
7.1933304448
 40
0.1934931594
100
AcDbArc
 50
180.0163600272
 51
190.3696030885
  0
ARC
  5
25B
100
AcDbEntity
  8
0
100
AcDbCircle
 62
7
  6
CONTINUOUS
 10
10.8344450778
 20
7.2430411159
 40
0.1933767456
100
AcDbArc
 50
180.0143707382
 51
189.9126155278
  0
ARC
  5
25C
100
AcDbEntity
  8
0
100
AcDbCircle
 62
7
  6
CONTINUOUS
 10
10.8343274239
 20
7.2928229099
 40
0.1932590553
100
AcDbArc
 50
180.0123276379
 51
189.5282153801
  0
ARC
  5
25D
100
AcDbEntity
  8
0
100
AcDbCircle
 62
7
  6
CONTINUOUS
 10
10.8334048685
 20
7.1578441718
 40
0.1923365197
100
AcDbArc
 50
174.3126702357
 51
179.9948616113
  0
ARC
  5
25E
100
AcDbEntity
  8
0
100
AcDbCircle
 62
7
  6
CONTINUOUS
 10
10.8333179589
 20
7.2604039444
 40
0.1922496211
100
AcDbArc
 50
180.0042023513
 51
185.179379479
  0
ARC
  5
25F
100
AcDbEntity
  8
0
100
AcDbCircle
 62
7
  6
CONTINUOUS
 10
10.8332349299
 20
7.2091724595
 40
0.1921665919
100
AcDbArc
 50
180.0033358436
 51
184.7303695692
  0
ARC
  5
260
100
AcDbEntity
  8
0
100
AcDbCircle
 62
7
  6
CONTINUOUS
 10
10.8330737387
 20
7.2091575883
 40
0.1920054004
100
AcDbArc
 50
174.9421989494
 51
179.9989009716
  0
ARC
  5
261
100
AcDbEntity
  8
0
100
AcDbCircle
 62
7
  6
CONTINUOUS
 10
10.8330071299
 20
7.3116748159
 40
0.1919387973
100
AcDbArc
 50
175.6176993814
 51
179.9072982808
  0
ARC
  5
262
100
AcDbEntity
  8
0
100
AcDbCircle
 62
7
  6
CONTINUOUS
 10
10.832992395
 20
7.2603874745
 40
0.1919240567
100
AcDbArc
 50
175.7735952244
 51
179.999292651
  0
ARC
  5
263
100
AcDbEntity
  8
0
100
AcDbCircle
 62
7
  6
CONTINUOUS
 10
10.8329509823
 20
7.1578620218
 40
0.1918826328
100
AcDbArc
 50
180.0001794223
 51
184.2617308496
  0
ARC
  5
264
100
AcDbEntity
  8
0
100
AcDbCircle
 62
7
  6
CONTINUOUS
 10
10.2850438047
 20
9.928280006
 40
0.1715245336
100
AcDbArc
 50
326.9521644936
 51
45.0826423158
  0
ARC
  5
265
100
AcDbEntity
  8
0
100
AcDbCircle
 62
7
  6
CONTINUOUS
 10
10.6484694498
 20
9.1972409815
 40
0.031
100
AcDbArc
 50
184.8096995456
 51
256.1527822346
  0
ARC
  5
266
100
AcDbEntity
  8
0
100
AcDbCircle
 62
7
  6
CONTINUOUS
 10
10.9951444261
 20
15.6624003973
 40
4.5
100
AcDbArc
 50
276.4144817261
 51
285.5395954904
  0
ARC
  5
267
100
AcDbEntity
  8
0
100
AcDbCircle
 62
7
  6
CONTINUOUS
 10
7.8564859863
 20
11.3552519308
 40
0.2500109774
100
AcDbArc
 50
209.7364395186
 51
269.9807893772
  0
ARC
  5
268
100
AcDbEntity
  8
0
100
AcDbCircle
 62
7
  6
CONTINUOUS
 10
7.4223183383
 20
11.6072409815
 40
0.25
100
AcDbArc
 50
180.0
 51
270.0
  0
ARC
  5
269
100
AcDbEntity
  8
0
100
AcDbCircle
 62
7
  6
CONTINUOUS
 10
7.4223183383
 20
11.1072409815
 40
0.25
100
AcDbArc
 50
29.7364395186
 51
90.0
  0
ARC
  5
26A
100
AcDbEntity
  8
0
100
AcDbCircle
 62
7
  6
CONTINUOUS
 10
7.8563183383
 20
10.8552409815
 40
0.25
100
AcDbArc
 50
29.7357131076
 51
89.9807893772
  0
ARC
  5
26B
100
AcDbEntity
  8
0
100
AcDbCircle
 62
7
  6
CONTINUOUS
 10
8.2904795986
 20
11.1032409815
 40
0.25
100
AcDbArc
 50
209.7357131076
 51
270.0
  0
ARC
  5
26C
100
AcDbEntity
  8
0
100
AcDbCircle
 62
7
  6
CONTINUOUS
 10
10.0544544494
 20
10.8532409815
 40
0.1871361111
100
AcDbArc
 50
180.0
 51
267.8145949287
  0
ARC
  5
26D
100
AcDbEntity
  8
0
100
AcDbCircle
 62
7
  6
CONTINUOUS
 10
10.2343156645
 20
10.6652409815
 40
0.187
100
AcDbArc
 50
179.6936039968
 51
270.0
  0
ARC
  5
26E
100
AcDbEntity
  8
0
100
AcDbCircle
 62
7
  6
CONTINUOUS
 10
9.9073183383
 20
11.3750677343
 40
0.05
100
AcDbArc
 50
180.0
 51
254.4604045097
  0
ARC
  5
26F
100
AcDbEntity
  8
0
100
AcDbCircle
 62
9
  6
CONTINUOUS
 10
11.0488410899
 20
6.6472657735
 40
2.6664842384
100
AcDbArc
 50
274.5039508738
 51
274.8457327289
  0
ARC
  5
270
100
AcDbEntity
  8
0
100
AcDbCircle
 62
9
  6
CONTINUOUS
 10
11.060822731
 20
6.5757499119
 40
2.5142243784
100
AcDbArc
 50
278.9558964887
 51
280.9090066343
  0
ARC
  5
271
100
AcDbEntity
  8
0
100
AcDbCircle
 62
9
  6
CONTINUOUS
 10
11.1709253145
 20
6.1806500896
 40
1.7971473097
100
AcDbArc
 50
292.1832889853
 51
295.6416857996
  0
ARC
  5
272
100
AcDbEntity
  8
0
100
AcDbCircle
 62
7
  6
CONTINUOUS
 10
12.1192949095
 20
4.8977695191
 40
1.0779575261
100
AcDbArc
 50
351.6443186458
 51
3.2064845892
  0
ARC
  5
273
100
AcDbEntity
  8
0
100
AcDbCircle
 62
7
  6
CONTINUOUS
 10
12.0998572404
 20
9.1422376529
 40
0.625
100
AcDbArc
 50
145.0110095298
 51
175.1903004544
  0
ARC
  5
274
100
AcDbEntity
  8
0
100
AcDbCircle
 62
7
  6
CONTINUOUS
 10
11.0761547832
 20
6.8457171632
 40
0.5620113138
100
AcDbArc
 50
291.1910826387
 51
292.2069104658
  0
ARC
  5
275
100
AcDbEntity
  8
0
100
AcDbCircle
 62
7
  6
CONTINUOUS
 10
11.078341017
 20
6.8140060619
 40
0.529800715
100
AcDbArc
 50
292.2054901858
 51
293.2843305339
  0
ARC
  5
276
100
AcDbEntity
  8
0
100
AcDbCircle
 62
7
  6
CONTINUOUS
 10
11.0473546817
 20
6.4539629844
 40
0.4890427073
100
AcDbArc
 50
145.1044821318
 51
151.3090552304
  0
ARC
  5
277
100
AcDbEntity
  8
0
100
AcDbCircle
 62
7
  6
CONTINUOUS
 10
11.2160957909
 20
7.3538755101
 40
0.2395301975
100
AcDbArc
 50
332.6993954706
 51
332.9171822952
  0
ARC
  5
278
100
AcDbEntity
  8
0
100
AcDbCircle
 62
7
  6
CONTINUOUS
 10
11.2760950281
 20
6.5711806251
 40
0.2337304733
100
AcDbArc
 50
4.002492231
 51
8.6811620395
  0
ARC
  5
279
100
AcDbEntity
  8
0
100
AcDbCircle
 62
7
  6
CONTINUOUS
 10
11.2378892964
 20
7.286009152
 40
0.2156790433
100
AcDbArc
 50
0.0066826064
 51
7.6278646757
  0
ARC
  5
27A
100
AcDbEntity
  8
0
100
AcDbCircle
 62
7
  6
CONTINUOUS
 10
11.2379570466
 20
7.2182559125
 40
0.2156112957
100
AcDbArc
 50
350.8478542558
 51
359.9889943564
  0
ARC
  5
27B
100
AcDbEntity
  8
0
100
AcDbCircle
 62
7
  6
CONTINUOUS
 10
11.2379943631
 20
7.2679297359
 40
0.2155739782
100
AcDbArc
 50
351.281040643
 51
359.9903993889
  0
ARC
  5
27C
100
AcDbEntity
  8
0
100
AcDbCircle
 62
7
  6
CONTINUOUS
 10
11.2382415107
 20
7.1834191955
 40
0.2153268279
100
AcDbArc
 50
0.0030715667
 51
4.6393217561
  0
ARC
  5
27D
100
AcDbEntity
  8
0
100
AcDbCircle
 62
7
  6
CONTINUOUS
 10
11.2383508952
 20
7.2347586981
 40
0.2152174434
100
AcDbArc
 50
0.0027176828
 51
4.4246916637
  0
ARC
  5
27E
100
AcDbEntity
  8
0
100
AcDbCircle
 62
7
  6
CONTINUOUS
 10
11.2384733145
 20
7.2860379003
 40
0.2150950238
100
AcDbArc
 50
355.1747229063
 51
359.9990429457
  0
ARC
  5
27F
100
AcDbEntity
  8
0
100
AcDbCircle
 62
7
  6
CONTINUOUS
 10
11.238517285
 20
7.1834330056
 40
0.2150510533
100
AcDbArc
 50
356.0056081754
 51
359.9993960887
  0
ARC
  5
280
100
AcDbEntity
  8
0
100
AcDbCircle
 62
7
  6
CONTINUOUS
 10
11.2385425081
 20
7.2347717938
 40
0.2150258303
100
AcDbArc
 50
355.5959048196
 51
359.9992306284
  0
ARC
  5
281
100
AcDbEntity
  8
0
100
AcDbCircle
 62
7
  6
CONTINUOUS
 10
11.4948432172
 20
9.7235053847
 40
0.2039751211
100
AcDbArc
 50
325.0110095298
 51
33.0478355064
  0
ARC
  5
282
100
AcDbEntity
  8
0
100
AcDbCircle
 62
7
  6
CONTINUOUS
 10
11.8095928719
 20
9.928280006
 40
0.1715245336
100
AcDbArc
 50
134.9173576842
 51
213.0478355064
  0
ARC
  5
283
100
AcDbEntity
  8
0
100
AcDbCircle
 62
7
  6
CONTINUOUS
 10
11.4461672268
 20
9.1972409815
 40
0.031
100
AcDbArc
 50
283.8472177654
 51
355.1903004544
  0
ARC
  5
284
100
AcDbEntity
  8
0
100
AcDbCircle
 62
7
  6
CONTINUOUS
 10
11.0994922504
 20
15.6624003973
 40
4.5
100
AcDbArc
 50
254.4604045096
 51
263.5855182739
  0
ARC
  5
285
100
AcDbEntity
  8
0
100
AcDbCircle
 62
7
  6
CONTINUOUS
 10
14.2381506903
 20
11.3552519308
 40
0.2500109774
100
AcDbArc
 50
270.0192106228
 51
330.2635604814
  0
ARC
  5
286
100
AcDbEntity
  8
0
100
AcDbCircle
 62
7
  6
CONTINUOUS
 10
14.6723183383
 20
11.6072409815
 40
0.25
100
AcDbArc
 50
270.0
 51
360.0
  0
ARC
  5
287
100
AcDbEntity
  8
0
100
AcDbCircle
 62
7
  6
CONTINUOUS
 10
14.6723183383
 20
11.1072409815
 40
0.25
100
AcDbArc
 50
90.0
 51
150.2635604814
  0
ARC
  5
288
100
AcDbEntity
  8
0
100
AcDbCircle
 62
7
  6
CONTINUOUS
 10
14.2383183383
 20
10.8552409815
 40
0.25
100
AcDbArc
 50
90.0192106228
 51
150.2642868924
  0
ARC
  5
289
100
AcDbEntity
  8
0
100
AcDbCircle
 62
7
  6
CONTINUOUS
 10
13.8041570779
 20
11.1032409815
 40
0.25
100
AcDbArc
 50
270.0
 51
330.2642868924
  0
ARC
  5
28A
100
AcDbEntity
  8
0
100
AcDbCircle
 62
7
  6
CONTINUOUS
 10
12.0401822272
 20
10.8532409815
 40
0.1871361111
100
AcDbArc
 50
272.1854050713
 51
360.0
  0
ARC
  5
28B
100
AcDbEntity
  8
0
100
AcDbCircle
 62
7
  6
CONTINUOUS
 10
11.8603210121
 20
10.6652409815
 40
0.187
100
AcDbArc
 50
270.0
 51
0.3063960032
  0
ARC
  5
28C
100
AcDbEntity
  8
0
100
AcDbCircle
 62
7
  6
CONTINUOUS
 10
12.1873183383
 20
11.3750677343
 40
0.05
100
AcDbArc
 50
285.5395954903
 51
360.0
  0
SPLINE
  5
28D
100
AcDbEntity
  8
0
100
AcDbSpline
 62
7
  6
CONTINUOUS
 70
0
 71
3
 72
26
 73
22
 74
0
 42
0.0000001
 43
0.0000001
 44
0.0000000001
 40
0.0
 40
0.0
 40
0.0
 40
0.0
 40
0.0253240162
 40
0.050714097
 40
0.076235142
 40
0.1019498618
 40
0.1279177802
 40
0.1541942619
 40
0.1808300141
 40
0.207870297
 40
0.2632923003
 40
0.3207319629
 40
0.3803374212
 40
0.4421643318
 40
0.5061838674
 40
0.5722920381
 40
0.6403202065
 40
0.7100451344
 40
0.7811990356
 40
0.8534796793
 40
1.0
 40
1.0
 40
1.0
 40
1.0
 10
10.6410683901
 20
7.1435459954
 30
0.0
 10
10.6410683727
 20
7.1389742201
 30
0.0
 10
10.6413957083
 20
7.1298153898
 30
0.0
 10
10.6428669506
 20
7.1161203524
 30
0.0
 10
10.6453148764
 20
7.1024935687
 30
0.0
 10
10.648733128
 20
7.0889701058
 30
0.0
 10
10.6531134618
 20
7.0755836376
 30
0.0
 10
10.6584443276
 20
7.0623675813
 30
0.0
 10
10.664713286
 20
7.0493545798
 30
0.0
 10
10.6743779447
 20
7.0321804707
 30
0.0
 10
10.6888004098
 20
7.0113656992
 30
0.0
 10
10.7094028479
 20
6.9879383554
 30
0.0
 10
10.7332433578
 20
6.9660715519
 30
0.0
 10
10.7600880287
 20
6.9459789109
 30
0.0
 10
10.7896786179
 20
6.9278537187
 30
0.0
 10
10.8217313849
 20
6.9118727269
 30
0.0
 10
10.8559402763
 20
6.8981929149
 30
0.0
 10
10.8919774906
 20
6.8869504714
 30
0.0
 10
10.9295031872
 20
6.8782583483
 30
0.0
 10
10.9812492967
 20
6.8701558451
 30
0.0
 10
11.0208718664
 20
6.8682037911
 30
0.0
 10
11.0473183383
 20
6.8687190447
 30
0.0
  0
SPLINE
  5
28E
100
AcDbEntity
  8
0
100
AcDbSpline
 62
7
  6
CONTINUOUS
 70
0
 71
3
 72
14
 73
10
 74
0
 42
0.0000001
 43
0.0000001
 44
0.0000000001
 40
0.0
 40
0.0
 40
0.0
 40
0.0
 40
0.1195400711
 40
0.2401547325
 40
0.3621191401
 40
0.4856858253
 40
0.6110792087
 40
0.7385060778
 40
1.0
 40
1.0
 40
1.0
 40
1.0
 10
10.6442286344
 20
7.1585021967
 30
0.0
 10
10.6450703659
 20
7.1538901237
 30
0.0
 10
10.6470931997
 20
7.1446817268
 30
0.0
 10
10.6511087108
 20
7.1310479406
 30
0.0
 10
10.6561063241
 20
7.1175737298
 30
0.0
 10
10.6620732304
 20
7.1042950198
 30
0.0
 10
10.6689945209
 20
7.0912443475
 30
0.0
 10
10.6795589012
 20
7.0740499312
 30
0.0
 10
10.6887417046
 20
7.0618112212
 30
0.0
 10
10.6953467171
 20
7.0539658238
 30
0.0
  0
SPLINE
  5
28F
100
AcDbEntity
  8
0
100
AcDbSpline
 62
7
  6
CONTINUOUS
 70
0
 71
3
 72
26
 73
22
 74
0
 42
0.0000001
 43
0.0000001
 44
0.0000000001
 40
0.0
 40
0.0
 40
0.0
 40
0.0
 40
0.0251992874
 40
0.050594344
 40
0.0762341435
 40
0.1021644167
 40
0.1284269941
 40
0.1550596923
 40
0.2095426217
 40
0.265845808
 40
0.3241040209
 40
0.3539962914
 40
0.3843948404
 40
0.44668191
 40
0.5109146671
 40
0.5769735795
 40
0.6446930396
 40
0.7138686107
 40
0.784264185
 40
0.8556188485
 40
1.0
 40
1.0
 40
1.0
 40
1.0
 10
10.6439551673
 20
7.2097520827
 30
0.0
 10
10.6446883724
 20
7.205546499
 30
0.0
 10
10.6464362481
 20
7.1971481848
 30
0.0
 10
10.6498757132
 20
7.1846911715
 30
0.0
 10
10.654133693
 20
7.1723582225
 30
0.0
 10
10.6592015154
 20
7.1601765927
 30
0.0
 10
10.6650682152
 20
7.1481713457
 30
0.0
 10
10.6740052383
 20
7.1323170539
 30
0.0
 10
10.6871718098
 20
7.1130538838
 30
0.0
 10
10.7058025399
 20
7.091240542
 30
0.0
 10
10.7235097182
 20
7.0742885651
 30
0.0
 10
10.7389539064
 20
7.0614414713
 30
0.0
 10
10.755509914
 20
7.0488960054
 30
0.0
 10
10.7777459396
 20
7.0342629598
 30
0.0
 10
10.8064143334
 20
7.0186197013
 30
0.0
 10
10.8370521079
 20
7.0048798645
 30
0.0
 10
10.8694078141
 20
6.99316087
 30
0.0
 10
10.9032168017
 20
6.9835629484
 30
0.0
 10
10.9382062872
 20
6.9761693093
 30
0.0
 10
10.9862168587
 20
6.9693136471
 30
0.0
 10
11.0228633397
 20
6.9676978991
 30
0.0
 10
11.0473183383
 20
6.9681751956
 30
0.0
  0
SPLINE
  5
290
100
AcDbEntity
  8
0
100
AcDbSpline
 62
7
  6
CONTINUOUS
 70
0
 71
3
 72
22
 73
18
 74
0
 42
0.0000001
 43
0.0000001
 44
0.0000000001
 40
0.0
 40
0.0
 40
0.0
 40
0.0
 40
0.0615560036
 40
0.1231198216
 40
0.1847032936
 40
0.246319119
 40
0.3079875169
 40
0.3697332204
 40
0.4315886628
 40
0.4935920461
 40
0.5557861967
 40
0.6182178267
 40
0.6809332797
 40
0.7439765634
 40
0.8073871825
 40
0.8711928483
 40
1.0
 40
1.0
 40
1.0
 40
1.0
 10
11.4998183383
 20
6.909271898
 30
0.0
 10
11.4998183383
 20
6.9001591113
 30
0.0
 10
11.499039148
 20
6.8819228174
 30
0.0
 10
11.4955458653
 20
6.8547716884
 30
0.0
 10
11.4897668665
 20
6.8280031273
 30
0.0
 10
11.4817640835
 20
6.8017984975
 30
0.0
 10
11.471619882
 20
6.7763212476
 30
0.0
 10
11.4594326803
 20
6.7517174677
 30
0.0
 10
11.4453124666
 20
6.7281135212
 30
0.0
 10
11.4293766784
 20
6.7056156215
 30
0.0
 10
11.411745813
 20
6.6843109669
 30
0.0
 10
11.3925407562
 20
6.6642694871
 30
0.0
 10
11.3718800333
 20
6.6455464435
 30
0.0
 10
11.3498796755
 20
6.6281854232
 30
0.0
 10
11.3266496424
 20
6.6122202545
 30
0.0
 10
11.2940939777
 20
6.592777125
 30
0.0
 10
11.268279832
 20
6.5804524959
 30
0.0
 10
11.2506256592
 20
6.57324521
 30
0.0
  0
SPLINE
  5
291
100
AcDbEntity
  8
0
100
AcDbSpline
 62
7
  6
CONTINUOUS
 70
0
 71
3
 72
29
 73
25
 74
0
 42
0.0000001
 43
0.0000001
 44
0.0000000001
 40
0.0
 40
0.0
 40
0.0
 40
0.0
 40
0.0654533296
 40
0.1307389728
 40
0.1957058829
 40
0.2602285233
 40
0.3242158096
 40
0.3876165733
 40
0.4504243694
 40
0.5126704262
 40
0.5744201214
 40
0.6357607631
 40
0.6663177888
 40
0.6968082953
 40
0.7272434765
 40
0.7576339954
 40
0.7879889599
 40
0.818316137
 40
0.8486220827
 40
0.878912408
 40
0.9091923858
 40
0.9394657865
 40
0.9697319695
 40
1.0
 40
1.0
 40
1.0
 40
1.0
 10
11.046378511
 20
6.5342429629
 30
0.0
 10
11.032165325
 20
6.5342667213
 30
0.0
 10
11.0037652886
 20
6.5353910954
 30
0.0
 10
10.9615127672
 20
6.5403037094
 30
0.0
 10
10.9199595321
 20
6.54842214
 30
0.0
 10
10.8794459913
 20
6.5597159168
 30
0.0
 10
10.8402997595
 20
6.5741455713
 30
0.0
 10
10.8028419321
 20
6.5916642326
 30
0.0
 10
10.767390628
 20
6.6122165924
 30
0.0
 10
10.7342663438
 20
6.6357362082
 30
0.0
 10
10.7038019817
 20
6.6621328796
 30
0.0
 10
10.6808813917
 20
6.6864688346
 30
0.0
 10
10.6642507171
 20
6.707212707
 30
0.0
 10
10.6526764016
 20
6.7233707874
 30
0.0
 10
10.642032807
 20
6.7401135967
 30
0.0
 10
10.6323642452
 20
6.7574046312
 30
0.0
 10
10.623713906
 20
6.7752011527
 30
0.0
 10
10.6161225198
 20
6.7934549873
 30
0.0
 10
10.6096284883
 20
6.8121128509
 30
0.0
 10
10.6042652519
 20
6.8311162561
 30
0.0
 10
10.6000618428
 20
6.8504023333
 30
0.0
 10
10.5970424667
 20
6.8699039242
 30
0.0
 10
10.5952233138
 20
6.8895505719
 30
0.0
 10
10.5948183383
 20
6.9026991881
 30
0.0
 10
10.5948183383
 20
6.909271898
 30
0.0
  0
SPLINE
  5
292
100
AcDbEntity
  8
0
100
AcDbSpline
 62
7
  6
CONTINUOUS
 70
0
 71
3
 72
13
 73
9
 74
0
 42
0.0000001
 43
0.0000001
 44
0.0000000001
 40
0.0
 40
0.0
 40
0.0
 40
0.0
 40
0.1277957886
 40
0.255310489
 40
0.4454499066
 40
0.6334816334
 40
0.8185790699
 40
1.0
 40
1.0
 40
1.0
 40
1.0
 10
11.0483363449
 20
6.5342430849
 30
0.0
 10
11.056960437
 20
6.5342586781
 30
0.0
 10
11.0741917736
 20
6.5346864423
 30
0.0
 10
11.1041858484
 20
6.5368176921
 30
0.0
 10
11.1380578153
 20
6.5412066004
 30
0.0
 10
11.1753459669
 20
6.5487517321
 30
0.0
 10
11.211420728
 20
6.5588270755
 30
0.0
 10
11.2347016362
 20
6.5672656128
 30
0.0
 10
11.2460363757
 20
6.5718930008
 30
0.0
  0
SPLINE
  5
293
100
AcDbEntity
  8
0
100
AcDbSpline
 62
7
  6
CONTINUOUS
 70
0
 71
3
 72
11
 73
7
 74
0
 42
0.0000001
 43
0.0000001
 44
0.0000000001
 40
0.0
 40
0.0
 40
0.0
 40
0.0
 40
0.2470634912
 40
0.4965271273
 40
0.747783925
 40
1.0
 40
1.0
 40
1.0
 40
1.0
 10
11.2506256592
 20
6.57324521
 30
0.0
 10
11.2348270767
 20
6.5667954657
 30
0.0
 10
11.2023835851
 20
6.5554700277
 30
0.0
 10
11.1521061508
 20
6.5433146555
 30
0.0
 10
11.1005496653
 20
6.535954201
 30
0.0
 10
11.0657566194
 20
6.534274652
 30
0.0
 10
11.0483363449
 20
6.5342430996
 30
0.0
  0
SPLINE
  5
294
100
AcDbEntity
  8
0
100
AcDbSpline
 62
7
  6
CONTINUOUS
 70
0
 71
3
 72
15
 73
11
 74
0
 42
0.0000001
 43
0.0000001
 44
0.0000000001
 40
0.0
 40
0.0
 40
0.0
 40
0.0
 40
0.1211615122
 40
0.2427131108
 40
0.3650361109
 40
0.4884948475
 40
0.6134292388
 40
0.7401487539
 40
0.8689273403
 40
1.0
 40
1.0
 40
1.0
 40
1.0
 10
11.4998182951
 20
7.1370506854
 30
0.0
 10
11.499818325
 20
7.1431194144
 30
0.0
 10
11.4993281973
 20
7.1552820527
 30
0.0
 10
11.4971267586
 20
7.1734516136
 30
0.0
 10
11.4934658717
 20
7.1915024646
 30
0.0
 10
11.4883582881
 20
7.2093738563
 30
0.0
 10
11.4818214982
 20
7.2270077821
 30
0.0
 10
11.4738772188
 20
7.2443469296
 30
0.0
 10
11.4645527709
 20
7.2613342166
 30
0.0
 10
11.4575013327
 20
7.2722882987
 30
0.0
 10
11.4537653763
 20
7.2776868103
 30
0.0
  0
SPLINE
  5
295
100
AcDbEntity
  8
0
100
AcDbSpline
 62
7
  6
CONTINUOUS
 70
0
 71
3
 72
15
 73
11
 74
0
 42
0.0000001
 43
0.0000001
 44
0.0000000001
 40
0.0
 40
0.0
 40
0.0
 40
0.0
 40
0.1211073849
 40
0.2426107813
 40
0.364897039
 40
0.4883355753
 40
0.6132708621
 40
0.7400157157
 40
0.8688465054
 40
1.0
 40
1.0
 40
1.0
 40
1.0
 10
10.5948183815
 20
7.1370506854
 30
0.0
 10
10.5948184116
 20
7.143166644
 30
0.0
 10
10.5953160378
 20
7.1554243404
 30
0.0
 10
10.5975521402
 20
7.1737346929
 30
0.0
 10
10.6012701379
 20
7.1919235286
 30
0.0
 10
10.6064570803
 20
7.209928686
 30
0.0
 10
10.6130951671
 20
7.2276907115
 30
0.0
 10
10.6211617179
 20
7.2451510524
 30
0.0
 10
10.6306284562
 20
7.2622514397
 30
0.0
 10
10.6377860827
 20
7.2732727512
 30
0.0
 10
10.6415778573
 20
7.2787032593
 30
0.0
  0
SPLINE
  5
296
100
AcDbEntity
  8
0
100
AcDbSpline
 62
7
  6
CONTINUOUS
 70
0
 71
3
 72
21
 73
17
 74
0
 42
0.0000001
 43
0.0000001
 44
0.0000000001
 40
0.0
 40
0.0
 40
0.0
 40
0.0
 40
0.0554311947
 40
0.1110880252
 40
0.1671896977
 40
0.223943114
 40
0.281537726
 40
0.340141411
 40
0.3998974852
 40
0.4609228428
 40
0.5233071043
 40
0.5871127477
 40
0.7190391935
 40
0.7872245051
 40
0.8568274433
 40
1.0
 40
1.0
 40
1.0
 40
1.0
 10
11.5098182941
 20
6.6067205995
 30
0.0
 10
11.5098182598
 20
6.5997409693
 30
0.0
 10
11.5091835725
 20
6.5857450876
 30
0.0
 10
11.506333161
 20
6.5648600362
 30
0.0
 10
11.5015965016
 20
6.5441485403
 30
0.0
 10
11.4949944408
 20
6.5236990679
 30
0.0
 10
11.4865556911
 20
6.5035956082
 30
0.0
 10
11.4763165059
 20
6.4839210162
 30
0.0
 10
11.4643203085
 20
6.4647556522
 30
0.0
 10
11.4506179618
 20
6.4461776811
 30
0.0
 10
11.4352657196
 20
6.4282615007
 30
0.0
 10
11.4124344172
 20
6.4051014264
 30
0.0
 10
11.3867537935
 20
6.3838410484
 30
0.0
 10
11.3587333127
 20
6.3646268988
 30
0.0
 10
11.3284242303
 20
6.3463498669
 30
0.0
 10
11.3043274666
 20
6.3344816416
 30
0.0
 10
11.2877682238
 20
6.3273552192
 30
0.0
  0
SPLINE
  5
297
100
AcDbEntity
  8
0
100
AcDbSpline
 62
7
  6
CONTINUOUS
 70
0
 71
3
 72
21
 73
17
 74
0
 42
0.0000001
 43
0.0000001
 44
0.0000000001
 40
0.0
 40
0.0
 40
0.0
 40
0.0
 40
0.0552266298
 40
0.1106882316
 40
0.1666128565
 40
0.2232151426
 40
0.2806908132
 40
0.3392122508
 40
0.3989253808
 40
0.4599478736
 40
0.5223683246
 40
0.5862464063
 40
0.7184062926
 40
0.7867419064
 40
0.8565068019
 40
1.0
 40
1.0
 40
1.0
 40
1.0
 10
11.6223182928
 20
5.9561823608
 30
0.0
 10
11.6223183306
 20
5.9473088598
 30
0.0
 10
11.6214928179
 20
5.9295131948
 30
0.0
 10
11.6177867787
 20
5.9029644195
 30
0.0
 10
11.6116291282
 20
5.8766465577
 30
0.0
 10
11.6030482253
 20
5.8506772311
 30
0.0
 10
11.5920830986
 20
5.8251679979
 30
0.0
 10
11.5787831685
 20
5.8002287202
 30
0.0
 10
11.5632075469
 20
5.7759657649
 30
0.0
 10
11.5454251478
 20
5.7524825493
 30
0.0
 10
11.5255122817
 20
5.7298773702
 30
0.0
 10
11.495910275
 20
5.7007133458
 30
0.0
 10
11.4626550775
 20
5.6740584168
 30
0.0
 10
11.4264195986
 20
5.6500951166
 30
0.0
 10
11.3872555414
 20
5.6273975249
 30
0.0
 10
11.3561637424
 20
5.612782435
 30
0.0
 10
11.3348183383
 20
5.6040682103
 30
0.0
  0
SPLINE
  5
298
100
AcDbEntity
  8
0
100
AcDbSpline
 62
7
  6
CONTINUOUS
 70
0
 71
3
 72
21
 73
17
 74
0
 42
0.0000001
 43
0.0000001
 44
0.0000000001
 40
0.0
 40
0.0
 40
0.0
 40
0.0
 40
0.0587070076
 40
0.1175169832
 40
0.1765316276
 40
0.2358501716
 40
0.2955681682
 40
0.3557766317
 40
0.4165607383
 40
0.4779995292
 40
0.540164833
 40
0.6031211618
 40
0.6669248642
 40
0.7316246228
 40
0.8638297057
 40
1.0
 40
1.0
 40
1.0
 40
1.0
 10
10.4723183724
 20
6.6208627351
 30
0.0
 10
10.4723184
 20
6.6265473336
 30
0.0
 10
10.4726561594
 20
6.637929383
 30
0.0
 10
10.474175167
 20
6.654964818
 30
0.0
 10
10.4767034903
 20
6.6719403215
 30
0.0
 10
10.4802369908
 20
6.6888249083
 30
0.0
 10
10.4847687402
 20
6.7055889917
 30
0.0
 10
10.4902910899
 20
6.7222026989
 30
0.0
 10
10.4967935244
 20
6.7386368972
 30
0.0
 10
10.5042648468
 20
6.7548624049
 30
0.0
 10
10.512691266
 20
6.770850887
 30
0.0
 10
10.5220579658
 20
6.7865740079
 30
0.0
 10
10.5323482811
 20
6.802004591
 30
0.0
 10
10.5473817261
 20
6.822295519
 30
0.0
 10
10.5684447866
 20
6.8467851137
 30
0.0
 10
10.5871331477
 20
6.8648969799
 30
0.0
 10
10.5969792432
 20
6.8736667183
 30
0.0
  0
SPLINE
  5
299
100
AcDbEntity
  8
0
100
AcDbSpline
 62
7
  6
CONTINUOUS
 70
0
 71
3
 72
35
 73
31
 74
0
 42
0.0000001
 43
0.0000001
 44
0.0000000001
 40
0.0
 40
0.0
 40
0.0
 40
0.0
 40
0.0619984221
 40
0.0939824959
 40
0.126562087
 40
0.1932664602
 40
0.227290114
 40
0.2616567791
 40
0.3310777222
 40
0.3659863792
 40
0.4009038041
 40
0.4703918175
 40
0.5048112635
 40
0.538895269
 40
0.605720486
 40
0.6383440511
 40
0.6703502657
 40
0.7016873785
 40
0.7323137231
 40
0.7621989727
 40
0.7913255055
 40
0.8196898447
 40
0.8473037061
 40
0.8741951471
 40
0.8873864269
 40
0.9004155133
 40
0.9260149813
 40
0.9510793824
 40
0.9757044744
 40
1.0
 40
1.0
 40
1.0
 40
1.0
 10
11.3431286757
 20
7.1147744769
 30
0.0
 10
11.3296669961
 20
7.1042796498
 30
0.0
 10
11.3081329417
 20
7.0897636752
 30
0.0
 10
11.2775624699
 20
7.0730152355
 30
0.0
 10
11.2448734656
 20
7.0575581232
 30
0.0
 10
11.2103767839
 20
7.0447679904
 30
0.0
 10
11.1745653603
 20
7.0346733142
 30
0.0
 10
11.1375409428
 20
7.0263134799
 30
0.0
 10
11.0996754501
 20
7.0208062566
 30
0.0
 10
11.0614170242
 20
7.0181591583
 30
0.0
 10
11.0230554257
 20
7.0174331382
 30
0.0
 10
10.9848177805
 20
7.0195795459
 30
0.0
 10
10.9471458227
 20
7.0246038302
 30
0.0
 10
10.9105060983
 20
7.0314337709
 30
0.0
 10
10.8749211018
 20
7.04100585
 30
0.0
 10
10.8408703968
 20
7.0533151374
 30
0.0
 10
10.8165672457
 20
7.0637212018
 30
0.0
 10
10.7934228008
 20
7.0753182926
 30
0.0
 10
10.7715520984
 20
7.088046436
 30
0.0
 10
10.7510652744
 20
7.1018396425
 30
0.0
 10
10.7320653858
 20
7.116626794
 30
0.0
 10
10.7146480882
 20
7.1323321734
 30
0.0
 10
10.6989022249
 20
7.1488743943
 30
0.0
 10
10.6871638602
 20
7.1633814141
 30
0.0
 10
10.6787085094
 20
7.1753164853
 30
0.0
 10
10.6709717425
 20
7.1873078941
 30
0.0
 10
10.6624494559
 20
7.2026631723
 30
0.0
 10
10.6541053495
 20
7.2216717545
 30
0.0
 10
10.6477469369
 20
7.2410561731
 30
0.0
 10
10.6448393294
 20
7.2542350023
 30
0.0
 10
10.643734531
 20
7.260832104
 30
0.0
  0
SPLINE
  5
29A
100
AcDbEntity
  8
0
100
AcDbSpline
 62
7
  6
CONTINUOUS
 70
0
 71
3
 72
17
 73
13
 74
0
 42
0.0000001
 43
0.0000001
 44
0.0000000001
 40
0.0
 40
0.0
 40
0.0
 40
0.0
 40
0.0580937976
 40
0.1164629223
 40
0.1751924991
 40
0.2343634043
 40
0.3542861421
 40
0.4768130657
 40
0.6023794554
 40
0.7313084914
 40
0.8638150485
 40
1.0
 40
1.0
 40
1.0
 40
1.0
 10
11.4449681736
 20
7.2837669235
 30
0.0
 10
11.4445128203
 20
7.2798750641
 30
0.0
 10
11.443378804
 20
7.2720969825
 30
0.0
 10
11.4410203151
 20
7.2605121974
 30
0.0
 10
11.4380058319
 20
7.2490048515
 30
0.0
 10
11.4330988706
 20
7.2337257801
 30
0.0
 10
11.4253188117
 20
7.2148832917
 30
0.0
 10
11.4135173391
 20
7.1929994353
 30
0.0
 10
11.399293132
 20
7.1718727851
 30
0.0
 10
11.382747256
 20
7.151637348
 30
0.0
 10
11.3639956095
 20
7.1324195006
 30
0.0
 10
11.350292321
 20
7.1205240839
 30
0.0
 10
11.3431286757
 20
7.1147744769
 30
0.0
  0
SPLINE
  5
29B
100
AcDbEntity
  8
0
100
AcDbSpline
 62
7
  6
CONTINUOUS
 70
0
 71
3
 72
11
 73
7
 74
0
 42
0.0000001
 43
0.0000001
 44
0.0000000001
 40
0.0
 40
0.0
 40
0.0
 40
0.0
 40
0.2455681559
 40
0.4929737388
 40
0.743935664
 40
1.0
 40
1.0
 40
1.0
 40
1.0
 10
11.4535680927
 20
7.3421853913
 30
0.0
 10
11.4535552102
 20
7.333900676
 30
0.0
 10
11.4525074117
 20
7.3172532903
 30
0.0
 10
11.4478891606
 20
7.2925242118
 30
0.0
 10
11.4402633513
 20
7.2681819499
 30
0.0
 10
11.4332944176
 20
7.2525142834
 30
0.0
 10
11.429361353
 20
7.2448226993
 30
0.0
  0
SPLINE
  5
29C
100
AcDbEntity
  8
0
100
AcDbSpline
 62
7
  6
CONTINUOUS
 70
0
 71
3
 72
21
 73
17
 74
0
 42
0.0000001
 43
0.0000001
 44
0.0000000001
 40
0.0
 40
0.0
 40
0.0
 40
0.0
 40
0.0525274617
 40
0.1063574089
 40
0.1616111619
 40
0.2183692498
 40
0.3364412647
 40
0.3978086346
 40
0.4606287286
 40
0.5248096281
 40
0.5902345728
 40
0.6567650596
 40
0.7242442466
 40
0.7925007725
 40
0.8613492734
 40
1.0
 40
1.0
 40
1.0
 40
1.0
 10
11.428945293
 20
7.244012846
 30
0.0
 10
11.4253631358
 20
7.2370727099
 30
0.0
 10
11.4174186248
 20
7.2233669093
 30
0.0
 10
11.4034876008
 20
7.2037509425
 30
0.0
 10
11.3874858114
 20
7.1849485584
 30
0.0
 10
11.3632082269
 20
7.1608020128
 30
0.0
 10
11.3354135784
 20
7.1390796034
 30
0.0
 10
11.3048545175
 20
7.1199769048
 30
0.0
 10
11.2801393072
 20
7.1067538238
 30
0.0
 10
11.2540777855
 20
7.0949031452
 30
0.0
 10
11.2268180113
 20
7.0844906105
 30
0.0
 10
11.19851854
 20
7.075576616
 30
0.0
 10
11.1693435395
 20
7.0682122246
 30
0.0
 10
11.1394601017
 20
7.0624398386
 30
0.0
 10
11.0988212219
 20
7.0568985975
 30
0.0
 10
11.0679337105
 20
7.0552391163
 30
0.0
 10
11.0473183383
 20
7.0552391163
 30
0.0
  0
SPLINE
  5
29D
100
AcDbEntity
  8
0
100
AcDbSpline
 62
7
  6
CONTINUOUS
 70
0
 71
3
 72
25
 73
21
 74
0
 42
0.0000001
 43
0.0000001
 44
0.0000000001
 40
0.0
 40
0.0
 40
0.0
 40
0.0
 40
0.1430919014
 40
0.2139337163
 40
0.2839022518
 40
0.3527366217
 40
0.4202013556
 40
0.4860936983
 40
0.5502507192
 40
0.6125562958
 40
0.6729486144
 40
0.7314267689
 40
0.788057102
 40
0.8429773495
 40
0.8698704163
 40
0.8964209875
 40
0.9226665055
 40
0.9486480706
 40
0.9744098792
 40
1.0
 40
1.0
 40
1.0
 40
1.0
 10
11.0473183383
 20
7.0552391163
 30
0.0
 10
11.0226106991
 20
7.0552391163
 30
0.0
 10
10.9856091188
 20
7.057619942
 30
0.0
 10
10.9372125744
 20
7.0655751943
 30
0.0
 10
10.9019371226
 20
7.0738342629
 30
0.0
 10
10.8678741211
 20
7.084335276
 30
0.0
 10
10.8353033262
 20
7.0969922553
 30
0.0
 10
10.8044965474
 20
7.1117011158
 30
0.0
 10
10.7757099359
 20
7.128341381
 30
0.0
 10
10.7491834447
 20
7.1467771649
 30
0.0
 10
10.7251389823
 20
7.1668580466
 30
0.0
 10
10.70377851
 20
7.1884213784
 30
0.0
 10
10.685284743
 20
7.2112890207
 30
0.0
 10
10.6723011483
 20
7.2314248924
 30
0.0
 10
10.663544492
 20
7.2479706312
 30
0.0
 10
10.6578258631
 20
7.2604950655
 30
0.0
 10
10.652923762
 20
7.2731923633
 30
0.0
 10
10.6488489439
 20
7.2860365236
 30
0.0
 10
10.645609798
 20
7.2989994576
 30
0.0
 10
10.6440079349
 20
7.3077277156
 30
0.0
 10
10.6433502086
 20
7.3120971284
 30
0.0
  0
SPLINE
  5
29E
100
AcDbEntity
  8
0
100
AcDbSpline
 62
7
  6
CONTINUOUS
 70
0
 71
3
 72
41
 73
37
 74
0
 42
0.0000001
 43
0.0000001
 44
0.0000000001
 40
0.0
 40
0.0
 40
0.0
 40
0.0
 40
0.0125790251
 40
0.0252172367
 40
0.0379249425
 40
0.0507116793
 40
0.0635862485
 40
0.0765568724
 40
0.102810869
 40
0.1295314165
 40
0.1567596049
 40
0.1845255589
 40
0.2128491593
 40
0.2417409874
 40
0.2712033044
 40
0.3012309364
 40
0.3318119956
 40
0.3629284234
 40
0.394556397
 40
0.4266666599
 40
0.4592248212
 40
0.4921916753
 40
0.5255235678
 40
0.5591728215
 40
0.5930882255
 40
0.6272155819
 40
0.6614982996
 40
0.6958780255
 40
0.7302953051
 40
0.7646902567
 40
0.7990032532
 40
0.8331755966
 40
0.8671501922
 40
0.9008721498
 40
0.9342895314
 40
1.0
 40
1.0
 40
1.0
 40
1.0
 10
8.9090516785
 20
4.7411577011
 30
0.0
 10
8.911388775
 20
4.7252041059
 30
0.0
 10
8.9167650799
 20
4.6933188199
 30
0.0
 10
8.9268934516
 20
4.6457589491
 30
0.0
 10
8.939095633
 20
4.5984126495
 30
0.0
 10
8.953360743
 20
4.5513305566
 30
0.0
 10
8.9696770432
 20
4.504561756
 30
0.0
 10
8.9942404163
 20
4.4424456488
 30
0.0
 10
9.0300802606
 20
4.3657830629
 30
0.0
 10
9.080797679
 20
4.2762475415
 30
0.0
 10
9.1391786993
 20
4.1891688411
 30
0.0
 10
9.2049584756
 20
4.1049210065
 30
0.0
 10
9.2778409531
 20
4.0238526963
 30
0.0
 10
9.3575013864
 20
3.946291432
 30
0.0
 10
9.4435920405
 20
3.8725399723
 30
0.0
 10
9.5357463879
 20
3.802876499
 30
0.0
 10
9.6335825994
 20
3.7375550829
 30
0.0
 10
9.7367059128
 20
3.6768069412
 30
0.0
 10
9.8447100993
 20
3.6208418824
 30
0.0
 10
9.9571782097
 20
3.5698496474
 30
0.0
 10
10.073682923
 20
3.5240009622
 30
0.0
 10
10.1937867509
 20
3.4834482204
 30
0.0
 10
10.3170423152
 20
3.4483258031
 30
0.0
 10
10.442992833
 20
3.4187500949
 30
0.0
 10
10.5711728767
 20
3.394819286
 30
0.0
 10
10.7011094264
 20
3.3766130504
 30
0.0
 10
10.8323231907
 20
3.3641921863
 30
0.0
 10
10.9643301602
 20
3.3575982746
 30
0.0
 10
11.0966433121
 20
3.3568534193
 30
0.0
 10
11.2287745064
 20
3.3619601294
 30
0.0
 10
11.3602361026
 20
3.3729012263
 30
0.0
 10
11.4905437384
 20
3.3896402353
 30
0.0
 10
11.6192146181
 20
3.412120571
 30
0.0
 10
11.7457819129
 20
3.4402697797
 30
0.0
 10
11.9101379431
 20
3.4849698367
 30
0.0
 10
12.0303197505
 20
3.5270345888
 30
0.0
 10
12.1082998162
 20
3.5588697688
 30
0.0
  0
SPLINE
  5
29F
100
AcDbEntity
  8
0
100
AcDbSpline
 62
7
  6
CONTINUOUS
 70
0
 71
3
 72
26
 73
22
 74
0
 42
0.0000001
 43
0.0000001
 44
0.0000000001
 40
0.0
 40
0.0
 40
0.0
 40
0.0
 40
0.14031971
 40
0.20895811
 40
0.2764956155
 40
0.3428915093
 40
0.408116225
 40
0.4721524651
 40
0.5037269575
 40
0.5350040884
 40
0.5966662733
 40
0.6571741594
 40
0.6870133403
 40
0.7165827065
 40
0.7749386787
 40
0.8323380053
 40
0.8888886442
 40
0.9168907088
 40
0.9447302618
 40
0.9724264866
 40
1.0
 40
1.0
 40
1.0
 40
1.0
 10
12.1082998182
 20
3.5588697694
 30
0.0
 10
12.1807196422
 20
3.5884350788
 30
0.0
 10
12.2865923509
 20
3.6376181978
 30
0.0
 10
12.421002929
 20
3.7131620117
 30
0.0
 10
12.516430795
 20
3.7736499965
 30
0.0
 10
12.6068458017
 20
3.8381778213
 30
0.0
 10
12.6919149338
 20
3.9065351553
 30
0.0
 10
12.758394499
 20
3.9667845109
 30
0.0
 10
12.8085454157
 20
4.0166817658
 30
0.0
 10
12.8561884816
 20
4.0671737271
 30
0.0
 10
12.911879064
 20
4.1321873482
 30
0.0
 10
12.9626125848
 20
4.2001491757
 30
0.0
 10
12.9997407097
 20
4.2557539517
 30
0.0
 10
13.034240374
 20
4.3116203246
 30
0.0
 10
13.0730597899
 20
4.3828171401
 30
0.0
 10
13.1126379244
 20
4.4704344637
 30
0.0
 10
13.1395810816
 20
4.5449335483
 30
0.0
 10
13.1573427695
 20
4.6050315225
 30
0.0
 10
13.1687457929
 20
4.6501964271
 30
0.0
 10
13.1782629027
 20
4.6955505713
 30
0.0
 10
13.1833567918
 20
4.7259475014
 30
0.0
 10
13.1855847935
 20
4.741156252
 30
0.0
  0
SPLINE
  5
2A0
100
AcDbEntity
  8
0
100
AcDbSpline
 62
7
  6
CONTINUOUS
 70
0
 71
3
 72
30
 73
26
 74
0
 42
0.0000001
 43
0.0000001
 44
0.0000000001
 40
0.0
 40
0.0
 40
0.0
 40
0.0
 40
0.0277600834
 40
0.0555495644
 40
0.0833936234
 40
0.1113201641
 40
0.1393562907
 40
0.1675277004
 40
0.1958593791
 40
0.2243753581
 40
0.2530984149
 40
0.2820500043
 40
0.3407050148
 40
0.4004953508
 40
0.4308590474
 40
0.4615476591
 40
0.5239285653
 40
0.5877100764
 40
0.6201422695
 40
0.6529352005
 40
0.7195943215
 40
0.7876798982
 40
0.8571528885
 40
0.9279523671
 40
1.0
 40
1.0
 40
1.0
 40
1.0
 10
9.4273183383
 20
5.4851550294
 30
0.0
 10
9.4273183383
 20
5.4977879704
 30
0.0
 10
9.4279030656
 20
5.5230711133
 30
0.0
 10
9.430531744
 20
5.5609432083
 30
0.0
 10
9.434909735
 20
5.598730157
 30
0.0
 10
9.4410310438
 20
5.6363874843
 30
0.0
 10
9.4488879735
 20
5.6738734122
 30
0.0
 10
9.4584709938
 20
5.7111458001
 30
0.0
 10
9.46976798
 20
5.7481631485
 30
0.0
 10
9.4827654276
 20
5.7848841944
 30
0.0
 10
9.4974475398
 20
5.8212694125
 30
0.0
 10
9.5193385484
 20
5.8694848784
 30
0.0
 10
9.5509077644
 20
5.9287610693
 30
0.0
 10
9.587499506
 20
5.9858310492
 30
0.0
 10
9.6198116752
 20
6.0303433871
 30
0.0
 10
9.6545140662
 20
6.0745284508
 30
0.0
 10
9.701711273
 20
6.1281660897
 30
0.0
 10
9.7531423327
 20
6.1788850548
 30
0.0
 10
9.7969731623
 20
6.2179560381
 30
0.0
 10
9.8430761693
 20
6.25639744
 30
0.0
 10
9.9039837703
 20
6.3023499428
 30
0.0
 10
9.9815297639
 20
6.3536687949
 30
0.0
 10
10.0636039056
 20
6.4012575184
 30
0.0
 10
10.1498517826
 20
6.4449186379
 30
0.0
 10
10.2094040638
 20
6.4710749578
 30
0.0
 10
10.2397590488
 20
6.4834673285
 30
0.0
  0
SPLINE
  5
2A1
100
AcDbEntity
  8
0
100
AcDbSpline
 62
7
  6
CONTINUOUS
 70
0
 71
3
 72
9
 73
5
 74
0
 42
0.0000001
 43
0.0000001
 44
0.0000000001
 40
0.0
 40
0.0
 40
0.0
 40
0.0
 40
0.2469240183
 40
1.0
 40
1.0
 40
1.0
 40
1.0
 10
10.2437272772
 20
6.4850820568
 30
0.0
 10
10.2621032562
 20
6.4925350272
 30
0.0
 10
10.3369978635
 20
6.5215372135
 30
0.0
 10
10.4136936529
 20
6.5458576458
 30
0.0
 10
10.4720862901
 20
6.5616008894
 30
0.0
  0
SPLINE
  5
2A2
100
AcDbEntity
  8
0
100
AcDbSpline
 62
7
  6
CONTINUOUS
 70
0
 71
3
 72
29
 73
25
 74
0
 42
0.0000001
 43
0.0000001
 44
0.0000000001
 40
0.0
 40
0.0
 40
0.0
 40
0.0
 40
0.0728196331
 40
0.1445080639
 40
0.2149170712
 40
0.283920636
 40
0.3514183442
 40
0.4173388108
 40
0.4816429738
 40
0.544327121
 40
0.6054255258
 40
0.6650124045
 40
0.6942809139
 40
0.7232181688
 40
0.7518448795
 40
0.7801841599
 40
0.8082614141
 40
0.8361041846
 40
0.863742021
 40
0.8912062754
 40
0.9185295616
 40
0.9457460224
 40
0.9728916877
 40
1.0
 40
1.0
 40
1.0
 40
1.0
 10
11.6224862501
 20
6.5616182105
 30
0.0
 10
11.6602302565
 20
6.5514434487
 30
0.0
 10
11.7345795009
 20
6.5291264136
 30
0.0
 10
11.843008119
 20
6.4895133023
 30
0.0
 10
11.94696296
 20
6.4442105098
 30
0.0
 10
12.0458548416
 20
6.3934660152
 30
0.0
 10
12.1391281906
 20
6.3375546691
 30
0.0
 10
12.226256137
 20
6.2767785629
 30
0.0
 10
12.3067441761
 20
6.2114656619
 30
0.0
 10
12.3801325282
 20
6.1419662059
 30
0.0
 10
12.4459927327
 20
6.0686598822
 30
0.0
 10
12.4945762169
 20
6.0043334153
 30
0.0
 10
12.5292043854
 20
5.9514017629
 30
0.0
 10
12.5529173889
 20
5.9112500517
 30
0.0
 10
12.5744868752
 20
5.8704710002
 30
0.0
 10
12.5938800743
 20
5.8291216779
 30
0.0
 10
12.6110661482
 20
5.7872614095
 30
0.0
 10
12.6260181696
 20
5.7449507744
 30
0.0
 10
12.6387118129
 20
5.7022513757
 30
0.0
 10
12.6491262477
 20
5.6592260778
 30
0.0
 10
12.6572447152
 20
5.6159389861
 30
0.0
 10
12.6630533588
 20
5.5724538222
 30
0.0
 10
12.6665422075
 20
5.5288382514
 30
0.0
 10
12.6673183383
 20
5.499707441
 30
0.0
 10
12.6673183383
 20
5.4851550294
 30
0.0
  0
SPLINE
  5
2A3
100
AcDbEntity
  8
0
100
AcDbSpline
 62
7
  6
CONTINUOUS
 70
0
 71
3
 72
30
 73
26
 74
0
 42
0.0000001
 43
0.0000001
 44
0.0000000001
 40
0.0
 40
0.0
 40
0.0
 40
0.0
 40
0.0280965484
 40
0.0562177728
 40
0.08438727
 40
0.1126291538
 40
0.1409670044
 40
0.1694237033
 40
0.1980215761
 40
0.2267821481
 40
0.2557260241
 40
0.2848728248
 40
0.3438354351
 40
0.4038161918
 40
0.4342296537
 40
0.4649374374
 40
0.5272653125
 40
0.5908745351
 40
0.6231773946
 40
0.6558132208
 40
0.7220785154
 40
0.7896707864
 40
0.8585594563
 40
0.9286923537
 40
1.0
 40
1.0
 40
1.0
 40
1.0
 10
9.1423183383
 20
5.3277726261
 30
0.0
 10
9.1423183383
 20
5.3429742098
 30
0.0
 10
9.1430194555
 20
5.3733953738
 30
0.0
 10
9.14617167
 20
5.4189593303
 30
0.0
 10
9.1514199548
 20
5.4644097163
 30
0.0
 10
9.1587558907
 20
5.509688467
 30
0.0
 10
9.1681675989
 20
5.5547403148
 30
0.0
 10
9.1796410104
 20
5.5995102939
 30
0.0
 10
9.1931582257
 20
5.6439450363
 30
0.0
 10
9.2086992337
 20
5.687992133
 30
0.0
 10
9.2262419156
 20
5.7316016277
 30
0.0
 10
9.2523636995
 20
5.7893126631
 30
0.0
 10
9.289983655
 20
5.8601661954
 30
0.0
 10
9.3335585134
 20
5.928325052
 30
0.0
 10
9.3719889841
 20
5.9814098965
 30
0.0
 10
9.4131857396
 20
6.034001571
 30
0.0
 10
9.4691450901
 20
6.097759496
 30
0.0
 10
9.5300855049
 20
6.1579968511
 30
0.0
 10
9.5819629108
 20
6.2043384312
 30
0.0
 10
9.6364481286
 20
6.249860104
 30
0.0
 10
9.708363167
 20
6.30421722
 30
0.0
 10
9.7998519837
 20
6.3648568243
 30
0.0
 10
9.8965856805
 20
6.4210130245
 30
0.0
 10
9.9981496508
 20
6.4724687504
 30
0.0
 10
10.0682520622
 20
6.5032684945
 30
0.0
 10
10.1039710028
 20
6.5178506909
 30
0.0
  0
SPLINE
  5
2A4
100
AcDbEntity
  8
0
100
AcDbSpline
 62
7
  6
CONTINUOUS
 70
0
 71
3
 72
10
 73
6
 74
0
 42
0.0000001
 43
0.0000001
 44
0.0000000001
 40
0.0
 40
0.0
 40
0.0
 40
0.0
 40
0.4949223807
 40
0.7463398163
 40
1.0
 40
1.0
 40
1.0
 40
1.0
 10
10.1039710028
 20
6.5178506909
 30
0.0
 10
10.1630200031
 20
6.5419573443
 30
0.0
 10
10.2537052958
 20
6.574449431
 30
0.0
 10
10.3774767014
 20
6.6104086002
 30
0.0
 10
10.4406840781
 20
6.6260405857
 30
0.0
 10
10.4725656492
 20
6.6332609578
 30
0.0
  0
SPLINE
  5
2A5
100
AcDbEntity
  8
0
100
AcDbSpline
 62
7
  6
CONTINUOUS
 70
0
 71
3
 72
30
 73
26
 74
0
 42
0.0000001
 43
0.0000001
 44
0.0000000001
 40
0.0
 40
0.0
 40
0.0
 40
0.0
 40
0.0722211899
 40
0.1434368403
 40
0.2134839825
 40
0.2822229687
 40
0.3495413603
 40
0.4153576694
 40
0.4796248841
 40
0.542333505
 40
0.6035138784
 40
0.6335591093
 40
0.6632526836
 40
0.6926100213
 40
0.7216490253
 40
0.7503900196
 40
0.7788556217
 40
0.8070705875
 40
0.8350616703
 40
0.8628573881
 40
0.8904878398
 40
0.917984441
 40
0.945379642
 40
0.9727070342
 40
1.0
 40
1.0
 40
1.0
 40
1.0
 10
11.6220517475
 20
6.6332653363
 30
0.0
 10
11.6692384664
 20
6.6225791049
 30
0.0
 10
11.7623604355
 20
6.5986132051
 30
0.0
 10
11.898543366
 20
6.554660003
 30
0.0
 10
12.0295652378
 20
6.5031667123
 30
0.0
 10
12.1546270779
 20
6.4444229309
 30
0.0
 10
12.2729727688
 20
6.3787537403
 30
0.0
 10
12.3838807253
 20
6.3065199098
 30
0.0
 10
12.4866703155
 20
6.2281135949
 30
0.0
 10
12.5806942889
 20
6.1439662651
 30
0.0
 10
12.6516788518
 20
6.068974875
 30
0.0
 10
12.7033785397
 20
6.0065841893
 30
0.0
 10
12.7393717666
 20
5.9589449571
 30
0.0
 10
12.7727486591
 20
5.9102526827
 30
0.0
 10
12.8034502276
 20
5.8605781283
 30
0.0
 10
12.8314192716
 20
5.8099959389
 30
0.0
 10
12.8566025657
 20
5.7585837474
 30
0.0
 10
12.8789506551
 20
5.7064224955
 30
0.0
 10
12.8984179173
 20
5.653596243
 30
0.0
 10
12.9149635285
 20
5.6001924292
 30
0.0
 10
12.9285520041
 20
5.5463016403
 30
0.0
 10
12.9391531276
 20
5.4920174846
 30
0.0
 10
12.9467428039
 20
5.4374351909
 30
0.0
 10
12.9513036965
 20
5.3826551845
 30
0.0
 10
12.9523183383
 20
5.3460564308
 30
0.0
 10
12.9523183383
 20
5.3277726261
 30
0.0
  0
SPLINE
  5
2A6
100
AcDbEntity
  8
0
100
AcDbSpline
 62
7
  6
CONTINUOUS
 70
0
 71
3
 72
21
 73
17
 74
0
 42
0.0000001
 43
0.0000001
 44
0.0000000001
 40
0.0
 40
0.0
 40
0.0
 40
0.0
 40
0.0601455404
 40
0.1204028526
 40
0.1808183342
 40
0.2414398247
 40
0.3023138544
 40
0.3634850869
 40
0.4249968828
 40
0.4868907562
 40
0.5492062997
 40
0.6119808221
 40
0.6752493299
 40
0.7390443208
 40
0.8683075654
 40
1.0
 40
1.0
 40
1.0
 40
1.0
 10
8.8990731305
 20
4.9580644672
 30
0.0
 10
8.9000017228
 20
4.9746053955
 30
0.0
 10
8.9025978526
 20
5.0076812924
 30
0.0
 10
8.90869266
 20
5.0571285734
 30
0.0
 10
8.9169827452
 20
5.1063893221
 30
0.0
 10
8.9274556612
 20
5.1554058181
 30
0.0
 10
8.9400964921
 20
5.2041234046
 30
0.0
 10
8.9548879196
 20
5.2524878807
 30
0.0
 10
8.9718091618
 20
5.3004466507
 30
0.0
 10
8.9908381182
 20
5.3479481691
 30
0.0
 10
9.0119493286
 20
5.3949428103
 30
0.0
 10
9.0351161194
 20
5.4413818322
 30
0.0
 10
9.0603097631
 20
5.4872189828
 30
0.0
 10
9.0967179847
 20
5.5477304457
 30
0.0
 10
9.1472332585
 20
5.6216613926
 30
0.0
 10
9.1920858171
 20
5.6779210345
 30
0.0
 10
9.2156747877
 20
5.7054781481
 30
0.0
  0
SPLINE
  5
2A7
100
AcDbEntity
  8
0
100
AcDbSpline
 62
7
  6
CONTINUOUS
 70
0
 71
3
 72
20
 73
16
 74
0
 42
0.0000001
 43
0.0000001
 44
0.0000000001
 40
0.0
 40
0.0
 40
0.0
 40
0.0
 40
0.1316941465
 40
0.2609595388
 40
0.3880013539
 40
0.4507773292
 40
0.5130944059
 40
0.574989914
 40
0.6365034198
 40
0.6976764359
 40
0.7585523222
 40
0.8191757316
 40
0.8795931511
 40
0.9398524233
 40
1.0
 40
1.0
 40
1.0
 40
1.0
 10
12.8790425715
 20
5.7053838584
 30
0.0
 10
12.9026255438
 20
5.6778293167
 30
0.0
 10
12.9474680157
 20
5.6215726157
 30
0.0
 10
13.0077992781
 20
5.5332651697
 30
0.0
 10
13.0517147644
 20
5.4570349992
 30
0.0
 10
13.0827151024
 20
5.3948837688
 30
0.0
 10
13.1038212305
 20
5.347894673
 30
0.0
 10
13.1228451523
 20
5.3003994692
 30
0.0
 10
13.1397620968
 20
5.2524470525
 30
0.0
 10
13.1545497799
 20
5.2040891273
 30
0.0
 10
13.1671874286
 20
5.1553782026
 30
0.0
 10
13.1776578179
 20
5.1063685004
 30
0.0
 10
13.1859459327
 20
5.0571146333
 30
0.0
 10
13.1920394383
 20
5.0076743033
 30
0.0
 10
13.1946350842
 20
4.9746030709
 30
0.0
 10
13.1955635461
 20
4.9580644672
 30
0.0
  0
SPLINE
  5
2A8
100
AcDbEntity
  8
0
100
AcDbSpline
 62
7
  6
CONTINUOUS
 70
0
 71
3
 72
18
 73
14
 74
0
 42
0.0000001
 43
0.0000001
 44
0.0000000001
 40
0.0
 40
0.0
 40
0.0
 40
0.0
 40
0.053664652
 40
0.108677107
 40
0.1650612995
 40
0.2228258017
 40
0.3423483967
 40
0.4040643586
 40
0.4669726871
 40
0.5959546618
 40
0.728480153
 40
0.8635331387
 40
1.0
 40
1.0
 40
1.0
 40
1.0
 10
10.6953467171
 20
7.0539658238
 30
0.0
 10
10.6998293669
 20
7.0486440426
 30
0.0
 10
10.7093207906
 20
7.0382087558
 30
0.0
 10
10.7248290258
 20
7.0234363021
 30
0.0
 10
10.7417180907
 20
7.0094154658
 30
0.0
 10
10.7662513855
 20
6.9916087602
 30
0.0
 10
10.7930047156
 20
6.9757967479
 30
0.0
 10
10.8215282262
 20
6.9620410402
 30
0.0
 10
10.8518987001
 20
6.9493964146
 30
0.0
 10
10.8919750727
 20
6.936357246
 30
0.0
 10
10.9422872957
 20
6.925372333
 30
0.0
 10
10.9943754288
 20
6.919115612
 30
0.0
 10
11.0296275188
 20
6.918181456
 30
0.0
 10
11.0473183383
 20
6.9185277047
 30
0.0
  0
SPLINE
  5
2A9
100
AcDbEntity
  8
0
100
AcDbSpline
 62
7
  6
CONTINUOUS
 70
0
 71
3
 72
13
 73
9
 74
0
 42
0.0000001
 43
0.0000001
 44
0.0000000001
 40
0.0
 40
0.0
 40
0.0
 40
0.0
 40
0.2570951971
 40
0.3848606015
 40
0.5115309155
 40
0.6367249844
 40
0.7600927062
 40
1.0
 40
1.0
 40
1.0
 40
1.0
 10
11.0473183383
 20
6.8687190447
 30
0.0
 10
11.0692899182
 20
6.8691471146
 30
0.0
 10
11.1021863664
 20
6.8716734099
 30
0.0
 10
11.1453419648
 20
6.8788082334
 30
0.0
 10
11.1770085762
 20
6.8859856905
 30
0.0
 10
11.2078248397
 20
6.894957942
 30
0.0
 10
11.2471262322
 20
6.9091015985
 30
0.0
 10
11.2753194082
 20
6.9224042893
 30
0.0
 10
11.2931955768
 20
6.9324522901
 30
0.0
  0
SPLINE
  5
2AA
100
AcDbEntity
  8
0
100
AcDbSpline
 62
7
  6
CONTINUOUS
 70
0
 71
3
 72
21
 73
17
 74
0
 42
0.0000001
 43
0.0000001
 44
0.0000000001
 40
0.0
 40
0.0
 40
0.0
 40
0.0
 40
0.1403402164
 40
0.2087207492
 40
0.275857795
 40
0.4063344791
 40
0.4697714492
 40
0.5320448197
 40
0.5932207376
 40
0.6533841766
 40
0.7126383293
 40
0.7711040722
 40
0.8289179543
 40
0.886229953
 40
0.9432011285
 40
1.0
 40
1.0
 40
1.0
 40
1.0
 10
11.2931955768
 20
6.9324522901
 30
0.0
 10
11.305394012
 20
6.9393088985
 30
0.0
 10
11.323059316
 20
6.9504027577
 30
0.0
 10
11.3451118903
 20
6.9668608746
 30
0.0
 10
11.3654686277
 20
6.9838778487
 30
0.0
 10
11.3839992515
 20
7.0022625689
 30
0.0
 10
11.4003776997
 20
7.0218834975
 30
0.0
 10
11.411382015
 20
7.0369390957
 30
0.0
 10
11.4211813168
 20
7.0524204613
 30
0.0
 10
11.4297432995
 20
7.0682787284
 30
0.0
 10
11.4370384082
 20
7.0844629822
 30
0.0
 10
11.443041935
 20
7.1009210331
 30
0.0
 10
11.4477332691
 20
7.1175994897
 30
0.0
 10
11.4510958164
 20
7.1344445818
 30
0.0
 10
11.4531181125
 20
7.1513998423
 30
0.0
 10
11.4535683382
 20
7.1627490108
 30
0.0
 10
11.4535683383
 20
7.1684124525
 30
0.0
  0
SPLINE
  5
2AB
100
AcDbEntity
  8
0
100
AcDbSpline
 62
7
  6
CONTINUOUS
 70
0
 71
3
 72
25
 73
21
 74
0
 42
0.0000001
 43
0.0000001
 44
0.0000000001
 40
0.0
 40
0.0
 40
0.0
 40
0.0
 40
0.1414382934
 40
0.2116060203
 40
0.2810138321
 40
0.3494080465
 40
0.4165598053
 40
0.482271613
 40
0.5463839535
 40
0.6087819792
 40
0.6694018887
 40
0.728237345
 40
0.7853444955
 40
0.8408459299
 40
0.8680618893
 40
0.8949531437
 40
0.9215536003
 40
0.9479006431
 40
0.9740349592
 40
1.0
 40
1.0
 40
1.0
 40
1.0
 10
11.0473183383
 20
6.9185277047
 30
0.0
 10
11.0718848135
 20
6.9190085252
 30
0.0
 10
11.1086528662
 20
6.9220829849
 30
0.0
 10
11.1566956781
 20
6.9308873681
 30
0.0
 10
11.1917503602
 20
6.9397546772
 30
0.0
 10
11.225617477
 20
6.9508345833
 30
0.0
 10
11.2580226404
 20
6.9640435649
 30
0.0
 10
11.2886990439
 20
6.9792803595
 30
0.0
 10
11.3173950174
 20
6.9964277123
 30
0.0
 10
11.3438745164
 20
7.0153532264
 30
0.0
 10
11.3679189857
 20
7.0359102601
 30
0.0
 10
11.3893291933
 20
7.0579400315
 30
0.0
 10
11.4079247199
 20
7.0812686422
 30
0.0
 10
11.4210325536
 20
7.1017804535
 30
0.0
 10
11.4299200484
 20
7.1186303293
 30
0.0
 10
11.4357528536
 20
7.1313890526
 30
0.0
 10
11.4407828411
 20
7.1443231096
 30
0.0
 10
11.4449991679
 20
7.1574072105
 30
0.0
 10
11.4483932108
 20
7.1706139983
 30
0.0
 10
11.4501073798
 20
7.1795079642
 30
0.0
 10
11.4508234931
 20
7.1839614996
 30
0.0
  0
SPLINE
  5
2AC
100
AcDbEntity
  8
0
100
AcDbSpline
 62
7
  6
CONTINUOUS
 70
0
 71
3
 72
25
 73
21
 74
0
 42
0.0000001
 43
0.0000001
 44
0.0000000001
 40
0.0
 40
0.0
 40
0.0
 40
0.0
 40
0.1415212556
 40
0.2117254806
 40
0.2811635468
 40
0.3495801342
 40
0.4167451071
 40
0.4824601662
 40
0.546565654
 40
0.6089471963
 40
0.6695423517
 40
0.7283469452
 40
0.7854202428
 40
0.8408888053
 40
0.8680902544
 40
0.8949690778
 40
0.9215598178
 40
0.9479005411
 40
0.9740325633
 40
1.0
 40
1.0
 40
1.0
 40
1.0
 10
11.0473183383
 20
6.9681751956
 30
0.0
 10
11.0719773677
 20
6.9686564742
 30
0.0
 10
11.1088835802
 20
6.9717499338
 30
0.0
 10
11.1570995987
 20
6.980616213
 30
0.0
 10
11.1922730826
 20
6.989546835
 30
0.0
 10
11.2262456971
 20
7.0007061549
 30
0.0
 10
11.258740132
 20
7.0140093808
 30
0.0
 10
11.2894868306
 20
7.0293537361
 30
0.0
 10
11.3182316371
 20
7.046620226
 30
0.0
 10
11.3447363092
 20
7.0656745276
 30
0.0
 10
11.368780391
 20
7.086367885
 30
0.0
 10
11.3901630911
 20
7.1085392597
 30
0.0
 10
11.4087027451
 20
7.1320123016
 30
0.0
 10
11.4217389937
 20
7.152645235
 30
0.0
 10
11.4305539077
 20
7.1695898217
 30
0.0
 10
11.436325486
 20
7.1824183569
 30
0.0
 10
11.4412868605
 20
7.1954208884
 30
0.0
 10
11.4454274089
 20
7.2085717228
 30
0.0
 10
11.4487384137
 20
7.2218432124
 30
0.0
 10
11.4503922659
 20
7.2307779532
 30
0.0
 10
11.451077121
 20
7.2352513275
 30
0.0
  0
SPLINE
  5
2AD
100
AcDbEntity
  8
0
100
AcDbSpline
 62
7
  6
CONTINUOUS
 70
0
 71
3
 72
18
 73
14
 74
0
 42
0.0000001
 43
0.0000001
 44
0.0000000001
 40
0.0
 40
0.0
 40
0.0
 40
0.0
 40
0.1411547043
 40
0.2778118237
 40
0.4096172783
 40
0.5364229905
 40
0.6583302794
 40
0.717584576
 40
0.7757775514
 40
0.8329999832
 40
0.8893596634
 40
0.944980257
 40
1.0
 40
1.0
 40
1.0
 40
1.0
 10
11.2201279562
 20
6.4869480864
 30
0.0
 10
11.2311124456
 20
6.4914324854
 30
0.0
 10
11.252354226
 20
6.5012256356
 30
0.0
 10
11.2821474902
 20
6.5185888318
 30
0.0
 10
11.309041963
 20
6.5382041088
 30
0.0
 10
11.3326966405
 20
6.5598324067
 30
0.0
 10
11.3496257808
 20
6.5795132754
 30
0.0
 10
11.3611971296
 20
6.5959867785
 30
0.0
 10
11.3688161841
 20
6.6085505887
 30
0.0
 10
11.3754312791
 20
6.6213978109
 30
0.0
 10
11.3810216614
 20
6.6344891271
 30
0.0
 10
11.3855685866
 20
6.6477824682
 30
0.0
 10
11.3879058152
 20
6.6567948712
 30
0.0
 10
11.3888921074
 20
6.6613130986
 30
0.0
  0
SPLINE
  5
2AE
100
AcDbEntity
  8
0
100
AcDbSpline
 62
7
  6
CONTINUOUS
 70
0
 71
3
 72
31
 73
27
 74
0
 42
0.0000001
 43
0.0000001
 44
0.0000000001
 40
0.0
 40
0.0
 40
0.0
 40
0.0
 40
0.0667240912
 40
0.1007584784
 40
0.135152901
 40
0.2047287173
 40
0.2749010119
 40
0.3450733168
 40
0.4146491551
 40
0.483058009
 40
0.5166708367
 40
0.5498036023
 40
0.6144034284
 40
0.645811761
 40
0.6765760641
 40
0.7360739637
 40
0.764831663
 40
0.7929331387
 40
0.8204052415
 40
0.8472878712
 40
0.8736340001
 40
0.8995093399
 40
0.9249914967
 40
0.9501685546
 40
0.9751371699
 40
1.0
 40
1.0
 40
1.0
 40
1.0
 10
11.2785683383
 20
6.323498348
 30
0.0
 10
11.2608347094
 20
6.3162586243
 30
0.0
 10
11.2334460413
 20
6.3067527043
 30
0.0
 10
11.1959400354
 20
6.2967827869
 30
0.0
 10
11.1571880921
 20
6.2884796696
 30
0.0
 10
11.1076002857
 20
6.2815355188
 30
0.0
 10
11.0473189387
 20
6.278753836
 30
0.0
 10
10.9870339977
 20
6.2815357995
 30
0.0
 10
10.9277710388
 20
6.2898348155
 30
0.0
 10
10.8797763208
 20
6.3013030343
 30
0.0
 10
10.8428088065
 20
6.3131330154
 30
0.0
 10
10.8075219054
 20
6.3264538543
 30
0.0
 10
10.7738919119
 20
6.3422627999
 30
0.0
 10
10.7423888472
 20
6.360519968
 30
0.0
 10
10.7132432525
 20
6.3797948051
 30
0.0
 10
10.6864944279
 20
6.4012347003
 30
0.0
 10
10.662684096
 20
6.4246926757
 30
0.0
 10
10.6466671704
 20
6.4428750714
 30
0.0
 10
10.6323639551
 20
6.4617637615
 30
0.0
 10
10.6198357758
 20
6.4812796344
 30
0.0
 10
10.6091380267
 20
6.5013394927
 30
0.0
 10
10.6003182335
 20
6.5218577805
 30
0.0
 10
10.5934161607
 20
6.5427461404
 30
0.0
 10
10.5884632818
 20
6.5639148625
 30
0.0
 10
10.5854823625
 20
6.5852693134
 30
0.0
 10
10.5848183473
 20
6.5995832181
 30
0.0
 10
10.5848183824
 20
6.6067205995
 30
0.0
  0
SPLINE
  5
2AF
100
AcDbEntity
  8
0
100
AcDbSpline
 62
7
  6
CONTINUOUS
 70
0
 71
3
 72
35
 73
31
 74
0
 42
0.0000001
 43
0.0000001
 44
0.0000000001
 40
0.0
 40
0.0
 40
0.0
 40
0.0
 40
0.0667177232
 40
0.1007490956
 40
0.1351402813
 40
0.2047095931
 40
0.2397643549
 40
0.2748942156
 40
0.3450599536
 40
0.3799653395
 40
0.414648671
 40
0.4830511272
 40
0.5166608013
 40
0.5497904853
 40
0.5823881459
 40
0.6144084796
 40
0.6458138754
 40
0.6765752911
 40
0.7066732338
 40
0.7360986189
 40
0.764853625
 40
0.7929524747
 40
0.8204220168
 40
0.8473021333
 40
0.8736458015
 40
0.8995187206
 40
0.9249984882
 40
0.9501732089
 40
0.9751394901
 40
1.0
 40
1.0
 40
1.0
 40
1.0
 10
11.3348183383
 20
5.6040682103
 30
0.0
 10
11.3127711685
 20
5.5950674909
 30
0.0
 10
11.2787204858
 20
5.583249336
 30
0.0
 10
11.2320911193
 20
5.5708542343
 30
0.0
 10
11.1839141282
 20
5.5605316439
 30
0.0
 10
11.13468833
 20
5.5536381774
 30
0.0
 10
11.0849118213
 20
5.5501753259
 30
0.0
 10
11.0348152114
 20
5.5490169019
 30
0.0
 10
10.9847411951
 20
5.5513276853
 30
0.0
 10
10.9351790202
 20
5.5571075149
 30
0.0
 10
10.8865663782
 20
5.565113584
 30
0.0
 10
10.8390212728
 20
5.5764745359
 30
0.0
 10
10.7930644694
 20
5.5911811781
 30
0.0
 10
10.7598770834
 20
5.6037094121
 30
0.0
 10
10.7279173888
 20
5.6177448322
 30
0.0
 10
10.6973205062
 20
5.6332284184
 30
0.0
 10
10.668217409
 20
5.6500945474
 30
0.0
 10
10.6407323083
 20
5.6682719047
 30
0.0
 10
10.6149827463
 20
5.6876836851
 30
0.0
 10
10.5910790037
 20
5.7082479477
 30
0.0
 10
10.5691237501
 20
5.7298779348
 30
0.0
 10
10.5492116541
 20
5.7524823734
 30
0.0
 10
10.53142905
 20
5.775965784
 30
0.0
 10
10.5158535187
 20
5.800228708
 30
0.0
 10
10.5025536177
 20
5.8251680123
 30
0.0
 10
10.4915885064
 20
5.850677241
 30
0.0
 10
10.4830075478
 20
5.8766465535
 30
0.0
 10
10.4768498541
 20
5.9029644074
 30
0.0
 10
10.4731437718
 20
5.9295131906
 30
0.0
 10
10.4723184215
 20
5.9473088587
 30
0.0
 10
10.4723183837
 20
5.9561823608
 30
0.0
  0
SPLINE
  5
2B0
100
AcDbEntity
  8
0
100
AcDbSpline
 62
7
  6
CONTINUOUS
 70
0
 71
3
 72
19
 73
15
 74
0
 42
0.0000001
 43
0.0000001
 44
0.0000000001
 40
0.0
 40
0.0
 40
0.0
 40
0.0
 40
0.136169
 40
0.2683756421
 40
0.3330778648
 40
0.3968851809
 40
0.5219742837
 40
0.6441655106
 40
0.7043821861
 40
0.7641092256
 40
0.8234373632
 40
0.8824620829
 40
0.941282452
 40
1.0
 40
1.0
 40
1.0
 40
1.0
 10
11.4978667454
 20
6.8734801104
 30
0.0
 10
11.5076971266
 20
6.8647137976
 30
0.0
 10
11.526355407
 20
6.8466101957
 30
0.0
 10
11.547383259
 20
6.8221352587
 30
0.0
 10
11.5623915726
 20
6.8018572575
 30
0.0
 10
11.5759969925
 20
6.7814357962
 30
0.0
 10
11.5907654654
 20
6.7551527606
 30
0.0
 10
11.6025050133
 20
6.7277540198
 30
0.0
 10
11.6098893578
 20
6.705516134
 30
0.0
 10
11.614413664
 20
6.6887659523
 30
0.0
 10
11.6179407306
 20
6.6718958463
 30
0.0
 10
11.6204648406
 20
6.6549350422
 30
0.0
 10
11.6219810366
 20
6.6379144481
 30
0.0
 10
11.6223183317
 20
6.6265423668
 30
0.0
 10
11.6223183042
 20
6.6208627351
 30
0.0
  0
SPLINE
  5
2B1
100
AcDbEntity
  8
0
100
AcDbSpline
 62
7
  6
CONTINUOUS
 70
0
 71
3
 72
15
 73
11
 74
0
 42
0.0000001
 43
0.0000001
 44
0.0000000001
 40
0.0
 40
0.0
 40
0.0
 40
0.0
 40
0.1194660709
 40
0.2397611975
 40
0.3613047285
 40
0.4844876245
 40
0.6096617907
 40
0.7371351545
 40
0.8671853757
 40
1.0
 40
1.0
 40
1.0
 40
1.0
 10
10.6415989067
 20
7.1436027115
 30
0.0
 10
10.6420076736
 20
7.1381132617
 30
0.0
 10
10.6433018122
 20
7.127125849
 30
0.0
 10
10.6466476276
 20
7.1107985761
 30
0.0
 10
10.6513902882
 20
7.0946418125
 30
0.0
 10
10.6575120816
 20
7.0787156536
 30
0.0
 10
10.6649905851
 20
7.0630772162
 30
0.0
 10
10.6737990771
 20
7.0477819847
 30
0.0
 10
10.6839053085
 20
7.0328861854
 30
0.0
 10
10.6914030373
 20
7.0233593262
 30
0.0
 10
10.6953467171
 20
7.0186797703
 30
0.0
  0
SPLINE
  5
2B2
100
AcDbEntity
  8
0
100
AcDbSpline
 62
7
  6
CONTINUOUS
 70
0
 71
3
 72
14
 73
10
 74
0
 42
0.0000001
 43
0.0000001
 44
0.0000000001
 40
0.0
 40
0.0
 40
0.0
 40
0.0
 40
0.2566776364
 40
0.3828535967
 40
0.5078126636
 40
0.6317713374
 40
0.7549601224
 40
0.8776201281
 40
1.0
 40
1.0
 40
1.0
 40
1.0
 10
11.4762810295
 20
6.688744983
 30
0.0
 10
11.4812537358
 20
6.679658745
 30
0.0
 10
11.4879165855
 20
6.6656677367
 30
0.0
 10
11.4950230901
 20
6.6464375926
 30
0.0
 10
11.4993957641
 20
6.6319356269
 30
0.0
 10
11.5028290575
 20
6.6173074985
 30
0.0
 10
11.5053166279
 20
6.602582703
 30
0.0
 10
11.5068525771
 20
6.5877930766
 30
0.0
 10
11.5072403475
 20
6.5779042513
 30
0.0
 10
11.5072746879
 20
6.5729658534
 30
0.0
  0
SPLINE
  5
2B3
100
AcDbEntity
  8
0
100
AcDbSpline
 62
9
  6
CONTINUOUS
 70
0
 71
3
 72
28
 73
24
 74
0
 42
0.0000001
 43
0.0000001
 44
0.0000000001
 40
0.0
 40
0.0
 40
0.0
 40
0.0
 40
0.025180507
 40
0.0504416434
 40
0.0758622316
 40
0.1015176211
 40
0.1274781472
 40
0.153807811
 40
0.1805633712
 40
0.2077936041
 40
0.2355387686
 40
0.2638305451
 40
0.3221117104
 40
0.3827509839
 40
0.4457093898
 40
0.5108393927
 40
0.5779014335
 40
0.6465809655
 40
0.7165047557
 40
0.7872567874
 40
0.8583936834
 40
0.9294585341
 40
1.0
 40
1.0
 40
1.0
 40
1.0
 10
10.5948183646
 20
6.909271898
 30
0.0
 10
10.5948184044
 20
6.9032196706
 30
0.0
 10
10.5953056881
 20
6.8910902339
 30
0.0
 10
10.5974953786
 20
6.8729698993
 30
0.0
 10
10.6011362825
 20
6.8549672616
 30
0.0
 10
10.6062161584
 20
6.8371426062
 30
0.0
 10
10.6127179525
 20
6.819553515
 30
0.0
 10
10.6206195758
 20
6.8022569474
 30
0.0
 10
10.6298947871
 20
6.7853085662
 30
0.0
 10
10.6405129393
 20
6.7687630193
 30
0.0
 10
10.6524394597
 20
6.7526726001
 30
0.0
 10
10.6702054831
 20
6.7316910473
 30
0.0
 10
10.6955763535
 20
6.7068937175
 30
0.0
 10
10.7301997698
 20
6.6800662371
 30
0.0
 10
10.7688647024
 20
6.6561929907
 30
0.0
 10
10.8110735564
 20
6.6355731569
 30
0.0
 10
10.8562895747
 20
6.6184614683
 30
0.0
 10
10.9039372789
 20
6.6050720832
 30
0.0
 10
10.953410578
 20
6.5955727511
 30
0.0
 10
11.0040794365
 20
6.5900826957
 30
0.0
 10
11.055299746
 20
6.588671625
 30
0.0
 10
11.1064149616
 20
6.5913561187
 30
0.0
 10
11.140193521
 20
6.5958818841
 30
0.0
 10
11.1568904109
 20
6.5988284967
 30
0.0
  0
SPLINE
  5
2B4
100
AcDbEntity
  8
0
100
AcDbSpline
 62
7
  6
CONTINUOUS
 70
0
 71
3
 72
21
 73
17
 74
0
 42
0.0000001
 43
0.0000001
 44
0.0000000001
 40
0.0
 40
0.0
 40
0.0
 40
0.0
 40
0.117934697
 40
0.1788801109
 40
0.2409215191
 40
0.3038848332
 40
0.3675811329
 40
0.4318108169
 40
0.4963667797
 40
0.5610381377
 40
0.6256137668
 40
0.6898855504
 40
0.7536520614
 40
0.8167220403
 40
0.8789177507
 40
1.0
 40
1.0
 40
1.0
 40
1.0
 10
10.8148316915
 20
6.9653465742
 30
0.0
 10
10.8313424202
 20
6.9567000382
 30
0.0
 10
10.8573697307
 20
6.9453803706
 30
0.0
 10
10.8935896923
 20
6.9335975895
 30
0.0
 10
10.9220667524
 20
6.926259405
 30
0.0
 10
10.9513585028
 20
6.9205739888
 30
0.0
 10
10.9812777386
 20
6.916580996
 30
0.0
 10
11.011628605
 20
6.9143108792
 30
0.0
 10
11.0422136593
 20
6.9137824516
 30
0.0
 10
11.0728336077
 20
6.9150033838
 30
0.0
 10
11.1032889426
 20
6.9179699332
 30
0.0
 10
11.1333815464
 20
6.9226671706
 30
0.0
 10
11.1629145445
 20
6.9290685049
 30
0.0
 10
11.1916989947
 20
6.9371380728
 30
0.0
 10
11.2284824065
 20
6.949935684
 30
0.0
 10
11.2549210784
 20
6.962034438
 30
0.0
 10
11.2717200201
 20
6.9711969397
 30
0.0
  0
SPLINE
  5
2B5
100
AcDbEntity
  8
0
100
AcDbSpline
 62
9
  6
CONTINUOUS
 70
0
 71
3
 72
9
 73
5
 74
0
 42
0.0000001
 43
0.0000001
 44
0.0000000001
 40
0.0
 40
0.0
 40
0.0
 40
0.0
 40
0.2468290489
 40
1.0
 40
1.0
 40
1.0
 40
1.0
 10
10.2451611418
 20
6.4814021058
 30
0.0
 10
10.2634087039
 20
6.4888516418
 30
0.0
 10
10.3378136641
 20
6.5178543871
 30
0.0
 10
10.4140266923
 20
6.5421878971
 30
0.0
 10
10.4720656943
 20
6.5579516412
 30
0.0
  0
SPLINE
  5
2B6
100
AcDbEntity
  8
0
100
AcDbSpline
 62
9
  6
CONTINUOUS
 70
0
 71
3
 72
36
 73
32
 74
0
 42
0.0000001
 43
0.0000001
 44
0.0000000001
 40
0.0
 40
0.0
 40
0.0
 40
0.0
 40
0.0751526225
 40
0.1121282537
 40
0.1486522612
 40
0.2202097974
 40
0.2552095744
 40
0.2896583829
 40
0.3235424466
 40
0.3568531195
 40
0.4217255479
 40
0.4533204773
 40
0.4843651976
 40
0.5148812335
 40
0.5448967058
 40
0.5744463274
 40
0.6035712811
 40
0.6323189416
 40
0.6607424371
 40
0.6889000444
 40
0.7168544124
 40
0.7446716282
 40
0.7724201491
 40
0.8001696329
 40
0.8279897202
 40
0.8559488178
 40
0.8841129341
 40
0.9125446122
 40
0.9413019949
 40
0.9704380557
 40
1.0
 40
1.0
 40
1.0
 40
1.0
 10
11.6225221457
 20
6.5579649354
 30
0.0
 10
11.6721458095
 20
6.5444882799
 30
0.0
 10
11.7454748801
 20
6.5215888657
 30
0.0
 10
11.8406076625
 20
6.4855435391
 30
0.0
 10
11.9319428311
 20
6.4466479706
 30
0.0
 10
12.019604108
 20
6.4027437525
 30
0.0
 10
12.1028409166
 20
6.3539081119
 30
0.0
 10
12.1621620408
 20
6.3153925105
 30
0.0
 10
12.2186807021
 20
6.2748173388
 30
0.0
 10
12.2894722413
 20
6.218616771
 30
0.0
 10
12.354860741
 20
6.1582569487
 30
0.0
 10
12.4139755911
 20
6.0940420065
 30
0.0
 10
12.4544912829
 20
6.0447904471
 30
0.0
 10
12.4914631427
 20
5.9941582385
 30
0.0
 10
12.5247987175
 20
5.9422704109
 30
0.0
 10
12.5544120975
 20
5.8892575406
 30
0.0
 10
12.5802272274
 20
5.8352527806
 30
0.0
 10
12.6021773277
 20
5.7803922769
 30
0.0
 10
12.6202053297
 20
5.7248146912
 30
0.0
 10
12.6342640826
 20
5.66866094
 30
0.0
 10
12.6443166163
 20
5.6120738217
 30
0.0
 10
12.6503363515
 20
5.5551976124
 30
0.0
 10
12.6523073879
 20
5.4981776131
 30
0.0
 10
12.6502245292
 20
5.441159629
 30
0.0
 10
12.6440933055
 20
5.3842894508
 30
0.0
 10
12.6339299465
 20
5.3277123574
 30
0.0
 10
12.6197612208
 20
5.2715725468
 30
0.0
 10
12.6016244235
 20
5.2160129684
 30
0.0
 10
12.5795666317
 20
5.1611738072
 30
0.0
 10
12.5536467002
 20
5.107196206
 30
0.0
 10
12.5339847604
 20
5.0721404003
 30
0.0
 10
12.523555904
 20
5.0548092747
 30
0.0
  0
SPLINE
  5
2B7
100
AcDbEntity
  8
0
100
AcDbSpline
 62
9
  6
CONTINUOUS
 70
0
 71
3
 72
15
 73
11
 74
0
 42
0.0000001
 43
0.0000001
 44
0.0000000001
 40
0.0
 40
0.0
 40
0.0
 40
0.0
 40
0.1145941265
 40
0.2319669834
 40
0.3523013591
 40
0.475708859
 40
0.6022327258
 40
0.7318518507
 40
0.8644862306
 40
1.0
 40
1.0
 40
1.0
 40
1.0
 10
12.523555904
 20
5.0548092747
 30
0.0
 10
12.5084395293
 20
5.029688228
 30
0.0
 10
12.4755723215
 20
4.9801689729
 30
0.0
 10
12.419571911
 20
4.9094210937
 30
0.0
 10
12.3565917216
 20
4.8416953509
 30
0.0
 10
12.2869609865
 20
4.7773390967
 30
0.0
 10
12.2110354898
 20
4.7166724602
 30
0.0
 10
12.1292019649
 20
4.6599991535
 30
0.0
 10
12.0418812567
 20
4.6076053516
 30
0.0
 10
11.980921373
 20
4.5760237913
 30
0.0
 10
11.9496773875
 20
4.5609948793
 30
0.0
  0
LINE
  5
2B8
100
AcDbEntity
  8
0
100
AcDbLine
 62
9
  6
CONTINUOUS
 10
11.9496773875
 20
4.5609948793
 11
11.9486260162
 21
4.5604895818
  0
SPLINE
  5
2B9
100
AcDbEntity
  8
0
100
AcDbSpline
 62
9
  6
CONTINUOUS
 70
0
 71
3
 72
27
 73
23
 74
0
 42
0.0000001
 43
0.0000001
 44
0.0000000001
 40
0.0
 40
0.0
 40
0.0
 40
0.0
 40
0.0724015687
 40
0.1435203926
 40
0.2132738025
 40
0.2815967646
 40
0.3484461519
 40
0.4138017153
 40
0.4776683287
 40
0.5400775725
 40
0.6010891071
 40
0.6607915082
 40
0.7193024105
 40
0.7767677421
 40
0.8051679975
 40
0.8333735586
 40
0.8614095544
 40
0.889302337
 40
0.917079264
 40
0.9447685425
 40
0.9723990267
 40
1.0
 40
1.0
 40
1.0
 40
1.0
 10
11.8573183383
 20
4.4690782324
 30
0.0
 10
11.8876674723
 20
4.4814682145
 30
0.0
 10
11.9471976277
 20
4.5076112999
 30
0.0
 10
12.0333987603
 20
4.5512338578
 30
0.0
 10
12.1153941182
 20
4.5987524421
 30
0.0
 10
12.1928303136
 20
4.6499651193
 30
0.0
 10
12.2653769693
 20
4.7046556793
 30
0.0
 10
12.3327231323
 20
4.7625932894
 30
0.0
 10
12.3945796125
 20
4.8235334543
 30
0.0
 10
12.450679745
 20
4.8872190869
 30
0.0
 10
12.5007803045
 20
4.9533808172
 30
0.0
 10
12.5446629686
 20
5.021739609
 30
0.0
 10
12.5821332965
 20
5.0920009344
 30
0.0
 10
12.6079816931
 20
5.1521368116
 30
0.0
 10
12.6252390628
 20
5.2008302752
 30
0.0
 10
12.636443143
 20
5.237492289
 30
0.0
 10
12.6459437848
 20
5.2743945434
 30
0.0
 10
12.6537314924
 20
5.3114980021
 30
0.0
 10
12.6597972972
 20
5.3487625626
 30
0.0
 10
12.6641348326
 20
5.3861483985
 30
0.0
 10
12.6667392416
 20
5.4236141912
 30
0.0
 10
12.6673183179
 20
5.448624856
 30
0.0
 10
12.6673182938
 20
5.4611215783
 30
0.0
  0
SPLINE
  5
2BA
100
AcDbEntity
  8
0
100
AcDbSpline
 62
9
  6
CONTINUOUS
 70
0
 71
3
 72
34
 73
30
 74
0
 42
0.0000001
 43
0.0000001
 44
0.0000000001
 40
0.0
 40
0.0
 40
0.0
 40
0.0
 40
0.0739918983
 40
0.1103423459
 40
0.1462346399
 40
0.2165721216
 40
0.2849318812
 40
0.3512824154
 40
0.4156512604
 40
0.4471278989
 40
0.4781488891
 40
0.5087360762
 40
0.5389155019
 40
0.568717336
 40
0.5981757561
 40
0.6273287207
 40
0.6562176698
 40
0.6848871549
 40
0.7133843987
 40
0.7417587628
 40
0.7700611592
 40
0.7983434192
 40
0.8266576338
 40
0.8550554832
 40
0.8835875823
 40
0.912302857
 40
0.9412479632
 40
0.9704667836
 40
1.0
 40
1.0
 40
1.0
 40
1.0
 10
12.0484360611
 20
3.774667227
 30
0.0
 10
12.0975186618
 20
3.7947051149
 30
0.0
 10
12.1697274695
 20
3.8271135772
 30
0.0
 10
12.2628439611
 20
3.875190639
 30
0.0
 10
12.3518294181
 20
3.9254121897
 30
0.0
 10
12.4572154928
 20
3.9930621942
 30
0.0
 10
12.5741894121
 20
4.0822300679
 30
0.0
 10
12.679962438
 20
4.1781965266
 30
0.0
 10
12.7587146025
 20
4.2639136575
 30
0.0
 10
12.8151890315
 20
4.3351816508
 30
0.0
 10
12.8539778987
 20
4.3894735201
 30
0.0
 10
12.8894360943
 20
4.4448966631
 30
0.0
 10
12.921498526
 20
4.50135041
 30
0.0
 10
12.9501047767
 20
4.5587306221
 30
0.0
 10
12.9752012875
 20
4.6169315706
 30
0.0
 10
12.9967408066
 20
4.6758457555
 30
0.0
 10
13.0146825923
 20
4.7353642047
 30
0.0
 10
13.0289924756
 20
4.7953766232
 30
0.0
 10
13.039643315
 20
4.8557715377
 30
0.0
 10
13.0466148508
 20
4.9164366136
 30
0.0
 10
13.0498937322
 20
4.9772588907
 30
0.0
 10
13.0494735485
 20
5.0381250178
 30
0.0
 10
13.0453551952
 20
5.0989215306
 30
0.0
 10
13.0375466244
 20
5.159535139
 30
0.0
 10
13.0260627165
 20
5.2198530437
 30
0.0
 10
13.010925315
 20
5.2797629076
 30
0.0
 10
12.992163018
 20
5.3391541263
 30
0.0
 10
12.969812501
 20
5.3979144365
 30
0.0
 10
12.9526446137
 20
5.436378574
 30
0.0
 10
12.943494377
 20
5.4554584916
 30
0.0
  0
SPLINE
  5
2BB
100
AcDbEntity
  8
0
100
AcDbSpline
 62
9
  6
CONTINUOUS
 70
0
 71
3
 72
27
 73
23
 74
0
 42
0.0000001
 43
0.0000001
 44
0.0000000001
 40
0.0
 40
0.0
 40
0.0
 40
0.0
 40
0.0623877498
 40
0.0940580227
 40
0.1260057864
 40
0.1906011855
 40
0.2559270682
 40
0.3217101849
 40
0.3876671629
 40
0.4535108307
 40
0.5189564843
 40
0.5837282229
 40
0.647565306
 40
0.7102287346
 40
0.7715079006
 40
0.8015779912
 40
0.8312397064
 40
0.8892671243
 40
0.9176252071
 40
0.9455336865
 40
0.9729911143
 40
1.0
 40
1.0
 40
1.0
 40
1.0
 10
11.8494755348
 20
4.5165262808
 30
0.0
 10
11.8057494369
 20
4.4986751761
 30
0.0
 10
11.7387692845
 20
4.4742636095
 30
0.0
 10
11.6475025018
 20
4.4464733824
 30
0.0
 10
11.5536870475
 20
4.4215076563
 30
0.0
 10
11.4336739831
 20
4.3962337133
 30
0.0
 10
11.2868541901
 20
4.3755939057
 30
0.0
 10
11.1379562367
 20
4.3647058746
 30
0.0
 10
10.9882741926
 20
4.3636640829
 30
0.0
 10
10.8391033152
 20
4.3724772222
 30
0.0
 10
10.6917357964
 20
4.3910697276
 30
0.0
 10
10.5474480749
 20
4.4192813256
 30
0.0
 10
10.4074879702
 20
4.4568707732
 30
0.0
 10
10.2730722306
 20
4.5035130141
 30
0.0
 10
10.1659646157
 20
4.5498899837
 30
0.0
 10
10.0841757599
 20
4.591205497
 30
0.0
 10
10.0062711509
 20
4.63457985
 30
0.0
 10
9.9321842961
 20
4.6820299791
 30
0.0
 10
9.8625621376
 20
4.7334419456
 30
0.0
 10
9.8133173729
 20
4.7733824181
 30
0.0
 10
9.7667620437
 20
4.8149055803
 30
0.0
 10
9.7373416737
 20
4.8438231365
 30
0.0
 10
9.7231259946
 20
4.8585193474
 30
0.0
  0
SPLINE
  5
2BC
100
AcDbEntity
  8
0
100
AcDbSpline
 62
9
  6
CONTINUOUS
 70
0
 71
3
 72
11
 73
7
 74
0
 42
0.0000001
 43
0.0000001
 44
0.0000000001
 40
0.0
 40
0.0
 40
0.0
 40
0.0
 40
0.2563980356
 40
0.5084094333
 40
0.7562034159
 40
1.0
 40
1.0
 40
1.0
 40
1.0
 10
9.7231259946
 20
4.8585193474
 30
0.0
 10
9.7083651493
 20
4.8737791528
 30
0.0
 10
9.6798830128
 20
4.9048119687
 30
0.0
 10
9.6401113243
 20
4.9532163623
 30
0.0
 10
9.6037596874
 20
5.0029538771
 30
0.0
 10
9.5816909187
 20
5.0371917793
 30
0.0
 10
9.5712759471
 20
5.0544849862
 30
0.0
  0
SPLINE
  5
2BD
100
AcDbEntity
  8
0
100
AcDbSpline
 62
9
  6
CONTINUOUS
 70
0
 71
3
 72
36
 73
32
 74
0
 42
0.0000001
 43
0.0000001
 44
0.0000000001
 40
0.0
 40
0.0
 40
0.0
 40
0.0
 40
0.0302252599
 40
0.0600536162
 40
0.0895235945
 40
0.1186781225
 40
0.147564158
 40
0.1762322197
 40
0.2047357894
 40
0.2331306331
 40
0.261474053
 40
0.2898240879
 40
0.3182386812
 40
0.3467748583
 40
0.3754879319
 40
0.4044307579
 40
0.4336530876
 40
0.4632010107
 40
0.4931164906
 40
0.5234369924
 40
0.5541952514
 40
0.5854191246
 40
0.6171315115
 40
0.6493503351
 40
0.7153362776
 40
0.7491337612
 40
0.7834618961
 40
0.8536708163
 40
0.8895452733
 40
0.9259068952
 40
1.0
 40
1.0
 40
1.0
 40
1.0
 10
9.5712759471
 20
5.0544849862
 30
0.0
 10
9.5618497253
 20
5.0701364551
 30
0.0
 10
9.543974599
 20
5.1017582022
 30
0.0
 10
9.5200639139
 20
5.1503373471
 30
0.0
 10
9.4992883413
 20
5.1996390903
 30
0.0
 10
9.4816927316
 20
5.2495602101
 30
0.0
 10
9.4673140802
 20
5.2999983395
 30
0.0
 10
9.4561828401
 20
5.350849121
 30
0.0
 10
9.4483226309
 20
5.4020073303
 30
0.0
 10
9.4437502699
 20
5.4533668925
 30
0.0
 10
9.4424756598
 20
5.5048211826
 30
0.0
 10
9.4445014046
 20
5.5562632975
 30
0.0
 10
9.449823126
 20
5.6075863917
 30
0.0
 10
9.4584294925
 20
5.6586839427
 30
0.0
 10
9.4703022713
 20
5.7094500052
 30
0.0
 10
9.4854160935
 20
5.7597795601
 30
0.0
 10
9.5037389006
 20
5.8095687136
 30
0.0
 10
9.525232068
 20
5.8587148982
 30
0.0
 10
9.5498505352
 20
5.9071170563
 30
0.0
 10
9.5775426275
 20
5.9546759346
 30
0.0
 10
9.6082506535
 20
6.0012942793
 30
0.0
 10
9.6419104593
 20
6.0468764352
 30
0.0
 10
9.6784537696
 20
6.0913305938
 30
0.0
 10
9.7313318724
 20
6.1494293625
 30
0.0
 10
9.7893443505
 20
6.2044230338
 30
0.0
 10
9.8518511568
 20
6.2560782523
 30
0.0
 10
9.9186261232
 20
6.3064530158
 30
0.0
 10
9.9896556376
 20
6.3531302672
 30
0.0
 10
10.0643496832
 20
6.3960030518
 30
0.0
 10
10.1427562542
 20
6.436987213
 30
0.0
 10
10.2036951629
 20
6.4644736908
 30
0.0
 10
10.2451611418
 20
6.4814021058
 30
0.0
  0
SPLINE
  5
2BE
100
AcDbEntity
  8
0
100
AcDbSpline
 62
9
  6
CONTINUOUS
 70
0
 71
3
 72
43
 73
39
 74
0
 42
0.0000001
 43
0.0000001
 44
0.0000000001
 40
0.0
 40
0.0
 40
0.0
 40
0.0
 40
0.0665646032
 40
0.1005132555
 40
0.1348186622
 40
0.1694155442
 40
0.2042353136
 40
0.2392070193
 40
0.2742580863
 40
0.3093151058
 40
0.3443046062
 40
0.3791538265
 40
0.4137914933
 40
0.4481486043
 40
0.4821592217
 40
0.5157612793
 40
0.5488974058
 40
0.5815157658
 40
0.6135709178
 40
0.6450246907
 40
0.6758470698
 40
0.7060170855
 40
0.7355236861
 40
0.7643665682
 40
0.7785443229
 40
0.7925613554
 40
0.8201225107
 40
0.8470903196
 40
0.8603690408
 40
0.873518701
 40
0.8994579143
 40
0.9249861353
 40
0.9376248873
 40
0.9501929627
 40
0.9627021477
 40
0.9751646478
 40
0.9875930038
 40
1.0
 40
1.0
 40
1.0
 40
1.0
 10
11.8573183383
 20
4.4931116836
 30
0.0
 10
11.7958330515
 20
4.4680104204
 30
0.0
 10
11.7008975753
 20
4.4350034815
 30
0.0
 10
11.5709149597
 20
4.4002780655
 30
0.0
 10
11.4705717096
 20
4.3786002009
 30
0.0
 10
11.3684631982
 20
4.3615590419
 30
0.0
 10
11.2650097226
 20
4.3492235809
 30
0.0
 10
11.160645914
 20
4.3416457815
 30
0.0
 10
11.0558078777
 20
4.3388570992
 30
0.0
 10
10.9509343522
 20
4.3408692013
 30
0.0
 10
10.8464640541
 20
4.3476736874
 30
0.0
 10
10.7428340487
 20
4.3592421872
 30
0.0
 10
10.6404778538
 20
4.3755264715
 30
0.0
 10
10.5398236332
 20
4.3964586735
 30
0.0
 10
10.4412923986
 20
4.4219515928
 30
0.0
 10
10.3452962506
 20
4.451899087
 30
0.0
 10
10.2522366654
 20
4.486176543
 30
0.0
 10
10.1625028346
 20
4.524641448
 30
0.0
 10
10.0764700952
 20
4.5671340051
 30
0.0
 10
9.9944983495
 20
4.6134779137
 30
0.0
 10
9.9169308929
 20
4.6634808741
 30
0.0
 10
9.8440921853
 20
4.7169363655
 30
0.0
 10
9.7762898963
 20
4.7736210278
 30
0.0
 10
9.7239200973
 20
4.8236434757
 30
0.0
 10
9.6848706614
 20
4.8650524153
 30
0.0
 10
9.648156859
 20
4.9068575714
 30
0.0
 10
9.605831229
 20
4.9606582694
 30
0.0
 10
9.568109207
 20
5.0169049995
 30
0.0
 10
9.541119264
 20
5.062850421
 30
0.0
 10
9.5164876222
 20
5.1089409767
 30
0.0
 10
9.4896153881
 20
5.1676292012
 30
0.0
 10
9.4680069543
 20
5.227918654
 30
0.0
 10
9.4541039519
 20
5.2766049116
 30
0.0
 10
9.4453827063
 20
5.3132230283
 30
0.0
 10
9.4383444738
 20
5.3500220152
 30
0.0
 10
9.432996225
 20
5.3869640122
 30
0.0
 10
9.4293439148
 20
5.4240088425
 30
0.0
 10
9.4280414858
 20
5.4487631441
 30
0.0
 10
9.4276745337
 20
5.4611362005
 30
0.0
  0
SPLINE
  5
2BF
100
AcDbEntity
  8
0
100
AcDbSpline
 62
9
  6
CONTINUOUS
 70
0
 71
3
 72
13
 73
9
 74
0
 42
0.0000001
 43
0.0000001
 44
0.0000000001
 40
0.0
 40
0.0
 40
0.0
 40
0.0
 40
0.2434763525
 40
0.3672036831
 40
0.4920704194
 40
0.6179361395
 40
0.7446552617
 40
1.0
 40
1.0
 40
1.0
 40
1.0
 10
11.9998183383
 20
4.1612031361
 30
0.0
 10
11.9435920537
 20
4.1382488515
 30
0.0
 10
11.8573174788
 20
4.1071127611
 30
0.0
 10
11.7396228657
 20
4.0722196489
 30
0.0
 10
11.6490995607
 20
4.0491067829
 30
0.0
 10
11.5570432921
 20
4.0292556266
 30
0.0
 10
11.4322716859
 20
4.0071494271
 30
0.0
 10
11.3375516147
 20
3.9956924778
 30
0.0
 10
11.2740875567
 20
3.990312213
 30
0.0
  0
SPLINE
  5
2C0
100
AcDbEntity
  8
0
100
AcDbSpline
 62
9
  6
CONTINUOUS
 70
0
 71
3
 72
37
 73
33
 74
0
 42
0.0000001
 43
0.0000001
 44
0.0000000001
 40
0.0
 40
0.0
 40
0.0
 40
0.0
 40
0.071835109
 40
0.1077919402
 40
0.1437046772
 40
0.2151886811
 40
0.2506762712
 40
0.2859278449
 40
0.3208987864
 40
0.355546535
 40
0.3898309477
 40
0.4237146691
 40
0.4571635092
 40
0.4901468258
 40
0.5226379128
 40
0.5546143936
 40
0.5860586156
 40
0.6169580437
 40
0.6473056441
 40
0.6771002532
 40
0.7063469173
 40
0.735057191
 40
0.7632493755
 40
0.7909486743
 40
0.8181872419
 40
0.8450040993
 40
0.8714448936
 40
0.8975614766
 40
0.9234112892
 40
0.9490565488
 40
0.9745632491
 40
1.0
 40
1.0
 40
1.0
 40
1.0
 10
11.2582343341
 20
3.9890158487
 30
0.0
 10
11.1917836339
 20
3.9837813757
 30
0.0
 10
11.0917258951
 20
3.9796562352
 30
0.0
 10
10.9583723655
 20
3.9815830925
 30
0.0
 10
10.8255053066
 20
3.9884484245
 30
0.0
 10
10.6935382843
 20
4.0026863544
 30
0.0
 10
10.563323961
 20
4.0242938607
 30
0.0
 10
10.4672196385
 20
4.0440572947
 30
0.0
 10
10.3727155897
 20
4.0673608407
 30
0.0
 10
10.2800698522
 20
4.094140881
 30
0.0
 10
10.189538286
 20
4.1243237674
 30
0.0
 10
10.1013701441
 20
4.1578266748
 30
0.0
 10
10.015808374
 20
4.1945576585
 30
0.0
 10
9.9330886996
 20
4.2344159697
 30
0.0
 10
9.8534390598
 20
4.2772923385
 30
0.0
 10
9.7770789837
 20
4.3230692853
 30
0.0
 10
9.7042190187
 20
4.3716214499
 30
0.0
 10
9.6350601827
 20
4.4228159386
 30
0.0
 10
9.5697934509
 20
4.4765126825
 30
0.0
 10
9.5085992748
 20
4.5325648061
 30
0.0
 10
9.4516471327
 20
4.5908189988
 30
0.0
 10
9.3990951107
 20
4.651115888
 30
0.0
 10
9.3510894996
 20
4.7132904018
 30
0.0
 10
9.3077644075
 20
4.7771721289
 30
0.0
 10
9.2692414007
 20
4.8425856823
 30
0.0
 10
9.2356291286
 20
4.9093510683
 30
0.0
 10
9.2070229404
 20
4.9772840136
 30
0.0
 10
9.1835044889
 20
5.0461965352
 30
0.0
 10
9.1651413273
 20
5.1158967823
 30
0.0
 10
9.1519865135
 20
5.1861918142
 30
0.0
 10
9.1440782499
 20
5.2568798895
 30
0.0
 10
9.1423183383
 20
5.3041695996
 30
0.0
 10
9.1423183383
 20
5.3277726261
 30
0.0
  0
SPLINE
  5
2C1
100
AcDbEntity
  8
0
100
AcDbSpline
 62
9
  6
CONTINUOUS
 70
0
 71
3
 72
37
 73
33
 74
0
 42
0.0000001
 43
0.0000001
 44
0.0000000001
 40
0.0
 40
0.0
 40
0.0
 40
0.0
 40
0.0740868451
 40
0.1104004306
 40
0.1461931979
 40
0.2161320934
 40
0.2502739081
 40
0.283851495
 40
0.3168662389
 40
0.3493249288
 40
0.381239976
 40
0.4126295826
 40
0.4435178514
 40
0.4739348156
 40
0.5039163749
 40
0.5335041209
 40
0.5627450301
 40
0.5916910219
 40
0.6203983751
 40
0.6489270073
 40
0.6773396291
 40
0.7057007962
 40
0.7340758913
 40
0.7625300726
 40
0.7911272319
 40
0.8199290024
 40
0.8489938506
 40
0.8783762813
 40
0.9081261737
 40
0.9382882556
 40
0.9689017247
 40
1.0
 40
1.0
 40
1.0
 40
1.0
 10
12.0978596418
 20
3.6610013494
 30
0.0
 10
12.1554270393
 20
3.6845031411
 30
0.0
 10
12.2399250437
 20
3.7228361775
 30
0.0
 10
12.3483510259
 20
3.7803290452
 30
0.0
 10
12.4512606781
 20
3.8405663866
 30
0.0
 10
12.5487024629
 20
3.9063708889
 30
0.0
 10
12.6397419418
 20
3.9775600963
 30
0.0
 10
12.7038116695
 20
4.0327752732
 30
0.0
 10
12.7640592302
 20
4.0901065208
 30
0.0
 10
12.8203470728
 20
4.1494239622
 30
0.0
 10
12.8725440274
 20
4.2105912322
 30
0.0
 10
12.9205287949
 20
4.2734681482
 30
0.0
 10
12.9641893755
 20
4.3379103449
 30
0.0
 10
13.0034235483
 20
4.4037697053
 30
0.0
 10
13.0381390742
 20
4.4708945841
 30
0.0
 10
13.0682540234
 20
4.5391300723
 30
0.0
 10
13.093696985
 20
4.6083183179
 30
0.0
 10
13.1144073301
 20
4.6782988406
 30
0.0
 10
13.1303354687
 20
4.7489088848
 30
0.0
 10
13.1414430915
 20
4.8199838164
 30
0.0
 10
13.1477033789
 20
4.8913575678
 30
0.0
 10
13.1491011648
 20
4.962863123
 30
0.0
 10
13.1456330927
 20
5.0343330418
 30
0.0
 10
13.1373075737
 20
5.1056000039
 30
0.0
 10
13.1241447352
 20
5.1764973368
 30
0.0
 10
13.106176291
 20
5.2468595288
 30
0.0
 10
13.0834453729
 20
5.3165226791
 30
0.0
 10
13.0560062511
 20
5.3853249938
 30
0.0
 10
13.0239242943
 20
5.4531068895
 30
0.0
 10
12.9872749851
 20
5.5197123962
 30
0.0
 10
12.9461465277
 20
5.5849854844
 30
0.0
 10
12.916046524
 20
5.6271748238
 30
0.0
 10
12.9003076586
 20
5.6479957946
 30
0.0
  0
SPLINE
  5
2C2
100
AcDbEntity
  8
0
100
AcDbSpline
 62
9
  6
CONTINUOUS
 70
0
 71
3
 72
52
 73
48
 74
0
 42
0.0000001
 43
0.0000001
 44
0.0000000001
 40
0.0
 40
0.0
 40
0.0
 40
0.0
 40
0.014119843
 40
0.028052712
 40
0.0418088092
 40
0.0553999064
 40
0.0688393132
 40
0.0821418012
 40
0.0953235046
 40
0.1084018032
 40
0.1213951796
 40
0.1343230371
 40
0.147205504
 40
0.1600632206
 40
0.1729171089
 40
0.1857881345
 40
0.1986970678
 40
0.2116642493
 40
0.2247093707
 40
0.2378512727
 40
0.2511077557
 40
0.2644954231
 40
0.2780295564
 40
0.2917240094
 40
0.3055911191
 40
0.3196416642
 40
0.3338848394
 40
0.3483282358
 40
0.377831163
 40
0.4081873632
 40
0.4394024386
 40
0.4714600603
 40
0.5043239855
 40
0.537940293
 40
0.5722395877
 40
0.6071392191
 40
0.6425454472
 40
0.6783555317
 40
0.7144598021
 40
0.7507436439
 40
0.7870894822
 40
0.8233787257
 40
0.8594937079
 40
0.8953196444
 40
0.9307465914
 40
0.9656712958
 40
1.0
 40
1.0
 40
1.0
 40
1.0
 10
9.1958392801
 20
5.6499901363
 30
0.0
 10
9.1825491763
 20
5.632472871
 30
0.0
 10
9.1569481663
 20
5.5970515192
 30
0.0
 10
9.1213728624
 20
5.5424940664
 30
0.0
 10
9.0889421707
 20
5.4869593383
 30
0.0
 10
9.0597109774
 20
5.4305392855
 30
0.0
 10
9.0337273955
 20
5.3733256671
 30
0.0
 10
9.0110346435
 20
5.3154121359
 30
0.0
 10
8.991670644
 20
5.2568934462
 30
0.0
 10
8.9756678986
 20
5.1978655513
 30
0.0
 10
8.963053091
 20
5.1384254502
 30
0.0
 10
8.9538474239
 20
5.0786709033
 30
0.0
 10
8.9480665756
 20
5.0187002995
 30
0.0
 10
8.9457202403
 20
4.9586125131
 30
0.0
 10
8.9468122648
 20
4.8985066415
 30
0.0
 10
8.9513408696
 20
4.8384818106
 30
0.0
 10
8.9592985511
 20
4.7786370099
 30
0.0
 10
8.9706717207
 20
4.7190708211
 30
0.0
 10
8.9854412081
 20
4.6598812526
 30
0.0
 10
9.0035823528
 20
4.6011656092
 30
0.0
 10
9.0250647625
 20
4.5430202456
 30
0.0
 10
9.0498524266
 20
4.4855403712
 30
0.0
 10
9.0779041124
 20
4.4288199968
 30
0.0
 10
9.1091733619
 20
4.3729518473
 30
0.0
 10
9.1436083309
 20
4.3180269119
 30
0.0
 10
9.1811518408
 20
4.2641348938
 30
0.0
 10
9.2217430792
 20
4.2113625611
 30
0.0
 10
9.2802445704
 20
4.1421265417
 30
0.0
 10
9.3608169714
 20
4.0588585028
 30
0.0
 10
9.4677830664
 20
3.965497175
 30
0.0
 10
9.5850226352
 20
3.8785683702
 30
0.0
 10
9.7117648031
 20
3.7986344165
 30
0.0
 10
9.8471853943
 20
3.726204708
 30
0.0
 10
9.9904035683
 20
3.6617443956
 30
0.0
 10
10.1404888183
 20
3.6056673141
 30
0.0
 10
10.2964662098
 20
3.5583343486
 30
0.0
 10
10.4573226093
 20
3.5200507215
 30
0.0
 10
10.6220129695
 20
3.4910631888
 30
0.0
 10
10.7894672873
 20
3.4715593589
 30
0.0
 10
10.9585973491
 20
3.4616648867
 30
0.0
 10
11.1283040345
 20
3.4614441325
 30
0.0
 10
11.2974843473
 20
3.4708982052
 30
0.0
 10
11.4650389802
 20
3.4899662263
 30
0.0
 10
11.6298784656
 20
3.5185246444
 30
0.0
 10
11.7909339129
 20
3.5563898333
 30
0.0
 10
11.9471508183
 20
3.6033140637
 30
0.0
 10
12.0483666108
 20
3.6407959041
 30
0.0
 10
12.0978596418
 20
3.6610013494
 30
0.0
  0
SPLINE
  5
2C3
100
AcDbEntity
  8
0
100
AcDbSpline
 62
7
  6
CONTINUOUS
 70
0
 71
3
 72
42
 73
38
 74
0
 42
0.0000001
 43
0.0000001
 44
0.0000000001
 40
0.0
 40
0.0
 40
0.0
 40
0.0
 40
0.0327681438
 40
0.0659901648
 40
0.0996150524
 40
0.1335868403
 40
0.1678462977
 40
0.202331166
 40
0.2369769727
 40
0.2717176574
 40
0.3064862375
 40
0.3412154593
 40
0.375838451
 40
0.4102893763
 40
0.4445040922
 40
0.4784208143
 40
0.5119807911
 40
0.5451289903
 40
0.5778147991
 40
0.6099927394
 40
0.6416231968
 40
0.6726731645
 40
0.7031169918
 40
0.732937132
 40
0.7621248734
 40
0.7906810332
 40
0.8186165821
 40
0.8459531581
 40
0.8727234182
 40
0.8989711638
 40
0.924751173
 40
0.9374884498
 40
0.9501340816
 40
0.9626976957
 40
0.9751894243
 40
0.9876198647
 40
1.0
 40
1.0
 40
1.0
 40
1.0
 10
12.122286909
 20
3.5812019778
 30
0.0
 10
12.0833839736
 20
3.5653199209
 30
0.0
 10
12.0042164268
 20
3.5353143734
 30
0.0
 10
11.8826568089
 20
3.4959081283
 30
0.0
 10
11.7578707518
 20
3.4619182714
 30
0.0
 10
11.6303433354
 20
3.4334771637
 30
0.0
 10
11.5005658073
 20
3.4106935971
 30
0.0
 10
11.3690391427
 20
3.3936553524
 30
0.0
 10
11.236270854
 20
3.3824279148
 30
0.0
 10
11.1027733346
 20
3.3770545032
 30
0.0
 10
10.9690617917
 20
3.3775557944
 30
0.0
 10
10.83565227
 20
3.3839298708
 30
0.0
 10
10.7030596405
 20
3.3961521988
 30
0.0
 10
10.5717956021
 20
3.4141757476
 30
0.0
 10
10.4423666988
 20
3.437931187
 30
0.0
 10
10.3152723593
 20
3.4673271716
 30
0.0
 10
10.1910029701
 20
3.5022507189
 30
0.0
 10
10.0700379899
 20
3.5425676741
 30
0.0
 10
9.9528441162
 20
3.5881232639
 30
0.0
 10
9.839873513
 20
3.6387427314
 30
0.0
 10
9.7315621124
 20
3.6942320547
 30
0.0
 10
9.6283279879
 20
3.7543787155
 30
0.0
 10
9.530569832
 20
3.8189525579
 30
0.0
 10
9.4386655429
 20
3.8877066908
 30
0.0
 10
9.3529709062
 20
3.9603784272
 30
0.0
 10
9.2738184047
 20
4.0366901847
 30
0.0
 10
9.2015160584
 20
4.1163505719
 30
0.0
 10
9.136346589
 20
4.1990547362
 30
0.0
 10
9.0785657454
 20
4.2844872285
 30
0.0
 10
9.0284038287
 20
4.3723155652
 30
0.0
 10
8.9929710069
 20
4.4475364624
 30
0.0
 10
8.9686947907
 20
4.5085048993
 30
0.0
 10
8.9525707171
 20
4.55443174
 30
0.0
 10
8.9384755384
 20
4.6006916846
 30
0.0
 10
8.9264227735
 20
4.6472410168
 30
0.0
 10
8.9164242259
 20
4.6940330399
 30
0.0
 10
8.9111253117
 20
4.7254163126
 30
0.0
 10
8.9088241729
 20
4.7411242236
 30
0.0
  0
SPLINE
  5
2C4
100
AcDbEntity
  8
0
100
AcDbSpline
 62
9
  6
CONTINUOUS
 70
0
 71
3
 72
15
 73
11
 74
0
 42
0.0000001
 43
0.0000001
 44
0.0000000001
 40
0.0
 40
0.0
 40
0.0
 40
0.0
 40
0.133810862
 40
0.2653119202
 40
0.394356128
 40
0.5208270271
 40
0.644645373
 40
0.7657709775
 40
0.8842064674
 40
1.0
 40
1.0
 40
1.0
 40
1.0
 10
11.8632509719
 20
4.4488927861
 30
0.0
 10
11.8931019713
 20
4.4610794056
 30
0.0
 10
11.9516827463
 20
4.4867624911
 30
0.0
 10
12.0365914665
 20
4.5295222109
 30
0.0
 10
12.1174782473
 20
4.5760308218
 30
0.0
 10
12.1940108922
 20
4.626099874
 30
0.0
 10
12.2658779495
 20
4.6795274586
 30
0.0
 10
12.3327869542
 20
4.7360997428
 30
0.0
 10
12.394460452
 20
4.7955845218
 30
0.0
 10
12.4323430297
 20
4.8374953048
 30
0.0
 10
12.4502906558
 20
4.8588580763
 30
0.0
  0
SPLINE
  5
2C5
100
AcDbEntity
  8
0
100
AcDbSpline
 62
9
  6
CONTINUOUS
 70
0
 71
3
 72
24
 73
20
 74
0
 42
0.0000001
 43
0.0000001
 44
0.0000000001
 40
0.0
 40
0.0
 40
0.0
 40
0.0
 40
0.0673744522
 40
0.100649919
 40
0.1336580276
 40
0.1988977141
 40
0.263173629
 40
0.3265717244
 40
0.3891899466
 40
0.4511373686
 40
0.5125330126
 40
0.5735043723
 40
0.6341856282
 40
0.6947156187
 40
0.7552356417
 40
0.8158871591
 40
0.8768094898
 40
0.9381375886
 40
1.0
 40
1.0
 40
1.0
 40
1.0
 10
12.4502906558
 20
4.8588580763
 30
0.0
 10
12.4636295168
 20
4.8747351086
 30
0.0
 10
12.4829235208
 20
4.8989977252
 30
0.0
 10
12.5071460231
 20
4.9322527405
 30
0.0
 10
12.5300389475
 20
4.9656438195
 30
0.0
 10
12.5565272576
 20
5.0081133305
 30
0.0
 10
12.5848979991
 20
5.0603125419
 30
0.0
 10
12.6096635527
 20
5.1134293067
 30
0.0
 10
12.6307637585
 20
5.1673380918
 30
0.0
 10
12.6481477874
 20
5.2219123514
 30
0.0
 10
12.6617733175
 20
5.2770233161
 30
0.0
 10
12.6716071494
 20
5.3325406541
 30
0.0
 10
12.677625265
 20
5.3883327581
 30
0.0
 10
12.6798129053
 20
5.4442671433
 30
0.0
 10
12.6781646584
 20
5.5002109313
 30
0.0
 10
12.6726845703
 20
5.5560309375
 30
0.0
 10
12.6633858639
 20
5.6115953708
 30
0.0
 10
12.6502923276
 20
5.6667695409
 30
0.0
 10
12.6391081168
 20
5.7030316712
 30
0.0
 10
12.6329122533
 20
5.7210354357
 30
0.0
  0
SPLINE
  5
2C6
100
AcDbEntity
  8
0
100
AcDbSpline
 62
9
  6
CONTINUOUS
 70
0
 71
3
 72
10
 73
6
 74
0
 42
0.0000001
 43
0.0000001
 44
0.0000000001
 40
0.0
 40
0.0
 40
0.0
 40
0.0
 40
0.2459077447
 40
0.6201311797
 40
1.0
 40
1.0
 40
1.0
 40
1.0
 10
10.1170657142
 20
6.5155428207
 30
0.0
 10
10.1453574203
 20
6.5270928613
 30
0.0
 10
10.2173301348
 20
6.5547040528
 30
0.0
 10
10.3355704933
 20
6.5931849951
 30
0.0
 10
10.4263160533
 20
6.6168205041
 30
0.0
 10
10.4723227392
 20
6.6273920773
 30
0.0
  0
SPLINE
  5
2C7
100
AcDbEntity
  8
0
100
AcDbSpline
 62
9
  6
CONTINUOUS
 70
0
 71
3
 72
51
 73
47
 74
0
 42
0.0000001
 43
0.0000001
 44
0.0000000001
 40
0.0
 40
0.0
 40
0.0
 40
0.0
 40
0.0371959283
 40
0.0738924586
 40
0.1100128458
 40
0.145488847
 40
0.1802621609
 40
0.2142858843
 40
0.2475259915
 40
0.2799628103
 40
0.311592442
 40
0.3424280356
 40
0.3725008476
 40
0.3872695087
 40
0.4018678664
 40
0.4163051465
 40
0.4305917324
 40
0.4447391473
 40
0.45875997
 40
0.4726677992
 40
0.4864771587
 40
0.5002033906
 40
0.5138625633
 40
0.5274713248
 40
0.5410467715
 40
0.554606302
 40
0.5681674562
 40
0.5817477585
 40
0.5953645631
 40
0.609034897
 40
0.6227753074
 40
0.6366017397
 40
0.6505293946
 40
0.6645726261
 40
0.6787448573
 40
0.6930584717
 40
0.7075247834
 40
0.7369481678
 40
0.7670896881
 40
0.7979976594
 40
0.8297016306
 40
0.8622131276
 40
0.8955267273
 40
0.9296214375
 40
0.9644616541
 40
1.0
 40
1.0
 40
1.0
 40
1.0
 10
11.6224617062
 20
6.6273581115
 30
0.0
 10
11.6646641693
 20
6.6176579258
 30
0.0
 10
11.7480092595
 20
6.5961567731
 30
0.0
 10
11.8701480173
 20
6.557407963
 30
0.0
 10
11.9880452015
 20
6.5125501869
 30
0.0
 10
12.1010880182
 20
6.4618141435
 30
0.0
 10
12.2086945055
 20
6.4054590468
 30
0.0
 10
12.3103088892
 20
6.3437727684
 30
0.0
 10
12.405406242
 20
6.2770697086
 30
0.0
 10
12.493494037
 20
6.2056899453
 30
0.0
 10
12.5741159475
 20
6.1299955011
 30
0.0
 10
12.6468485904
 20
6.050376331
 30
0.0
 10
12.7008996551
 20
5.9806625838
 30
0.0
 10
12.7397274172
 20
5.9233616857
 30
0.0
 10
12.7664843911
 20
5.8799287723
 30
0.0
 10
12.7910136812
 20
5.835841351
 30
0.0
 10
12.8132836469
 20
5.7911556376
 30
0.0
 10
12.8332652137
 20
5.7459298718
 30
0.0
 10
12.8509318088
 20
5.7002224793
 30
0.0
 10
12.8662603201
 20
5.6540928948
 30
0.0
 10
12.8792306061
 20
5.6076010758
 30
0.0
 10
12.8898251672
 20
5.560807425
 30
0.0
 10
12.8980303626
 20
5.5137729836
 30
0.0
 10
12.9038350535
 20
5.4665590045
 30
0.0
 10
12.9072314932
 20
5.4192270978
 30
0.0
 10
12.9082154625
 20
5.3718390502
 30
0.0
 10
12.9067852325
 20
5.3244567214
 30
0.0
 10
12.9029430248
 20
5.2771419742
 30
0.0
 10
12.8966939081
 20
5.2299565427
 30
0.0
 10
12.8880459341
 20
5.1829620266
 30
0.0
 10
12.8770109779
 20
5.1362196006
 30
0.0
 10
12.8636033223
 20
5.0897901972
 30
0.0
 10
12.8478408201
 20
5.0437342137
 30
0.0
 10
12.8297444019
 20
4.9981113508
 30
0.0
 10
12.8093377185
 20
4.9529812
 30
0.0
 10
12.7866472993
 20
4.9084012464
 30
0.0
 10
12.7532047086
 20
4.8494476713
 30
0.0
 10
12.7057112482
 20
4.7773865328
 30
0.0
 10
12.6404675758
 20
4.6945530091
 30
0.0
 10
12.5669868571
 20
4.6152764757
 30
0.0
 10
12.4856571489
 20
4.5399660373
 30
0.0
 10
12.3969013746
 20
4.4690034656
 30
0.0
 10
12.3011805802
 20
4.4027504401
 30
0.0
 10
12.1989890355
 20
4.3415440229
 30
0.0
 10
12.0908594345
 20
4.2856978873
 30
0.0
 10
12.0158750777
 20
4.2525361493
 30
0.0
 10
11.9775709624
 20
4.2368985597
 30
0.0
  0
SPLINE
  5
2C8
100
AcDbEntity
  8
0
100
AcDbSpline
 62
9
  6
CONTINUOUS
 70
0
 71
3
 72
23
 73
19
 74
0
 42
0.0000001
 43
0.0000001
 44
0.0000000001
 40
0.0
 40
0.0
 40
0.0
 40
0.0
 40
0.0618295948
 40
0.1231336083
 40
0.1840399828
 40
0.2446829123
 40
0.3052008039
 40
0.3657340837
 40
0.4264229294
 40
0.4874050094
 40
0.5488133123
 40
0.6107741664
 40
0.6734055008
 40
0.736815385
 40
0.8011008672
 40
0.8663471017
 40
0.9326268109
 40
1.0
 40
1.0
 40
1.0
 40
1.0
 10
9.4606529948
 20
5.7179030034
 30
0.0
 10
9.4545512048
 20
5.6999543687
 30
0.0
 10
9.4435469476
 20
5.6638067687
 30
0.0
 10
9.4306992965
 20
5.6088198804
 30
0.0
 10
9.4216189792
 20
5.5534522604
 30
0.0
 10
9.4163290023
 20
5.4978371155
 30
0.0
 10
9.4148419437
 20
5.4421047451
 30
0.0
 10
9.4171614989
 20
5.3863867989
 30
0.0
 10
9.4232820225
 20
5.3308146208
 30
0.0
 10
9.43318869
 20
5.2755191734
 30
0.0
 10
9.4468573777
 20
5.2206305086
 30
0.0
 10
9.4642549793
 20
5.1662774198
 30
0.0
 10
9.4853395855
 20
5.1125871225
 30
0.0
 10
9.5100607161
 20
5.0596849043
 30
0.0
 10
9.5383593646
 20
5.0076940729
 30
0.0
 10
9.5701686597
 20
4.9567348721
 30
0.0
 10
9.6054119247
 20
4.9069271971
 30
0.0
 10
9.6309303083
 20
4.8748321371
 30
0.0
 10
9.6442153525
 20
4.8590135917
 30
0.0
  0
SPLINE
  5
2C9
100
AcDbEntity
  8
0
100
AcDbSpline
 62
9
  6
CONTINUOUS
 70
0
 71
3
 72
15
 73
11
 74
0
 42
0.0000001
 43
0.0000001
 44
0.0000000001
 40
0.0
 40
0.0
 40
0.0
 40
0.0
 40
0.1160105394
 40
0.2345943288
 40
0.3557989586
 40
0.4796298593
 40
0.6060528664
 40
0.7349970771
 40
0.8663578709
 40
1.0
 40
1.0
 40
1.0
 40
1.0
 10
9.6442153525
 20
4.8590135917
 30
0.0
 10
9.6616610203
 20
4.8382409783
 30
0.0
 10
9.6984302935
 20
4.7974655346
 30
0.0
 10
9.7581803957
 20
4.739493282
 30
0.0
 10
9.8228976832
 20
4.6842626659
 30
0.0
 10
9.8923283204
 20
4.6319882687
 30
0.0
 10
9.9662049627
 20
4.5828682067
 30
0.0
 10
10.0442432313
 20
4.5370897933
 30
0.0
 10
10.1261397841
 20
4.4948288422
 30
0.0
 10
10.1826433576
 20
4.46931362
 30
0.0
 10
10.2114369906
 20
4.4571707013
 30
0.0
  0
SPLINE
  5
2CA
100
AcDbEntity
  8
0
100
AcDbSpline
 62
9
  6
CONTINUOUS
 70
0
 71
3
 72
13
 73
9
 74
0
 42
0.0000001
 43
0.0000001
 44
0.0000000001
 40
0.0
 40
0.0
 40
0.0
 40
0.0
 40
0.24321436
 40
0.3668760894
 40
0.4917202225
 40
0.61760791
 40
0.7443931066
 40
1.0
 40
1.0
 40
1.0
 40
1.0
 10
10.2114369906
 20
4.4571707013
 30
0.0
 10
10.2594478553
 20
4.4369234465
 30
0.0
 10
10.3331866276
 20
4.4093918938
 30
0.0
 10
10.4338854401
 20
4.3783956381
 30
0.0
 10
10.5114192665
 20
4.3577699853
 30
0.0
 10
10.5903311109
 20
4.3399525391
 30
0.0
 10
10.697388145
 20
4.3199489277
 30
0.0
 10
10.7787225262
 20
4.3093725349
 30
0.0
 10
10.833244928
 20
4.3042709834
 30
0.0
  0
SPLINE
  5
2CB
100
AcDbEntity
  8
0
100
AcDbSpline
 62
9
  6
CONTINUOUS
 70
0
 71
3
 72
13
 73
9
 74
0
 42
0.0000001
 43
0.0000001
 44
0.0000000001
 40
0.0
 40
0.0
 40
0.0
 40
0.0
 40
0.2553101493
 40
0.3819961978
 40
0.5078322003
 40
0.6326820312
 40
0.7564136369
 40
1.0
 40
1.0
 40
1.0
 40
1.0
 10
11.261368528
 20
4.3042688402
 30
0.0
 10
11.3140004463
 20
4.3091930191
 30
0.0
 10
11.3925308716
 20
4.3193043716
 30
0.0
 10
11.4959655085
 20
4.3382852669
 30
0.0
 10
11.5722771493
 20
4.3551481582
 30
0.0
 10
11.6473309019
 20
4.3746333957
 30
0.0
 10
11.7449594832
 20
4.4038891311
 30
0.0
 10
11.8165578222
 20
4.4298303876
 30
0.0
 10
11.8632509719
 20
4.4488927861
 30
0.0
  0
SPLINE
  5
2CC
100
AcDbEntity
  8
0
100
AcDbSpline
 62
9
  6
CONTINUOUS
 70
0
 71
3
 72
11
 73
7
 74
0
 42
0.0000001
 43
0.0000001
 44
0.0000000001
 40
0.0
 40
0.0
 40
0.0
 40
0.0
 40
0.2451722567
 40
0.4938432115
 40
0.7456026596
 40
1.0
 40
1.0
 40
1.0
 40
1.0
 10
11.9775709624
 20
4.2368985597
 30
0.0
 10
11.9427381437
 20
4.222678121
 30
0.0
 10
11.8718127565
 20
4.1958675061
 30
0.0
 10
11.762838816
 20
4.1608427722
 30
0.0
 10
11.650910867
 20
4.1308425066
 30
0.0
 10
11.5749729419
 20
4.1143492724
 30
0.0
 10
11.5366391919
 20
4.1069601435
 30
0.0
  0
SPLINE
  5
2CD
100
AcDbEntity
  8
0
100
AcDbSpline
 62
9
  6
CONTINUOUS
 70
0
 71
3
 72
10
 73
6
 74
0
 42
0.0000001
 43
0.0000001
 44
0.0000000001
 40
0.0
 40
0.0
 40
0.0
 40
0.0
 40
0.2486995808
 40
0.6237230016
 40
1.0
 40
1.0
 40
1.0
 40
1.0
 10
11.4522224594
 20
4.0921777914
 30
0.0
 10
11.4183331289
 20
4.0868345785
 30
0.0
 10
11.3330616466
 20
4.0751558068
 30
0.0
 10
11.195542704
 20
4.0632861542
 30
0.0
 10
11.0918675066
 20
4.0605099148
 30
0.0
 10
11.0399605087
 20
4.0606551031
 30
0.0
  0
SPLINE
  5
2CE
100
AcDbEntity
  8
0
100
AcDbSpline
 62
9
  6
CONTINUOUS
 70
0
 71
3
 72
56
 73
52
 74
0
 42
0.0000001
 43
0.0000001
 44
0.0000000001
 40
0.0
 40
0.0
 40
0.0
 40
0.0
 40
0.0373578786
 40
0.0745855035
 40
0.1115608367
 40
0.1481661327
 40
0.1842900627
 40
0.2198298878
 40
0.2546937096
 40
0.2888027286
 40
0.3220936329
 40
0.338420243
 40
0.3545269266
 40
0.3704111817
 40
0.3860719243
 40
0.4015095522
 40
0.4167259893
 40
0.4317247523
 40
0.4465110096
 40
0.4610915947
 40
0.4754750273
 40
0.4896715366
 40
0.5036930293
 40
0.5175530425
 40
0.5312666923
 40
0.5448505788
 40
0.5583226517
 40
0.5717020643
 40
0.5850089993
 40
0.5982644544
 40
0.6114900153
 40
0.6247076156
 40
0.6379392817
 40
0.6512068774
 40
0.6645318495
 40
0.6779349884
 40
0.6914362114
 40
0.7050543598
 40
0.7188070183
 40
0.7327103832
 40
0.7467791481
 40
0.761026402
 40
0.775463582
 40
0.7901004485
 40
0.8049450582
 40
0.8352739955
 40
0.8664894984
 40
0.8985975018
 40
0.9315806691
 40
0.9654003791
 40
1.0
 40
1.0
 40
1.0
 40
1.0
 10
11.0399605087
 20
4.0606551031
 30
0.0
 10
10.9893394278
 20
4.0607966947
 30
0.0
 10
10.8882574391
 20
4.063995265
 30
0.0
 10
10.7376131594
 20
4.0775188007
 30
0.0
 10
10.5890187586
 20
4.099675982
 30
0.0
 10
10.443466743
 20
4.1303204799
 30
0.0
 10
10.3019207722
 20
4.1692503397
 30
0.0
 10
10.1653205727
 20
4.2162092696
 30
0.0
 10
10.0345705466
 20
4.2708890774
 30
0.0
 10
9.9105429626
 20
4.3329281934
 30
0.0
 10
9.8128332095
 20
4.3908018672
 30
0.0
 10
9.7388696522
 20
4.4404412218
 30
0.0
 10
9.6859312143
 20
4.4789944277
 30
0.0
 10
9.6352615862
 20
4.5190449379
 30
0.0
 10
9.5869444886
 20
4.5605268305
 30
0.0
 10
9.5410607312
 20
4.6033710754
 30
0.0
 10
9.4976870125
 20
4.6475067288
 30
0.0
 10
9.4568959912
 20
4.6928606312
 30
0.0
 10
9.4187558661
 20
4.7393574163
 30
0.0
 10
9.3833306405
 20
4.7869199234
 30
0.0
 10
9.350680022
 20
4.8354692594
 30
0.0
 10
9.3208588902
 20
4.8849246258
 30
0.0
 10
9.2939175383
 20
4.9352037011
 30
0.0
 10
9.2699017403
 20
4.986222791
 30
0.0
 10
9.24885226
 20
5.03789674
 30
0.0
 10
9.2308047989
 20
5.0901391326
 30
0.0
 10
9.215790276
 20
5.1428625514
 30
0.0
 10
9.2038345433
 20
5.1959786083
 30
0.0
 10
9.1949579352
 20
5.2493980479
 30
0.0
 10
9.189175733
 20
5.3030310549
 30
0.0
 10
9.1864981152
 20
5.35678736
 30
0.0
 10
9.1869295512
 20
5.4105763957
 30
0.0
 10
9.1904692087
 20
5.4643075604
 30
0.0
 10
9.1971111547
 20
5.5178903543
 30
0.0
 10
9.2068439413
 20
5.5712345839
 30
0.0
 10
9.2196506532
 20
5.6242506057
 30
0.0
 10
9.2355093965
 20
5.6768494125
 30
0.0
 10
9.2543931652
 20
5.7289427884
 30
0.0
 10
9.2762695315
 20
5.7804436247
 30
0.0
 10
9.3011012737
 20
5.8312659075
 30
0.0
 10
9.3288464199
 20
5.8813247632
 30
0.0
 10
9.3594579734
 20
5.9305369254
 30
0.0
 10
9.3928839666
 20
5.9788203441
 30
0.0
 10
9.4290691351
 20
6.0260956072
 30
0.0
 10
9.481279066
 20
6.0881148972
 30
0.0
 10
9.553281893
 20
6.1626821802
 30
0.0
 10
9.6489847318
 20
6.2462333368
 30
0.0
 10
9.7539737825
 20
6.3239652854
 30
0.0
 10
9.8675456853
 20
6.3953654948
 30
0.0
 10
9.9889396419
 20
6.4599667152
 30
0.0
 10
10.0736598054
 20
6.4978224326
 30
0.0
 10
10.1170657142
 20
6.5155428207
 30
0.0
  0
SPLINE
  5
2CF
100
AcDbEntity
  8
0
100
AcDbSpline
 62
7
  6
CONTINUOUS
 70
0
 71
3
 72
11
 73
7
 74
0
 42
0.0000001
 43
0.0000001
 44
0.0000000001
 40
0.0
 40
0.0
 40
0.0
 40
0.0
 40
0.2451192939
 40
0.4929063197
 40
0.7442647451
 40
1.0
 40
1.0
 40
1.0
 40
1.0
 10
10.5874701312
 20
6.6063354673
 30
0.0
 10
10.5885596968
 20
6.6134993976
 30
0.0
 10
10.591419263
 20
6.6278120165
 30
0.0
 10
10.5976722676
 20
6.6489364134
 30
0.0
 10
10.6058779893
 20
6.669718466
 30
0.0
 10
10.6125637142
 20
6.6831589702
 30
0.0
 10
10.6162038273
 20
6.6897850842
 30
0.0
  0
SPLINE
  5
2D0
100
AcDbEntity
  8
0
100
AcDbSpline
 62
7
  6
CONTINUOUS
 70
0
 71
3
 72
9
 73
5
 74
0
 42
0.0000001
 43
0.0000001
 44
0.0000000001
 40
0.0
 40
0.0
 40
0.0
 40
0.0
 40
0.4938697278
 40
1.0
 40
1.0
 40
1.0
 40
1.0
 10
10.6162038273
 20
6.6897850842
 30
0.0
 10
10.6204317234
 20
6.6974811421
 30
0.0
 10
10.6297353799
 20
6.7126657778
 30
0.0
 10
10.6403554153
 20
6.7269564207
 30
0.0
 10
10.6460207049
 20
6.7339481825
 30
0.0
  0
SPLINE
  5
2D1
100
AcDbEntity
  8
0
100
AcDbSpline
 62
7
  6
CONTINUOUS
 70
0
 71
3
 72
28
 73
24
 74
0
 42
0.0000001
 43
0.0000001
 44
0.0000000001
 40
0.0
 40
0.0
 40
0.0
 40
0.0
 40
0.0274403566
 40
0.0549852206
 40
0.0826565533
 40
0.1104755689
 40
0.1384626426
 40
0.1666372058
 40
0.2236109057
 40
0.2815411116
 40
0.3109061041
 40
0.3405513238
 40
0.4007164449
 40
0.4621183832
 40
0.4933040384
 40
0.5248165228
 40
0.5888263959
 40
0.654167229
 40
0.7208318346
 40
0.7887955118
 40
0.8580175605
 40
0.9284419478
 40
1.0
 40
1.0
 40
1.0
 40
1.0
 10
13.1858123295
 20
4.741122779
 30
0.0
 10
13.1836306253
 20
4.7262304919
 30
0.0
 10
13.178641263
 20
4.6964760111
 30
0.0
 10
13.1693139353
 20
4.6520958478
 30
0.0
 10
13.1581387902
 20
4.6079296162
 30
0.0
 10
13.1451259593
 20
4.564017047
 30
0.0
 10
13.1302865644
 20
4.5203955059
 30
0.0
 10
13.1080031679
 20
4.4624643907
 30
0.0
 10
13.0755693446
 20
4.390910082
 30
0.0
 10
13.0375421217
 20
4.3214272818
 30
0.0
 10
13.0037411287
 20
4.2668994925
 30
0.0
 10
12.9673383209
 20
4.2125902688
 30
0.0
 10
12.9175564716
 20
4.1461631564
 30
0.0
 10
12.8628861302
 20
4.0825875802
 30
0.0
 10
12.8160711027
 20
4.0331590346
 30
0.0
 10
12.7667051704
 20
3.9842233246
 30
0.0
 10
12.7011755406
 20
3.9250486946
 30
0.0
 10
12.61720906
 20
3.857803616
 30
0.0
 10
12.5277917131
 20
3.7941811622
 30
0.0
 10
12.4332366993
 20
3.7344022044
 30
0.0
 10
12.3338712612
 20
3.678671801
 30
0.0
 10
12.2300436587
 20
3.6271831671
 30
0.0
 10
12.1586254813
 20
3.5960371378
 30
0.0
 10
12.122286909
 20
3.5812019778
 30
0.0
  0
SPLINE
  5
2D2
100
AcDbEntity
  8
0
100
AcDbSpline
 62
7
  6
CONTINUOUS
 70
0
 71
3
 72
27
 73
23
 74
0
 42
0.0000001
 43
0.0000001
 44
0.0000000001
 40
0.0
 40
0.0
 40
0.0
 40
0.0
 40
0.0260058351
 40
0.0521266273
 40
0.0784128344
 40
0.104912483
 40
0.1316704712
 40
0.1587281047
 40
0.2138643859
 40
0.2420269237
 40
0.2706109893
 40
0.2996354033
 40
0.3291139903
 40
0.3894488617
 40
0.4516539127
 40
0.5156810912
 40
0.5814216724
 40
0.6487141769
 40
0.7173519759
 40
0.7870912012
 40
0.8576587664
 40
1.0
 40
1.0
 40
1.0
 40
1.0
 10
11.4529334243
 20
7.2182598976
 30
0.0
 10
11.4525747034
 20
7.2135990013
 30
0.0
 10
11.451551429
 20
7.2042772173
 30
0.0
 10
11.449111569
 20
7.1903855569
 30
0.0
 10
11.4457699072
 20
7.1765910164
 30
0.0
 10
11.4415343716
 20
7.1629248077
 30
0.0
 10
11.4364141601
 20
7.149416086
 30
0.0
 10
11.4283763048
 20
7.1315466869
 30
0.0
 10
11.4186352533
 20
7.1142058192
 30
0.0
 10
11.4073573063
 20
7.0975456033
 30
0.0
 10
11.3980311828
 20
7.0852584102
 30
0.0
 10
11.3879197965
 20
7.0732985123
 30
0.0
 10
11.3733106377
 20
7.0577028038
 30
0.0
 10
11.3531622198
 20
7.0391752203
 30
0.0
 10
11.3264507417
 20
7.0188258009
 30
0.0
 10
11.2972540196
 20
7.0003537179
 30
0.0
 10
11.2658344071
 20
6.9839151197
 30
0.0
 10
11.2324709999
 20
6.9696464392
 30
0.0
 10
11.1974617736
 20
6.9576662878
 30
0.0
 10
11.1611141629
 20
6.9480724778
 30
0.0
 10
11.1111805047
 20
6.9385429431
 30
0.0
 10
11.0728997484
 20
6.9352218531
 30
0.0
 10
11.0473183383
 20
6.9347087464
 30
0.0
  0
SPLINE
  5
2D3
100
AcDbEntity
  8
0
100
AcDbSpline
 62
7
  6
CONTINUOUS
 70
0
 71
3
 72
26
 73
22
 74
0
 42
0.0000001
 43
0.0000001
 44
0.0000000001
 40
0.0
 40
0.0
 40
0.0
 40
0.0
 40
0.0260017215
 40
0.0521235463
 40
0.0784153073
 40
0.1049243384
 40
0.1587432507
 40
0.2139145039
 40
0.2420954308
 40
0.2706978027
 40
0.2997399167
 40
0.3292351265
 40
0.3895985749
 40
0.4518237776
 40
0.515861091
 40
0.5816011515
 40
0.6488825868
 40
0.7174995519
 40
0.7872095346
 40
0.8577412003
 40
1.0
 40
1.0
 40
1.0
 40
1.0
 10
11.4528060085
 20
7.267944654
 30
0.0
 10
11.4524143156
 20
7.2633009148
 30
0.0
 10
11.4513271037
 20
7.2540146768
 30
0.0
 10
11.4487988068
 20
7.2401806199
 30
0.0
 10
11.4453754779
 20
7.2264458648
 30
0.0
 10
11.4396015708
 20
7.2082188371
 30
0.0
 10
11.4301332372
 20
7.18578663
 30
0.0
 10
11.4179558416
 20
7.1643650486
 30
0.0
 10
11.4066281857
 20
7.1477932736
 30
0.0
 10
11.3972721399
 20
7.1355739266
 30
0.0
 10
11.387138002
 20
7.1236812563
 30
0.0
 10
11.3725082586
 20
7.1081756165
 30
0.0
 10
11.352352486
 20
7.0897582894
 30
0.0
 10
11.3256578041
 20
7.0695329094
 30
0.0
 10
11.2965023383
 20
7.0511761291
 30
0.0
 10
11.2651462025
 20
7.0348420471
 30
0.0
 10
11.2318659682
 20
7.0206652716
 30
0.0
 10
11.1969567792
 20
7.008762821
 30
0.0
 10
11.1607230494
 20
6.999231174
 30
0.0
 10
11.1109567145
 20
6.9897627324
 30
0.0
 10
11.0728099128
 20
6.9864607221
 30
0.0
 10
11.0473183383
 20
6.9859484935
 30
0.0
  0
SPLINE
  5
2D4
100
AcDbEntity
  8
0
100
AcDbSpline
 62
7
  6
CONTINUOUS
 70
0
 71
3
 72
15
 73
11
 74
0
 42
0.0000001
 43
0.0000001
 44
0.0000000001
 40
0.0
 40
0.0
 40
0.0
 40
0.0
 40
0.1209597754
 40
0.2423316681
 40
0.3645178837
 40
0.4879017299
 40
0.6128395306
 40
0.7396535783
 40
0.8686268875
 40
1.0
 40
1.0
 40
1.0
 40
1.0
 10
10.5848183824
 20
6.6067205995
 30
0.0
 10
10.5848184138
 20
6.613102251
 30
0.0
 10
10.5853485882
 20
6.6258935809
 30
0.0
 10
10.5877307157
 20
6.6449976709
 30
0.0
 10
10.5916911321
 20
6.6639695229
 30
0.0
 10
10.5972154155
 20
6.6827415346
 30
0.0
 10
10.6042837088
 20
6.7012491289
 30
0.0
 10
10.6128709128
 20
6.7194287002
 30
0.0
 10
10.6229456614
 20
6.7372170449
 30
0.0
 10
10.630558104
 20
6.7486659748
 30
0.0
 10
10.6345899471
 20
6.7543036694
 30
0.0
  0
SPLINE
  5
2D5
100
AcDbEntity
  8
0
100
AcDbSpline
 62
9
  6
CONTINUOUS
 70
0
 71
3
 72
52
 73
48
 74
0
 42
0.0000001
 43
0.0000001
 44
0.0000000001
 40
0.0
 40
0.0
 40
0.0
 40
0.0
 40
0.0133202643
 40
0.0265143702
 40
0.0395963609
 40
0.0525813025
 40
0.0654851553
 40
0.0783246468
 40
0.0911171332
 40
0.1038804292
 40
0.1166326382
 40
0.1293919751
 40
0.1421765848
 40
0.1550043604
 40
0.1678927672
 40
0.1808586866
 40
0.1939182601
 40
0.2070867495
 40
0.2203784359
 40
0.2338065116
 40
0.2473829957
 40
0.261118696
 40
0.2890977017
 40
0.3178117235
 40
0.3324606946
 40
0.3473067526
 40
0.3623517831
 40
0.3775964754
 40
0.3930403895
 40
0.408681975
 40
0.4405420753
 40
0.4731492872
 40
0.5064567668
 40
0.5404050416
 40
0.5749237118
 40
0.6099330834
 40
0.6453457709
 40
0.6810682802
 40
0.7170025336
 40
0.753047373
 40
0.7891000537
 40
0.8250577176
 40
0.8608188716
 40
0.8962848736
 40
0.9313614568
 40
0.9659599706
 40
1.0
 40
1.0
 40
1.0
 40
1.0
 10
9.1502211942
 20
5.4535331714
 30
0.0
 10
9.1421926788
 20
5.4367129034
 30
0.0
 10
9.1270172262
 20
5.4028397427
 30
0.0
 10
9.106886781
 20
5.3511982337
 30
0.0
 10
9.0895316799
 20
5.2990512984
 30
0.0
 10
9.0749776841
 20
5.2464753798
 30
0.0
 10
9.0632459698
 20
5.1935455423
 30
0.0
 10
9.0543539939
 20
5.1403379756
 30
0.0
 10
9.0483145105
 20
5.0869292965
 30
0.0
 10
9.0451365029
 20
5.0333964264
 30
0.0
 10
9.0448248372
 20
4.9798165319
 30
0.0
 10
9.0473796736
 20
4.9262668651
 30
0.0
 10
9.0527973783
 20
4.8728246075
 30
0.0
 10
9.0610701429
 20
4.8195667957
 30
0.0
 10
9.0721855231
 20
4.7665700643
 30
0.0
 10
9.0861273636
 20
4.7139106564
 30
0.0
 10
9.1028753857
 20
4.6616642709
 30
0.0
 10
9.122404845
 20
4.6099057997
 30
0.0
 10
9.1446874955
 20
4.5587093876
 30
0.0
 10
9.169690844
 20
4.508148599
 30
0.0
 10
9.1973791141
 20
4.458294646
 30
0.0
 10
9.2380668479
 20
4.3924652229
 30
0.0
 10
9.2955940354
 20
4.312280316
 30
0.0
 10
9.3606622318
 20
4.236414448
 30
0.0
 10
9.4173784015
 20
4.177934371
 30
0.0
 10
9.4625322195
 20
4.1349546462
 30
0.0
 10
9.5099487759
 20
4.0932150675
 30
0.0
 10
9.5595608755
 20
4.0527738629
 30
0.0
 10
9.6112981285
 20
4.0136885238
 30
0.0
 10
9.6834512444
 20
3.9631518214
 30
0.0
 10
9.7786172736
 20
3.9037429761
 30
0.0
 10
9.8993319538
 20
3.8391632006
 30
0.0
 10
10.0265819766
 20
3.7812152881
 30
0.0
 10
10.1596390812
 20
3.7302282754
 30
0.0
 10
10.2977475051
 20
3.6864891627
 30
0.0
 10
10.4401212835
 20
3.6502452896
 30
0.0
 10
10.5859504659
 20
3.6217013718
 30
0.0
 10
10.7344053044
 20
3.6010190627
 30
0.0
 10
10.8846410195
 20
3.5883155778
 30
0.0
 10
11.0358025848
 20
3.5836627035
 30
0.0
 10
11.1870297026
 20
3.5870868774
 30
0.0
 10
11.3374616307
 20
3.5985688072
 30
0.0
 10
11.4862423851
 20
3.618043314
 30
0.0
 10
11.6325248574
 20
3.6453999287
 30
0.0
 10
11.7754781842
 20
3.6804847369
 30
0.0
 10
11.9142829221
 20
3.7230962366
 30
0.0
 10
12.0043394572
 20
3.7566648639
 30
0.0
 10
12.0484360611
 20
3.774667227
 30
0.0
  0
SPLINE
  5
2D6
100
AcDbEntity
  8
0
100
AcDbSpline
 62
9
  6
CONTINUOUS
 70
0
 71
3
 72
22
 73
18
 74
0
 42
0.0000001
 43
0.0000001
 44
0.0000000001
 40
0.0
 40
0.0
 40
0.0
 40
0.0
 40
0.0565490439
 40
0.1132766097
 40
0.1703572986
 40
0.2279580785
 40
0.2862349603
 40
0.345330198
 40
0.4053700898
 40
0.4664634006
 40
0.5287003788
 40
0.5921523046
 40
0.65687149
 40
0.7228916419
 40
0.7902285043
 40
0.8588807045
 40
1.0
 40
1.0
 40
1.0
 40
1.0
 10
9.1423183383
 20
5.1983375589
 30
0.0
 10
9.1423183383
 20
5.1730390193
 30
0.0
 10
9.1443410681
 20
5.1223390005
 30
0.0
 10
9.1534283173
 20
5.0465930416
 30
0.0
 10
9.1685396682
 20
4.9713320427
 30
0.0
 10
9.1896243984
 20
4.8968044422
 30
0.0
 10
9.2166121853
 20
4.8232473262
 30
0.0
 10
9.2494136785
 20
4.7508958405
 30
0.0
 10
9.2879211113
 20
4.6799797036
 30
0.0
 10
9.3320088972
 20
4.6107233753
 30
0.0
 10
9.381534237
 20
4.5433453075
 30
0.0
 10
9.4363375527
 20
4.4780575892
 30
0.0
 10
9.4962434565
 20
4.4150651593
 30
0.0
 10
9.5610595957
 20
4.3545664487
 30
0.0
 10
9.6305836737
 20
4.2967485527
 30
0.0
 10
9.7301508024
 20
4.2228151552
 30
0.0
 10
9.8099162978
 20
4.172960185
 30
0.0
 10
9.8650074229
 20
4.1421260074
 30
0.0
  0
SPLINE
  5
2D7
100
AcDbEntity
  8
0
100
AcDbSpline
 62
9
  6
CONTINUOUS
 70
0
 71
3
 72
23
 73
19
 74
0
 42
0.0000001
 43
0.0000001
 44
0.0000000001
 40
0.0
 40
0.0
 40
0.0
 40
0.0
 40
0.0584987298
 40
0.1182104117
 40
0.1790277387
 40
0.2408252095
 40
0.3034619267
 40
0.3667842949
 40
0.4306286416
 40
0.4948238079
 40
0.5591936918
 40
0.623559749
 40
0.6877434892
 40
0.7515689681
 40
0.8148652912
 40
0.8774692495
 40
0.9392272299
 40
1.0
 40
1.0
 40
1.0
 40
1.0
 10
9.8650074229
 20
4.1421260074
 30
0.0
 10
9.9025392165
 20
4.1211196841
 30
0.0
 10
9.9798018323
 20
4.0811629349
 30
0.0
 10
10.1003390128
 20
4.0280860101
 30
0.0
 10
10.226121892
 20
3.9815007637
 30
0.0
 10
10.3564479092
 20
3.9416664902
 30
0.0
 10
10.4905978232
 20
3.9088010894
 30
0.0
 10
10.6278288901
 20
3.8830857649
 30
0.0
 10
10.7673818115
 20
3.8646619735
 30
0.0
 10
10.9084841869
 20
3.8536311395
 30
0.0
 10
11.0503550388
 20
3.8500540943
 30
0.0
 10
11.1922090882
 20
3.8539506647
 30
0.0
 10
11.3332611121
 20
3.8652992305
 30
0.0
 10
11.4727305237
 20
3.8840372861
 30
0.0
 10
11.6098450285
 20
3.9100615193
 30
0.0
 10
11.74384719
 20
3.9432293722
 30
0.0
 10
11.8739899968
 20
3.9833555983
 30
0.0
 10
11.9584504395
 20
4.0148796949
 30
0.0
 10
11.9998183383
 20
4.0317680689
 30
0.0
  0
SPLINE
  5
2D8
100
AcDbEntity
  8
0
100
AcDbSpline
 62
9
  6
CONTINUOUS
 70
0
 71
3
 72
44
 73
40
 74
0
 42
0.0000001
 43
0.0000001
 44
0.0000000001
 40
0.0
 40
0.0
 40
0.0
 40
0.0
 40
0.0124257414
 40
0.0248647672
 40
0.0373302617
 40
0.0498352167
 40
0.062392325
 40
0.0750139131
 40
0.0877118298
 40
0.100497406
 40
0.1133813526
 40
0.126373736
 40
0.1394839043
 40
0.1527204626
 40
0.1795980109
 40
0.2070649216
 40
0.2351610715
 40
0.2639133184
 40
0.2933358812
 40
0.3234309456
 40
0.3541894237
 40
0.3855918066
 40
0.4176090693
 40
0.4502035952
 40
0.4833301029
 40
0.5169365617
 40
0.5509650906
 40
0.5853528382
 40
0.6200328435
 40
0.6549348796
 40
0.6899862834
 40
0.7251127745
 40
0.7602392651
 40
0.7952906686
 40
0.8301927024
 40
0.8648727121
 40
0.8992604428
 40
0.9332890265
 40
1.0
 40
1.0
 40
1.0
 40
1.0
 10
9.4273183827
 20
5.4611215783
 30
0.0
 10
9.4273184068
 20
5.4486248551
 30
0.0
 10
9.4278973698
 20
5.4236141874
 30
0.0
 10
9.4305019181
 20
5.3861484042
 30
0.0
 10
9.4348392768
 20
5.3487625483
 30
0.0
 10
9.4409053028
 20
5.3114980171
 30
0.0
 10
9.4486927479
 20
5.274394536
 30
0.0
 10
9.4581937162
 20
5.2374922296
 30
0.0
 10
9.4693972975
 20
5.2008305976
 30
0.0
 10
9.4822917497
 20
5.1644491771
 30
0.0
 10
9.4968627369
 20
5.1283868462
 30
0.0
 10
9.5130945476
 20
5.0926825117
 30
0.0
 10
9.5309699332
 20
5.0573738072
 30
0.0
 10
9.5570986001
 20
5.0106414054
 30
0.0
 10
9.5938571606
 20
4.9533792977
 30
0.0
 10
9.6439566677
 20
4.8872194851
 30
0.0
 10
9.7000570875
 20
4.8235333172
 30
0.0
 10
9.7619134937
 20
4.7625933024
 30
0.0
 10
9.829259703
 20
4.7046556628
 30
0.0
 10
9.9018063352
 20
4.6499651192
 30
0.0
 10
9.9792426672
 20
4.5987524446
 30
0.0
 10
10.0612375549
 20
4.5512339924
 30
0.0
 10
10.1474407538
 20
4.5076106779
 30
0.0
 10
10.2374842712
 20
4.4680671429
 30
0.0
 10
10.3309838472
 20
4.4327709278
 30
0.0
 10
10.4275405262
 20
4.4018717173
 30
0.0
 10
10.5267423144
 20
4.3755006578
 30
0.0
 10
10.628165911
 20
4.3537697568
 30
0.0
 10
10.7313785007
 20
4.3367713685
 30
0.0
 10
10.8359395955
 20
4.32457776
 30
0.0
 10
10.9414029249
 20
4.3172407894
 30
0.0
 10
11.0473183325
 20
4.3147916633
 30
0.0
 10
11.1532337685
 20
4.3172408097
 30
0.0
 10
11.2586970066
 20
4.3245777691
 30
0.0
 10
11.3632584202
 20
4.336771476
 30
0.0
 10
11.4664698231
 20
4.3537695157
 30
0.0
 10
11.5678977787
 20
4.3755017011
 30
0.0
 10
11.6992678053
 20
4.410423327
 30
0.0
 10
11.7952031623
 20
4.443719818
 30
0.0
 10
11.8573183383
 20
4.4690782324
 30
0.0
  0
SPLINE
  5
2D9
100
AcDbEntity
  8
0
100
AcDbSpline
 62
9
  6
CONTINUOUS
 70
0
 71
3
 72
22
 73
18
 74
0
 42
0.0000001
 43
0.0000001
 44
0.0000000001
 40
0.0
 40
0.0
 40
0.0
 40
0.0
 40
0.0565490379
 40
0.1132765977
 40
0.1703572804
 40
0.2279580541
 40
0.2862349294
 40
0.3453301604
 40
0.4053700451
 40
0.4664633487
 40
0.5287003193
 40
0.5921522372
 40
0.6568714142
 40
0.7228915584
 40
0.790228409
 40
0.8588806116
 40
1.0
 40
1.0
 40
1.0
 40
1.0
 10
12.9523183383
 20
5.1983375589
 30
0.0
 10
12.9523183383
 20
5.1730390219
 30
0.0
 10
12.9502956089
 20
5.1223390083
 30
0.0
 10
12.9412083616
 20
5.0465930569
 30
0.0
 10
12.9260970136
 20
4.9713320656
 30
0.0
 10
12.9050122877
 20
4.8968044724
 30
0.0
 10
12.8780245063
 20
4.8232473633
 30
0.0
 10
12.8452230196
 20
4.7508958843
 30
0.0
 10
12.8067155945
 20
4.6799797535
 30
0.0
 10
12.7626278172
 20
4.6107234309
 30
0.0
 10
12.7131024871
 20
4.5433453681
 30
0.0
 10
12.6582991818
 20
4.4780576545
 30
0.0
 10
12.5983932897
 20
4.4150652279
 30
0.0
 10
12.5335771624
 20
4.3545665224
 30
0.0
 10
12.4640530964
 20
4.2967486232
 30
0.0
 10
12.3644859382
 20
4.2228152016
 30
0.0
 10
12.2847204045
 20
4.1729602101
 30
0.0
 10
12.2296292377
 20
4.1421260216
 30
0.0
  0
SPLINE
  5
2DA
100
AcDbEntity
  8
0
100
AcDbSpline
 62
9
  6
CONTINUOUS
 70
0
 71
3
 72
9
 73
5
 74
0
 42
0.0000001
 43
0.0000001
 44
0.0000000001
 40
0.0
 40
0.0
 40
0.0
 40
0.0
 40
0.2462361349
 40
1.0
 40
1.0
 40
1.0
 40
1.0
 10
12.2296292377
 20
4.1421260216
 30
0.0
 10
12.2113633893
 20
4.1319027381
 30
0.0
 10
12.1365197554
 20
4.0915774463
 30
0.0
 10
12.0591415809
 20
4.0559866813
 30
0.0
 10
11.9998183383
 20
4.0317680689
 30
0.0
  0
SPLINE
  5
2DB
100
AcDbEntity
  8
0
100
AcDbSpline
 62
9
  6
CONTINUOUS
 70
0
 71
3
 72
29
 73
25
 74
0
 42
0.0000001
 43
0.0000001
 44
0.0000000001
 40
0.0
 40
0.0
 40
0.0
 40
0.0
 40
0.0276002716
 40
0.0552300487
 40
0.0829186243
 40
0.110694842
 40
0.1385869124
 40
0.1666221983
 40
0.194827032
 40
0.2232265752
 40
0.2518446177
 40
0.2807035283
 40
0.3098240562
 40
0.3392253332
 40
0.3989262067
 40
0.4599361825
 40
0.5223438368
 40
0.5862088259
 40
0.651562729
 40
0.7184104134
 40
0.7867316369
 40
0.8564832789
 40
0.9276002312
 40
1.0
 40
1.0
 40
1.0
 40
1.0
 10
12.9523183383
 20
5.3277726261
 30
0.0
 10
12.9523183383
 20
5.3130774054
 30
0.0
 10
12.9516372919
 20
5.283666721
 30
0.0
 10
12.9485748281
 20
5.2396097144
 30
0.0
 10
12.9434741527
 20
5.1956467473
 30
0.0
 10
12.936341169
 20
5.1518263847
 30
0.0
 10
12.9271835571
 20
5.1081954706
 30
0.0
 10
12.9160112109
 20
5.0648010705
 30
0.0
 10
12.9028366108
 20
5.0216897107
 30
0.0
 10
12.8876736581
 20
4.9789078688
 30
0.0
 10
12.8705393267
 20
4.936501208
 30
0.0
 10
12.8514518312
 20
4.8945155976
 30
0.0
 10
12.830431786
 20
4.8529951316
 30
0.0
 10
12.7997063225
 20
4.798041336
 30
0.0
 10
12.7564810274
 20
4.7307053101
 30
0.0
 10
12.6975677081
 20
4.6529062761
 30
0.0
 10
12.6315977702
 20
4.5780160613
 30
0.0
 10
12.5588592085
 20
4.5063551237
 30
0.0
 10
12.4796650659
 20
4.4382247496
 30
0.0
 10
12.3943555679
 20
4.3739127229
 30
0.0
 10
12.3032963264
 20
4.3136904053
 30
0.0
 10
12.2068758786
 20
4.2578120877
 30
0.0
 10
12.105509743
 20
4.2065151721
 30
0.0
 10
12.0355066944
 20
4.1757728465
 30
0.0
 10
11.9998183383
 20
4.1612031361
 30
0.0
  0
SPLINE
  5
2DC
100
AcDbEntity
  8
0
100
AcDbSpline
 62
9
  6
CONTINUOUS
 70
0
 71
3
 72
27
 73
23
 74
0
 42
0.0000001
 43
0.0000001
 44
0.0000000001
 40
0.0
 40
0.0
 40
0.0
 40
0.0
 40
0.0276009733
 40
0.0552314575
 40
0.082920736
 40
0.110697663
 40
0.1385904456
 40
0.1666264414
 40
0.1948320025
 40
0.2232322579
 40
0.2806975895
 40
0.3392084918
 40
0.3989108929
 40
0.4599224275
 40
0.5223316713
 40
0.5861982847
 40
0.6515538481
 40
0.7184032354
 40
0.7867261975
 40
0.8564796074
 40
0.9275984313
 40
1.0
 40
1.0
 40
1.0
 40
1.0
 10
12.6673182938
 20
5.4851550294
 30
0.0
 10
12.6673183179
 20
5.4726583071
 30
0.0
 10
12.6667392416
 20
5.4476476423
 30
0.0
 10
12.6641348326
 20
5.4101818497
 30
0.0
 10
12.6597972972
 20
5.3727960138
 30
0.0
 10
12.6537314924
 20
5.3355314532
 30
0.0
 10
12.6459437848
 20
5.2984279945
 30
0.0
 10
12.636443143
 20
5.2615257401
 30
0.0
 10
12.6252390628
 20
5.2248637264
 30
0.0
 10
12.6079816931
 20
5.1761702628
 30
0.0
 10
12.5821332965
 20
5.1160343856
 30
0.0
 10
12.5446629686
 20
5.0457730601
 30
0.0
 10
12.5007803045
 20
4.9774142684
 30
0.0
 10
12.450679745
 20
4.9112525381
 30
0.0
 10
12.3945796125
 20
4.8475669054
 30
0.0
 10
12.3327231323
 20
4.7866267405
 30
0.0
 10
12.2653769693
 20
4.7286891305
 30
0.0
 10
12.1928303136
 20
4.6739985705
 30
0.0
 10
12.1153941182
 20
4.6227858933
 30
0.0
 10
12.0333987603
 20
4.5752673089
 30
0.0
 10
11.9471976277
 20
4.531644751
 30
0.0
 10
11.8876674723
 20
4.5055016657
 30
0.0
 10
11.8573183383
 20
4.4931116836
 30
0.0
  0
SPLINE
  5
2DD
100
AcDbEntity
  8
0
100
AcDbSpline
 62
7
  6
CONTINUOUS
 70
0
 71
3
 72
23
 73
19
 74
0
 42
0.0000001
 43
0.0000001
 44
0.0000000001
 40
0.0
 40
0.0
 40
0.0
 40
0.0
 40
0.1171149221
 40
0.1475010802
 40
0.1782735076
 40
0.2408568709
 40
0.3046360843
 40
0.3693371442
 40
0.4346623416
 40
0.5002980388
 40
0.5659230229
 40
0.6312163219
 40
0.6958651227
 40
0.759573028
 40
0.8220679289
 40
0.8527904578
 40
0.8831234203
 40
1.0
 40
1.0
 40
1.0
 40
1.0
 10
10.7746075809
 20
7.1296541875
 30
0.0
 10
10.7930215998
 20
7.1165163518
 30
0.0
 10
10.8178710292
 20
7.102168195
 30
0.0
 10
10.8492722469
 20
7.0880471123
 30
0.0
 10
10.8714549171
 20
7.079130054
 30
0.0
 10
10.9002682058
 20
7.0694932155
 30
0.0
 10
10.936081211
 20
7.0604528946
 30
0.0
 10
10.9729793648
 20
7.0539579121
 30
0.0
 10
11.0106019997
 20
7.0500713227
 30
0.0
 10
11.0485826622
 20
7.0488306345
 30
0.0
 10
11.0865509957
 20
7.0502478913
 30
0.0
 10
11.1241367724
 20
7.0543093268
 30
0.0
 10
11.1609739035
 20
7.060975752
 30
0.0
 10
11.1967023149
 20
7.070182475
 30
0.0
 10
11.225427638
 20
7.0799538389
 30
0.0
 10
11.2475283624
 20
7.0889747695
 30
0.0
 10
11.2787921391
 20
7.1032393361
 30
0.0
 10
11.3035103726
 20
7.1177036718
 30
0.0
 10
11.321804622
 20
7.1309293561
 30
0.0
  0
SPLINE
  5
2DE
100
AcDbEntity
  8
0
100
AcDbSpline
 62
7
  6
CONTINUOUS
 70
0
 71
3
 72
21
 73
17
 74
0
 42
0.0000001
 43
0.0000001
 44
0.0000000001
 40
0.0
 40
0.0
 40
0.0
 40
0.0
 40
0.1157564538
 40
0.1762239087
 40
0.2381494536
 40
0.3013114085
 40
0.3654601558
 40
0.4303252215
 40
0.4956222909
 40
0.561059716
 40
0.6263453804
 40
0.6911929597
 40
0.755328878
 40
0.8184986097
 40
0.8804738264
 40
1.0
 40
1.0
 40
1.0
 40
1.0
 10
10.7805059561
 20
7.083099228
 30
0.0
 10
10.7983244176
 20
7.0713242925
 30
0.0
 10
10.8271492379
 20
7.0558541614
 30
0.0
 10
10.8680393153
 20
7.0397081984
 30
0.0
 10
10.9007705329
 20
7.0295509684
 30
0.0
 10
10.9348038908
 20
7.0216295824
 30
0.0
 10
10.969843029
 20
7.0160173835
 30
0.0
 10
11.0055744016
 20
7.0127714027
 30
0.0
 10
11.0416805083
 20
7.011926705
 30
0.0
 10
11.0778399683
 20
7.0134974853
 30
0.0
 10
11.1137309595
 20
7.0174764236
 30
0.0
 10
11.1490346795
 20
7.0238352434
 30
0.0
 10
11.1834355635
 20
7.0325236505
 30
0.0
 10
11.2166338064
 20
7.0434747777
 30
0.0
 10
11.2583659401
 20
7.0607493006
 30
0.0
 10
11.2878166126
 20
7.07709421
 30
0.0
 10
11.3060847254
 20
7.0894480029
 30
0.0
  0
SPLINE
  5
2DF
100
AcDbEntity
  8
0
100
AcDbSpline
 62
7
  6
CONTINUOUS
 70
0
 71
3
 72
21
 73
17
 74
0
 42
0.0000001
 43
0.0000001
 44
0.0000000001
 40
0.0
 40
0.0
 40
0.0
 40
0.0
 40
0.1167538243
 40
0.177388766
 40
0.2392883401
 40
0.3022594511
 40
0.3660891276
 40
0.4305492828
 40
0.4954016066
 40
0.5604023787
 40
0.6253068862
 40
0.6898743339
 40
0.7538722636
 40
0.8170813
 40
0.8793000136
 40
1.0
 40
1.0
 40
1.0
 40
1.0
 10
10.79721569
 20
7.0238271274
 30
0.0
 10
10.8142761976
 20
7.0137698058
 30
0.0
 10
10.8414745336
 20
7.0005603798
 30
0.0
 10
10.8796578171
 20
6.9867416487
 30
0.0
 10
10.9099306582
 20
6.9780611594
 30
0.0
 10
10.9412325845
 20
6.9712722048
 30
0.0
 10
10.9733335117
 20
6.9664284577
 30
0.0
 10
11.0059914021
 20
6.9635716663
 30
0.0
 10
11.0389616615
 20
6.9627281268
 30
0.0
 10
11.0719969346
 20
6.9639093073
 30
0.0
 10
11.1048494365
 20
6.967111492
 30
0.0
 10
11.1372731602
 20
6.9723160998
 30
0.0
 10
11.169023908
 20
6.9794889671
 30
0.0
 10
11.199868079
 20
6.9885837904
 30
0.0
 10
11.2390563869
 20
7.0030329659
 30
0.0
 10
11.267046644
 20
7.0167470246
 30
0.0
 10
11.2846832719
 20
7.027145135
 30
0.0
  0
SPLINE
  5
2E0
100
AcDbEntity
  8
0
100
AcDbSpline
 62
7
  6
CONTINUOUS
 70
0
 71
3
 72
19
 73
15
 74
0
 42
0.0000001
 43
0.0000001
 44
0.0000000001
 40
0.0
 40
0.0
 40
0.0
 40
0.0
 40
0.0579658395
 40
0.1160590309
 40
0.1744049347
 40
0.233125152
 40
0.2923356587
 40
0.3521453471
 40
0.4126546984
 40
0.4739546286
 40
0.5991876227
 40
0.7284133781
 40
0.8619634608
 40
1.0
 40
1.0
 40
1.0
 40
1.0
 10
11.6223183042
 20
6.6208627351
 30
0.0
 10
11.6223182733
 20
6.6144981967
 30
0.0
 10
11.6218946833
 20
6.6017510943
 30
0.0
 10
11.6199900814
 20
6.5826833747
 30
0.0
 10
11.6168209644
 20
6.5636999673
 30
0.0
 10
11.6123941707
 20
6.5448443464
 30
0.0
 10
11.606720061
 20
6.5261580568
 30
0.0
 10
11.5998117042
 20
6.5076827444
 30
0.0
 10
11.5916840927
 20
6.4894588168
 30
0.0
 10
11.5791608285
 20
6.4653826112
 30
0.0
 10
11.5604631851
 20
6.4360891097
 30
0.0
 10
11.5336783913
 20
6.4028581194
 30
0.0
 10
11.5026274372
 20
6.3715718966
 30
0.0
 10
11.4796385337
 20
6.3524994927
 30
0.0
 10
11.4675552138
 20
6.3433506016
 30
0.0
  0
SPLINE
  5
2E1
100
AcDbEntity
  8
0
100
AcDbSpline
 62
7
  6
CONTINUOUS
 70
0
 71
3
 72
36
 73
32
 74
0
 42
0.0000001
 43
0.0000001
 44
0.0000000001
 40
0.0
 40
0.0
 40
0.0
 40
0.0
 40
0.0248353436
 40
0.0498082844
 40
0.0750490809
 40
0.1006805462
 40
0.1268100144
 40
0.1535287225
 40
0.1809092339
 40
0.2090048461
 40
0.2378496549
 40
0.2674591757
 40
0.2978313684
 40
0.3289480957
 40
0.3607764801
 40
0.3932705083
 40
0.4263726289
 40
0.4600151813
 40
0.4941220264
 40
0.5286099716
 40
0.5983447876
 40
0.6334276849
 40
0.6685167332
 40
0.738300421
 40
0.77283029
 40
0.8069900272
 40
0.8406956207
 40
0.8738699219
 40
0.9064443456
 40
0.9383593218
 40
1.0
 40
1.0
 40
1.0
 40
1.0
 10
10.6410683386
 20
7.3116695084
 30
0.0
 10
10.6410683515
 20
7.3045253632
 30
0.0
 10
10.641826766
 20
7.2901861159
 30
0.0
 10
10.6452291045
 20
7.2688294746
 30
0.0
 10
10.6508767649
 20
7.2477156373
 30
0.0
 10
10.6587348858
 20
7.2269674629
 30
0.0
 10
10.6687569369
 20
7.2067003784
 30
0.0
 10
10.6808838604
 20
7.1870272488
 30
0.0
 10
10.6950456674
 20
7.168056446
 30
0.0
 10
10.7111615779
 20
7.1498919572
 30
0.0
 10
10.7291406499
 20
7.1326330042
 30
0.0
 10
10.7488821492
 20
7.1163737143
 30
0.0
 10
10.7702760395
 20
7.1012027431
 30
0.0
 10
10.7932034774
 20
7.0872029048
 30
0.0
 10
10.8175373598
 20
7.0744506943
 30
0.0
 10
10.8431429258
 20
7.0630159294
 30
0.0
 10
10.8698785544
 20
7.0529612683
 30
0.0
 10
10.8975959598
 20
7.0443419903
 30
0.0
 10
10.926143153
 20
7.0372052025
 30
0.0
 10
10.965235095
 20
7.0296929133
 30
0.0
 10
11.0051620375
 20
7.0253388586
 30
0.0
 10
11.0454047423
 20
7.0241447496
 30
0.0
 10
11.0856685942
 20
7.0250711183
 30
0.0
 10
11.1256513619
 20
7.0291603201
 30
0.0
 10
11.164834663
 20
7.0364108646
 30
0.0
 10
11.193475385
 20
7.0433572876
 30
0.0
 10
11.2213062235
 20
7.0517917304
 30
0.0
 10
11.248173756
 20
7.0616675144
 30
0.0
 10
11.2739319799
 20
7.0729323756
 30
0.0
 10
11.3062164643
 20
7.0895193313
 30
0.0
 10
11.3289514974
 20
7.1041247519
 30
0.0
 10
11.3431286757
 20
7.1147744769
 30
0.0
  0
SPLINE
  5
2E2
100
AcDbEntity
  8
0
100
AcDbSpline
 62
9
  6
CONTINUOUS
 70
0
 71
3
 72
26
 73
22
 74
0
 42
0.0000001
 43
0.0000001
 44
0.0000000001
 40
0.0
 40
0.0
 40
0.0
 40
0.0
 40
0.0257136465
 40
0.0514890254
 40
0.0773868056
 40
0.1034656774
 40
0.1297813695
 40
0.1563858627
 40
0.1833268066
 40
0.2106467923
 40
0.2665437939
 40
0.3243344405
 40
0.3841589246
 40
0.4460694498
 40
0.5100368905
 40
0.5759594233
 40
0.6436719984
 40
0.7129560445
 40
0.783548896
 40
0.8551537028
 40
1.0
 40
1.0
 40
1.0
 40
1.0
 10
11.4535682832
 20
8.1198041144
 30
0.0
 10
11.4535682832
 20
8.1151028564
 30
0.0
 10
11.4532410945
 20
8.1056857897
 30
0.0
 10
11.4517700623
 20
8.0916029687
 30
0.0
 10
11.4493226923
 20
8.0775883042
 30
0.0
 10
11.4459049759
 20
8.0636768624
 30
0.0
 10
11.4415254017
 20
8.0499022313
 30
0.0
 10
11.4361952789
 20
8.036297874
 30
0.0
 10
11.4299270804
 20
8.0228964068
 30
0.0
 10
11.42026915
 20
8.0052103557
 30
0.0
 10
11.4058594593
 20
7.983753804
 30
0.0
 10
11.3852608467
 20
7.9595466406
 30
0.0
 10
11.3614227621
 20
7.9368995726
 30
0.0
 10
11.3345792528
 20
7.9160267136
 30
0.0
 10
11.3049889004
 20
7.8971216908
 30
0.0
 10
11.2729357669
 20
7.8803614101
 30
0.0
 10
11.2387261659
 20
7.8659028835
 30
0.0
 10
11.2026881376
 20
7.8538822734
 30
0.0
 10
11.1651616386
 20
7.8444123554
 30
0.0
 10
11.1134512875
 20
7.8352754635
 30
0.0
 10
11.073800767
 20
7.8325419845
 30
0.0
 10
11.0473183383
 20
7.8325419845
 30
0.0
  0
SPLINE
  5
2E3
100
AcDbEntity
  8
0
100
AcDbSpline
 62
7
  6
CONTINUOUS
 70
0
 71
3
 72
18
 73
14
 74
0
 42
0.0000001
 43
0.0000001
 44
0.0000000001
 40
0.0
 40
0.0
 40
0.0
 40
0.0
 40
0.1364726914
 40
0.2715272505
 40
0.4040512076
 40
0.5330297792
 40
0.5959361481
 40
0.6576502066
 40
0.7771699011
 40
0.8349338829
 40
0.8913184584
 40
0.9463324377
 40
1.0
 40
1.0
 40
1.0
 40
1.0
 10
11.0473183383
 20
6.8833389507
 30
0.0
 10
11.0296279868
 20
6.8829850924
 30
0.0
 10
10.9943766383
 20
6.8839047442
 30
0.0
 10
10.942288549
 20
6.890142124
 30
0.0
 10
10.8919762331
 20
6.9011102882
 30
0.0
 10
10.8518995887
 20
6.9141377313
 30
0.0
 10
10.8215289749
 20
6.9267744165
 30
0.0
 10
10.79300528
 20
6.9405233278
 30
0.0
 10
10.7662516979
 20
6.9563300235
 30
0.0
 10
10.7417183334
 20
6.974132859
 30
0.0
 10
10.7248291101
 20
6.9881517269
 30
0.0
 10
10.7093207196
 20
7.0029230609
 30
0.0
 10
10.6998293381
 20
7.0133580233
 30
0.0
 10
10.6953467171
 20
7.0186797703
 30
0.0
  0
SPLINE
  5
2E4
100
AcDbEntity
  8
0
100
AcDbSpline
 62
7
  6
CONTINUOUS
 70
0
 71
3
 72
27
 73
23
 74
0
 42
0.0000001
 43
0.0000001
 44
0.0000000001
 40
0.0
 40
0.0
 40
0.0
 40
0.0
 40
0.1455762241
 40
0.2174501252
 40
0.2882754166
 40
0.3577695843
 40
0.4256795918
 40
0.491790423
 40
0.5559336846
 40
0.6179961522
 40
0.6779288791
 40
0.7071104772
 40
0.7357751633
 40
0.7639383808
 40
0.7916211507
 40
0.8456316015
 40
0.8720520469
 40
0.8981291011
 40
0.9239095781
 40
0.9494445515
 40
0.9747887946
 40
1.0
 40
1.0
 40
1.0
 40
1.0
 10
11.0473183383
 20
6.9347087464
 30
0.0
 10
11.0218201362
 20
6.9341973088
 30
0.0
 10
10.9836137734
 20
6.9359639747
 30
0.0
 10
10.9336386431
 20
6.9434316659
 30
0.0
 10
10.8973106084
 20
6.9514718586
 30
0.0
 10
10.8623187773
 20
6.9618952542
 30
0.0
 10
10.8289698975
 20
6.9746039514
 30
0.0
 10
10.7975611353
 20
6.9894795443
 30
0.0
 10
10.768370704
 20
7.006385902
 30
0.0
 10
10.7416602152
 20
7.0251674228
 30
0.0
 10
10.721484714
 20
7.0423962311
 30
0.0
 10
10.7068542167
 20
7.0569570651
 30
0.0
 10
10.6967383239
 20
7.0681340827
 30
0.0
 10
10.6874063155
 20
7.0796384655
 30
0.0
 10
10.6761318575
 20
7.0952446484
 30
0.0
 10
10.6663743154
 20
7.1115411429
 30
0.0
 10
10.6583131714
 20
7.1283797749
 30
0.0
 10
10.6531808186
 20
7.1411071836
 30
0.0
 10
10.6489320871
 20
7.1539926272
 30
0.0
 10
10.6455762122
 20
7.1670069797
 30
0.0
 10
10.6431212609
 20
7.1801190153
 30
0.0
 10
10.6420870133
 20
7.1889234154
 30
0.0
 10
10.6417228928
 20
7.1933251026
 30
0.0
  0
SPLINE
  5
2E5
100
AcDbEntity
  8
0
100
AcDbSpline
 62
7
  6
CONTINUOUS
 70
0
 71
3
 72
25
 73
21
 74
0
 42
0.0000001
 43
0.0000001
 44
0.0000000001
 40
0.0
 40
0.0
 40
0.0
 40
0.0
 40
0.1454856072
 40
0.2173204719
 40
0.288114171
 40
0.3575860661
 40
0.4254845753
 40
0.4915955424
 40
0.5557507348
 40
0.6178362665
 40
0.6778015192
 40
0.7356673964
 40
0.7915337312
 40
0.8455843543
 40
0.8720221739
 40
0.8981138652
 40
0.9239054207
 40
0.9494471436
 40
0.9747930092
 40
1.0
 40
1.0
 40
1.0
 40
1.0
 10
11.0473183383
 20
6.9859484935
 30
0.0
 10
11.0219103767
 20
6.985437945
 30
0.0
 10
10.9838388217
 20
6.9871881717
 30
0.0
 10
10.934032816
 20
6.9945979117
 30
0.0
 10
10.8978196364
 20
7.0025782478
 30
0.0
 10
10.8629287034
 20
7.0129261942
 30
0.0
 10
10.829663765
 20
7.0255451676
 30
0.0
 10
10.7983190002
 20
7.0403185232
 30
0.0
 10
10.7691706042
 20
7.0571114687
 30
0.0
 10
10.7424761077
 20
7.0757722718
 30
0.0
 10
10.7184723919
 20
7.0961333402
 30
0.0
 10
10.6973736821
 20
7.1180138747
 30
0.0
 10
10.6793724523
 20
7.1412159861
 30
0.0
 10
10.6669966329
 20
7.1616388352
 30
0.0
 10
10.6588544357
 20
7.1783925005
 30
0.0
 10
10.6536547755
 20
7.1910571628
 30
0.0
 10
10.6493313435
 20
7.2038818726
 30
0.0
 10
10.6458933953
 20
7.2168376151
 30
0.0
 10
10.6433493286
 20
7.2298936441
 30
0.0
 10
10.6422506458
 20
7.2386636375
 30
0.0
 10
10.6418533021
 20
7.2430487714
 30
0.0
  0
SPLINE
  5
2E6
100
AcDbEntity
  8
0
100
AcDbSpline
 62
9
  6
CONTINUOUS
 70
0
 71
3
 72
26
 73
22
 74
0
 42
0.0000001
 43
0.0000001
 44
0.0000000001
 40
0.0
 40
0.0
 40
0.0
 40
0.0
 40
0.1448462972
 40
0.216451104
 40
0.2870439555
 40
0.3563280016
 40
0.4240405767
 40
0.4899631095
 40
0.5539305502
 40
0.6158410754
 40
0.6756655595
 40
0.7334562061
 40
0.7893532077
 40
0.8166731934
 40
0.8436141373
 40
0.8702186305
 40
0.8965343226
 40
0.9226131944
 40
0.9485109746
 40
0.9742863535
 40
1.0
 40
1.0
 40
1.0
 40
1.0
 10
11.0473183383
 20
7.8325419845
 30
0.0
 10
11.0208359096
 20
7.8325419845
 30
0.0
 10
10.9811853891
 20
7.8352754635
 30
0.0
 10
10.9294750379
 20
7.8444123554
 30
0.0
 10
10.891948539
 20
7.8538822734
 30
0.0
 10
10.8559105107
 20
7.8659028835
 30
0.0
 10
10.8217009097
 20
7.8803614101
 30
0.0
 10
10.7896477762
 20
7.8971216908
 30
0.0
 10
10.7600574238
 20
7.9160267136
 30
0.0
 10
10.7332139145
 20
7.9368995726
 30
0.0
 10
10.7093758298
 20
7.9595466406
 30
0.0
 10
10.6887772173
 20
7.983753804
 30
0.0
 10
10.6743675266
 20
8.0052103557
 30
0.0
 10
10.6647095961
 20
8.0228964068
 30
0.0
 10
10.6584413977
 20
8.036297874
 30
0.0
 10
10.6531112749
 20
8.0499022313
 30
0.0
 10
10.6487317007
 20
8.0636768624
 30
0.0
 10
10.6453139842
 20
8.0775883042
 30
0.0
 10
10.6428666142
 20
8.0916029687
 30
0.0
 10
10.6413955821
 20
8.1056857897
 30
0.0
 10
10.6410683934
 20
8.1151028564
 30
0.0
 10
10.6410683934
 20
8.1198041144
 30
0.0
  0
SPLINE
  5
2E7
100
AcDbEntity
  8
0
100
AcDbSpline
 62
7
  6
CONTINUOUS
 70
0
 71
3
 72
27
 73
23
 74
0
 42
0.0000001
 43
0.0000001
 44
0.0000000001
 40
0.0
 40
0.0
 40
0.0
 40
0.0
 40
0.0260143864
 40
0.0521385801
 40
0.0784235857
 40
0.1049180582
 40
0.1316675255
 40
0.1587139737
 40
0.2138221938
 40
0.2419693286
 40
0.2705377682
 40
0.299546857
 40
0.3290108555
 40
0.3893201408
 40
0.4515066948
 40
0.5155240544
 40
0.5812642686
 40
0.6485658682
 40
0.7172215829
 40
0.7869863913
 40
0.8575856187
 40
1.0
 40
1.0
 40
1.0
 40
1.0
 10
11.453045952
 20
7.1684528007
 30
0.0
 10
11.4527194637
 20
7.1637744242
 30
0.0
 10
11.4517587053
 20
7.1544164672
 30
0.0
 10
11.449405454
 20
7.1404664121
 30
0.0
 10
11.446143628
 20
7.1266110159
 30
0.0
 10
11.4419808
 20
7.112881908
 30
0.0
 10
11.4369262729
 20
7.0993085185
 30
0.0
 10
11.4289670867
 20
7.0813511926
 30
0.0
 10
11.4192892838
 20
7.0639196802
 30
0.0
 10
11.4080599646
 20
7.0471692262
 30
0.0
 10
11.3987635398
 20
7.0348139789
 30
0.0
 10
11.3886747733
 20
7.0227863889
 30
0.0
 10
11.3740863781
 20
7.0071002434
 30
0.0
 10
11.3539459834
 20
6.9884619563
 30
0.0
 10
11.3272189839
 20
6.9679879844
 30
0.0
 10
11.2979828398
 20
6.9494001959
 30
0.0
 10
11.2665020844
 20
6.9328568014
 30
0.0
 10
11.2330582729
 20
6.9184960485
 30
0.0
 10
11.1979521363
 20
6.9064381609
 30
0.0
 10
11.1614940604
 20
6.896782292
 30
0.0
 10
11.1113980128
 20
6.8871920345
 30
0.0
 10
11.0729870185
 20
6.8838523987
 30
0.0
 10
11.0473183383
 20
6.8833389507
 30
0.0
  0
SPLINE
  5
2E8
100
AcDbEntity
  8
0
100
AcDbSpline
 62
7
  6
CONTINUOUS
 70
0
 71
3
 72
15
 73
11
 74
0
 42
0.0000001
 43
0.0000001
 44
0.0000000001
 40
0.0
 40
0.0
 40
0.0
 40
0.0
 40
0.1266648219
 40
0.2528755415
 40
0.3786041835
 40
0.5038355503
 40
0.6285652362
 40
0.7528071495
 40
0.876597683
 40
1.0
 40
1.0
 40
1.0
 40
1.0
 10
10.3908183383
 20
10.1662964391
 30
0.0
 10
10.4006687423
 20
10.160625679
 30
0.0
 10
10.4205030689
 20
10.1495942481
 30
0.0
 10
10.4507215533
 20
10.1340545383
 30
0.0
 10
10.4813743105
 20
10.1196857074
 30
0.0
 10
10.5124703457
 20
10.1066379764
 30
0.0
 10
10.5440054016
 20
10.095065636
 30
0.0
 10
10.575962501
 20
10.0851331436
 30
0.0
 10
10.6083035908
 20
10.0770030039
 30
0.0
 10
10.6301153146
 20
10.0728793442
 30
0.0
 10
10.641055467
 20
10.0711671048
 30
0.0
  0
SPLINE
  5
2E9
100
AcDbEntity
  8
0
100
AcDbSpline
 62
7
  6
CONTINUOUS
 70
0
 71
3
 72
15
 73
11
 74
0
 42
0.0000001
 43
0.0000001
 44
0.0000000001
 40
0.0
 40
0.0
 40
0.0
 40
0.0
 40
0.1234023169
 40
0.2471928505
 40
0.3714347638
 40
0.4961644497
 40
0.6213958165
 40
0.7471244583
 40
0.8733351788
 40
1.0
 40
1.0
 40
1.0
 40
1.0
 10
11.4535812104
 20
10.0711671049
 30
0.0
 10
11.4645213628
 20
10.0728793443
 30
0.0
 10
11.4863330865
 20
10.0770030041
 30
0.0
 10
11.5186741762
 20
10.0851331438
 30
0.0
 10
11.5506312754
 20
10.0950656364
 30
0.0
 10
11.5821663315
 20
10.1066379761
 30
0.0
 10
11.6132623659
 20
10.1196857086
 30
0.0
 10
11.6439151245
 20
10.1340545365
 30
0.0
 10
11.6741336075
 20
10.1495942493
 30
0.0
 10
11.6939679304
 20
10.1606256862
 30
0.0
 10
11.7038183383
 20
10.1662964394
 30
0.0
  0
SPLINE
  5
2EA
100
AcDbEntity
  8
0
100
AcDbSpline
 62
7
  6
CONTINUOUS
 70
0
 71
3
 72
23
 73
19
 74
0
 42
0.0000001
 43
0.0000001
 44
0.0000000001
 40
0.0
 40
0.0
 40
0.0
 40
0.0
 40
0.0491239994
 40
0.0755445488
 40
0.1031231481
 40
0.13175873
 40
0.1613265093
 40
0.2227110138
 40
0.286310107
 40
0.3513069147
 40
0.417090032
 40
0.4832202358
 40
0.5493831564
 40
0.6153516507
 40
0.6809658979
 40
0.7460987112
 40
0.8745232315
 40
1.0
 40
1.0
 40
1.0
 40
1.0
 10
11.3727462656
 20
6.6869512803
 30
0.0
 10
11.3727462656
 20
6.684441471
 30
0.0
 10
11.3722592279
 20
6.6805733127
 30
0.0
 10
11.3708805243
 20
6.6754857212
 30
0.0
 10
11.3694369575
 20
6.6715125916
 30
0.0
 10
11.3676394713
 20
6.6675118551
 30
0.0
 10
11.3647763865
 20
6.6621102182
 30
0.0
 10
11.3604787284
 20
6.6554673325
 30
0.0
 10
11.3544825107
 20
6.6478218376
 30
0.0
 10
11.3477827434
 20
6.6404804383
 30
0.0
 10
11.3405430522
 20
6.6334867577
 30
0.0
 10
11.3328894272
 20
6.6268591706
 30
0.0
 10
11.3249187629
 20
6.6206025579
 30
0.0
 10
11.3167057687
 20
6.6147138038
 30
0.0
 10
11.3083076917
 20
6.6091878732
 30
0.0
 10
11.2969784237
 20
6.6023285215
 30
0.0
 10
11.2825931997
 20
6.5946346337
 30
0.0
 10
11.2707535599
 20
6.5893051206
 30
0.0
 10
11.2648183383
 20
6.5868820766
 30
0.0
  0
SPLINE
  5
2EB
100
AcDbEntity
  8
0
100
AcDbSpline
 62
7
  6
CONTINUOUS
 70
0
 71
3
 72
27
 73
23
 74
0
 42
0.0000001
 43
0.0000001
 44
0.0000000001
 40
0.0
 40
0.0
 40
0.0
 40
0.0
 40
0.150036973
 40
0.2231569823
 40
0.2948235031
 40
0.3648876579
 40
0.4331643824
 40
0.4994389175
 40
0.563479597
 40
0.6250278685
 40
0.6838419369
 40
0.7397636279
 40
0.7666702618
 40
0.7929113868
 40
0.8185764775
 40
0.8437983271
 40
0.8687741846
 40
0.8937582817
 40
0.919053496
 40
0.9449892246
 40
0.9718883547
 40
1.0
 40
1.0
 40
1.0
 40
1.0
 10
11.2648183383
 20
6.5868820766
 30
0.0
 10
11.2590516915
 20
6.5845278529
 30
0.0
 10
11.2503493368
 20
6.5813186508
 30
0.0
 10
11.2386378273
 20
6.5777545498
 30
0.0
 10
11.2300017709
 20
6.5755126295
 30
0.0
 10
11.2214695218
 20
6.5737052288
 30
0.0
 10
11.2130769402
 20
6.5723670833
 30
0.0
 10
11.2048686687
 20
6.5715411305
 30
0.0
 10
11.1969008871
 20
6.5712785741
 30
0.0
 10
11.1892439315
 20
6.5716435981
 30
0.0
 10
11.1819903151
 20
6.57271153
 30
0.0
 10
11.1763015837
 20
6.5742846067
 30
0.0
 10
11.1721089798
 20
6.5760079425
 30
0.0
 10
11.1692025254
 20
6.5775214494
 30
0.0
 10
11.1665219903
 20
6.5792839679
 30
0.0
 10
11.1640981924
 20
6.5813066691
 30
0.0
 10
11.1619649136
 20
6.5835971324
 30
0.0
 10
11.1601583061
 20
6.5861583367
 30
0.0
 10
11.1587128569
 20
6.5889850162
 30
0.0
 10
11.1576604473
 20
6.5920647255
 30
0.0
 10
11.1570247666
 20
6.5953746195
 30
0.0
 10
11.1568904109
 20
6.5976614594
 30
0.0
 10
11.1568904109
 20
6.5988284967
 30
0.0
  0
SPLINE
  5
2EC
100
AcDbEntity
  8
0
100
AcDbSpline
 62
9
  6
CONTINUOUS
 70
0
 71
3
 72
19
 73
15
 74
0
 42
0.0000001
 43
0.0000001
 44
0.0000000001
 40
0.0
 40
0.0
 40
0.0
 40
0.0
 40
0.1384143428
 40
0.2722443968
 40
0.4016332069
 40
0.5269031027
 40
0.588175775
 40
0.6486284973
 40
0.7083546212
 40
0.7674578
 40
0.8260506295
 40
0.8842536228
 40
0.9421931948
 40
1.0
 40
1.0
 40
1.0
 40
1.0
 10
11.3727462656
 20
6.6869512803
 30
0.0
 10
11.3826423184
 20
6.6941940903
 30
0.0
 10
11.4014795037
 20
6.7093265409
 30
0.0
 10
11.4269553619
 20
6.7342546414
 30
0.0
 10
11.4489508863
 20
6.7608147043
 30
0.0
 10
11.464320904
 20
6.784290726
 30
0.0
 10
11.4746191125
 20
6.8036126608
 30
0.0
 10
11.4813025151
 20
6.8182457388
 30
0.0
 10
11.48698463
 20
6.8330902199
 30
0.0
 10
11.4916525041
 20
6.8481122001
 30
0.0
 10
11.4952945183
 20
6.8632767568
 30
0.0
 10
11.4979024873
 20
6.8785487917
 30
0.0
 10
11.4994695564
 20
6.8938918735
 30
0.0
 10
11.4998183456
 20
6.9041502753
 30
0.0
 10
11.4998183119
 20
6.909271898
 30
0.0
  0
SPLINE
  5
2ED
100
AcDbEntity
  8
0
100
AcDbSpline
 62
7
  6
CONTINUOUS
 70
0
 71
3
 72
21
 73
17
 74
0
 42
0.0000001
 43
0.0000001
 44
0.0000000001
 40
0.0
 40
0.0
 40
0.0
 40
0.0
 40
0.1434934773
 40
0.2132580234
 40
0.2815937145
 40
0.4137535613
 40
0.4776316462
 40
0.5400521012
 40
0.6010746384
 40
0.6607877724
 40
0.719309177
 40
0.7767848291
 40
0.8333871173
 40
0.8893117533
 40
0.944773377
 40
1.0
 40
1.0
 40
1.0
 40
1.0
 10
11.2735683383
 20
6.8599521582
 30
0.0
 10
11.2903662758
 20
6.8668098875
 30
0.0
 10
11.3148341658
 20
6.8783113186
 30
0.0
 10
11.3456545604
 20
6.896173362
 30
0.0
 10
11.3741703051
 20
6.9150313689
 30
0.0
 10
11.4003406638
 20
6.9360076962
 30
0.0
 10
11.4236361443
 20
6.9589585184
 30
0.0
 10
11.4393067305
 20
6.9767477956
 30
0.0
 10
11.4533007499
 20
6.9952280401
 30
0.0
 10
11.4655580892
 20
7.014321934
 30
0.0
 10
11.4760244939
 20
7.0339480882
 30
0.0
 10
11.4846535326
 20
7.0540227531
 30
0.0
 10
11.4914063679
 20
7.0744594696
 30
0.0
 10
11.4962522289
 20
7.0951704711
 30
0.0
 10
11.4991687694
 20
7.1160632084
 30
0.0
 10
11.4998182607
 20
7.1300676268
 30
0.0
 10
11.4998182951
 20
7.1370506854
 30
0.0
  0
SPLINE
  5
2EE
100
AcDbEntity
  8
0
100
AcDbSpline
 62
7
  6
CONTINUOUS
 70
0
 71
3
 72
31
 73
27
 74
0
 42
0.0000001
 43
0.0000001
 44
0.0000000001
 40
0.0
 40
0.0
 40
0.0
 40
0.0
 40
0.0667240908
 40
0.1007584781
 40
0.1351529009
 40
0.2047287171
 40
0.2749010117
 40
0.3450733166
 40
0.4146491549
 40
0.4830580088
 40
0.5166708366
 40
0.5498036022
 40
0.6144034283
 40
0.6458117609
 40
0.676576064
 40
0.7360739637
 40
0.764831663
 40
0.7929331386
 40
0.8204052414
 40
0.8472878712
 40
0.873634
 40
0.8995093399
 40
0.9249914967
 40
0.9501685545
 40
0.9751371699
 40
1.0
 40
1.0
 40
1.0
 40
1.0
 10
11.2735683383
 20
6.8599521582
 30
0.0
 10
11.2562181393
 20
6.8528689691
 30
0.0
 10
11.2294216588
 20
6.8435685825
 30
0.0
 10
11.1927265936
 20
6.833814231
 30
0.0
 10
11.15481253
 20
6.8256906405
 30
0.0
 10
11.1062968925
 20
6.8188966335
 30
0.0
 10
11.0473189259
 20
6.8161750952
 30
0.0
 10
10.988337443
 20
6.8188969081
 30
0.0
 10
10.9303558454
 20
6.8270164859
 30
0.0
 10
10.883398851
 20
6.8382367432
 30
0.0
 10
10.8472306343
 20
6.8498109409
 30
0.0
 10
10.8127066932
 20
6.8628437617
 30
0.0
 10
10.7798038347
 20
6.8783108922
 30
0.0
 10
10.7489819174
 20
6.8961733108
 30
0.0
 10
10.7204664976
 20
6.9150313946
 30
0.0
 10
10.694296026
 20
6.9360077245
 30
0.0
 10
10.671000512
 20
6.9589585004
 30
0.0
 10
10.6553298984
 20
6.9767477632
 30
0.0
 10
10.6413359418
 20
6.9952280493
 30
0.0
 10
10.6290786421
 20
7.0143219574
 30
0.0
 10
10.6186121956
 20
7.033948089
 30
0.0
 10
10.6099831006
 20
7.0540227381
 30
0.0
 10
10.6032302618
 20
7.0744594578
 30
0.0
 10
10.5983844722
 20
7.0951704778
 30
0.0
 10
10.5954680052
 20
7.1160632109
 30
0.0
 10
10.5948183471
 20
7.1300676257
 30
0.0
 10
10.5948183815
 20
7.1370506854
 30
0.0
  0
SPLINE
  5
2EF
100
AcDbEntity
  8
0
100
AcDbSpline
 62
9
  6
CONTINUOUS
 70
0
 71
3
 72
26
 73
22
 74
0
 42
0.0000001
 43
0.0000001
 44
0.0000000001
 40
0.0
 40
0.0
 40
0.0
 40
0.0
 40
0.0656145452
 40
0.1327974107
 40
0.2011188314
 40
0.2701018963
 40
0.3392457782
 40
0.4080436932
 40
0.4760016813
 40
0.5426575466
 40
0.6076003299
 40
0.6704905598
 40
0.7310809986
 40
0.7892382869
 40
0.844963513
 40
0.871972362
 40
0.8984442553
 40
0.9244237896
 40
0.9499655043
 40
0.9751333996
 40
1.0
 40
1.0
 40
1.0
 40
1.0
 10
11.2201279562
 20
6.4869480864
 30
0.0
 10
11.2078603536
 20
6.4819398586
 30
0.0
 10
11.1825146461
 20
6.4730304327
 30
0.0
 10
11.1430658648
 20
6.4631500961
 30
0.0
 10
11.102222392
 20
6.4567046553
 30
0.0
 10
11.0605820342
 20
6.4537887174
 30
0.0
 10
11.0187486635
 20
6.4544433602
 30
0.0
 10
10.9773305349
 20
6.4586596267
 30
0.0
 10
10.9369292723
 20
6.4663767322
 30
0.0
 10
10.8981316095
 20
6.4774842047
 30
0.0
 10
10.8615006834
 20
6.4918238042
 30
0.0
 10
10.8275683665
 20
6.5091913798
 30
0.0
 10
10.7968273346
 20
6.5293434736
 30
0.0
 10
10.7697300382
 20
6.5519931609
 30
0.0
 10
10.7503110892
 20
6.5729138095
 30
0.0
 10
10.737063651
 20
6.5905650906
 30
0.0
 10
10.72836875
 20
6.6040694302
 30
0.0
 10
10.7208467474
 20
6.6179245794
 30
0.0
 10
10.7145257578
 20
6.6320806985
 30
0.0
 10
10.7094304907
 20
6.6464841028
 30
0.0
 10
10.7068501581
 20
6.6562675377
 30
0.0
 10
10.7057752479
 20
6.6611728286
 30
0.0
  0
SPLINE
  5
2F0
100
AcDbEntity
  8
0
100
AcDbSpline
 62
7
  6
CONTINUOUS
 70
0
 71
3
 72
15
 73
11
 74
0
 42
0.0000001
 43
0.0000001
 44
0.0000000001
 40
0.0
 40
0.0
 40
0.0
 40
0.0
 40
0.1224002558
 40
0.2450484856
 40
0.3682048762
 40
0.4921221946
 40
0.617041783
 40
0.7431911044
 40
0.8707801417
 40
1.0
 40
1.0
 40
1.0
 40
1.0
 10
10.5873582333
 20
6.5704527055
 30
0.0
 10
10.5873382538
 20
6.5754950332
 30
0.0
 10
10.5876304946
 20
6.5855943679
 30
0.0
 10
10.5890651226
 20
6.6007052125
 30
0.0
 10
10.591492315
 20
6.6157525383
 30
0.0
 10
10.5949071978
 20
6.630702511
 30
0.0
 10
10.5993015116
 20
6.6455228422
 30
0.0
 10
10.6046660048
 20
6.6601812338
 30
0.0
 10
10.6109880345
 20
6.6746454004
 30
0.0
 10
10.6158000677
 20
6.6840752323
 30
0.0
 10
10.6183556575
 20
6.6887449802
 30
0.0
  0
SPLINE
  5
2F1
100
AcDbEntity
  8
0
100
AcDbSpline
 62
7
  6
CONTINUOUS
 70
0
 71
3
 72
15
 73
11
 74
0
 42
0.0000001
 43
0.0000001
 44
0.0000000001
 40
0.0
 40
0.0
 40
0.0
 40
0.0
 40
0.1313574995
 40
0.2603207473
 40
0.3871297463
 40
0.512067305
 40
0.6354551139
 40
0.7576484497
 40
0.8790296835
 40
1.0
 40
1.0
 40
1.0
 40
1.0
 10
11.460188402
 20
6.7541053355
 30
0.0
 10
11.4642090917
 20
6.7484737916
 30
0.0
 10
11.4718002775
 20
6.7370378006
 30
0.0
 10
11.4818465842
 20
6.7192714146
 30
0.0
 10
11.4904091732
 20
6.701115381
 30
0.0
 10
11.4974571104
 20
6.6826327853
 30
0.0
 10
11.5029655416
 20
6.6638869645
 30
0.0
 10
11.5069144916
 20
6.6449421406
 30
0.0
 10
11.5092895059
 20
6.6258656541
 30
0.0
 10
11.5098183255
 20
6.6130929854
 30
0.0
 10
11.5098182941
 20
6.6067205995
 30
0.0
  0
SPLINE
  5
2F2
100
AcDbEntity
  8
0
100
AcDbSpline
 62
7
  6
CONTINUOUS
 70
0
 71
3
 72
9
 73
5
 74
0
 42
0.0000001
 43
0.0000001
 44
0.0000000001
 40
0.0
 40
0.0
 40
0.0
 40
0.0
 40
0.5061456929
 40
1.0
 40
1.0
 40
1.0
 40
1.0
 10
11.4484445448
 20
6.7341596334
 30
0.0
 10
11.4541281234
 20
6.7271574278
 30
0.0
 10
11.4647823223
 20
6.7128443617
 30
0.0
 10
11.4741157291
 20
6.697632935
 30
0.0
 10
11.4783570335
 20
6.6899230078
 30
0.0
  0
SPLINE
  5
2F3
100
AcDbEntity
  8
0
100
AcDbSpline
 62
7
  6
CONTINUOUS
 70
0
 71
3
 72
11
 73
7
 74
0
 42
0.0000001
 43
0.0000001
 44
0.0000000001
 40
0.0
 40
0.0
 40
0.0
 40
0.0
 40
0.2557049881
 40
0.5070663002
 40
0.7548705631
 40
1.0
 40
1.0
 40
1.0
 40
1.0
 10
11.4783570335
 20
6.6899230078
 30
0.0
 10
11.4819650237
 20
6.6833643318
 30
0.0
 10
11.488597964
 20
6.6700623599
 30
0.0
 10
11.4967625201
 20
6.6494991874
 30
0.0
 10
11.5030145185
 20
6.6285982196
 30
0.0
 10
11.5059007869
 20
6.6144358183
 30
0.0
 10
11.5070106235
 20
6.6073461784
 30
0.0
  0
LINE
  5
2F4
100
AcDbEntity
  8
0
100
AcDbLine
 62
7
  6
CONTINUOUS
 10
11.5070106235
 20
6.6073461784
 11
11.5071477835
 21
6.6064589236
  0
SPLINE
  5
2F5
100
AcDbEntity
  8
0
100
AcDbSpline
 62
7
  6
CONTINUOUS
 70
0
 71
3
 72
10
 73
6
 74
0
 42
0.0000001
 43
0.0000001
 44
0.0000000001
 40
0.0
 40
0.0
 40
0.0
 40
0.0
 40
0.4887327762
 40
0.7417546144
 40
1.0
 40
1.0
 40
1.0
 40
1.0
 10
11.4675552138
 20
6.0958632282
 30
0.0
 10
11.4477321833
 20
6.0808542117
 30
0.0
 10
11.4159396623
 20
6.0602418959
 30
0.0
 10
11.3707811858
 20
6.0367750715
 30
0.0
 10
11.3469818878
 20
6.0262269595
 30
0.0
 10
11.3348183383
 20
6.0212612112
 30
0.0
  0
SPLINE
  5
2F6
100
AcDbEntity
  8
0
100
AcDbSpline
 62
7
  6
CONTINUOUS
 70
0
 71
3
 72
10
 73
6
 74
0
 42
0.0000001
 43
0.0000001
 44
0.0000000001
 40
0.0
 40
0.0
 40
0.0
 40
0.0
 40
0.2446842429
 40
0.6188665633
 40
1.0
 40
1.0
 40
1.0
 40
1.0
 10
11.3348183383
 20
6.0212612112
 30
0.0
 10
11.322430141
 20
6.0162037508
 30
0.0
 10
11.290706017
 20
6.0043545766
 30
0.0
 10
11.2381652936
 20
5.988955144
 30
0.0
 10
11.1976499832
 20
5.9806469803
 30
0.0
 10
11.1770814628
 20
5.9772778159
 30
0.0
  0
SPLINE
  5
2F7
100
AcDbEntity
  8
0
100
AcDbSpline
 62
7
  6
CONTINUOUS
 70
0
 71
3
 72
39
 73
35
 74
0
 42
0.0000001
 43
0.0000001
 44
0.0000000001
 40
0.0
 40
0.0
 40
0.0
 40
0.0
 40
0.0695868116
 40
0.1051526214
 40
0.1410877617
 40
0.1772831935
 40
0.2136253276
 40
0.2499983053
 40
0.2862857262
 40
0.3223725913
 40
0.3581471496
 40
0.3935028022
 40
0.4283400688
 40
0.4625685202
 40
0.4961088776
 40
0.5288950353
 40
0.5608762527
 40
0.5920192596
 40
0.6072744212
 40
0.622316689
 40
0.6517638124
 40
0.6803980429
 40
0.7082749116
 40
0.735474699
 40
0.7621017656
 40
0.7882823735
 40
0.8141609912
 40
0.8398949944
 40
0.8656481046
 40
0.8915832185
 40
0.9178552408
 40
0.9446048421
 40
0.9719534613
 40
1.0
 40
1.0
 40
1.0
 40
1.0
 10
11.2793103302
 20
6.3217090138
 30
0.0
 10
11.2563490886
 20
6.3128060417
 30
0.0
 10
11.2207346042
 20
6.301591513
 30
0.0
 10
11.1719471647
 20
6.2908849652
 30
0.0
 10
11.1342819351
 20
6.284901001
 30
0.0
 10
11.0960652803
 20
6.2810636385
 30
0.0
 10
11.0575369916
 20
6.2793962406
 30
0.0
 10
11.0189437712
 20
6.2799096394
 30
0.0
 10
10.980531408
 20
6.2826005128
 30
0.0
 10
10.942544888
 20
6.2874518072
 30
0.0
 10
10.9052263612
 20
6.294432754
 30
0.0
 10
10.8688137084
 20
6.303499123
 30
0.0
 10
10.8335390083
 20
6.3145935092
 30
0.0
 10
10.7996270286
 20
6.3276457916
 30
0.0
 10
10.767293981
 20
6.3425734923
 30
0.0
 10
10.7367456618
 20
6.3592827992
 30
0.0
 10
10.708178142
 20
6.3776676639
 30
0.0
 10
10.6860204556
 20
6.3944051655
 30
0.0
 10
10.6694821379
 20
6.4085300246
 30
0.0
 10
10.6539742026
 20
6.4229093437
 30
0.0
 10
10.6361102079
 20
6.4416807879
 30
0.0
 10
10.6171506176
 20
6.465523668
 30
0.0
 10
10.6009419062
 20
6.4903767139
 30
0.0
 10
10.5875930169
 20
6.5160817478
 30
0.0
 10
10.5771944385
 20
6.5424747342
 30
0.0
 10
10.569818379
 20
6.5693850019
 30
0.0
 10
10.5655170444
 20
6.5966364608
 30
0.0
 10
10.5643213804
 20
6.6240489486
 30
0.0
 10
10.5662400523
 20
6.6514402327
 30
0.0
 10
10.5712591894
 20
6.6786284095
 30
0.0
 10
10.5793426759
 20
6.7054339286
 30
0.0
 10
10.5904340219
 20
6.7316825296
 30
0.0
 10
10.6044547635
 20
6.7572024066
 30
0.0
 10
10.6155467938
 20
6.7734093785
 30
0.0
 10
10.6215212587
 20
6.7813356185
 30
0.0
  0
SPLINE
  5
2F8
100
AcDbEntity
  8
0
100
AcDbSpline
 62
7
  6
CONTINUOUS
 70
0
 71
3
 72
31
 73
27
 74
0
 42
0.0000001
 43
0.0000001
 44
0.0000000001
 40
0.0
 40
0.0
 40
0.0
 40
0.0
 40
0.0616707
 40
0.0918266603
 40
0.1215716773
 40
0.1509505537
 40
0.1800131534
 40
0.2088140376
 40
0.2374116284
 40
0.2658675381
 40
0.2942456053
 40
0.3226108847
 40
0.3510286674
 40
0.379563417
 40
0.4082776803
 40
0.4372312548
 40
0.4664803019
 40
0.4960765618
 40
0.5260669317
 40
0.5873641486
 40
0.6506629034
 40
0.7161317835
 40
0.7838472515
 40
0.8538001592
 40
0.9259020245
 40
1.0
 40
1.0
 40
1.0
 40
1.0
 10
11.4731229977
 20
6.7813255623
 30
0.0
 10
11.4802705009
 20
6.771842304
 30
0.0
 10
11.4901533505
 20
6.7571177588
 30
0.0
 10
11.5014141384
 20
6.7365829094
 30
0.0
 10
11.5087521831
 20
6.7210232887
 30
0.0
 10
11.5150248685
 20
6.7052313491
 30
0.0
 10
11.5202177447
 20
6.6892425579
 30
0.0
 10
11.5243186414
 20
6.6730943899
 30
0.0
 10
11.5273173652
 20
6.656824214
 30
0.0
 10
11.5292069621
 20
6.6404700442
 30
0.0
 10
11.5299828533
 20
6.6240700361
 30
0.0
 10
11.5296429245
 20
6.6076625349
 30
0.0
 10
11.5281884114
 20
6.5912858779
 30
0.0
 10
11.5256223745
 20
6.5749783586
 30
0.0
 10
11.5219513335
 20
6.5587779921
 30
0.0
 10
11.5171839776
 20
6.5427224529
 30
0.0
 10
11.5113316457
 20
6.526849225
 30
0.0
 10
11.5044082069
 20
6.5111944177
 30
0.0
 10
11.49369532
 20
6.4905152279
 30
0.0
 10
11.4776295624
 20
6.465368236
 30
0.0
 10
11.454537391
 20
6.4368843727
 30
0.0
 10
11.4277062706
 20
6.4101164777
 30
0.0
 10
11.3973892194
 20
6.3853072649
 30
0.0
 10
11.3638657485
 20
6.3626772023
 30
0.0
 10
11.3274472036
 20
6.3424298599
 30
0.0
 10
11.3017780357
 20
6.3307858712
 30
0.0
 10
11.2885683383
 20
6.3253930349
 30
0.0
  0
SPLINE
  5
2F9
100
AcDbEntity
  8
0
100
AcDbSpline
 62
7
  6
CONTINUOUS
 70
0
 71
3
 72
28
 73
24
 74
0
 42
0.0000001
 43
0.0000001
 44
0.0000000001
 40
0.0
 40
0.0
 40
0.0
 40
0.0
 40
0.0707273023
 40
0.1419117703
 40
0.2131081181
 40
0.2838685121
 40
0.353759558
 40
0.4223762691
 40
0.4893568476
 40
0.5543980475
 40
0.6172710887
 40
0.6778378617
 40
0.7360670529
 40
0.7643420713
 40
0.7920772464
 40
0.819304385
 40
0.8460636535
 40
0.8724034402
 40
0.8983799017
 40
0.9240562374
 40
0.9495017211
 40
0.9747904754
 40
1.0
 40
1.0
 40
1.0
 40
1.0
 10
11.1770814628
 20
6.2247651893
 30
0.0
 10
11.1559872781
 20
6.2213099201
 30
0.0
 10
11.1133597179
 20
6.2161076277
 30
0.0
 10
11.0489455058
 20
6.2134246369
 30
0.0
 10
10.9845066825
 20
6.2158508989
 30
0.0
 10
10.9208540826
 20
6.2233571628
 30
0.0
 10
10.8587819347
 20
6.2358505481
 30
0.0
 10
10.7990661564
 20
6.2531767754
 30
0.0
 10
10.7424523277
 20
6.2751227398
 30
0.0
 10
10.68964795
 20
6.3014192142
 30
0.0
 10
10.6413120338
 20
6.3317467675
 30
0.0
 10
10.5980556302
 20
6.3657326686
 30
0.0
 10
10.56637909
 20
6.3970787266
 30
0.0
 10
10.5442048934
 20
6.4235683351
 30
0.0
 10
10.5293205394
 20
6.443871594
 30
0.0
 10
10.5160713337
 20
6.4647375002
 30
0.0
 10
10.5044994369
 20
6.4861012239
 30
0.0
 10
10.4946426513
 20
6.507895295
 30
0.0
 10
10.4865330308
 20
6.5300508064
 30
0.0
 10
10.4801973074
 20
6.552497253
 30
0.0
 10
10.4756566428
 20
6.5751635888
 30
0.0
 10
10.4729262082
 20
6.5979753042
 30
0.0
 10
10.4723183355
 20
6.6132438783
 30
0.0
 10
10.4723183724
 20
6.6208627351
 30
0.0
  0
ELLIPSE
  5
2FA
100
AcDbEntity
  8
0
100
AcDbEllipse
 62
7
  6
CONTINUOUS
 10
11.0473183383
 20
6.7410708879
 30
0.0
 11
0.4522967215
 21
0.1611958191
 31
0.0
 40
0.084133201
 41
-1.3561925479
 42
-0.7981537211
  0
ENDSEC
  0
SECTION
  2
OBJECTS
  0
DICTIONARY
  5
C
100
AcDbDictionary
280
0
281
1
  3
ACAD_GROUP
350
D
  3
ACAD_MLINESTYLE
350
17
  3
ACAD_LAYOUT
350
1A
  3
ACAD_PLOTSETTINGS
350
19
  3
ACAD_PLOTSTYLENAME
350
E
  0
DICTIONARY
  5
D
102
{ACAD_REACTORS
330
C
102
}
100
AcDbDictionary
280
0
281
1
  0
ACDBDICTIONARYWDFLT
  5
E
102
{ACAD_REACTORS
330
C
102
}
100
AcDbDictionary
281
1
  3
Normal
350
F
100
AcDbDictionaryWithDefault
340
F
  0
DICTIONARY
  5
17
102
{ACAD_REACTORS
330
C
102
}
100
AcDbDictionary
280
0
281
1
  3
Standard
350
18
  0
DICTIONARY
  5
19
102
{ACAD_REACTORS
330
C
102
}
100
AcDbDictionary
281
1
  0
DICTIONARY
  5
1A
102
{ACAD_REACTORS
330
C
102
}
100
AcDbDictionary
281
1
  3
Model
350
2FB
  3
Layout1
350
2FC
  0
ACDBPLACEHOLDER
  5
F
102
{ACAD_REACTORS
330
E
102
}
  0
MLINESTYLE
  5
18
102
{ACAD_REACTORS
330
17
102
}
100
AcDbMlineStyle
  2
STANDARD
 70
0
  3

 62
256
 51
90.0
 52
90.0
 71
2
 49
0.5
 62
256
  6
BYLAYER
 49
-0.5
 62
256
  6
BYLAYER
  0
LAYOUT
  5
2FB
102
{ACAD_REACTORS
330
1A
102
}
100
AcDbPlotSettings
  1

  2
none_device
  4
ANSI_C_(22.00_x_17.00_Inches)
  6

 40
0.0
 41
0.0
 42
0.0
 43
0.0
 44
558.8
 45
431.8
 46
0.0
 47
0.0
 48
0.0
 49
0.0
140
0.0
141
0.0
142
1.0
143
1.0
 70
1024
 72
0
 73
0
 74
0
  7

 75
0
147
1.0
148
0.0
149
0.0
100
AcDbLayout
  1
Model
 70
0
 71
0
 10
0.0
 20
0.0
 11
22.0
 21
17.0
 12
0.0
 22
0.0
 32
0.0
 14
0.0
 24
0.0
 34
0.0
 15
0.0
 25
0.0
 35
0.0
146
0.0
 13
0.0
 23
0.0
 33
0.0
 16
1.0
 26
0.0
 36
0.0
 17
0.0
 27
1.0
 37
0.0
 76
0
330
205
345
0
346
0
  0
LAYOUT
  5
2FC
102
{ACAD_REACTORS
330
1A
102
}
100
AcDbPlotSettings
  1

  2
none_device
  4
ANSI_C_(22.00_x_17.00_Inches)
  6

 40
0.0
 41
0.0
 42
0.0
 43
0.0
 44
558.8
 45
431.8
 46
0.0
 47
0.0
 48
0.0
 49
0.0
140
0.0
141
0.0
142
1.0
143
1.0
 70
0
 72
0
 73
0
 74
0
  7

 75
0
147
1.0
148
0.0
149
0.0
100
AcDbLayout
  1
Layout1
 70
0
 71
1
 10
0.0
 20
0.0
 11
22.0
 21
17.0
 12
0.0
 22
0.0
 32
0.0
 14
0.0
 24
0.0
 34
0.0
 15
0.0
 25
0.0
 35
0.0
146
0.0
 13
0.0
 23
0.0
 33
0.0
 16
1.0
 26
0.0
 36
0.0
 17
0.0
 27
1.0
 37
0.0
 76
0
330
206
345
0
346
0
  0
ENDSEC
  0
EOF
