999
DXF file: 3-914ts_RIGHT.dxf
999
Pro/ENGINEER 2018400 by Parametric Technology Corporation
  0
SECTION
  2
HEADER
  9
$ACADVER
  1
AC1027
  9
$DWGCODEPAGE
  3
ANSI_1252
  9
$EXTMAX
 10
11.0
 20
8.5
 30
0.0
  9
$EXTMIN
 10
0.0
 20
0.0
 30
0.0
  9
$LIMMIN
 10
0.0
 20
0.0
  9
$LIMMAX
 10
11.0
 20
8.5
  9
$VIEWCTR
 10
5.5
 20
4.25
  9
$VIEWSIZE
 40
8.5
  9
$CLAYER
  8
0
  9
$LTSCALE
 40
0.605
  9
$CELTYPE
  6
BYLAYER
  9
$DIMSCALE
 40
1.0
  9
$DIMASZ
 40
0.1
  9
$DIMEXO
 40
0.0625
  9
$DIMDLI
 40
0.418
  9
$DIMEXE
 40
0.125
  9
$DIMCEN
 40
0.099
  9
$DIMLFAC
 40
1.0
  9
$DIMBLK
  1
_FILLED
  9
$DIMALT
 70
1
  9
$DIMALTD
 70
2
  9
$DIMALTTD
 70
2
  9
$DIMALTF
 40
25.4
  9
$DIMTXT
 40
0.08
  9
$DIMTOL
 70
1
  9
$DIMLIM
 70
0
  9
$DIMTFAC
 40
1.0
  9
$DIMTP
 40
0.001
  9
$DIMTM
 40
0.001
  9
$DIMGAP
 40
0.09
  9
$DIMDSEP
 70
46
  9
$AUNITS
 70
0
  9
$PDMODE
 70
3
  9
$PDSIZE
 40
0.3125
  9
$HANDSEED
  5
467
  9
$TILEMODE
 70
1
  9
$MEASUREMENT
 70
0
  9
$INSUNITS
 70
1
  0
ENDSEC
  0
SECTION
  2
CLASSES
  0
CLASS
  1
ACDBDICTIONARYWDFLT
  2
AcDbDictionaryWithDefault
  3
AutoCAD 2000
 90
0
 91
1
280
0
281
0
  0
CLASS
  1
ACDBPLACEHOLDER
  2
AcDbPlaceHolder
  3
AutoCAD 2000
 90
0
 91
1
280
0
281
0
  0
CLASS
  1
LAYOUT
  2
AcDbLayout
  3
AutoCAD 2000
 90
0
 91
0
280
0
281
0
  0
ENDSEC
  0
SECTION
  2
TABLES
  0
TABLE
  2
VPORT
  5
8
100
AcDbSymbolTable
 70
2
  0
VPORT
  5
1F4
100
AcDbSymbolTableRecord
100
AcDbViewportTableRecord
  2
*ACTIVE
 70
0
 10
0.0
 20
0.0
 11
1.0
 21
1.0
 12
5.5
 22
4.25
 13
0.0
 23
0.0
 14
1.0
 24
1.0
 15
0.0
 25
0.0
 16
0.0
 26
0.0
 36
1.0
 17
0.0
 27
0.0
 37
0.0
 40
8.5
 41
1.2941176471
 42
50.0
 43
0.0
 44
0.0
 50
0.0
 51
0.0
 71
0
 72
100
 73
1
 74
1
 75
0
 76
0
 77
0
 78
0
  0
ENDTAB
  0
TABLE
  2
LTYPE
  5
5
100
AcDbSymbolTable
 70
6
  0
LTYPE
  5
14
100
AcDbSymbolTableRecord
100
AcDbLinetypeTableRecord
  2
BYBLOCK
 70
0
  3

 72
65
 73
0
 40
0.0
  0
LTYPE
  5
15
100
AcDbSymbolTableRecord
100
AcDbLinetypeTableRecord
  2
BYLAYER
 70
0
  3

 72
65
 73
0
 40
0.0
  0
LTYPE
  5
16
100
AcDbSymbolTableRecord
100
AcDbLinetypeTableRecord
  2
CONTINUOUS
 70
64
  3
Solid line
 72
65
 73
0
 40
0.0
  0
LTYPE
  5
1F5
100
AcDbSymbolTableRecord
100
AcDbLinetypeTableRecord
  2
CENTER
 70
64
  3
____ _ ____ _ ____ _ ____ _ ____ _ ____ _ ____
 72
65
 73
4
 40
0.6
 49
0.375
 74
0
 49
-0.075
 74
0
 49
0.075
 74
0
 49
-0.075
 74
0
  0
LTYPE
  5
1F6
100
AcDbSymbolTableRecord
100
AcDbLinetypeTableRecord
  2
HIDDEN
 70
64
  3
- - - - - - - - - - - - - - - - - - - -
 72
65
 73
2
 40
0.2
 49
0.1
 74
0
 49
-0.1
 74
0
  0
LTYPE
  5
1F7
100
AcDbSymbolTableRecord
100
AcDbLinetypeTableRecord
  2
PHANTOM
 70
64
  3
_____ _ _ _____ _ _ _____ _ _ _____
 72
65
 73
6
 40
0.8
 49
0.45
 74
0
 49
-0.05
 74
0
 49
0.1
 74
0
 49
-0.05
 74
0
 49
0.1
 74
0
 49
-0.05
 74
0
  0
LTYPE
  5
1F8
100
AcDbSymbolTableRecord
100
AcDbLinetypeTableRecord
  2
DOT
 70
64
  3
. . . . . . . . . . . . . . . . . . . .
 72
65
 73
2
 40
0.2
 49
0.1
 74
0
 49
-0.1
 74
0
  0
LTYPE
  5
1F9
100
AcDbSymbolTableRecord
100
AcDbLinetypeTableRecord
  2
DASHED
 70
64
  3
- - - - - - - - - - - - - - - - - - - -
 72
65
 73
2
 40
0.2
 49
0.1
 74
0
 49
-0.1
 74
0
  0
ENDTAB
  0
TABLE
  2
LAYER
  5
2
100
AcDbSymbolTable
 70
36
  0
LAYER
  5
10
100
AcDbSymbolTableRecord
100
AcDbLayerTableRecord
  2
0
 70
0
 62
7
  6
CONTINUOUS
370
-3
390
F
  0
LAYER
  5
1FA
100
AcDbSymbolTableRecord
100
AcDbLayerTableRecord
  2
DEFAULT_1
 70
0
 62
7
  6
CENTER
370
-3
390
F
  0
LAYER
  5
1FB
100
AcDbSymbolTableRecord
100
AcDbLayerTableRecord
  2
DEFAULT_2
 70
0
 62
8
  6
HIDDEN
370
-3
390
F
  0
LAYER
  5
1FC
100
AcDbSymbolTableRecord
100
AcDbLayerTableRecord
  2
DEFAULT_3
 70
0
 62
7
  6
PHANTOM
370
-3
390
F
  0
LAYER
  5
1FD
100
AcDbSymbolTableRecord
100
AcDbLayerTableRecord
  2
2-265_ASSY_PLANES
 70
0
 62
7
  6
CONTINUOUS
370
-3
390
F
  0
LAYER
  5
1FE
100
AcDbSymbolTableRecord
100
AcDbLayerTableRecord
  2
AA
 70
0
 62
7
  6
CONTINUOUS
370
-3
390
F
  0
LAYER
  5
1FF
100
AcDbSymbolTableRecord
100
AcDbLayerTableRecord
  2
ALL_ASSEMBLY_MEMBERS
 70
0
 62
7
  6
CONTINUOUS
370
-3
390
F
  0
LAYER
  5
200
100
AcDbSymbolTableRecord
100
AcDbLayerTableRecord
  2
ALL_FEATURES
 70
0
 62
7
  6
CONTINUOUS
370
-3
390
F
  0
LAYER
  5
201
100
AcDbSymbolTableRecord
100
AcDbLayerTableRecord
  2
AXES_FEATURES
 70
0
 62
7
  6
CONTINUOUS
370
-3
390
F
  0
LAYER
  5
202
100
AcDbSymbolTableRecord
100
AcDbLayerTableRecord
  2
CHAMFER_FEATURES
 70
0
 62
7
  6
CONTINUOUS
370
-3
390
F
  0
LAYER
  5
203
100
AcDbSymbolTableRecord
100
AcDbLayerTableRecord
  2
CURVE
 70
0
 62
7
  6
CONTINUOUS
370
-3
390
F
  0
LAYER
  5
204
100
AcDbSymbolTableRecord
100
AcDbLayerTableRecord
  2
CURVES
 70
0
 62
7
  6
CONTINUOUS
370
-3
390
F
  0
LAYER
  5
205
100
AcDbSymbolTableRecord
100
AcDbLayerTableRecord
  2
CUT_FEATURES
 70
0
 62
7
  6
CONTINUOUS
370
-3
390
F
  0
LAYER
  5
206
100
AcDbSymbolTableRecord
100
AcDbLayerTableRecord
  2
DATUM_CURVES
 70
0
 62
7
  6
CONTINUOUS
370
-3
390
F
  0
LAYER
  5
207
100
AcDbSymbolTableRecord
100
AcDbLayerTableRecord
  2
DATUM_PLANES
 70
0
 62
7
  6
CONTINUOUS
370
-3
390
F
  0
LAYER
  5
208
100
AcDbSymbolTableRecord
100
AcDbLayerTableRecord
  2
DATUM_POINTS
 70
0
 62
7
  6
CONTINUOUS
370
-3
390
F
  0
LAYER
  5
209
100
AcDbSymbolTableRecord
100
AcDbLayerTableRecord
  2
DEFAULT_COORDINATE_SYSTEM
 70
0
 62
7
  6
CONTINUOUS
370
-3
390
F
  0
LAYER
  5
20A
100
AcDbSymbolTableRecord
100
AcDbLayerTableRecord
  2
DEFAULT_DATUM_AXES
 70
0
 62
7
  6
CONTINUOUS
370
-3
390
F
  0
LAYER
  5
20B
100
AcDbSymbolTableRecord
100
AcDbLayerTableRecord
  2
DEFAULT_DATUM_CURVES
 70
0
 62
7
  6
CONTINUOUS
370
-3
390
F
  0
LAYER
  5
20C
100
AcDbSymbolTableRecord
100
AcDbLayerTableRecord
  2
DEFAULT_DATUM_PLANES
 70
0
 62
7
  6
CONTINUOUS
370
-3
390
F
  0
LAYER
  5
20D
100
AcDbSymbolTableRecord
100
AcDbLayerTableRecord
  2
DEFAULT_SURFACES
 70
0
 62
7
  6
CONTINUOUS
370
-3
390
F
  0
LAYER
  5
20E
100
AcDbSymbolTableRecord
100
AcDbLayerTableRecord
  2
DIMENSIONS
 70
0
 62
7
  6
CONTINUOUS
370
-3
390
F
  0
LAYER
  5
20F
100
AcDbSymbolTableRecord
100
AcDbLayerTableRecord
  2
HOLE_FEATURES
 70
0
 62
7
  6
CONTINUOUS
370
-3
390
F
  0
LAYER
  5
210
100
AcDbSymbolTableRecord
100
AcDbLayerTableRecord
  2
LAY0001
 70
0
 62
7
  6
CONTINUOUS
370
-3
390
F
  0
LAYER
  5
211
100
AcDbSymbolTableRecord
100
AcDbLayerTableRecord
  2
NOTES
 70
0
 62
7
  6
CONTINUOUS
370
-3
390
F
  0
LAYER
  5
212
100
AcDbSymbolTableRecord
100
AcDbLayerTableRecord
  2
PART_REFERENCE_DIMENSIONS
 70
0
 62
7
  6
CONTINUOUS
370
-3
390
F
  0
LAYER
  5
213
100
AcDbSymbolTableRecord
100
AcDbLayerTableRecord
  2
PLATED_SURFACE_AREA
 70
0
 62
7
  6
CONTINUOUS
370
-3
390
F
  0
LAYER
  5
214
100
AcDbSymbolTableRecord
100
AcDbLayerTableRecord
  2
POINTS
 70
0
 62
7
  6
CONTINUOUS
370
-3
390
F
  0
LAYER
  5
215
100
AcDbSymbolTableRecord
100
AcDbLayerTableRecord
  2
PROTRUSION
 70
0
 62
7
  6
CONTINUOUS
370
-3
390
F
  0
LAYER
  5
216
100
AcDbSymbolTableRecord
100
AcDbLayerTableRecord
  2
PROTRUSION_FEATURES
 70
0
 62
7
  6
CONTINUOUS
370
-3
390
F
  0
LAYER
  5
217
100
AcDbSymbolTableRecord
100
AcDbLayerTableRecord
  2
QUILT
 70
0
 62
7
  6
CONTINUOUS
370
-3
390
F
  0
LAYER
  5
218
100
AcDbSymbolTableRecord
100
AcDbLayerTableRecord
  2
QUILTS
 70
0
 62
7
  6
CONTINUOUS
370
-3
390
F
  0
LAYER
  5
219
100
AcDbSymbolTableRecord
100
AcDbLayerTableRecord
  2
REFERENCE_DIMENSIONS
 70
0
 62
7
  6
CONTINUOUS
370
-3
390
F
  0
LAYER
  5
21A
100
AcDbSymbolTableRecord
100
AcDbLayerTableRecord
  2
ROUND_FEATURES
 70
0
 62
7
  6
CONTINUOUS
370
-3
390
F
  0
LAYER
  5
21B
100
AcDbSymbolTableRecord
100
AcDbLayerTableRecord
  2
SHELL_FEATURES
 70
0
 62
7
  6
CONTINUOUS
370
-3
390
F
  0
LAYER
  5
21C
100
AcDbSymbolTableRecord
100
AcDbLayerTableRecord
  2
SURFACE_FEATURES
 70
0
 62
7
  6
CONTINUOUS
370
-3
390
F
  0
LAYER
  5
21D
100
AcDbSymbolTableRecord
100
AcDbLayerTableRecord
  2
XSEC_DATUMS
 70
0
 62
7
  6
CONTINUOUS
370
-3
390
F
  0
ENDTAB
  0
TABLE
  2
STYLE
  5
3
100
AcDbSymbolTable
 70
1
  0
STYLE
  5
11
100
AcDbSymbolTableRecord
100
AcDbTextStyleTableRecord
  2
STANDARD
 70
0
 40
0.0
 41
0.8
 50
0.0
 71
0
 42
0.2
  3
txt
  4

  0
STYLE
  5
21E
100
AcDbSymbolTableRecord
100
AcDbTextStyleTableRecord
  2
TEXTSTYLE_1
 70
0
 40
0.0
 41
0.8
 50
0.0
 71
0
 42
0.2
  3
gdt
  4

  0
ENDTAB
  0
TABLE
  2
VIEW
  5
6
100
AcDbSymbolTable
 70
0
  0
ENDTAB
  0
TABLE
  2
UCS
  5
7
100
AcDbSymbolTable
 70
0
  0
ENDTAB
  0
TABLE
  2
APPID
  5
9
100
AcDbSymbolTable
 70
1
  0
APPID
  5
21F
100
AcDbSymbolTableRecord
100
AcDbRegAppTableRecord
  2
ACAD
 70
0
  0
ENDTAB
  0
TABLE
  2
BLOCK_RECORD
  5
1
100
AcDbSymbolTable
 70
0
  0
BLOCK_RECORD
  5
220
100
AcDbSymbolTableRecord
100
AcDbBlockTableRecord
  2
*Model_Space
  0
BLOCK_RECORD
  5
221
100
AcDbSymbolTableRecord
100
AcDbBlockTableRecord
  2
*Paper_Space
  0
BLOCK_RECORD
  5
222
100
AcDbSymbolTableRecord
100
AcDbBlockTableRecord
  2
_FILLED
  0
ENDTAB
  0
TABLE
  2
DIMSTYLE
  5
A
100
AcDbSymbolTable
 70
1
100
AcDbDimStyleTable
 71
0
  0
DIMSTYLE
105
223
100
AcDbSymbolTableRecord
100
AcDbDimStyleTableRecord
  2
STANDARD
 70
0
  3

  4

 40
1.0
 41
0.1
 42
0.0625
 43
0.38
 44
0.125
 45
0.0
 46
0.0
 47
0.001
 48
0.001
140
0.08
141
0.09
142
0.0
143
25.4
144
1.0
145
0.0
146
1.0
147
0.09
 71
1.0
 72
0.0
 73
1
 74
1
 75
0
 76
0
 77
0
 78
4
 79
1
170
1
171
2
172
0
173
0
174
0
175
0
176
0
177
0
178
0
270
2
179
3
271
3
272
3
273
2
274
2
275
0
280
0
281
0
282
0
283
1
284
4
285
0
286
0
287
3
288
0
340
11
278
46
341
222
342
222
343
222
344
222
  0
ENDTAB
  0
ENDSEC
  0
SECTION
  2
BLOCKS
  0
BLOCK
  5
20
100
AcDbEntity
  8
0
100
AcDbBlockBegin
  2
*Model_Space
 70
0
 10
0.0
 20
0.0
 30
0.0
  3
*Model_Space
  1

  0
ENDBLK
  5
21
100
AcDbEntity
  8
0
100
AcDbBlockEnd
  0
BLOCK
  5
1C
100
AcDbEntity
  8
0
100
AcDbBlockBegin
  2
*Paper_Space
 70
0
 10
0.0
 20
0.0
 30
0.0
  3
*Paper_Space
  1

  0
ENDBLK
  5
1D
100
AcDbEntity
  8
0
100
AcDbBlockEnd
  0
BLOCK
  5
224
100
AcDbEntity
  8
0
100
AcDbBlockBegin
  2
_FILLED
 70
64
 10
0.0
 20
0.0
  3
_FILLED
  1

  0
SOLID
  5
225
100
AcDbEntity
  8
0
  6
BYBLOCK
 62
0
100
AcDbTrace
 10
0.0
 20
0.0
 11
-1.0
 21
0.2
 12
-1.0
 22
-0.2
 13
-1.0
 23
-0.2
  0
ENDBLK
  5
226
100
AcDbEntity
  8
0
  6
BYBLOCK
 62
0
100
AcDbBlockEnd
  0
ENDSEC
  0
SECTION
  2
ENTITIES
  0
MTEXT
  5
227
100
AcDbEntity
  8
0
100
AcDbMText
 62
2
  6
CONTINUOUS
  7
STANDARD
 71
3
 72
1
 10
3.5989226292
 20
2.0976436335
 30
0.0
 11
1.0
 21
0.0
 31
0.0
 73
2
 44
0.9
  1
SCALE  .500
 40
0.08
 41
0.704
  0
LINE
  5
228
100
AcDbEntity
  8
0
100
AcDbLine
 62
7
  6
CONTINUOUS
 10
0.0
 20
0.0
 11
0.0
 21
8.5
  0
LINE
  5
229
100
AcDbEntity
  8
0
100
AcDbLine
 62
7
  6
CONTINUOUS
 10
0.0
 20
0.0
 11
11.0
 21
0.0
  0
LINE
  5
22A
100
AcDbEntity
  8
0
100
AcDbLine
 62
7
  6
CONTINUOUS
 10
0.0
 20
8.5
 11
11.0
 21
8.5
  0
LINE
  5
22B
100
AcDbEntity
  8
0
100
AcDbLine
 62
7
  6
CONTINUOUS
 10
11.0
 20
0.0
 11
11.0
 21
8.5
  0
LINE
  5
22C
100
AcDbEntity
  8
ALL_ASSEMBLY_MEMBERS
100
AcDbLine
 62
7
  6
CONTINUOUS
 10
5.6987520602
 20
2.9766498447
 11
5.7927520602
 21
2.9766498447
  0
LINE
  5
22D
100
AcDbEntity
  8
ALL_ASSEMBLY_MEMBERS
100
AcDbLine
 62
7
  6
CONTINUOUS
 10
3.9685266665
 20
4.4703998447
 11
3.9685266665
 21
4.7328998447
  0
LINE
  5
22E
100
AcDbEntity
  8
ALL_ASSEMBLY_MEMBERS
100
AcDbLine
 62
7
  6
CONTINUOUS
 10
3.9835266665
 20
4.7328998447
 11
3.9835266665
 21
4.4703998447
  0
LINE
  5
22F
100
AcDbEntity
  8
ALL_ASSEMBLY_MEMBERS
100
AcDbLine
 62
7
  6
CONTINUOUS
 10
3.9935266665
 20
4.4453998447
 11
3.9935266665
 21
4.7578998447
  0
LINE
  5
230
100
AcDbEntity
  8
ALL_ASSEMBLY_MEMBERS
100
AcDbLine
 62
7
  6
CONTINUOUS
 10
4.0310266665
 20
4.4016498447
 11
4.0310266665
 21
4.8016498447
  0
LINE
  5
231
100
AcDbEntity
  8
ALL_ASSEMBLY_MEMBERS
100
AcDbLine
 62
7
  6
CONTINUOUS
 10
4.0713106589
 20
3.9348511675
 11
4.0713106589
 21
3.9141498447
  0
LWPOLYLINE
  5
232
100
AcDbEntity
  8
ALL_ASSEMBLY_MEMBERS
100
AcDbPolyline
 62
7
  6
CONTINUOUS
 90
10
 70
0
 10
4.0596192247
 20
4.3733308149
 10
4.0589199227
 20
4.3499808907
 10
4.0575037733
 20
4.303338729
 10
4.0560142949
 20
4.2550940976
 10
4.0544520626
 20
4.2052470437
 10
4.0528181781
 20
4.1537975202
 10
4.0511143195
 20
4.1007453851
 10
4.0493427991
 20
4.0460905913
 10
4.0475066166
 20
3.989833186
 10
4.0457025241
 20
3.9348061086
  0
LWPOLYLINE
  5
233
100
AcDbEntity
  8
ALL_ASSEMBLY_MEMBERS
100
AcDbPolyline
 62
7
  6
CONTINUOUS
 90
10
 70
0
 10
4.243879015
 20
3.9342816088
 10
4.2435179609
 20
3.9894652094
 10
4.2431571601
 20
4.045872789
 10
4.2428190429
 20
4.1006730846
 10
4.2425066358
 20
4.1538660944
 10
4.2422222748
 20
4.2054518202
 10
4.2419676595
 20
4.2554302675
 10
4.2417439049
 20
4.3038014381
 10
4.2415515919
 20
4.3505653301
 10
4.2414647452
 20
4.3740556752
  0
LINE
  5
234
100
AcDbEntity
  8
ALL_ASSEMBLY_MEMBERS
100
AcDbLine
 62
7
  6
CONTINUOUS
 10
4.2182596852
 20
3.9348511675
 11
4.2182596852
 21
3.9141498447
  0
LINE
  5
235
100
AcDbEntity
  8
ALL_ASSEMBLY_MEMBERS
100
AcDbLine
 62
7
  6
CONTINUOUS
 10
4.2414647809
 20
4.3740558171
 11
4.2410372735
 21
4.3761501874
  0
LINE
  5
236
100
AcDbEntity
  8
ALL_ASSEMBLY_MEMBERS
100
AcDbLine
 62
7
  6
CONTINUOUS
 10
4.2685266665
 20
4.4016498424
 11
4.2685266665
 21
4.8016498447
  0
LINE
  5
237
100
AcDbEntity
  8
ALL_ASSEMBLY_MEMBERS
100
AcDbLine
 62
7
  6
CONTINUOUS
 10
4.2785266665
 20
4.7578998447
 11
4.2785266665
 21
4.4453998447
  0
LINE
  5
238
100
AcDbEntity
  8
ALL_ASSEMBLY_MEMBERS
100
AcDbLine
 62
7
  6
CONTINUOUS
 10
4.3144816666
 20
4.7253861759
 11
4.3144816666
 21
4.7249913513
  0
LINE
  5
239
100
AcDbEntity
  8
ALL_ASSEMBLY_MEMBERS
100
AcDbLine
 62
7
  6
CONTINUOUS
 10
4.3270266665
 20
4.737327158
 11
4.3270266665
 21
4.7257801526
  0
LINE
  5
23A
100
AcDbEntity
  8
ALL_ASSEMBLY_MEMBERS
100
AcDbLine
 62
7
  6
CONTINUOUS
 10
4.3470266665
 20
4.7431006607
 11
4.3470266665
 21
4.7200066499
  0
LINE
  5
23B
100
AcDbEntity
  8
ALL_ASSEMBLY_MEMBERS
100
AcDbLine
 62
7
  6
CONTINUOUS
 10
4.3670266665
 20
4.7257801526
 11
4.3670266665
 21
4.737327158
  0
LWPOLYLINE
  5
23C
100
AcDbEntity
  8
ALL_ASSEMBLY_MEMBERS
100
AcDbPolyline
 62
7
  6
CONTINUOUS
 90
18
 70
0
 10
4.2414647941
 20
4.3740563781
 10
4.2414815245
 20
4.3751178574
 10
4.2416324046
 20
4.3771866604
 10
4.2419516215
 20
4.3793059184
 10
4.2424513573
 20
4.381453894
 10
4.2431360665
 20
4.3835945797
 10
4.2440103941
 20
4.3857091934
 10
4.245078388
 20
4.3877804815
 10
4.2463330199
 20
4.3897758124
 10
4.2477707128
 20
4.3916767285
 10
4.2493862748
 20
4.3934649714
 10
4.2511610619
 20
4.3951124401
 10
4.2530835062
 20
4.3966041888
 10
4.2551403507
 20
4.3979260089
 10
4.2573030918
 20
4.3990583352
 10
4.2595542262
 20
4.3999931218
 10
4.2618756888
 20
4.4007239382
 10
4.2642338629
 20
4.4012433636
  0
LWPOLYLINE
  5
23D
100
AcDbEntity
  8
ALL_ASSEMBLY_MEMBERS
100
AcDbPolyline
 62
7
  6
CONTINUOUS
 90
17
 70
0
 10
4.2414761935
 20
4.3749511267
 10
4.2416080444
 20
4.376958365
 10
4.241901052
 20
4.3790332892
 10
4.2423704536
 20
4.3811534141
 10
4.2430229237
 20
4.3832790822
 10
4.2438655265
 20
4.3853910572
 10
4.2449049317
 20
4.3874718289
 10
4.2461351631
 20
4.3894852212
 10
4.2475542464
 20
4.3914115698
 10
4.2491586892
 20
4.3932314842
 10
4.250929647
 20
4.394913641
 10
4.2528563172
 20
4.3964417403
 10
4.2549258657
 20
4.3977999767
 10
4.2571078211
 20
4.3989659617
 10
4.2593843344
 20
4.3999306135
 10
4.2617368472
 20
4.4006865045
 10
4.2641286591
 20
4.4012247791
  0
LINE
  5
23E
100
AcDbEntity
  8
ALL_ASSEMBLY_MEMBERS
100
AcDbLine
 62
7
  6
CONTINUOUS
 10
4.2381412578
 20
3.934250438
 11
4.2438793338
 21
3.9342815979
  0
LINE
  5
23F
100
AcDbEntity
  8
ALL_ASSEMBLY_MEMBERS
100
AcDbLine
 62
7
  6
CONTINUOUS
 10
4.0656935487
 20
3.9141498447
 11
4.2238776613
 21
3.9141498447
  0
LINE
  5
240
100
AcDbEntity
  8
ALL_ASSEMBLY_MEMBERS
100
AcDbLine
 62
7
  6
CONTINUOUS
 10
4.0713108424
 20
3.9348511675
 11
4.2182595019
 21
3.9348511675
  0
LINE
  5
241
100
AcDbEntity
  8
ALL_ASSEMBLY_MEMBERS
100
AcDbLine
 62
7
  6
CONTINUOUS
 10
4.0457022053
 20
3.9348061074
 11
4.0514384174
 21
3.9347718764
  0
LINE
  5
242
100
AcDbEntity
  8
ALL_ASSEMBLY_MEMBERS
100
AcDbLine
 62
7
  6
CONTINUOUS
 10
4.4250266665
 20
4.4453998447
 11
4.4250266665
 21
4.7578998447
  0
LINE
  5
243
100
AcDbEntity
  8
ALL_ASSEMBLY_MEMBERS
100
AcDbLine
 62
7
  6
CONTINUOUS
 10
4.4400266665
 20
4.7766715657
 11
4.4400266665
 21
4.4266281237
  0
LINE
  5
244
100
AcDbEntity
  8
ALL_ASSEMBLY_MEMBERS
100
AcDbLine
 62
7
  6
CONTINUOUS
 10
4.4623592118
 20
4.8078998447
 11
4.4623592118
 21
4.3953998447
  0
LINE
  5
245
100
AcDbEntity
  8
ALL_ASSEMBLY_MEMBERS
100
AcDbLine
 62
7
  6
CONTINUOUS
 10
4.3217152725
 20
4.7405025845
 11
4.3185602294
 21
4.7382716321
  0
LINE
  5
246
100
AcDbEntity
  8
ALL_ASSEMBLY_MEMBERS
100
AcDbLine
 62
7
  6
CONTINUOUS
 10
4.5650266665
 20
4.9249210555
 11
4.5650266665
 21
4.2783786339
  0
LINE
  5
247
100
AcDbEntity
  8
ALL_ASSEMBLY_MEMBERS
100
AcDbLine
 62
7
  6
CONTINUOUS
 10
5.3868770602
 20
4.1091498447
 11
5.5567520602
 21
4.1091498447
  0
LINE
  5
248
100
AcDbEntity
  8
ALL_ASSEMBLY_MEMBERS
100
AcDbLine
 62
7
  6
CONTINUOUS
 10
5.1900266665
 20
4.1166498447
 11
4.7625627412
 21
4.1166498447
  0
LINE
  5
249
100
AcDbEntity
  8
ALL_ASSEMBLY_MEMBERS
100
AcDbLine
 62
7
  6
CONTINUOUS
 10
5.3348101311
 20
4.1168998447
 11
5.3238660881
 21
4.1168998447
  0
LINE
  5
24A
100
AcDbEntity
  8
ALL_ASSEMBLY_MEMBERS
100
AcDbLine
 62
7
  6
CONTINUOUS
 10
5.30015399
 20
4.1169277939
 11
5.2892099471
 21
4.1169277939
  0
LINE
  5
24B
100
AcDbEntity
  8
ALL_ASSEMBLY_MEMBERS
100
AcDbLine
 62
7
  6
CONTINUOUS
 10
5.3238660881
 20
4.1186335521
 11
5.30015399
 21
4.1186335521
  0
LINE
  5
24C
100
AcDbEntity
  8
ALL_ASSEMBLY_MEMBERS
100
AcDbLine
 62
7
  6
CONTINUOUS
 10
5.2892099471
 20
4.1186335521
 11
5.2490817846
 21
4.1186335521
  0
LINE
  5
24D
100
AcDbEntity
  8
ALL_ASSEMBLY_MEMBERS
100
AcDbLine
 62
7
  6
CONTINUOUS
 10
5.1900266665
 20
4.1193663802
 11
5.2490817846
 21
4.1193663802
  0
LINE
  5
24E
100
AcDbEntity
  8
ALL_ASSEMBLY_MEMBERS
100
AcDbLine
 62
7
  6
CONTINUOUS
 10
5.3348101311
 20
4.1193663802
 11
5.3868770602
 21
4.1193663802
  0
LINE
  5
24F
100
AcDbEntity
  8
ALL_ASSEMBLY_MEMBERS
100
AcDbLine
 62
7
  6
CONTINUOUS
 10
5.3348101311
 20
4.1194043858
 11
5.2490817846
 21
4.1194043858
  0
LINE
  5
250
100
AcDbEntity
  8
ALL_ASSEMBLY_MEMBERS
100
AcDbLine
 62
7
  6
CONTINUOUS
 10
5.3071128311
 20
4.1218837972
 11
5.2490817846
 21
4.1218837972
  0
LINE
  5
251
100
AcDbEntity
  8
ALL_ASSEMBLY_MEMBERS
100
AcDbLine
 62
7
  6
CONTINUOUS
 10
5.5567520602
 20
5.1316498447
 11
5.6362520602
 21
5.1616498447
  0
LINE
  5
252
100
AcDbEntity
  8
ALL_ASSEMBLY_MEMBERS
100
AcDbLine
 62
7
  6
CONTINUOUS
 10
4.3470266665
 20
4.7431006607
 11
4.3270266665
 21
4.737327158
  0
LINE
  5
253
100
AcDbEntity
  8
ALL_ASSEMBLY_MEMBERS
100
AcDbLine
 62
7
  6
CONTINUOUS
 10
4.3470266665
 20
4.7200066499
 11
4.3670266665
 21
4.7257801526
  0
LINE
  5
254
100
AcDbEntity
  8
ALL_ASSEMBLY_MEMBERS
100
AcDbLine
 62
7
  6
CONTINUOUS
 10
5.5567520602
 20
4.0716498447
 11
5.6362520602
 21
4.0416498447
  0
LINE
  5
255
100
AcDbEntity
  8
ALL_ASSEMBLY_MEMBERS
100
AcDbLine
 62
7
  6
CONTINUOUS
 10
4.3723380605
 20
4.7405025845
 11
4.3779525873
 21
4.7365325145
  0
LINE
  5
256
100
AcDbEntity
  8
ALL_ASSEMBLY_MEMBERS
100
AcDbLine
 62
7
  6
CONTINUOUS
 10
4.7625627412
 20
5.0866498447
 11
4.7625627412
 21
4.1166498447
  0
LINE
  5
257
100
AcDbEntity
  8
ALL_ASSEMBLY_MEMBERS
100
AcDbLine
 62
7
  6
CONTINUOUS
 10
4.7970266665
 20
5.083638526
 11
4.7970266665
 21
5.1974331128
  0
LINE
  5
258
100
AcDbEntity
  8
ALL_ASSEMBLY_MEMBERS
100
AcDbLine
 62
7
  6
CONTINUOUS
 10
4.2665336946
 20
4.4015456702
 11
4.2685266665
 21
4.4016498343
  0
LINE
  5
259
100
AcDbEntity
  8
ALL_ASSEMBLY_MEMBERS
100
AcDbLine
 62
7
  6
CONTINUOUS
 10
5.30015399
 20
4.373039039
 11
5.2837379256
 21
4.373039039
  0
LINE
  5
25A
100
AcDbEntity
  8
ALL_ASSEMBLY_MEMBERS
100
AcDbLine
 62
7
  6
CONTINUOUS
 10
5.2983299829
 20
4.3791813207
 11
5.2855619328
 21
4.3791813207
  0
LINE
  5
25B
100
AcDbEntity
  8
ALL_ASSEMBLY_MEMBERS
100
AcDbLine
 62
7
  6
CONTINUOUS
 10
5.2983299829
 20
4.3800318901
 11
5.2855619328
 21
4.3800318901
  0
LINE
  5
25C
100
AcDbEntity
  8
ALL_ASSEMBLY_MEMBERS
100
AcDbLine
 62
7
  6
CONTINUOUS
 10
4.032131424
 20
4.4016498447
 11
4.0310266665
 21
4.4016498447
  0
LINE
  5
25D
100
AcDbEntity
  8
ALL_ASSEMBLY_MEMBERS
100
AcDbLine
 62
7
  6
CONTINUOUS
 10
5.2983299829
 20
4.4116687408
 11
5.2855619328
 21
4.4116687408
  0
LINE
  5
25E
100
AcDbEntity
  8
ALL_ASSEMBLY_MEMBERS
100
AcDbLine
 62
7
  6
CONTINUOUS
 10
4.0788409616
 20
4.4168141641
 11
4.2228607409
 21
4.4168141641
  0
LINE
  5
25F
100
AcDbEntity
  8
ALL_ASSEMBLY_MEMBERS
100
AcDbLine
 62
7
  6
CONTINUOUS
 10
5.30015399
 20
4.4180206382
 11
5.2837379256
 21
4.4180206382
  0
LINE
  5
260
100
AcDbEntity
  8
ALL_ASSEMBLY_MEMBERS
100
AcDbLine
 62
7
  6
CONTINUOUS
 10
5.30015399
 20
4.4188649031
 11
5.2837379256
 21
4.4188649031
  0
LINE
  5
261
100
AcDbEntity
  8
ALL_ASSEMBLY_MEMBERS
100
AcDbLine
 62
7
  6
CONTINUOUS
 10
5.3147460524
 20
4.4282532165
 11
5.311098033
 21
4.4282532165
  0
LINE
  5
262
100
AcDbEntity
  8
ALL_ASSEMBLY_MEMBERS
100
AcDbLine
 62
7
  6
CONTINUOUS
 10
5.2582018217
 20
4.4282532165
 11
5.2490817846
 21
4.4282532165
  0
LINE
  5
263
100
AcDbEntity
  8
ALL_ASSEMBLY_MEMBERS
100
AcDbLine
 62
7
  6
CONTINUOUS
 10
5.3147460524
 20
4.4359837257
 11
5.311098033
 21
4.4359837257
  0
LINE
  5
264
100
AcDbEntity
  8
ALL_ASSEMBLY_MEMBERS
100
AcDbLine
 62
7
  6
CONTINUOUS
 10
5.3147460524
 20
4.4368273305
 11
5.311098033
 21
4.4368273305
  0
LINE
  5
265
100
AcDbEntity
  8
ALL_ASSEMBLY_MEMBERS
100
AcDbLine
 62
7
  6
CONTINUOUS
 10
4.041611518
 20
4.4400046916
 11
4.260629339
 21
4.4400046916
  0
LINE
  5
266
100
AcDbEntity
  8
ALL_ASSEMBLY_MEMBERS
100
AcDbLine
 62
7
  6
CONTINUOUS
 10
4.4250266665
 20
4.4453998447
 11
4.2785266665
 21
4.4453998447
  0
LINE
  5
267
100
AcDbEntity
  8
ALL_ASSEMBLY_MEMBERS
100
AcDbLine
 62
7
  6
CONTINUOUS
 10
3.9835266665
 20
4.4703998447
 11
3.9685266665
 21
4.4703998447
  0
LINE
  5
268
100
AcDbEntity
  8
ALL_ASSEMBLY_MEMBERS
100
AcDbLine
 62
7
  6
CONTINUOUS
 10
5.2582018217
 20
4.4753579524
 11
5.2490817846
 21
4.4753579524
  0
LINE
  5
269
100
AcDbEntity
  8
ALL_ASSEMBLY_MEMBERS
100
AcDbLine
 62
7
  6
CONTINUOUS
 10
5.2582018217
 20
4.4762046656
 11
5.2490817846
 21
4.4762046656
  0
LINE
  5
26A
100
AcDbEntity
  8
ALL_ASSEMBLY_MEMBERS
100
AcDbLine
 62
7
  6
CONTINUOUS
 10
5.3348101311
 20
4.4860620172
 11
5.2490817846
 21
4.4860620172
  0
LINE
  5
26B
100
AcDbEntity
  8
ALL_ASSEMBLY_MEMBERS
100
AcDbLine
 62
7
  6
CONTINUOUS
 10
4.9270266665
 20
5.0836390007
 11
4.9270266665
 21
5.1974331128
  0
LINE
  5
26C
100
AcDbEntity
  8
ALL_ASSEMBLY_MEMBERS
100
AcDbLine
 62
7
  6
CONTINUOUS
 10
4.2641286591
 20
4.4012247791
 11
4.2666043828
 21
4.4015518532
  0
LINE
  5
26D
100
AcDbEntity
  8
ALL_ASSEMBLY_MEMBERS
100
AcDbLine
 62
7
  6
CONTINUOUS
 10
5.3202180738
 20
4.4941470782
 11
5.2490817846
 21
4.4941470782
  0
LINE
  5
26E
100
AcDbEntity
  8
ALL_ASSEMBLY_MEMBERS
100
AcDbLine
 62
7
  6
CONTINUOUS
 10
5.3188799775
 20
4.4949973982
 11
5.2490817846
 21
4.4949973982
  0
LINE
  5
26F
100
AcDbEntity
  8
ALL_ASSEMBLY_MEMBERS
100
AcDbLine
 62
7
  6
CONTINUOUS
 10
5.322042081
 20
4.5022813314
 11
5.3074500187
 21
4.5022813314
  0
LINE
  5
270
100
AcDbEntity
  8
ALL_ASSEMBLY_MEMBERS
100
AcDbLine
 62
7
  6
CONTINUOUS
 10
5.322042081
 20
4.5031336332
 11
5.3074500187
 21
4.5031336332
  0
LINE
  5
271
100
AcDbEntity
  8
ALL_ASSEMBLY_MEMBERS
100
AcDbLine
 62
7
  6
CONTINUOUS
 10
4.4400266665
 20
4.5097752812
 11
4.4250266665
 21
4.5097752812
  0
LINE
  5
272
100
AcDbEntity
  8
ALL_ASSEMBLY_MEMBERS
100
AcDbLine
 62
7
  6
CONTINUOUS
 10
4.4400266665
 20
4.5126593841
 11
4.4250266665
 21
4.5126593841
  0
LINE
  5
273
100
AcDbEntity
  8
ALL_ASSEMBLY_MEMBERS
100
AcDbLine
 62
7
  6
CONTINUOUS
 10
4.4400266665
 20
4.5208782478
 11
4.4250266665
 21
4.5208782478
  0
LINE
  5
274
100
AcDbEntity
  8
ALL_ASSEMBLY_MEMBERS
100
AcDbLine
 62
7
  6
CONTINUOUS
 10
4.4400266665
 20
4.5290914779
 11
4.4250266665
 21
4.5290914779
  0
LINE
  5
275
100
AcDbEntity
  8
ALL_ASSEMBLY_MEMBERS
100
AcDbLine
 62
7
  6
CONTINUOUS
 10
4.4250266665
 20
4.5405420075
 11
4.4400266665
 21
4.5405420075
  0
LINE
  5
276
100
AcDbEntity
  8
ALL_ASSEMBLY_MEMBERS
100
AcDbLine
 62
7
  6
CONTINUOUS
 10
4.4400266665
 20
4.5442779579
 11
4.4250266665
 21
4.5442779579
  0
LINE
  5
277
100
AcDbEntity
  8
ALL_ASSEMBLY_MEMBERS
100
AcDbLine
 62
7
  6
CONTINUOUS
 10
4.4400266665
 20
4.5565699253
 11
4.4250266665
 21
4.5565699253
  0
LINE
  5
278
100
AcDbEntity
  8
ALL_ASSEMBLY_MEMBERS
100
AcDbLine
 62
7
  6
CONTINUOUS
 10
4.4250266665
 20
4.5659747012
 11
4.4400266665
 21
4.5659747012
  0
LINE
  5
279
100
AcDbEntity
  8
ALL_ASSEMBLY_MEMBERS
100
AcDbLine
 62
7
  6
CONTINUOUS
 10
4.4250266665
 20
4.5748647
 11
4.4400266665
 21
4.5748647
  0
LINE
  5
27A
100
AcDbEntity
  8
ALL_ASSEMBLY_MEMBERS
100
AcDbLine
 62
7
  6
CONTINUOUS
 10
4.4400266665
 20
4.5764120176
 11
4.4250266665
 21
4.5764120176
  0
LINE
  5
27B
100
AcDbEntity
  8
ALL_ASSEMBLY_MEMBERS
100
AcDbLine
 62
7
  6
CONTINUOUS
 10
5.3376644618
 20
4.5888545691
 11
5.2490817846
 21
4.5888545691
  0
LINE
  5
27C
100
AcDbEntity
  8
ALL_ASSEMBLY_MEMBERS
100
AcDbLine
 62
7
  6
CONTINUOUS
 10
4.4400266665
 20
4.5909113817
 11
4.4250266665
 21
4.5909113817
  0
LINE
  5
27D
100
AcDbEntity
  8
ALL_ASSEMBLY_MEMBERS
100
AcDbLine
 62
7
  6
CONTINUOUS
 10
4.4250266665
 20
4.596838612
 11
4.4400266665
 21
4.596838612
  0
LINE
  5
27E
100
AcDbEntity
  8
ALL_ASSEMBLY_MEMBERS
100
AcDbLine
 62
7
  6
CONTINUOUS
 10
4.4250266665
 20
4.6064610774
 11
4.4400266665
 21
4.6064610774
  0
LINE
  5
27F
100
AcDbEntity
  8
ALL_ASSEMBLY_MEMBERS
100
AcDbLine
 62
7
  6
CONTINUOUS
 10
4.4400266665
 20
4.6123883077
 11
4.4250266665
 21
4.6123883077
  0
LINE
  5
280
100
AcDbEntity
  8
ALL_ASSEMBLY_MEMBERS
100
AcDbLine
 62
7
  6
CONTINUOUS
 10
5.3376644618
 20
4.6144451203
 11
5.2490817846
 21
4.6144451203
  0
LINE
  5
281
100
AcDbEntity
  8
ALL_ASSEMBLY_MEMBERS
100
AcDbLine
 62
7
  6
CONTINUOUS
 10
4.3270266665
 20
4.7257801526
 11
4.3470266665
 21
4.7200066499
  0
LINE
  5
282
100
AcDbEntity
  8
ALL_ASSEMBLY_MEMBERS
100
AcDbLine
 62
7
  6
CONTINUOUS
 10
4.3670266665
 20
4.737327158
 11
4.3470266665
 21
4.7431006607
  0
LINE
  5
283
100
AcDbEntity
  8
ALL_ASSEMBLY_MEMBERS
100
AcDbLine
 62
7
  6
CONTINUOUS
 10
4.4400266665
 20
4.6268876719
 11
4.4250266665
 21
4.6268876719
  0
LINE
  5
284
100
AcDbEntity
  8
ALL_ASSEMBLY_MEMBERS
100
AcDbLine
 62
7
  6
CONTINUOUS
 10
4.4250266665
 20
4.6284349895
 11
4.4400266665
 21
4.6284349895
  0
LINE
  5
285
100
AcDbEntity
  8
ALL_ASSEMBLY_MEMBERS
100
AcDbLine
 62
7
  6
CONTINUOUS
 10
4.4250266665
 20
4.6373249883
 11
4.4400266665
 21
4.6373249883
  0
LINE
  5
286
100
AcDbEntity
  8
ALL_ASSEMBLY_MEMBERS
100
AcDbLine
 62
7
  6
CONTINUOUS
 10
4.4400266665
 20
4.6467297642
 11
4.4250266665
 21
4.6467297642
  0
LINE
  5
287
100
AcDbEntity
  8
ALL_ASSEMBLY_MEMBERS
100
AcDbLine
 62
7
  6
CONTINUOUS
 10
4.4400266665
 20
4.6590217316
 11
4.4250266665
 21
4.6590217316
  0
LINE
  5
288
100
AcDbEntity
  8
ALL_ASSEMBLY_MEMBERS
100
AcDbLine
 62
7
  6
CONTINUOUS
 10
4.4250266665
 20
4.6627576819
 11
4.4400266665
 21
4.6627576819
  0
LINE
  5
289
100
AcDbEntity
  8
ALL_ASSEMBLY_MEMBERS
100
AcDbLine
 62
7
  6
CONTINUOUS
 10
4.4400266665
 20
4.6742082116
 11
4.4250266665
 21
4.6742082116
  0
LINE
  5
28A
100
AcDbEntity
  8
ALL_ASSEMBLY_MEMBERS
100
AcDbLine
 62
7
  6
CONTINUOUS
 10
4.4400266665
 20
4.6824214416
 11
4.4250266665
 21
4.6824214416
  0
LINE
  5
28B
100
AcDbEntity
  8
ALL_ASSEMBLY_MEMBERS
100
AcDbLine
 62
7
  6
CONTINUOUS
 10
4.4400266665
 20
4.6906403053
 11
4.4250266665
 21
4.6906403053
  0
LINE
  5
28C
100
AcDbEntity
  8
ALL_ASSEMBLY_MEMBERS
100
AcDbLine
 62
7
  6
CONTINUOUS
 10
4.4400266665
 20
4.6935244082
 11
4.4250266665
 21
4.6935244082
  0
LINE
  5
28D
100
AcDbEntity
  8
ALL_ASSEMBLY_MEMBERS
100
AcDbLine
 62
7
  6
CONTINUOUS
 10
5.2800899088
 20
4.7022007062
 11
5.2727938802
 21
4.7022007062
  0
LINE
  5
28E
100
AcDbEntity
  8
ALL_ASSEMBLY_MEMBERS
100
AcDbLine
 62
7
  6
CONTINUOUS
 10
5.2800899088
 20
4.7030524886
 11
5.2727938802
 21
4.7030524886
  0
LINE
  5
28F
100
AcDbEntity
  8
ALL_ASSEMBLY_MEMBERS
100
AcDbLine
 62
7
  6
CONTINUOUS
 10
5.3348101311
 20
4.7057236189
 11
5.3256900953
 21
4.7057236189
  0
LINE
  5
290
100
AcDbEntity
  8
ALL_ASSEMBLY_MEMBERS
100
AcDbLine
 62
7
  6
CONTINUOUS
 10
5.3348101311
 20
4.7065745396
 11
5.3256900953
 21
4.7065745396
  0
LINE
  5
291
100
AcDbEntity
  8
ALL_ASSEMBLY_MEMBERS
100
AcDbLine
 62
7
  6
CONTINUOUS
 10
5.2782659016
 20
4.7118402937
 11
5.2746178873
 21
4.7118402937
  0
LINE
  5
292
100
AcDbEntity
  8
ALL_ASSEMBLY_MEMBERS
100
AcDbLine
 62
7
  6
CONTINUOUS
 10
3.9835266665
 20
4.7328998447
 11
3.9685266665
 21
4.7328998447
  0
LINE
  5
293
100
AcDbEntity
  8
ALL_ASSEMBLY_MEMBERS
100
AcDbLine
 62
7
  6
CONTINUOUS
 10
5.1900266665
 20
5.0866498447
 11
5.1900266665
 21
4.1166498447
  0
LINE
  5
294
100
AcDbEntity
  8
ALL_ASSEMBLY_MEMBERS
100
AcDbLine
 62
7
  6
CONTINUOUS
 10
5.2490817846
 20
5.0861141922
 11
5.2490817846
 21
5.0819338105
  0
LINE
  5
295
100
AcDbEntity
  8
ALL_ASSEMBLY_MEMBERS
100
AcDbLine
 62
7
  6
CONTINUOUS
 10
5.2490817846
 20
4.1186335521
 11
5.2490817846
 21
4.1218837972
  0
LINE
  5
296
100
AcDbEntity
  8
ALL_ASSEMBLY_MEMBERS
100
AcDbLine
 62
7
  6
CONTINUOUS
 10
5.2490817846
 20
4.4282532165
 11
5.2490817846
 21
4.4762046656
  0
LINE
  5
297
100
AcDbEntity
  8
ALL_ASSEMBLY_MEMBERS
100
AcDbLine
 62
7
  6
CONTINUOUS
 10
5.2490817846
 20
4.4860620172
 11
5.2490817846
 21
4.4949973982
  0
LINE
  5
298
100
AcDbEntity
  8
ALL_ASSEMBLY_MEMBERS
100
AcDbLine
 62
7
  6
CONTINUOUS
 10
5.2490817846
 20
4.5888545691
 11
5.2490817846
 21
4.6144451203
  0
LINE
  5
299
100
AcDbEntity
  8
ALL_ASSEMBLY_MEMBERS
100
AcDbLine
 62
7
  6
CONTINUOUS
 10
5.2490817846
 20
4.7292437468
 11
5.2490817846
 21
4.7395765146
  0
LINE
  5
29A
100
AcDbEntity
  8
ALL_ASSEMBLY_MEMBERS
100
AcDbLine
 62
7
  6
CONTINUOUS
 10
5.2490817846
 20
4.7775886512
 11
5.2490817846
 21
4.7883728875
  0
LINE
  5
29B
100
AcDbEntity
  8
ALL_ASSEMBLY_MEMBERS
100
AcDbLine
 62
7
  6
CONTINUOUS
 10
5.2490817846
 20
4.8104027182
 11
5.2490817846
 21
4.8209183975
  0
LINE
  5
29C
100
AcDbEntity
  8
ALL_ASSEMBLY_MEMBERS
100
AcDbLine
 62
7
  6
CONTINUOUS
 10
5.2490817846
 20
4.9892352003
 11
5.2490817846
 21
5.0059345128
  0
LINE
  5
29D
100
AcDbEntity
  8
ALL_ASSEMBLY_MEMBERS
100
AcDbLine
 62
7
  6
CONTINUOUS
 10
5.2509057919
 20
5.0835895062
 11
5.2509057919
 21
5.0811085134
  0
LINE
  5
29E
100
AcDbEntity
  8
ALL_ASSEMBLY_MEMBERS
100
AcDbLine
 62
7
  6
CONTINUOUS
 10
5.2509057919
 20
5.0863272723
 11
5.2509057919
 21
5.0850894099
  0
LINE
  5
29F
100
AcDbEntity
  8
ALL_ASSEMBLY_MEMBERS
100
AcDbLine
 62
7
  6
CONTINUOUS
 10
5.2509057919
 20
4.7205705918
 11
5.2509057919
 21
4.7197226252
  0
LINE
  5
2A0
100
AcDbEntity
  8
ALL_ASSEMBLY_MEMBERS
100
AcDbLine
 62
7
  6
CONTINUOUS
 10
5.2509057919
 20
4.4028323873
 11
5.2509057919
 21
4.4036782905
  0
LINE
  5
2A1
100
AcDbEntity
  8
ALL_ASSEMBLY_MEMBERS
100
AcDbLine
 62
7
  6
CONTINUOUS
 10
5.2563778139
 20
5.0827961411
 11
5.2563778139
 21
5.0803110362
  0
LINE
  5
2A2
100
AcDbEntity
  8
ALL_ASSEMBLY_MEMBERS
100
AcDbLine
 62
7
  6
CONTINUOUS
 10
5.2563778139
 20
5.086397488
 11
5.2563778139
 21
5.0855469215
  0
LINE
  5
2A3
100
AcDbEntity
  8
ALL_ASSEMBLY_MEMBERS
100
AcDbLine
 62
7
  6
CONTINUOUS
 10
5.2563778139
 20
4.7118402937
 11
5.2563778139
 21
4.7109905726
  0
LINE
  5
2A4
100
AcDbEntity
  8
ALL_ASSEMBLY_MEMBERS
100
AcDbLine
 62
7
  6
CONTINUOUS
 10
5.2563778139
 20
4.4091373605
 11
5.2563778139
 21
4.4099824599
  0
LINE
  5
2A5
100
AcDbEntity
  8
ALL_ASSEMBLY_MEMBERS
100
AcDbLine
 62
7
  6
CONTINUOUS
 10
5.2582018217
 20
4.4282532165
 11
5.2582018217
 21
4.4647402425
  0
LINE
  5
2A6
100
AcDbEntity
  8
ALL_ASSEMBLY_MEMBERS
100
AcDbLine
 62
7
  6
CONTINUOUS
 10
5.2582018217
 20
4.4753579524
 11
5.2582018217
 21
4.4762046656
  0
LINE
  5
2A7
100
AcDbEntity
  8
ALL_ASSEMBLY_MEMBERS
100
AcDbLine
 62
7
  6
CONTINUOUS
 10
5.2582018217
 20
4.7292437468
 11
5.2582018217
 21
4.7395765146
  0
LINE
  5
2A8
100
AcDbEntity
  8
ALL_ASSEMBLY_MEMBERS
100
AcDbLine
 62
7
  6
CONTINUOUS
 10
5.2600258288
 20
5.0849861176
 11
5.2600258288
 21
5.0837362539
  0
LINE
  5
2A9
100
AcDbEntity
  8
ALL_ASSEMBLY_MEMBERS
100
AcDbLine
 62
7
  6
CONTINUOUS
 10
5.2600258288
 20
4.7464197444
 11
5.2600258288
 21
4.7455752499
  0
LINE
  5
2AA
100
AcDbEntity
  8
ALL_ASSEMBLY_MEMBERS
100
AcDbLine
 62
7
  6
CONTINUOUS
 10
5.2600258288
 20
4.3890800139
 11
5.2600258288
 21
4.3899283038
  0
LINE
  5
2AB
100
AcDbEntity
  8
ALL_ASSEMBLY_MEMBERS
100
AcDbLine
 62
7
  6
CONTINUOUS
 10
5.261849836
 20
5.0863927962
 11
5.261849836
 21
5.0857743447
  0
LINE
  5
2AC
100
AcDbEntity
  8
ALL_ASSEMBLY_MEMBERS
100
AcDbLine
 62
7
  6
CONTINUOUS
 10
5.261849836
 20
5.0822722757
 11
5.261849836
 21
5.079784448
  0
LINE
  5
2AD
100
AcDbEntity
  8
ALL_ASSEMBLY_MEMBERS
100
AcDbLine
 62
7
  6
CONTINUOUS
 10
5.261849836
 20
4.4129364452
 11
5.261849836
 21
4.4137811455
  0
LINE
  5
2AE
100
AcDbEntity
  8
ALL_ASSEMBLY_MEMBERS
100
AcDbLine
 62
7
  6
CONTINUOUS
 10
5.2636738431
 20
5.0852841983
 11
5.2636738431
 21
5.0832840975
  0
LINE
  5
2AF
100
AcDbEntity
  8
ALL_ASSEMBLY_MEMBERS
100
AcDbLine
 62
7
  6
CONTINUOUS
 10
5.2636738431
 20
4.7515284534
 11
5.2636738431
 21
4.750684337
  0
LINE
  5
2B0
100
AcDbEntity
  8
ALL_ASSEMBLY_MEMBERS
100
AcDbLine
 62
7
  6
CONTINUOUS
 10
5.2636738431
 20
4.7065745396
 11
5.2636738431
 21
4.7057236189
  0
LINE
  5
2B1
100
AcDbEntity
  8
ALL_ASSEMBLY_MEMBERS
100
AcDbLine
 62
7
  6
CONTINUOUS
 10
5.2636738431
 20
4.3853577926
 11
5.2636738431
 21
4.386206883
  0
LINE
  5
2B2
100
AcDbEntity
  8
ALL_ASSEMBLY_MEMBERS
100
AcDbLine
 62
7
  6
CONTINUOUS
 10
5.3256900953
 20
4.7557730272
 11
5.2970512352
 21
4.7557730272
  0
LINE
  5
2B3
100
AcDbEntity
  8
ALL_ASSEMBLY_MEMBERS
100
AcDbLine
 62
7
  6
CONTINUOUS
 10
5.3256900953
 20
4.7566168696
 11
5.2965059757
 21
4.7566168696
  0
LINE
  5
2B4
100
AcDbEntity
  8
ALL_ASSEMBLY_MEMBERS
100
AcDbLine
 62
7
  6
CONTINUOUS
 10
4.4250266665
 20
4.7578998447
 11
4.2785266665
 21
4.7578998447
  0
LINE
  5
2B5
100
AcDbEntity
  8
ALL_ASSEMBLY_MEMBERS
100
AcDbLine
 62
7
  6
CONTINUOUS
 10
5.3348101311
 20
4.7650525197
 11
5.28738594
 21
4.7650525197
  0
LINE
  5
2B6
100
AcDbEntity
  8
ALL_ASSEMBLY_MEMBERS
100
AcDbLine
 62
7
  6
CONTINUOUS
 10
5.3348101311
 20
4.7775886512
 11
5.2490817846
 21
4.7775886512
  0
LINE
  5
2B7
100
AcDbEntity
  8
ALL_ASSEMBLY_MEMBERS
100
AcDbLine
 62
7
  6
CONTINUOUS
 10
5.3348101311
 20
4.778432505
 11
5.2490817846
 21
4.778432505
  0
LINE
  5
2B8
100
AcDbEntity
  8
ALL_ASSEMBLY_MEMBERS
100
AcDbLine
 62
7
  6
CONTINUOUS
 10
5.3202180738
 20
4.7883728875
 11
5.2490817846
 21
4.7883728875
  0
LINE
  5
2B9
100
AcDbEntity
  8
ALL_ASSEMBLY_MEMBERS
100
AcDbLine
 62
7
  6
CONTINUOUS
 10
5.322042081
 20
4.7982319788
 11
5.3074500187
 21
4.7982319788
  0
LINE
  5
2BA
100
AcDbEntity
  8
ALL_ASSEMBLY_MEMBERS
100
AcDbLine
 62
7
  6
CONTINUOUS
 10
4.2685266665
 20
4.8016498447
 11
4.0310266665
 21
4.8016498447
  0
LINE
  5
2BB
100
AcDbEntity
  8
ALL_ASSEMBLY_MEMBERS
100
AcDbLine
 62
7
  6
CONTINUOUS
 10
5.3348101311
 20
4.8104027182
 11
5.2490817846
 21
4.8104027182
  0
LINE
  5
2BC
100
AcDbEntity
  8
ALL_ASSEMBLY_MEMBERS
100
AcDbLine
 62
7
  6
CONTINUOUS
 10
5.3348101311
 20
4.8112504175
 11
5.2490817846
 21
4.8112504175
  0
LINE
  5
2BD
100
AcDbEntity
  8
ALL_ASSEMBLY_MEMBERS
100
AcDbLine
 62
7
  6
CONTINUOUS
 10
5.3202180738
 20
4.8209183975
 11
5.2490817846
 21
4.8209183975
  0
LINE
  5
2BE
100
AcDbEntity
  8
ALL_ASSEMBLY_MEMBERS
100
AcDbLine
 62
7
  6
CONTINUOUS
 10
5.322042081
 20
4.8305035617
 11
5.3074500187
 21
4.8305035617
  0
LINE
  5
2BF
100
AcDbEntity
  8
ALL_ASSEMBLY_MEMBERS
100
AcDbLine
 62
7
  6
CONTINUOUS
 10
5.2691458659
 20
5.0863701601
 11
5.2691458659
 21
5.0859063738
  0
LINE
  5
2C0
100
AcDbEntity
  8
ALL_ASSEMBLY_MEMBERS
100
AcDbLine
 62
7
  6
CONTINUOUS
 10
5.2691458659
 20
5.0819030242
 11
5.2691458659
 21
5.0794132738
  0
LINE
  5
2C1
100
AcDbEntity
  8
ALL_ASSEMBLY_MEMBERS
100
AcDbLine
 62
7
  6
CONTINUOUS
 10
5.2691458659
 20
4.4154758647
 11
5.2691458659
 21
4.4163203336
  0
LINE
  5
2C2
100
AcDbEntity
  8
ALL_ASSEMBLY_MEMBERS
100
AcDbLine
 62
7
  6
CONTINUOUS
 10
5.270969873
 20
4.7540790637
 11
5.270969873
 21
4.7650525197
  0
LINE
  5
2C3
100
AcDbEntity
  8
ALL_ASSEMBLY_MEMBERS
100
AcDbLine
 62
7
  6
CONTINUOUS
 10
5.2727938802
 20
4.7030524886
 11
5.2727938802
 21
4.7022007062
  0
LINE
  5
2C4
100
AcDbEntity
  8
ALL_ASSEMBLY_MEMBERS
100
AcDbLine
 62
7
  6
CONTINUOUS
 10
5.2746178873
 20
5.0863529889
 11
5.2746178873
 21
5.0859665176
  0
LINE
  5
2C5
100
AcDbEntity
  8
ALL_ASSEMBLY_MEMBERS
100
AcDbLine
 62
7
  6
CONTINUOUS
 10
5.2746178873
 20
5.0856266486
 11
5.2746178873
 21
5.0831561524
  0
LINE
  5
2C6
100
AcDbEntity
  8
ALL_ASSEMBLY_MEMBERS
100
AcDbLine
 62
7
  6
CONTINUOUS
 10
5.2746178873
 20
5.0817123837
 11
5.2746178873
 21
5.0792216394
  0
LINE
  5
2C7
100
AcDbEntity
  8
ALL_ASSEMBLY_MEMBERS
100
AcDbLine
 62
7
  6
CONTINUOUS
 10
5.2746178873
 20
4.3804138816
 11
5.2746178873
 21
4.3812641406
  0
LINE
  5
2C8
100
AcDbEntity
  8
ALL_ASSEMBLY_MEMBERS
100
AcDbLine
 62
7
  6
CONTINUOUS
 10
5.2746178873
 20
4.4167475861
 11
5.2746178873
 21
4.4175919496
  0
LINE
  5
2C9
100
AcDbEntity
  8
ALL_ASSEMBLY_MEMBERS
100
AcDbLine
 62
7
  6
CONTINUOUS
 10
5.2800899088
 20
4.7030524886
 11
5.2800899088
 21
4.7022007062
  0
LINE
  5
2CA
100
AcDbEntity
  8
ALL_ASSEMBLY_MEMBERS
100
AcDbLine
 62
7
  6
CONTINUOUS
 10
5.2837379256
 20
5.0863319152
 11
5.2837379256
 21
5.086022749
  0
LINE
  5
2CB
100
AcDbEntity
  8
ALL_ASSEMBLY_MEMBERS
100
AcDbLine
 62
7
  6
CONTINUOUS
 10
5.2837379256
 20
5.0815177264
 11
5.2837379256
 21
5.0790259664
  0
LINE
  5
2CC
100
AcDbEntity
  8
ALL_ASSEMBLY_MEMBERS
100
AcDbLine
 62
7
  6
CONTINUOUS
 10
5.2837379256
 20
4.4180206382
 11
5.2837379256
 21
4.4188649031
  0
LINE
  5
2CD
100
AcDbEntity
  8
ALL_ASSEMBLY_MEMBERS
100
AcDbLine
 62
7
  6
CONTINUOUS
 10
5.2855619328
 20
5.0857024558
 11
5.2855619328
 21
5.0832323486
  0
LINE
  5
2CE
100
AcDbEntity
  8
ALL_ASSEMBLY_MEMBERS
100
AcDbLine
 62
7
  6
CONTINUOUS
 10
5.2855619328
 20
4.3791813207
 11
5.2855619328
 21
4.3800318901
  0
LINE
  5
2CF
100
AcDbEntity
  8
ALL_ASSEMBLY_MEMBERS
100
AcDbLine
 62
7
  6
CONTINUOUS
 10
5.28738594
 20
4.7523828307
 11
5.28738594
 21
4.7650525197
  0
LINE
  5
2D0
100
AcDbEntity
  8
ALL_ASSEMBLY_MEMBERS
100
AcDbLine
 62
7
  6
CONTINUOUS
 10
5.2892099471
 20
4.7065745396
 11
5.2892099471
 21
4.7057236189
  0
LINE
  5
2D1
100
AcDbEntity
  8
ALL_ASSEMBLY_MEMBERS
100
AcDbLine
 62
7
  6
CONTINUOUS
 10
5.2892099471
 20
4.1169277939
 11
5.2892099471
 21
4.1186335521
  0
LINE
  5
2D2
100
AcDbEntity
  8
ALL_ASSEMBLY_MEMBERS
100
AcDbLine
 62
7
  6
CONTINUOUS
 10
5.2928579614
 20
4.7464197444
 11
5.2928579614
 21
4.7455752499
  0
LINE
  5
2D3
100
AcDbEntity
  8
ALL_ASSEMBLY_MEMBERS
100
AcDbLine
 62
7
  6
CONTINUOUS
 10
5.2946819686
 20
4.7292437468
 11
5.2946819686
 21
4.7395765146
  0
LINE
  5
2D4
100
AcDbEntity
  8
ALL_ASSEMBLY_MEMBERS
100
AcDbLine
 62
7
  6
CONTINUOUS
 10
5.2965059757
 20
4.7118402937
 11
5.2965059757
 21
4.7109905726
  0
LINE
  5
2D5
100
AcDbEntity
  8
ALL_ASSEMBLY_MEMBERS
100
AcDbLine
 62
7
  6
CONTINUOUS
 10
5.2983299829
 20
5.0857024558
 11
5.2983299829
 21
5.0832323486
  0
LINE
  5
2D6
100
AcDbEntity
  8
ALL_ASSEMBLY_MEMBERS
100
AcDbLine
 62
7
  6
CONTINUOUS
 10
5.2983299829
 20
4.3791813207
 11
5.2983299829
 21
4.3800318901
  0
LINE
  5
2D7
100
AcDbEntity
  8
ALL_ASSEMBLY_MEMBERS
100
AcDbLine
 62
7
  6
CONTINUOUS
 10
5.30015399
 20
5.0863319152
 11
5.30015399
 21
5.086022749
  0
LINE
  5
2D8
100
AcDbEntity
  8
ALL_ASSEMBLY_MEMBERS
100
AcDbLine
 62
7
  6
CONTINUOUS
 10
5.30015399
 20
5.0815177264
 11
5.30015399
 21
5.0790259664
  0
LINE
  5
2D9
100
AcDbEntity
  8
ALL_ASSEMBLY_MEMBERS
100
AcDbLine
 62
7
  6
CONTINUOUS
 10
5.30015399
 20
4.1169277939
 11
5.30015399
 21
4.1186335521
  0
LINE
  5
2DA
100
AcDbEntity
  8
ALL_ASSEMBLY_MEMBERS
100
AcDbLine
 62
7
  6
CONTINUOUS
 10
5.30015399
 20
4.4180206382
 11
5.30015399
 21
4.4188649031
  0
LINE
  5
2DB
100
AcDbEntity
  8
ALL_ASSEMBLY_MEMBERS
100
AcDbLine
 62
7
  6
CONTINUOUS
 10
5.3019779972
 20
4.7205705918
 11
5.3019779972
 21
4.7197226252
  0
LINE
  5
2DC
100
AcDbEntity
  8
ALL_ASSEMBLY_MEMBERS
100
AcDbLine
 62
7
  6
CONTINUOUS
 10
5.3038020043
 20
4.4385712352
 11
5.3038020043
 21
4.4394148551
  0
LINE
  5
2DD
100
AcDbEntity
  8
ALL_ASSEMBLY_MEMBERS
100
AcDbLine
 62
7
  6
CONTINUOUS
 10
5.3038020043
 20
4.7292437468
 11
5.3038020043
 21
4.7395765146
  0
LINE
  5
2DE
100
AcDbEntity
  8
ALL_ASSEMBLY_MEMBERS
100
AcDbLine
 62
7
  6
CONTINUOUS
 10
5.3041998949
 20
4.1258375626
 11
5.3041998949
 21
4.1233376558
  0
LINE
  5
2DF
100
AcDbEntity
  8
ALL_ASSEMBLY_MEMBERS
100
AcDbLine
 62
7
  6
CONTINUOUS
 10
5.3074500187
 20
4.8305035617
 11
5.3074500187
 21
4.8296512599
  0
LINE
  5
2E0
100
AcDbEntity
  8
ALL_ASSEMBLY_MEMBERS
100
AcDbLine
 62
7
  6
CONTINUOUS
 10
5.3074500187
 20
4.7982319788
 11
5.3074500187
 21
4.797386381
  0
LINE
  5
2E1
100
AcDbEntity
  8
ALL_ASSEMBLY_MEMBERS
100
AcDbLine
 62
7
  6
CONTINUOUS
 10
5.3074500187
 20
4.5022813314
 11
5.3074500187
 21
4.5031336332
  0
LINE
  5
2E2
100
AcDbEntity
  8
ALL_ASSEMBLY_MEMBERS
100
AcDbLine
 62
7
  6
CONTINUOUS
 10
5.3092740258
 20
5.0863529889
 11
5.3092740258
 21
5.0859665176
  0
LINE
  5
2E3
100
AcDbEntity
  8
ALL_ASSEMBLY_MEMBERS
100
AcDbLine
 62
7
  6
CONTINUOUS
 10
5.3092740258
 20
5.0817123837
 11
5.3092740258
 21
5.0792216394
  0
LINE
  5
2E4
100
AcDbEntity
  8
ALL_ASSEMBLY_MEMBERS
100
AcDbLine
 62
7
  6
CONTINUOUS
 10
5.3092740258
 20
5.0856266486
 11
5.3092740258
 21
5.0831561524
  0
LINE
  5
2E5
100
AcDbEntity
  8
ALL_ASSEMBLY_MEMBERS
100
AcDbLine
 62
7
  6
CONTINUOUS
 10
5.3092740258
 20
4.3804138816
 11
5.3092740258
 21
4.3812641406
  0
LINE
  5
2E6
100
AcDbEntity
  8
ALL_ASSEMBLY_MEMBERS
100
AcDbLine
 62
7
  6
CONTINUOUS
 10
5.3092740258
 20
4.4167475861
 11
5.3092740258
 21
4.4175919496
  0
LINE
  5
2E7
100
AcDbEntity
  8
ALL_ASSEMBLY_MEMBERS
100
AcDbLine
 62
7
  6
CONTINUOUS
 10
5.311098033
 20
4.4359837257
 11
5.311098033
 21
4.4368273305
  0
LINE
  5
2E8
100
AcDbEntity
  8
ALL_ASSEMBLY_MEMBERS
100
AcDbLine
 62
7
  6
CONTINUOUS
 10
5.3147460524
 20
5.0863701601
 11
5.3147460524
 21
5.0859063738
  0
LINE
  5
2E9
100
AcDbEntity
  8
ALL_ASSEMBLY_MEMBERS
100
AcDbLine
 62
7
  6
CONTINUOUS
 10
5.3147460524
 20
5.0819030242
 11
5.3147460524
 21
5.0794132738
  0
LINE
  5
2EA
100
AcDbEntity
  8
ALL_ASSEMBLY_MEMBERS
100
AcDbLine
 62
7
  6
CONTINUOUS
 10
5.3147460524
 20
4.4154758647
 11
5.3147460524
 21
4.4163203336
  0
LINE
  5
2EB
100
AcDbEntity
  8
ALL_ASSEMBLY_MEMBERS
100
AcDbLine
 62
7
  6
CONTINUOUS
 10
5.3147460524
 20
4.4359837257
 11
5.3147460524
 21
4.4368273305
  0
LINE
  5
2EC
100
AcDbEntity
  8
ALL_ASSEMBLY_MEMBERS
100
AcDbLine
 62
7
  6
CONTINUOUS
 10
5.3147460524
 20
4.4673865981
 11
5.3147460524
 21
4.4748725347
  0
LINE
  5
2ED
100
AcDbEntity
  8
ALL_ASSEMBLY_MEMBERS
100
AcDbLine
 62
7
  6
CONTINUOUS
 10
5.3202180738
 20
5.0852841983
 11
5.3202180738
 21
5.0832840975
  0
LINE
  5
2EE
100
AcDbEntity
  8
ALL_ASSEMBLY_MEMBERS
100
AcDbLine
 62
7
  6
CONTINUOUS
 10
5.3202180738
 20
4.3853577926
 11
5.3202180738
 21
4.386206883
  0
LINE
  5
2EF
100
AcDbEntity
  8
ALL_ASSEMBLY_MEMBERS
100
AcDbLine
 62
7
  6
CONTINUOUS
 10
5.3202180738
 20
4.4385712352
 11
5.3202180738
 21
4.4394148551
  0
LINE
  5
2F0
100
AcDbEntity
  8
ALL_ASSEMBLY_MEMBERS
100
AcDbLine
 62
7
  6
CONTINUOUS
 10
5.322042081
 20
5.0863927962
 11
5.322042081
 21
5.0857743447
  0
LINE
  5
2F1
100
AcDbEntity
  8
ALL_ASSEMBLY_MEMBERS
100
AcDbLine
 62
7
  6
CONTINUOUS
 10
5.322042081
 20
5.0822722757
 11
5.322042081
 21
5.079784448
  0
LINE
  5
2F2
100
AcDbEntity
  8
ALL_ASSEMBLY_MEMBERS
100
AcDbLine
 62
7
  6
CONTINUOUS
 10
5.322042081
 20
4.4129364452
 11
5.322042081
 21
4.4137811455
  0
LINE
  5
2F3
100
AcDbEntity
  8
ALL_ASSEMBLY_MEMBERS
100
AcDbLine
 62
7
  6
CONTINUOUS
 10
5.322042081
 20
4.4726954471
 11
5.322042081
 21
4.473541759
  0
LINE
  5
2F4
100
AcDbEntity
  8
ALL_ASSEMBLY_MEMBERS
100
AcDbLine
 62
7
  6
CONTINUOUS
 10
5.322042081
 20
4.5022813314
 11
5.322042081
 21
4.5031336332
  0
LINE
  5
2F5
100
AcDbEntity
  8
ALL_ASSEMBLY_MEMBERS
100
AcDbLine
 62
7
  6
CONTINUOUS
 10
5.3238660881
 20
5.0849861176
 11
5.3238660881
 21
5.0837362539
  0
LINE
  5
2F6
100
AcDbEntity
  8
ALL_ASSEMBLY_MEMBERS
100
AcDbLine
 62
7
  6
CONTINUOUS
 10
5.3238660881
 20
4.1168998502
 11
5.3238660881
 21
4.1186335521
  0
LINE
  5
2F7
100
AcDbEntity
  8
ALL_ASSEMBLY_MEMBERS
100
AcDbLine
 62
7
  6
CONTINUOUS
 10
5.3238660881
 20
4.3890800139
 11
5.3238660881
 21
4.3899283038
  0
LINE
  5
2F8
100
AcDbEntity
  8
ALL_ASSEMBLY_MEMBERS
100
AcDbLine
 62
7
  6
CONTINUOUS
 10
5.3238660881
 20
4.442462512
 11
5.3238660881
 21
4.4433062056
  0
LINE
  5
2F9
100
AcDbEntity
  8
ALL_ASSEMBLY_MEMBERS
100
AcDbLine
 62
7
  6
CONTINUOUS
 10
5.3256900953
 20
4.4489746739
 11
5.3256900953
 21
4.4542084489
  0
LINE
  5
2FA
100
AcDbEntity
  8
ALL_ASSEMBLY_MEMBERS
100
AcDbLine
 62
7
  6
CONTINUOUS
 10
5.3256900953
 20
4.7057236189
 11
5.3256900953
 21
4.7566168696
  0
LINE
  5
2FB
100
AcDbEntity
  8
ALL_ASSEMBLY_MEMBERS
100
AcDbLine
 62
7
  6
CONTINUOUS
 10
5.3275141025
 20
5.086397488
 11
5.3275141025
 21
5.0855469215
  0
LINE
  5
2FC
100
AcDbEntity
  8
ALL_ASSEMBLY_MEMBERS
100
AcDbLine
 62
7
  6
CONTINUOUS
 10
5.3275141025
 20
5.0827961411
 11
5.3275141025
 21
5.0803110362
  0
LINE
  5
2FD
100
AcDbEntity
  8
ALL_ASSEMBLY_MEMBERS
100
AcDbLine
 62
7
  6
CONTINUOUS
 10
5.3275141025
 20
4.4091373605
 11
5.3275141025
 21
4.4099824599
  0
LINE
  5
2FE
100
AcDbEntity
  8
ALL_ASSEMBLY_MEMBERS
100
AcDbLine
 62
7
  6
CONTINUOUS
 10
5.3293381096
 20
4.4673865981
 11
5.3293381096
 21
4.4682321916
  0
LINE
  5
2FF
100
AcDbEntity
  8
ALL_ASSEMBLY_MEMBERS
100
AcDbLine
 62
7
  6
CONTINUOUS
 10
5.3329861239
 20
5.0863272723
 11
5.3329861239
 21
5.0850894099
  0
LINE
  5
300
100
AcDbEntity
  8
ALL_ASSEMBLY_MEMBERS
100
AcDbLine
 62
7
  6
CONTINUOUS
 10
5.3329861239
 20
5.0835895062
 11
5.3329861239
 21
5.0811085134
  0
LINE
  5
301
100
AcDbEntity
  8
ALL_ASSEMBLY_MEMBERS
100
AcDbLine
 62
7
  6
CONTINUOUS
 10
5.3329861239
 20
4.4028323873
 11
5.3329861239
 21
4.4036782905
  0
LINE
  5
302
100
AcDbEntity
  8
ALL_ASSEMBLY_MEMBERS
100
AcDbLine
 62
7
  6
CONTINUOUS
 10
5.3329861239
 20
4.4620992524
 11
5.3329861239
 21
4.462944239
  0
LINE
  5
303
100
AcDbEntity
  8
ALL_ASSEMBLY_MEMBERS
100
AcDbLine
 62
7
  6
CONTINUOUS
 10
5.3348101311
 20
5.0861141922
 11
5.3348101311
 21
5.0819338105
  0
LINE
  5
304
100
AcDbEntity
  8
ALL_ASSEMBLY_MEMBERS
100
AcDbLine
 62
7
  6
CONTINUOUS
 10
5.3348101311
 20
4.1168998543
 11
5.3348101311
 21
4.1218837972
  0
LINE
  5
305
100
AcDbEntity
  8
ALL_ASSEMBLY_MEMBERS
100
AcDbLine
 62
7
  6
CONTINUOUS
 10
5.3348101311
 20
4.4476695684
 11
5.3348101311
 21
4.4528980007
  0
LINE
  5
306
100
AcDbEntity
  8
ALL_ASSEMBLY_MEMBERS
100
AcDbLine
 62
7
  6
CONTINUOUS
 10
5.3348101311
 20
4.4860620172
 11
5.3348101311
 21
4.4949973982
  0
LINE
  5
307
100
AcDbEntity
  8
ALL_ASSEMBLY_MEMBERS
100
AcDbLine
 62
7
  6
CONTINUOUS
 10
5.3348101311
 20
4.7057236189
 11
5.3348101311
 21
4.7650525197
  0
LINE
  5
308
100
AcDbEntity
  8
ALL_ASSEMBLY_MEMBERS
100
AcDbLine
 62
7
  6
CONTINUOUS
 10
5.3348101311
 20
4.7775886512
 11
5.3348101311
 21
4.7883728875
  0
LINE
  5
309
100
AcDbEntity
  8
ALL_ASSEMBLY_MEMBERS
100
AcDbLine
 62
7
  6
CONTINUOUS
 10
5.3348101311
 20
4.8104027182
 11
5.3348101311
 21
4.8209183975
  0
LINE
  5
30A
100
AcDbEntity
  8
ALL_ASSEMBLY_MEMBERS
100
AcDbLine
 62
7
  6
CONTINUOUS
 10
5.3376644618
 20
4.1258375626
 11
5.3376644618
 21
4.1233376558
  0
LINE
  5
30B
100
AcDbEntity
  8
ALL_ASSEMBLY_MEMBERS
100
AcDbLine
 62
7
  6
CONTINUOUS
 10
5.3376644618
 20
4.5888545691
 11
5.3376644618
 21
4.6144451203
  0
LINE
  5
30C
100
AcDbEntity
  8
ALL_ASSEMBLY_MEMBERS
100
AcDbLine
 62
7
  6
CONTINUOUS
 10
5.3376644618
 20
4.9892352003
 11
5.3376644618
 21
5.0059345128
  0
LINE
  5
30D
100
AcDbEntity
  8
ALL_ASSEMBLY_MEMBERS
100
AcDbLine
 62
7
  6
CONTINUOUS
 10
5.3868770602
 20
5.0941498447
 11
5.3868770602
 21
4.1091498447
  0
LINE
  5
30E
100
AcDbEntity
  8
ALL_ASSEMBLY_MEMBERS
100
AcDbLine
 62
7
  6
CONTINUOUS
 10
5.3376644618
 20
4.9892352003
 11
5.2490817846
 21
4.9892352003
  0
LINE
  5
30F
100
AcDbEntity
  8
ALL_ASSEMBLY_MEMBERS
100
AcDbLine
 62
7
  6
CONTINUOUS
 10
5.3376644618
 20
4.9912563756
 11
5.2490817846
 21
4.9912563756
  0
LINE
  5
310
100
AcDbEntity
  8
ALL_ASSEMBLY_MEMBERS
100
AcDbLine
 62
7
  6
CONTINUOUS
 10
5.531886781
 20
5.0941498447
 11
5.5315107796
 21
5.0941425433
  0
LINE
  5
311
100
AcDbEntity
  8
ALL_ASSEMBLY_MEMBERS
100
AcDbLine
 62
7
  6
CONTINUOUS
 10
5.53151592
 20
5.0941426608
 11
5.531886781
 21
5.0941498447
  0
LINE
  5
312
100
AcDbEntity
  8
ALL_ASSEMBLY_MEMBERS
100
AcDbLine
 62
7
  6
CONTINUOUS
 10
5.3376644618
 20
5.0059345128
 11
5.2490817846
 21
5.0059345128
  0
LINE
  5
313
100
AcDbEntity
  8
ALL_ASSEMBLY_MEMBERS
100
AcDbLine
 62
7
  6
CONTINUOUS
 10
5.30015399
 20
5.0790259664
 11
5.2837379256
 21
5.0790259664
  0
LINE
  5
314
100
AcDbEntity
  8
ALL_ASSEMBLY_MEMBERS
100
AcDbLine
 62
7
  6
CONTINUOUS
 10
5.30015399
 20
5.0815177264
 11
5.2837379256
 21
5.0815177264
  0
LINE
  5
315
100
AcDbEntity
  8
ALL_ASSEMBLY_MEMBERS
100
AcDbLine
 62
7
  6
CONTINUOUS
 10
5.2983299829
 20
5.0824508948
 11
5.2855619328
 21
5.0824508948
  0
LINE
  5
316
100
AcDbEntity
  8
ALL_ASSEMBLY_MEMBERS
100
AcDbLine
 62
7
  6
CONTINUOUS
 10
5.2983299829
 20
5.0832323486
 11
5.2855619328
 21
5.0832323486
  0
LINE
  5
317
100
AcDbEntity
  8
ALL_ASSEMBLY_MEMBERS
100
AcDbLine
 62
7
  6
CONTINUOUS
 10
5.1900266665
 20
5.0839333093
 11
5.2490817846
 21
5.0839333093
  0
LINE
  5
318
100
AcDbEntity
  8
ALL_ASSEMBLY_MEMBERS
100
AcDbLine
 62
7
  6
CONTINUOUS
 10
5.3348101311
 20
5.0839333093
 11
5.3868770602
 21
5.0839333093
  0
LINE
  5
319
100
AcDbEntity
  8
ALL_ASSEMBLY_MEMBERS
100
AcDbLine
 62
7
  6
CONTINUOUS
 10
5.2983299829
 20
5.0857024558
 11
5.2855619328
 21
5.0857024558
  0
LINE
  5
31A
100
AcDbEntity
  8
ALL_ASSEMBLY_MEMBERS
100
AcDbLine
 62
7
  6
CONTINUOUS
 10
5.30015399
 20
5.086022749
 11
5.2837379256
 21
5.086022749
  0
LINE
  5
31B
100
AcDbEntity
  8
ALL_ASSEMBLY_MEMBERS
100
AcDbLine
 62
7
  6
CONTINUOUS
 10
5.30015399
 20
5.0863319152
 11
5.2837379256
 21
5.0863319152
  0
LINE
  5
31C
100
AcDbEntity
  8
ALL_ASSEMBLY_MEMBERS
100
AcDbLine
 62
7
  6
CONTINUOUS
 10
5.1900266665
 20
5.0866498447
 11
4.9495266665
 21
5.0866498447
  0
LINE
  5
31D
100
AcDbEntity
  8
ALL_ASSEMBLY_MEMBERS
100
AcDbLine
 62
7
  6
CONTINUOUS
 10
4.7745266665
 20
5.0866498447
 11
4.7625627412
 21
5.0866498447
  0
LINE
  5
31E
100
AcDbEntity
  8
ALL_ASSEMBLY_MEMBERS
100
AcDbLine
 62
7
  6
CONTINUOUS
 10
5.5218770602
 20
5.0940483219
 11
5.4418770602
 21
5.0940483219
  0
LINE
  5
31F
100
AcDbEntity
  8
ALL_ASSEMBLY_MEMBERS
100
AcDbLine
 62
7
  6
CONTINUOUS
 10
5.3868770602
 20
5.0941498447
 11
5.4318770602
 21
5.0941498447
  0
LINE
  5
320
100
AcDbEntity
  8
ALL_ASSEMBLY_MEMBERS
100
AcDbLine
 62
7
  6
CONTINUOUS
 10
5.5318770602
 20
5.0941498447
 11
5.5567520602
 21
5.0941498447
  0
LINE
  5
321
100
AcDbEntity
  8
ALL_ASSEMBLY_MEMBERS
100
AcDbLine
 62
7
  6
CONTINUOUS
 10
5.4318673445
 20
5.0941498447
 11
5.4322370067
 21
5.094142684
  0
LINE
  5
322
100
AcDbEntity
  8
ALL_ASSEMBLY_MEMBERS
100
AcDbLine
 62
7
  6
CONTINUOUS
 10
5.4322426295
 20
5.0941425605
 11
5.4318673423
 21
5.0941498447
  0
LINE
  5
323
100
AcDbEntity
  8
ALL_ASSEMBLY_MEMBERS
100
AcDbLine
 62
7
  6
CONTINUOUS
 10
5.5567520602
 20
4.0716508643
 11
5.5567520602
 21
5.1316488252
  0
LINE
  5
324
100
AcDbEntity
  8
ALL_ASSEMBLY_MEMBERS
100
AcDbLine
 62
7
  6
CONTINUOUS
 10
5.6362520602
 20
3.0341498447
 11
5.6362520602
 21
6.1691498447
  0
LINE
  5
325
100
AcDbEntity
  8
ALL_ASSEMBLY_MEMBERS
100
AcDbLine
 62
7
  6
CONTINUOUS
 10
4.7970266665
 20
5.1974331128
 11
4.9270266665
 21
5.1974331128
  0
LINE
  5
326
100
AcDbEntity
  8
ALL_ASSEMBLY_MEMBERS
100
AcDbLine
 62
7
  6
CONTINUOUS
 10
4.906572121
 20
5.2258740041
 11
4.817481212
 21
5.2258740041
  0
LINE
  5
327
100
AcDbEntity
  8
ALL_ASSEMBLY_MEMBERS
100
AcDbLine
 62
7
  6
CONTINUOUS
 10
5.6987520602
 20
2.9766498447
 11
5.6987520602
 21
6.2266498447
  0
LINE
  5
328
100
AcDbEntity
  8
ALL_ASSEMBLY_MEMBERS
100
AcDbLine
 62
7
  6
CONTINUOUS
 10
5.7927520602
 20
2.9766498447
 11
5.7927520602
 21
6.2266498447
  0
LINE
  5
329
100
AcDbEntity
  8
ALL_ASSEMBLY_MEMBERS
100
AcDbLine
 62
7
  6
CONTINUOUS
 10
5.6987520602
 20
6.2266498447
 11
5.7927520602
 21
6.2266498447
  0
ARC
  5
32A
100
AcDbEntity
  8
ALL_ASSEMBLY_MEMBERS
100
AcDbCircle
 62
7
  6
CONTINUOUS
 10
5.4719885213
 20
4.6257896467
 40
1.2560096164
100
AcDbArc
 50
190.6738668616
 51
191.4642232374
  0
ARC
  5
32B
100
AcDbEntity
  8
ALL_ASSEMBLY_MEMBERS
100
AcDbCircle
 62
7
  6
CONTINUOUS
 10
5.2128883841
 20
4.6268323292
 40
0.9704119701
100
AcDbArc
 50
191.100121345
 51
193.3058074948
  0
ARC
  5
32C
100
AcDbEntity
  8
ALL_ASSEMBLY_MEMBERS
100
AcDbCircle
 62
7
  6
CONTINUOUS
 10
5.5218765729
 20
5.5865592294
 40
0.4925109075
100
AcDbArc
 50
270.000056693
 51
271.1214557203
  0
ARC
  5
32D
100
AcDbEntity
  8
ALL_ASSEMBLY_MEMBERS
100
AcDbCircle
 62
7
  6
CONTINUOUS
 10
5.4418703915
 20
5.5858288798
 40
0.4917805579
100
AcDbArc
 50
268.8775733666
 51
270.0007769503
  0
ARC
  5
32E
100
AcDbEntity
  8
ALL_ASSEMBLY_MEMBERS
100
AcDbCircle
 62
7
  6
CONTINUOUS
 10
4.7625627412
 20
4.8851498447
 40
0.2015
100
AcDbArc
 50
90.0
 51
168.6164589941
  0
ARC
  5
32F
100
AcDbEntity
  8
ALL_ASSEMBLY_MEMBERS
100
AcDbCircle
 62
7
  6
CONTINUOUS
 10
4.7625627412
 20
4.3181498447
 40
0.2015
100
AcDbArc
 50
191.3835410059
 51
270.0
  0
ARC
  5
330
100
AcDbEntity
  8
ALL_ASSEMBLY_MEMBERS
100
AcDbCircle
 62
7
  6
CONTINUOUS
 10
4.41185043
 20
4.9557610143
 40
0.15625
100
AcDbArc
 50
288.8599610433
 51
348.6164589941
  0
ARC
  5
331
100
AcDbEntity
  8
ALL_ASSEMBLY_MEMBERS
100
AcDbCircle
 62
7
  6
CONTINUOUS
 10
4.41185043
 20
4.2475386752
 40
0.15625
100
AcDbArc
 50
11.3835410059
 51
71.1400389567
  0
ARC
  5
332
100
AcDbEntity
  8
ALL_ASSEMBLY_MEMBERS
100
AcDbCircle
 62
7
  6
CONTINUOUS
 10
4.8620266665
 20
5.0931498447
 40
0.14
100
AcDbArc
 50
71.446995465
 51
108.553004535
  0
ARC
  5
333
100
AcDbEntity
  8
ALL_ASSEMBLY_MEMBERS
100
AcDbCircle
 62
7
  6
CONTINUOUS
 10
5.6362520602
 20
2.9714324534
 40
0.0627173913
100
AcDbArc
 50
4.7718880608
 51
90.0
  0
ARC
  5
334
100
AcDbEntity
  8
ALL_ASSEMBLY_MEMBERS
100
AcDbCircle
 62
7
  6
CONTINUOUS
 10
5.6362520602
 20
6.231867236
 40
0.0627173913
100
AcDbArc
 50
270.0
 51
355.2281119392
  0
ARC
  5
335
100
AcDbEntity
  8
ALL_ASSEMBLY_MEMBERS
100
AcDbCircle
 62
7
  6
CONTINUOUS
 10
4.3401036451
 20
4.7651475267
 40
0.0526119382
100
AcDbArc
 50
239.0535042613
 51
241.8096655561
  0
ARC
  5
336
100
AcDbEntity
  8
ALL_ASSEMBLY_MEMBERS
100
AcDbCircle
 62
7
  6
CONTINUOUS
 10
4.3560572721
 20
4.7616744187
 40
0.048549191
100
AcDbArc
 50
302.0465222269
 51
303.1391435916
  0
ARC
  5
337
100
AcDbEntity
  8
ALL_ASSEMBLY_MEMBERS
100
AcDbCircle
 62
7
  6
CONTINUOUS
 10
4.3372763834
 20
4.7605286217
 40
0.0471966864
100
AcDbArc
 50
234.7585879912
 51
239.1136949041
  0
ARC
  5
338
100
AcDbEntity
  8
ALL_ASSEMBLY_MEMBERS
100
AcDbCircle
 62
7
  6
CONTINUOUS
 10
4.3572517772
 20
4.7598467859
 40
0.046365826
100
AcDbArc
 50
303.137792026
 51
305.2483689106
  0
ARC
  5
339
100
AcDbEntity
  8
ALL_ASSEMBLY_MEMBERS
100
AcDbCircle
 62
7
  6
CONTINUOUS
 10
4.3380060944
 20
4.6984299291
 40
0.0457892084
100
AcDbArc
 50
107.37984894
 51
108.9472339008
  0
ARC
  5
33A
100
AcDbEntity
  8
ALL_ASSEMBLY_MEMBERS
100
AcDbCircle
 62
7
  6
CONTINUOUS
 10
5.3209320679
 20
4.1676784824
 40
0.0454241773
100
AcDbArc
 50
270.0001392816
 51
270.9972673084
  0
ARC
  5
33B
100
AcDbEntity
  8
ALL_ASSEMBLY_MEMBERS
100
AcDbCircle
 62
7
  6
CONTINUOUS
 10
4.3363847158
 20
4.703011433
 40
0.040929508
100
AcDbArc
 50
108.8829419002
 51
112.5693643092
  0
ARC
  5
33C
100
AcDbEntity
  8
ALL_ASSEMBLY_MEMBERS
100
AcDbCircle
 62
7
  6
CONTINUOUS
 10
3.9935266665
 20
4.4078998447
 40
0.0375
100
AcDbArc
 50
0.0
 51
90.0
  0
ARC
  5
33D
100
AcDbEntity
  8
ALL_ASSEMBLY_MEMBERS
100
AcDbCircle
 62
7
  6
CONTINUOUS
 10
3.9935266665
 20
4.7953998447
 40
0.0375
100
AcDbArc
 50
270.0
 51
360.0
  0
ARC
  5
33E
100
AcDbEntity
  8
ALL_ASSEMBLY_MEMBERS
100
AcDbCircle
 62
7
  6
CONTINUOUS
 10
4.3340958998
 20
4.7084334705
 40
0.035044278
100
AcDbArc
 50
112.5161603776
 51
116.6079617051
  0
ARC
  5
33F
100
AcDbEntity
  8
ALL_ASSEMBLY_MEMBERS
100
AcDbCircle
 62
7
  6
CONTINUOUS
 10
4.4730266665
 20
4.7766715657
 40
0.033
100
AcDbArc
 50
108.8599610433
 51
180.0
  0
ARC
  5
340
100
AcDbEntity
  8
ALL_ASSEMBLY_MEMBERS
100
AcDbCircle
 62
7
  6
CONTINUOUS
 10
4.4730266665
 20
4.4266281237
 40
0.033
100
AcDbArc
 50
180.0
 51
251.1400389567
  0
ARC
  5
341
100
AcDbEntity
  8
ALL_ASSEMBLY_MEMBERS
100
AcDbCircle
 62
7
  6
CONTINUOUS
 10
4.8270266665
 20
5.1974331128
 40
0.03
100
AcDbArc
 50
108.553004535
 51
180.0
  0
ARC
  5
342
100
AcDbEntity
  8
ALL_ASSEMBLY_MEMBERS
100
AcDbCircle
 62
7
  6
CONTINUOUS
 10
4.8970266665
 20
5.1974331128
 40
0.03
100
AcDbArc
 50
0.0
 51
71.446995465
  0
ARC
  5
343
100
AcDbEntity
  8
ALL_ASSEMBLY_MEMBERS
100
AcDbCircle
 62
7
  6
CONTINUOUS
 10
4.2689645762
 20
4.3741533299
 40
0.0274999954
100
AcDbArc
 50
90.9124159126
 51
180.2034586035
  0
ARC
  5
344
100
AcDbEntity
  8
ALL_ASSEMBLY_MEMBERS
100
AcDbCircle
 62
7
  6
CONTINUOUS
 10
4.0321315142
 20
4.3741500755
 40
0.0274999721
100
AcDbArc
 50
358.2923845898
 51
90.0001879106
  0
ARC
  5
345
100
AcDbEntity
  8
ALL_ASSEMBLY_MEMBERS
100
AcDbCircle
 62
7
  6
CONTINUOUS
 10
4.065691454
 20
3.9341498447
 40
0.02
100
AcDbArc
 50
178.1195765724
 51
270.0
  0
ARC
  5
346
100
AcDbEntity
  8
ALL_ASSEMBLY_MEMBERS
100
AcDbCircle
 62
7
  6
CONTINUOUS
 10
4.2238797492
 20
3.9341498447
 40
0.02
100
AcDbArc
 50
270.0
 51
0.3774846694
  0
ARC
  5
347
100
AcDbEntity
  8
ALL_ASSEMBLY_MEMBERS
100
AcDbCircle
 62
7
  6
CONTINUOUS
 10
4.3684644412
 20
4.7305387402
 40
0.0148228365
100
AcDbArc
 50
347.5930057384
 51
3.5962482016
  0
ARC
  5
348
100
AcDbEntity
  8
ALL_ASSEMBLY_MEMBERS
100
AcDbCircle
 62
7
  6
CONTINUOUS
 10
4.3252675763
 20
4.7276574837
 40
0.0115669673
100
AcDbArc
 50
219.4040646099
 51
223.6989158793
  0
ARC
  5
349
100
AcDbEntity
  8
ALL_ASSEMBLY_MEMBERS
100
AcDbCircle
 62
7
  6
CONTINUOUS
 10
4.3233136624
 20
4.7310955635
 40
0.0105218023
100
AcDbArc
 50
212.8678611455
 51
214.635998417
  0
ARC
  5
34A
100
AcDbEntity
  8
ALL_ASSEMBLY_MEMBERS
100
AcDbCircle
 62
7
  6
CONTINUOUS
 10
4.2785266665
 20
4.4353998447
 40
0.01
100
AcDbArc
 50
90.0
 51
179.999999998
  0
ARC
  5
34B
100
AcDbEntity
  8
ALL_ASSEMBLY_MEMBERS
100
AcDbCircle
 62
7
  6
CONTINUOUS
 10
4.2785266665
 20
4.7678998447
 40
0.01
100
AcDbArc
 50
180.000000002
 51
270.0
  0
ARC
  5
34C
100
AcDbEntity
  8
ALL_ASSEMBLY_MEMBERS
100
AcDbCircle
 62
7
  6
CONTINUOUS
 10
3.9835266665
 20
4.4603998447
 40
0.01
100
AcDbArc
 50
0.0000000032
 51
90.0
  0
ARC
  5
34D
100
AcDbEntity
  8
ALL_ASSEMBLY_MEMBERS
100
AcDbCircle
 62
7
  6
CONTINUOUS
 10
3.9835266665
 20
4.7428998447
 40
0.01
100
AcDbArc
 50
270.0
 51
359.9999999968
  0
ARC
  5
34E
100
AcDbEntity
  8
ALL_ASSEMBLY_MEMBERS
100
AcDbCircle
 62
7
  6
CONTINUOUS
 10
4.3701992269
 20
4.7315484313
 40
0.00782761
100
AcDbArc
 50
4.2115137284
 51
5.9814536337
  0
ARC
  5
34F
100
AcDbEntity
  8
ALL_ASSEMBLY_MEMBERS
100
AcDbCircle
 62
7
  6
CONTINUOUS
 10
4.3702634201
 20
4.7315531114
 40
0.0077632465
100
AcDbArc
 50
0.0040137747
 51
4.2118587536
  0
SPLINE
  5
350
100
AcDbEntity
  8
ALL_ASSEMBLY_MEMBERS
100
AcDbSpline
 62
7
  6
CONTINUOUS
 70
0
 71
3
 72
21
 73
17
 74
0
 42
0.0000001
 43
0.0000001
 44
0.0000000001
 40
0.0
 40
0.0
 40
0.0
 40
0.0
 40
0.0697308383
 40
0.1393243434
 40
0.2771865865
 40
0.4120853488
 40
0.4780180745
 40
0.5427142836
 40
0.6060179606
 40
0.6677893778
 40
0.7278972869
 40
0.7862254717
 40
0.8426740382
 40
0.8971565679
 40
0.9496121506
 40
1.0
 40
1.0
 40
1.0
 40
1.0
 10
4.3470266665
 20
4.7470536553
 30
0.0
 10
4.34764306
 20
4.7470536553
 30
0.0
 10
4.3488747226
 20
4.7470352302
 30
0.0
 10
4.3513227701
 20
4.7469255126
 30
0.0
 10
4.3543388346
 20
4.7466539796
 30
0.0
 10
4.3573004849
 20
4.7462008587
 30
0.0
 10
4.3596006017
 20
4.7457313844
 30
0.0
 10
4.3612679893
 20
4.7453316039
 30
0.0
 10
4.3628847062
 20
4.7448827499
 30
0.0
 10
4.3644450688
 20
4.7443866129
 30
0.0
 10
4.3659435281
 20
4.743844836
 30
0.0
 10
4.3673747722
 20
4.7432593162
 30
0.0
 10
4.3687337894
 20
4.7426322738
 30
0.0
 10
4.3700156997
 20
4.741965691
 30
0.0
 10
4.3712159779
 20
4.741262094
 30
0.0
 10
4.3719743871
 20
4.7407597477
 30
0.0
 10
4.3723380568
 20
4.7405025831
 30
0.0
  0
LINE
  5
351
100
AcDbEntity
  8
ALL_ASSEMBLY_MEMBERS
100
AcDbLine
 62
7
  6
CONTINUOUS
 10
4.3217152762
 20
4.7405025831
 11
4.3243418981
 21
4.7421177434
  0
SPLINE
  5
352
100
AcDbEntity
  8
ALL_ASSEMBLY_MEMBERS
100
AcDbSpline
 62
7
  6
CONTINUOUS
 70
0
 71
3
 72
15
 73
11
 74
0
 42
0.0000001
 43
0.0000001
 44
0.0000000001
 40
0.0
 40
0.0
 40
0.0
 40
0.0
 40
0.1120921143
 40
0.2283780086
 40
0.3486470159
 40
0.4726573678
 40
0.600123635
 40
0.7307356775
 40
0.8641520134
 40
1.0
 40
1.0
 40
1.0
 40
1.0
 10
4.3243418981
 20
4.7421177434
 30
0.0
 10
4.3247966892
 20
4.7423619071
 30
0.0
 10
4.3257368414
 20
4.7428344629
 30
0.0
 10
4.3272054293
 20
4.7434846747
 30
0.0
 10
4.3287532266
 20
4.7440872811
 30
0.0
 10
4.3303740906
 20
4.7446396306
 30
0.0
 10
4.332061523
 20
4.7451397502
 30
0.0
 10
4.3338088363
 20
4.7455855058
 30
0.0
 10
4.3356089816
 20
4.7459751104
 30
0.0
 10
4.3368296511
 20
4.7461947064
 30
0.0
 10
4.3374471397
 20
4.7462950313
 30
0.0
  0
SPLINE
  5
353
100
AcDbEntity
  8
ALL_ASSEMBLY_MEMBERS
100
AcDbSpline
 62
7
  6
CONTINUOUS
 70
0
 71
3
 72
11
 73
7
 74
0
 42
0.0000001
 43
0.0000001
 44
0.0000000001
 40
0.0
 40
0.0
 40
0.0
 40
0.0
 40
0.2459354179
 40
0.4953660283
 40
0.747181397
 40
1.0
 40
1.0
 40
1.0
 40
1.0
 10
4.3374471397
 20
4.7462950313
 30
0.0
 10
4.3382254989
 20
4.7464214932
 30
0.0
 10
4.3397988891
 20
4.7466428045
 30
0.0
 10
4.3421835571
 20
4.7468794537
 30
0.0
 10
4.3445977998
 20
4.7470218465
 30
0.0
 10
4.3462160307
 20
4.7470536553
 30
0.0
 10
4.3470266665
 20
4.7470536553
 30
0.0
  0
SPLINE
  5
354
100
AcDbEntity
  8
ALL_ASSEMBLY_MEMBERS
100
AcDbSpline
 62
7
  6
CONTINUOUS
 70
0
 71
3
 72
24
 73
20
 74
0
 42
0.0000001
 43
0.0000001
 44
0.0000000001
 40
0.0
 40
0.0
 40
0.0
 40
0.0
 40
0.0781693173
 40
0.1529937796
 40
0.2245571843
 40
0.292989255
 40
0.3584816656
 40
0.390210634
 40
0.4213056288
 40
0.4817491955
 40
0.5402238236
 40
0.597189495
 40
0.6531657713
 40
0.7087160733
 40
0.7644255879
 40
0.8208775192
 40
0.8786268011
 40
0.9381855809
 40
1.0
 40
1.0
 40
1.0
 40
1.0
 10
4.318560247
 20
4.7382716263
 30
0.0
 10
4.3182377483
 20
4.7380435967
 30
0.0
 10
4.3176185886
 20
4.7375798782
 30
0.0
 10
4.3167530404
 20
4.7368451043
 30
0.0
 10
4.3159734574
 20
4.7360885563
 30
0.0
 10
4.3152824256
 20
4.7353123306
 30
0.0
 10
4.314776859
 20
4.7346439114
 30
0.0
 10
4.3144205716
 20
4.7341019873
 30
0.0
 10
4.3141023034
 20
4.7335663952
 30
0.0
 10
4.3137613094
 20
4.7328879796
 30
0.0
 10
4.3134444547
 20
4.7320559567
 30
0.0
 10
4.3132251892
 20
4.7312161812
 30
0.0
 10
4.3131048477
 20
4.7303714616
 30
0.0
 10
4.3130839404
 20
4.7295247634
 30
0.0
 10
4.313163035
 20
4.7286790938
 30
0.0
 10
4.3133419895
 20
4.7278375197
 30
0.0
 10
4.3136201815
 20
4.727002916
 30
0.0
 10
4.3139969403
 20
4.726178291
 30
0.0
 10
4.3143066525
 20
4.7256476918
 30
0.0
 10
4.3144761437
 20
4.7253853457
 30
0.0
  0
SPLINE
  5
355
100
AcDbEntity
  8
ALL_ASSEMBLY_MEMBERS
100
AcDbSpline
 62
7
  6
CONTINUOUS
 70
0
 71
3
 72
15
 73
11
 74
0
 42
0.0000001
 43
0.0000001
 44
0.0000000001
 40
0.0
 40
0.0
 40
0.0
 40
0.0
 40
0.1006428617
 40
0.2076929173
 40
0.3216744901
 40
0.442878316
 40
0.5714189859
 40
0.7072720442
 40
0.850274985
 40
1.0
 40
1.0
 40
1.0
 40
1.0
 10
4.3146565398
 20
4.7251153835
 30
0.0
 10
4.3149113679
 20
4.7247463615
 30
0.0
 10
4.3154851932
 20
4.7240171783
 30
0.0
 10
4.3164892249
 20
4.7229910273
 30
0.0
 10
4.317656614
 20
4.7220065505
 30
0.0
 10
4.3189810782
 20
4.7210694517
 30
0.0
 10
4.3204561312
 20
4.7201854315
 30
0.0
 10
4.3220742708
 20
4.7193597788
 30
0.0
 10
4.3238267355
 20
4.7185982035
 30
0.0
 10
4.3250511219
 20
4.718146286
 30
0.0
 10
4.3256827251
 20
4.7179313758
 30
0.0
  0
SPLINE
  5
356
100
AcDbEntity
  8
ALL_ASSEMBLY_MEMBERS
100
AcDbSpline
 62
7
  6
CONTINUOUS
 70
0
 71
3
 72
11
 73
7
 74
0
 42
0.0000001
 43
0.0000001
 44
0.0000000001
 40
0.0
 40
0.0
 40
0.0
 40
0.0
 40
0.252818603
 40
0.5046339717
 40
0.7540645821
 40
1.0
 40
1.0
 40
1.0
 40
1.0
 10
4.3470266665
 20
4.7160536553
 30
0.0
 10
4.3462160307
 20
4.7160536553
 30
0.0
 10
4.3445977998
 20
4.7160854641
 30
0.0
 10
4.3421835571
 20
4.7162278569
 30
0.0
 10
4.3397988891
 20
4.7164645061
 30
0.0
 10
4.3382254989
 20
4.7166858174
 30
0.0
 10
4.3374471397
 20
4.7168122793
 30
0.0
  0
SPLINE
  5
357
100
AcDbEntity
  8
ALL_ASSEMBLY_MEMBERS
100
AcDbSpline
 62
7
  6
CONTINUOUS
 70
0
 71
3
 72
36
 73
32
 74
0
 42
0.0000001
 43
0.0000001
 44
0.0000000001
 40
0.0
 40
0.0
 40
0.0
 40
0.0
 40
0.0883659062
 40
0.1738167203
 40
0.2152577632
 40
0.2557454775
 40
0.2952155776
 40
0.3336128646
 40
0.3708876993
 40
0.4069979218
 40
0.4419140732
 40
0.4756151735
 40
0.5080911802
 40
0.539348623
 40
0.5982682604
 40
0.6260532115
 40
0.6528033939
 40
0.6786130939
 40
0.7036006779
 40
0.7279040429
 40
0.7516809524
 40
0.7751070287
 40
0.7983686425
 40
0.8216585045
 40
0.8451680487
 40
0.8690809976
 40
0.8935685577
 40
0.9187825232
 40
0.9448552781
 40
0.9718985881
 40
1.0
 40
1.0
 40
1.0
 40
1.0
 10
4.3374471397
 20
4.7168122793
 30
0.0
 10
4.3364261555
 20
4.716978161
 30
0.0
 10
4.334426482
 20
4.7173605951
 30
0.0
 10
4.3319826873
 20
4.7179815445
 30
0.0
 10
4.3301093826
 20
4.7185566282
 30
0.0
 10
4.3287655292
 20
4.7190194971
 30
0.0
 10
4.3274722566
 20
4.7195171527
 30
0.0
 10
4.3262330754
 20
4.7200480975
 30
0.0
 10
4.3250514055
 20
4.7206108761
 30
0.0
 10
4.3239305749
 20
4.7212040727
 30
0.0
 10
4.3228735957
 20
4.7218259319
 30
0.0
 10
4.3218834021
 20
4.7224747451
 30
0.0
 10
4.3209627139
 20
4.7231489652
 30
0.0
 10
4.3198532553
 20
4.7240609224
 30
0.0
 10
4.3188650849
 20
4.725032199
 30
0.0
 10
4.3180232617
 20
4.7260607061
 30
0.0
 10
4.3174844081
 20
4.7268327584
 30
0.0
 10
4.3170275923
 20
4.727618444
 30
0.0
 10
4.3166539983
 20
4.7284155507
 30
0.0
 10
4.3163648566
 20
4.7292219105
 30
0.0
 10
4.3161613423
 20
4.7300352824
 30
0.0
 10
4.3160439414
 20
4.7308532122
 30
0.0
 10
4.3160131445
 20
4.731673287
 30
0.0
 10
4.3160692629
 20
4.7324929901
 30
0.0
 10
4.3162118221
 20
4.7333098398
 30
0.0
 10
4.3164403829
 20
4.7341214182
 30
0.0
 10
4.3167542985
 20
4.734925299
 30
0.0
 10
4.317152281
 20
4.7357193019
 30
0.0
 10
4.3176331733
 20
4.7365012423
 30
0.0
 10
4.3181955888
 20
4.737268879
 30
0.0
 10
4.3186153644
 20
4.7377601022
 30
0.0
 10
4.3188374254
 20
4.7380027793
 30
0.0
  0
SPLINE
  5
358
100
AcDbEntity
  8
ALL_ASSEMBLY_MEMBERS
100
AcDbSpline
 62
7
  6
CONTINUOUS
 70
0
 71
3
 72
10
 73
6
 74
0
 42
0.0000001
 43
0.0000001
 44
0.0000000001
 40
0.0
 40
0.0
 40
0.0
 40
0.0
 40
0.482662079
 40
0.7369502828
 40
1.0
 40
1.0
 40
1.0
 40
1.0
 10
4.3188374254
 20
4.7380027793
 30
0.0
 10
4.319252103
 20
4.7384559556
 30
0.0
 10
4.319929661
 20
4.7391083487
 30
0.0
 10
4.3209129323
 20
4.7399167345
 30
0.0
 10
4.3214419375
 20
4.740309295
 30
0.0
 10
4.3217152762
 20
4.7405025831
 30
0.0
  0
SPLINE
  5
359
100
AcDbEntity
  8
ALL_ASSEMBLY_MEMBERS
100
AcDbSpline
 62
7
  6
CONTINUOUS
 70
0
 71
3
 72
15
 73
11
 74
0
 42
0.0000001
 43
0.0000001
 44
0.0000000001
 40
0.0
 40
0.0
 40
0.0
 40
0.0
 40
0.1121665338
 40
0.2292643196
 40
0.3507151327
 40
0.4759214496
 40
0.6041974547
 40
0.7348077954
 40
0.8670170328
 40
1.0
 40
1.0
 40
1.0
 40
1.0
 10
4.3256827251
 20
4.7179313758
 30
0.0
 10
4.3264322464
 20
4.7176058022
 30
0.0
 10
4.3279869997
 20
4.7169918103
 30
0.0
 10
4.3304166865
 20
4.7161969009
 30
0.0
 10
4.3329784352
 20
4.7155132953
 30
0.0
 10
4.3356516693
 20
4.7149463801
 30
0.0
 10
4.3384153113
 20
4.7145007319
 30
0.0
 10
4.3412475037
 20
4.7141797925
 30
0.0
 10
4.34412552
 20
4.7139862579
 30
0.0
 10
4.3460578321
 20
4.7139431461
 30
0.0
 10
4.3470266665
 20
4.7139431461
 30
0.0
  0
SPLINE
  5
35A
100
AcDbEntity
  8
ALL_ASSEMBLY_MEMBERS
100
AcDbSpline
 62
7
  6
CONTINUOUS
 70
0
 71
3
 72
12
 73
8
 74
0
 42
0.0000001
 43
0.0000001
 44
0.0000000001
 40
0.0
 40
0.0
 40
0.0
 40
0.0
 40
0.265078517
 40
0.394029641
 40
0.5204689132
 40
0.7655544429
 40
1.0
 40
1.0
 40
1.0
 40
1.0
 10
4.3633037831
 20
4.7130219867
 30
0.0
 10
4.3641169778
 20
4.7134836253
 30
0.0
 10
4.3653039737
 20
4.7142097914
 30
0.0
 10
4.3668143725
 20
4.7152542704
 30
0.0
 10
4.3682264732
 20
4.7163146073
 30
0.0
 10
4.3698560032
 20
4.7177022341
 30
0.0
 10
4.3710394176
 20
4.7189154892
 30
0.0
 10
4.3715844706
 20
4.7195374992
 30
0.0
  0
SPLINE
  5
35B
100
AcDbEntity
  8
ALL_ASSEMBLY_MEMBERS
100
AcDbSpline
 62
7
  6
CONTINUOUS
 70
0
 71
3
 72
18
 73
14
 74
0
 42
0.0000001
 43
0.0000001
 44
0.0000000001
 40
0.0
 40
0.0
 40
0.0
 40
0.0
 40
0.136454386
 40
0.2717543332
 40
0.4047383481
 40
0.5343241107
 40
0.6594861088
 40
0.7201250916
 40
0.7793211774
 40
0.8369835643
 40
0.8930359242
 40
0.9474020501
 40
1.0
 40
1.0
 40
1.0
 40
1.0
 10
4.3470266665
 20
4.7139431461
 30
0.0
 10
4.348184275
 20
4.7139431461
 30
0.0
 10
4.3504901802
 20
4.7140045609
 30
0.0
 10
4.3539142977
 20
4.7142801824
 30
0.0
 10
4.3572605123
 20
4.7147361478
 30
0.0
 10
4.360490617
 20
4.7153671214
 30
0.0
 10
4.3630823044
 20
4.7160398684
 30
0.0
 10
4.365065715
 20
4.7166622687
 30
0.0
 10
4.3664862427
 20
4.7171627803
 30
0.0
 10
4.3678513827
 20
4.7177004976
 30
0.0
 10
4.3691573252
 20
4.7182739312
 30
0.0
 10
4.3704001393
 20
4.7188813982
 30
0.0
 10
4.3711976375
 20
4.7193150877
 30
0.0
 10
4.3715844706
 20
4.7195374992
 30
0.0
  0
SPLINE
  5
35C
100
AcDbEntity
  8
ALL_ASSEMBLY_MEMBERS
100
AcDbSpline
 62
7
  6
CONTINUOUS
 70
0
 71
3
 72
14
 73
10
 74
0
 42
0.0000001
 43
0.0000001
 44
0.0000000001
 40
0.0
 40
0.0
 40
0.0
 40
0.0
 40
0.1418216731
 40
0.2784938949
 40
0.5366596529
 40
0.6586647875
 40
0.7762863728
 40
0.8899057234
 40
1.0
 40
1.0
 40
1.0
 40
1.0
 10
4.3723380568
 20
4.7405025831
 30
0.0
 10
4.3726354198
 20
4.7402923066
 30
0.0
 10
4.373209237
 20
4.7398647045
 30
0.0
 10
4.3742681346
 20
4.7389820646
 30
0.0
 10
4.3752136737
 20
4.7380444853
 30
0.0
 10
4.3760233268
 20
4.7370540506
 30
0.0
 10
4.3765447112
 20
4.736310583
 30
0.0
 10
4.3769899565
 20
4.7355544671
 30
0.0
 10
4.3772389146
 20
4.7350357482
 30
0.0
 10
4.3773495129
 20
4.7347755555
 30
0.0
  0
LINE
  5
35D
100
AcDbEntity
  8
ALL_ASSEMBLY_MEMBERS
100
AcDbLine
 62
7
  6
CONTINUOUS
 10
4.3773495129
 20
4.7347755555
 11
4.3779842209
 21
4.7323641194
  0
SPLINE
  5
35E
100
AcDbEntity
  8
ALL_ASSEMBLY_MEMBERS
100
AcDbSpline
 62
7
  6
CONTINUOUS
 70
0
 71
3
 72
32
 73
28
 74
0
 42
0.0000001
 43
0.0000001
 44
0.0000000001
 40
0.0
 40
0.0
 40
0.0
 40
0.0
 40
0.0202860603
 40
0.040717733
 40
0.0614358214
 40
0.0825735989
 40
0.104251914
 40
0.1265774551
 40
0.1496434788
 40
0.1735269164
 40
0.223951588
 40
0.2506012714
 40
0.2782326727
 40
0.3068569452
 40
0.3364756321
 40
0.3670785829
 40
0.3986489743
 40
0.4311638834
 40
0.4645910881
 40
0.5340193879
 40
0.5699416144
 40
0.6065983569
 40
0.6818863591
 40
0.7594036527
 40
0.8386317495
 40
0.9190435147
 40
1.0
 40
1.0
 40
1.0
 40
1.0
 10
4.3780266665
 20
4.7315536553
 30
0.0
 10
4.3780266665
 20
4.7312998337
 30
0.0
 10
4.3780015057
 20
4.7307900198
 30
0.0
 10
4.3778887357
 20
4.7300284929
 30
0.0
 10
4.3777012652
 20
4.7292708234
 30
0.0
 10
4.37743946
 20
4.7285190793
 30
0.0
 10
4.3771042131
 20
4.7277750589
 30
0.0
 10
4.3766965219
 20
4.7270405199
 30
0.0
 10
4.3762172867
 20
4.7263172469
 30
0.0
 10
4.3754712684
 20
4.7253528929
 30
0.0
 10
4.3745962107
 20
4.7244362323
 30
0.0
 10
4.3736127428
 20
4.7235701102
 30
0.0
 10
4.3727975964
 20
4.7229276903
 30
0.0
 10
4.3719206161
 20
4.722306173
 30
0.0
 10
4.3709837771
 20
4.7217070245
 30
0.0
 10
4.3699894274
 20
4.7211315609
 30
0.0
 10
4.3689399221
 20
4.7205811685
 30
0.0
 10
4.3678377064
 20
4.7200572549
 30
0.0
 10
4.3662818182
 20
4.7193871069
 30
0.0
 10
4.3646513319
 20
4.7187854263
 30
0.0
 10
4.3629570366
 20
4.7182496016
 30
0.0
 10
4.3611765451
 20
4.7177458018
 30
0.0
 10
4.358867706
 20
4.7172021929
 30
0.0
 10
4.3560082067
 20
4.7166925417
 30
0.0
 10
4.3530623837
 20
4.7163249679
 30
0.0
 10
4.3500590148
 20
4.7161031656
 30
0.0
 10
4.3480396038
 20
4.7160536553
 30
0.0
 10
4.3470266665
 20
4.7160536553
 30
0.0
  0
SPLINE
  5
35F
100
AcDbEntity
  8
ALL_ASSEMBLY_MEMBERS
100
AcDbSpline
 62
7
  6
CONTINUOUS
 70
0
 71
3
 72
36
 73
32
 74
0
 42
0.0000001
 43
0.0000001
 44
0.0000000001
 40
0.0
 40
0.0
 40
0.0
 40
0.0
 40
0.0288780075
 40
0.0587517632
 40
0.0895609277
 40
0.1212476963
 40
0.1537539027
 40
0.1870108015
 40
0.2554320693
 40
0.325804985
 40
0.3614831106
 40
0.3973471649
 40
0.4332906874
 40
0.4692054175
 40
0.5049824351
 40
0.540513217
 40
0.5756894061
 40
0.6104049617
 40
0.6780310965
 40
0.7107544008
 40
0.7426231639
 40
0.7735525311
 40
0.8034627135
 40
0.8322833297
 40
0.8599531003
 40
0.8864208594
 40
0.9116501496
 40
0.935616755
 40
0.9583167889
 40
0.979764586
 40
1.0
 40
1.0
 40
1.0
 40
1.0
 10
4.3715844706
 20
4.7195374992
 30
0.0
 10
4.371123447
 20
4.7192259406
 30
0.0
 10
4.3701673181
 20
4.7186186456
 30
0.0
 10
4.3686642696
 20
4.7177694566
 30
0.0
 10
4.3670736424
 20
4.7169694927
 30
0.0
 10
4.3654022501
 20
4.7162215808
 30
0.0
 10
4.3636567459
 20
4.7155280471
 30
0.0
 10
4.3612168854
 20
4.7146707966
 30
0.0
 10
4.3580277547
 20
4.713753767
 30
0.0
 10
4.3547369717
 20
4.7130534346
 30
0.0
 10
4.3520371188
 20
4.7126173355
 30
0.0
 10
4.3499825243
 20
4.7123537257
 30
0.0
 10
4.3479160272
 20
4.7121557178
 30
0.0
 10
4.345845967
 20
4.7120233792
 30
0.0
 10
4.3437807041
 20
4.7119568954
 30
0.0
 10
4.3417286121
 20
4.7119557858
 30
0.0
 10
4.3396979296
 20
4.7120196325
 30
0.0
 10
4.3370532886
 20
4.7121887392
 30
0.0
 10
4.334465001
 20
4.712482341
 30
0.0
 10
4.3319520523
 20
4.7129038211
 30
0.0
 10
4.3301488566
 20
4.7132748936
 30
0.0
 10
4.3284138948
 20
4.7137020959
 30
0.0
 10
4.3267541411
 20
4.7141832916
 30
0.0
 10
4.3251762803
 20
4.7147159424
 30
0.0
 10
4.3236866215
 20
4.715297294
 30
0.0
 10
4.3222911928
 20
4.7159246256
 30
0.0
 10
4.3209954851
 20
4.7165946722
 30
0.0
 10
4.3198047797
 20
4.7173044814
 30
0.0
 10
4.3187236891
 20
4.7180505604
 30
0.0
 10
4.317756691
 20
4.7188295297
 30
0.0
 10
4.3171741393
 20
4.7193842245
 30
0.0
 10
4.3169048878
 20
4.7196662277
 30
0.0
  0
SPLINE
  5
360
100
AcDbEntity
  8
ALL_ASSEMBLY_MEMBERS
100
AcDbSpline
 62
7
  6
CONTINUOUS
 70
0
 71
3
 72
14
 73
10
 74
0
 42
0.0000001
 43
0.0000001
 44
0.0000000001
 40
0.0
 40
0.0
 40
0.0
 40
0.0
 40
0.2712316089
 40
0.4000310819
 40
0.524953426
 40
0.6466518197
 40
0.7658576727
 40
0.8833610333
 40
1.0
 40
1.0
 40
1.0
 40
1.0
 10
4.3163299132
 20
4.7203149425
 30
0.0
 10
4.3160360635
 20
4.7206735705
 30
0.0
 10
4.315635986
 20
4.7212320946
 30
0.0
 10
4.315202799
 20
4.7220188253
 30
0.0
 10
4.3149404921
 20
4.7226054024
 30
0.0
 10
4.3147359106
 20
4.7231972045
 30
0.0
 10
4.3145893729
 20
4.7237930112
 30
0.0
 10
4.3145012606
 20
4.7243914558
 30
0.0
 10
4.3144816814
 20
4.7247919701
 30
0.0
 10
4.3144816929
 20
4.7249913511
 30
0.0
  0
SPLINE
  5
361
100
AcDbEntity
  8
ALL_ASSEMBLY_MEMBERS
100
AcDbSpline
 62
7
  6
CONTINUOUS
 70
0
 71
3
 72
20
 73
16
 74
0
 42
0.0000001
 43
0.0000001
 44
0.0000000001
 40
0.0
 40
0.0
 40
0.0
 40
0.0
 40
0.0161728331
 40
0.0258036186
 40
0.0369209756
 40
0.0643334836
 40
0.0992315881
 40
0.1417947005
 40
0.1919721843
 40
0.2494665808
 40
0.313814204
 40
0.4610154349
 40
0.6286948361
 40
0.8109417894
 40
1.0
 40
1.0
 40
1.0
 40
1.0
 10
5.3278216718
 20
4.1233376731
 30
0.0
 10
5.3278216702
 20
4.1233762254
 30
0.0
 10
5.3278007846
 20
4.1234380007
 30
0.0
 10
5.3277474085
 20
4.1235080645
 30
0.0
 10
5.3276638353
 20
4.1235875171
 30
0.0
 10
5.327515305
 20
4.1236823257
 30
0.0
 10
5.3272881618
 20
4.1237874936
 30
0.0
 10
5.3270012193
 20
4.123889731
 30
0.0
 10
5.3266566204
 20
4.1239878184
 30
0.0
 10
5.3262570879
 20
4.1240807066
 30
0.0
 10
5.3256271486
 20
4.124201727
 30
0.0
 10
5.3247315096
 20
4.1243281981
 30
0.0
 10
5.3235513245
 20
4.1244388272
 30
0.0
 10
5.3222680287
 20
4.1245072385
 30
0.0
 10
5.3213828494
 20
4.1245229443
 30
0.0
 10
5.3209321783
 20
4.1245229443
 30
0.0
  0
SPLINE
  5
362
100
AcDbEntity
  8
ALL_ASSEMBLY_MEMBERS
100
AcDbSpline
 62
7
  6
CONTINUOUS
 70
0
 71
3
 72
23
 73
19
 74
0
 42
0.0000001
 43
0.0000001
 44
0.0000000001
 40
0.0
 40
0.0
 40
0.0
 40
0.0
 40
0.0078034152
 40
0.0161641464
 40
0.0256081261
 40
0.0365034451
 40
0.0490751587
 40
0.0634558353
 40
0.0979038589
 40
0.1401458142
 40
0.1900907423
 40
0.247437934
 40
0.3118120388
 40
0.3826710245
 40
0.459367591
 40
0.6275128975
 40
0.8101911166
 40
1.0
 40
1.0
 40
1.0
 40
1.0
 10
5.3376642386
 20
4.1233376965
 30
0.0
 10
5.3376642405
 20
4.1232927395
 30
0.0
 10
5.337649903
 20
4.1231991027
 30
0.0
 10
5.3375867665
 20
4.1230640397
 30
0.0
 10
5.3374839519
 20
4.1229331454
 30
0.0
 10
5.3373424506
 20
4.1228059281
 30
0.0
 10
5.3371627234
 20
4.1226816924
 30
0.0
 10
5.3368532817
 20
4.122509448
 30
0.0
 10
5.3363671568
 20
4.1223081647
 30
0.0
 10
5.3356698805
 20
4.1220917833
 30
0.0
 10
5.3348319155
 20
4.1218897611
 30
0.0
 10
5.3338604035
 20
4.1217032346
 30
0.0
 10
5.3327636914
 20
4.1215339992
 30
0.0
 10
5.3315519829
 20
4.1213828035
 30
0.0
 10
5.3297421721
 20
4.1212006823
 30
0.0
 10
5.327284483
 20
4.1210298681
 30
0.0
 10
5.3241717917
 20
4.1209090269
 30
0.0
 10
5.3220257045
 20
4.1208821398
 30
0.0
 10
5.3209321783
 20
4.1208821398
 30
0.0
  0
SPLINE
  5
363
100
AcDbEntity
  8
ALL_ASSEMBLY_MEMBERS
100
AcDbSpline
 62
7
  6
CONTINUOUS
 70
0
 71
3
 72
20
 73
16
 74
0
 42
0.0000001
 43
0.0000001
 44
0.0000000001
 40
0.0
 40
0.0
 40
0.0
 40
0.0
 40
0.189057575
 40
0.3713042276
 40
0.5389848736
 40
0.6861864316
 40
0.7505333508
 40
0.8080268943
 40
0.8582038084
 40
0.9007670648
 40
0.9356657355
 40
0.9630788201
 40
0.9741963456
 40
0.9838271894
 40
1.0
 40
1.0
 40
1.0
 40
1.0
 10
5.3209321783
 20
4.1245229443
 30
0.0
 10
5.3204815087
 20
4.1245229443
 30
0.0
 10
5.3195963317
 20
4.1245072393
 30
0.0
 10
5.3183130351
 20
4.1244388273
 30
0.0
 10
5.3171328471
 20
4.1243281966
 30
0.0
 10
5.3162372058
 20
4.1242017275
 30
0.0
 10
5.3156072693
 20
4.1240807082
 30
0.0
 10
5.3152077418
 20
4.1239878209
 30
0.0
 10
5.3148631461
 20
4.1238897332
 30
0.0
 10
5.3145762035
 20
4.1237874954
 30
0.0
 10
5.3143490571
 20
4.1236823269
 30
0.0
 10
5.3142005234
 20
4.123587518
 30
0.0
 10
5.3141169479
 20
4.1235080649
 30
0.0
 10
5.3140635712
 20
4.123438001
 30
0.0
 10
5.314042686
 20
4.1233762253
 30
0.0
 10
5.3140426847
 20
4.1233376731
 30
0.0
  0
SPLINE
  5
364
100
AcDbEntity
  8
ALL_ASSEMBLY_MEMBERS
100
AcDbSpline
 62
7
  6
CONTINUOUS
 70
0
 71
3
 72
23
 73
19
 74
0
 42
0.0000001
 43
0.0000001
 44
0.0000000001
 40
0.0
 40
0.0
 40
0.0
 40
0.0
 40
0.1898090382
 40
0.3724871401
 40
0.5406320978
 40
0.6173287805
 40
0.6881879839
 40
0.752562232
 40
0.8099093563
 40
0.859854115
 40
0.9020959549
 40
0.9365440101
 40
0.9509247321
 40
0.9634964936
 40
0.9743918508
 40
0.9838358491
 40
0.9921965845
 40
1.0
 40
1.0
 40
1.0
 40
1.0
 10
5.3209321783
 20
4.1208821398
 30
0.0
 10
5.3198386512
 20
4.1208821398
 30
0.0
 10
5.3176925639
 20
4.1209090273
 30
0.0
 10
5.3145798743
 20
4.1210298677
 30
0.0
 10
5.3121221872
 20
4.121200682
 30
0.0
 10
5.3103123766
 20
4.1213828037
 30
0.0
 10
5.3091006654
 20
4.1215339997
 30
0.0
 10
5.3080039515
 20
4.1217032346
 30
0.0
 10
5.3070324399
 20
4.1218897607
 30
0.0
 10
5.3061944769
 20
4.1220917826
 30
0.0
 10
5.3054972023
 20
4.1223081642
 30
0.0
 10
5.3050110776
 20
4.1225094475
 30
0.0
 10
5.3047016351
 20
4.1226816919
 30
0.0
 10
5.3045219071
 20
4.1228059277
 30
0.0
 10
5.304380405
 20
4.1229331451
 30
0.0
 10
5.3042775899
 20
4.1230640395
 30
0.0
 10
5.3042144535
 20
4.1231991027
 30
0.0
 10
5.3042001161
 20
4.1232927395
 30
0.0
 10
5.304200118
 20
4.1233376965
 30
0.0
  0
LINE
  5
365
100
AcDbEntity
  8
ALL_ASSEMBLY_MEMBERS
100
AcDbLine
 62
7
  6
CONTINUOUS
 10
5.3209321783
 20
4.1263945707
 11
5.3285424497
 21
4.1260304215
  0
SPLINE
  5
366
100
AcDbEntity
  8
ALL_ASSEMBLY_MEMBERS
100
AcDbSpline
 62
7
  6
CONTINUOUS
 70
0
 71
3
 72
19
 73
15
 74
0
 42
0.0000001
 43
0.0000001
 44
0.0000000001
 40
0.0
 40
0.0
 40
0.0
 40
0.0
 40
0.20355588
 40
0.388916636
 40
0.5529760947
 40
0.6930837406
 40
0.7535900277
 40
0.8074763989
 40
0.8546516999
 40
0.8951680966
 40
0.9292150896
 40
0.95723513
 40
0.9801956094
 40
1.0
 40
1.0
 40
1.0
 40
1.0
 10
5.3285424497
 20
4.1260304215
 30
0.0
 10
5.3292032999
 20
4.1259639842
 30
0.0
 10
5.330464074
 20
4.1258172794
 30
0.0
 10
5.3322478951
 20
4.1255430129
 30
0.0
 10
5.3338151599
 20
4.1252321054
 30
0.0
 10
5.3349688753
 20
4.1249369133
 30
0.0
 10
5.3357598817
 20
4.1246833655
 30
0.0
 10
5.3362538934
 20
4.1244986167
 30
0.0
 10
5.3366763849
 20
4.1243109179
 30
0.0
 10
5.3370260573
 20
4.1241213382
 30
0.0
 10
5.3373022301
 20
4.123930653
 30
0.0
 10
5.3375045852
 20
4.1237385465
 30
0.0
 10
5.3376325659
 20
4.1235426282
 30
0.0
 10
5.337664236
 20
4.1234023162
 30
0.0
 10
5.3376642386
 20
4.1233376965
 30
0.0
  0
SPLINE
  5
367
100
AcDbEntity
  8
ALL_ASSEMBLY_MEMBERS
100
AcDbSpline
 62
7
  6
CONTINUOUS
 70
0
 71
3
 72
18
 73
14
 74
0
 42
0.0000001
 43
0.0000001
 44
0.0000000001
 40
0.0
 40
0.0
 40
0.0
 40
0.0
 40
0.0196331412
 40
0.0421488034
 40
0.0696179638
 40
0.1031481057
 40
0.143227933
 40
0.1900563012
 40
0.3040558468
 40
0.4444578624
 40
0.6090795544
 40
0.7953332078
 40
1.0
 40
1.0
 40
1.0
 40
1.0
 10
5.3140426847
 20
4.1233376731
 30
0.0
 10
5.3140426839
 20
4.1233111511
 30
0.0
 10
5.3140556327
 20
4.1232538093
 30
0.0
 10
5.3141091657
 20
4.123174783
 30
0.0
 10
5.3141938488
 20
4.1230991603
 30
0.0
 10
5.3143094511
 20
4.1230257535
 30
0.0
 10
5.314455802
 20
4.1229541513
 30
0.0
 10
5.3147085912
 20
4.1228547946
 30
0.0
 10
5.3151002818
 20
4.1227418011
 30
0.0
 10
5.3156542609
 20
4.1226244044
 30
0.0
 10
5.3163098899
 20
4.1225199289
 30
0.0
 10
5.3170551715
 20
4.1224307019
 30
0.0
 10
5.3175812972
 20
4.122384257
 30
0.0
 10
5.3178569917
 20
4.1223634276
 30
0.0
  0
LINE
  5
368
100
AcDbEntity
  8
ALL_ASSEMBLY_MEMBERS
100
AcDbLine
 62
7
  6
CONTINUOUS
 10
5.3178569917
 20
4.1223634276
 11
5.3209321783
 21
4.1222543051
  0
SPLINE
  5
369
100
AcDbEntity
  8
ALL_ASSEMBLY_MEMBERS
100
AcDbSpline
 62
7
  6
CONTINUOUS
 70
0
 71
3
 72
23
 73
19
 74
0
 42
0.0000001
 43
0.0000001
 44
0.0000000001
 40
0.0
 40
0.0
 40
0.0
 40
0.0
 40
0.0078812127
 40
0.0164536615
 40
0.0261985843
 40
0.0374419714
 40
0.0503770288
 40
0.0651150352
 40
0.1002079959
 40
0.1429471231
 40
0.1932146859
 40
0.2507048315
 40
0.3150490248
 40
0.385731092
 40
0.4621336633
 40
0.6294611839
 40
0.8111746924
 40
1.0
 40
1.0
 40
1.0
 40
1.0
 10
5.3376642364
 20
4.125837604
 30
0.0
 10
5.337664234
 20
4.1258833609
 30
0.0
 10
5.3376494638
 20
4.1259793234
 30
0.0
 10
5.3375861646
 20
4.1261191772
 30
0.0
 10
5.3374833617
 20
4.1262578334
 30
0.0
 10
5.3373418554
 20
4.1263956963
 30
0.0
 10
5.3371620842
 20
4.1265332252
 30
0.0
 10
5.3368532898
 20
4.126727435
 30
0.0
 10
5.3363683312
 20
4.1269623282
 30
0.0
 10
5.3356720341
 20
4.1272251874
 30
0.0
 10
5.3348357189
 20
4.1274799801
 30
0.0
 10
5.3338663667
 20
4.1277235946
 30
0.0
 10
5.3327720439
 20
4.1279523024
 30
0.0
 10
5.3315625738
 20
4.128163158
 30
0.0
 10
5.3297557419
 20
4.1284244397
 30
0.0
 10
5.3272979291
 20
4.1286804993
 30
0.0
 10
5.3241800098
 20
4.1288680324
 30
0.0
 10
5.3220284626
 20
4.1289106426
 30
0.0
 10
5.3209321783
 20
4.1289106426
 30
0.0
  0
SPLINE
  5
36A
100
AcDbEntity
  8
ALL_ASSEMBLY_MEMBERS
100
AcDbSpline
 62
7
  6
CONTINUOUS
 70
0
 71
3
 72
19
 73
15
 74
0
 42
0.0000001
 43
0.0000001
 44
0.0000000001
 40
0.0
 40
0.0
 40
0.0
 40
0.0
 40
0.0198049523
 40
0.0427658196
 40
0.0707860016
 40
0.1048329554
 40
0.1453492186
 40
0.1925243779
 40
0.2464106673
 40
0.3069168988
 40
0.4470242174
 40
0.6110828505
 40
0.7964431978
 40
1.0
 40
1.0
 40
1.0
 40
1.0
 10
5.304200118
 20
4.1233376965
 30
0.0
 10
5.3042001208
 20
4.1234023133
 30
0.0
 10
5.3042317878
 20
4.1235426182
 30
0.0
 10
5.3043597568
 20
4.123738528
 30
0.0
 10
5.3045620938
 20
4.1239306265
 30
0.0
 10
5.3048382423
 20
4.1241213036
 30
0.0
 10
5.3051878849
 20
4.1243108755
 30
0.0
 10
5.3056103415
 20
4.1244985669
 30
0.0
 10
5.3061043138
 20
4.1246833091
 30
0.0
 10
5.3068952577
 20
4.1249368486
 30
0.0
 10
5.3080488815
 20
4.125232033
 30
0.0
 10
5.3096160234
 20
4.125542936
 30
0.0
 10
5.3113997106
 20
4.1258172017
 30
0.0
 10
5.312660393
 20
4.1259639096
 30
0.0
 10
5.3133211973
 20
4.1260303499
 30
0.0
  0
LINE
  5
36B
100
AcDbEntity
  8
ALL_ASSEMBLY_MEMBERS
100
AcDbLine
 62
7
  6
CONTINUOUS
 10
5.3133211973
 20
4.1260303499
 11
5.3209321783
 21
4.1263945707
  0
LINE
  5
36C
100
AcDbEntity
  8
ALL_ASSEMBLY_MEMBERS
100
AcDbLine
 62
7
  6
CONTINUOUS
 10
5.3217226629
 20
4.1222611856
 11
5.3240072907
 21
4.1223634226
  0
SPLINE
  5
36D
100
AcDbEntity
  8
ALL_ASSEMBLY_MEMBERS
100
AcDbSpline
 62
7
  6
CONTINUOUS
 70
0
 71
3
 72
18
 73
14
 74
0
 42
0.0000001
 43
0.0000001
 44
0.0000000001
 40
0.0
 40
0.0
 40
0.0
 40
0.0
 40
0.2046682898
 40
0.3909226323
 40
0.5555427642
 40
0.6959425846
 40
0.8099416072
 40
0.856770528
 40
0.8968510988
 40
0.9303819048
 40
0.9578513979
 40
0.9803670226
 40
1.0
 40
1.0
 40
1.0
 40
1.0
 10
5.3240072907
 20
4.1223634226
 30
0.0
 10
5.3242829923
 20
4.1223842521
 30
0.0
 10
5.3248091306
 20
4.1224306972
 30
0.0
 10
5.3255544271
 20
4.1225199228
 30
0.0
 10
5.3262100644
 20
4.1226243969
 30
0.0
 10
5.3267640482
 20
4.1227417936
 30
0.0
 10
5.3271557431
 20
4.1228547886
 30
0.0
 10
5.3274085385
 20
4.1229541461
 30
0.0
 10
5.3275548952
 20
4.1230257492
 30
0.0
 10
5.3276705026
 20
4.123099157
 30
0.0
 10
5.3277551896
 20
4.1231747804
 30
0.0
 10
5.3278087243
 20
4.1232538081
 30
0.0
 10
5.3278216729
 20
4.1233111508
 30
0.0
 10
5.3278216718
 20
4.1233376731
 30
0.0
  0
SPLINE
  5
36E
100
AcDbEntity
  8
ALL_ASSEMBLY_MEMBERS
100
AcDbSpline
 62
7
  6
CONTINUOUS
 70
0
 71
3
 72
23
 73
19
 74
0
 42
0.0000001
 43
0.0000001
 44
0.0000000001
 40
0.0
 40
0.0
 40
0.0
 40
0.0
 40
0.1888229036
 40
0.3705327349
 40
0.5378605567
 40
0.6142646738
 40
0.6849485675
 40
0.7492938873
 40
0.8067841067
 40
0.8570512933
 40
0.899790283
 40
0.9348837029
 40
0.9496220702
 40
0.9625575115
 40
0.9738012536
 40
0.9835463683
 40
0.9921188286
 40
1.0
 40
1.0
 40
1.0
 40
1.0
 10
5.3209321783
 20
4.1289106426
 30
0.0
 10
5.319835908
 20
4.1289106426
 30
0.0
 10
5.317684396
 20
4.1288680371
 30
0.0
 10
5.3145665104
 20
4.1286805045
 30
0.0
 10
5.3121087077
 20
4.1284244515
 30
0.0
 10
5.3103018548
 20
4.128163166
 30
0.0
 10
5.3090923585
 20
4.1279523092
 30
0.0
 10
5.3079980176
 20
4.1277236021
 30
0.0
 10
5.30702866
 20
4.1274799894
 30
0.0
 10
5.306192347
 20
4.1272251981
 30
0.0
 10
5.3054960507
 20
4.1269623374
 30
0.0
 10
5.3050110887
 20
4.1267274423
 30
0.0
 10
5.3047022875
 20
4.1265332304
 30
0.0
 10
5.3045225099
 20
4.1263956995
 30
0.0
 10
5.3043809972
 20
4.1262578355
 30
0.0
 10
5.3042781898
 20
4.1261191784
 30
0.0
 10
5.3042148905
 20
4.1259793233
 30
0.0
 10
5.304200122
 20
4.1258833606
 30
0.0
 10
5.3042001204
 20
4.125837604
 30
0.0
  0
SPLINE
  5
36F
100
AcDbEntity
  8
ALL_ASSEMBLY_MEMBERS
100
AcDbSpline
 62
7
  6
CONTINUOUS
 70
0
 71
3
 72
11
 73
7
 74
0
 42
0.0000001
 43
0.0000001
 44
0.0000000001
 40
0.0
 40
0.0
 40
0.0
 40
0.0
 40
0.256892837
 40
0.5114128163
 40
0.7601004297
 40
1.0
 40
1.0
 40
1.0
 40
1.0
 10
4.3470266665
 20
4.7111314154
 30
0.0
 10
4.3495333049
 20
4.7111314154
 30
0.0
 10
4.3545271417
 20
4.7113941095
 30
0.0
 10
4.3618666405
 20
4.7125490201
 30
0.0
 10
4.3688830104
 20
4.7144294392
 30
0.0
 10
4.3733396558
 20
4.7161547262
 30
0.0
 10
4.3754695603
 20
4.7171257947
 30
0.0
  0
SPLINE
  5
370
100
AcDbEntity
  8
ALL_ASSEMBLY_MEMBERS
100
AcDbSpline
 62
7
  6
CONTINUOUS
 70
0
 71
3
 72
9
 73
5
 74
0
 42
0.0000001
 43
0.0000001
 44
0.0000000001
 40
0.0
 40
0.0
 40
0.0
 40
0.0
 40
0.2564087861
 40
1.0
 40
1.0
 40
1.0
 40
1.0
 10
4.3754695603
 20
4.7171257947
 30
0.0
 10
4.376029734
 20
4.7173811897
 30
0.0
 10
4.3781988268
 20
4.7184108551
 30
0.0
 10
4.3803045412
 20
4.7195758935
 30
0.0
 10
4.3818178455
 20
4.7205232729
 30
0.0
  0
SPLINE
  5
371
100
AcDbEntity
  8
ALL_ASSEMBLY_MEMBERS
100
AcDbSpline
 62
7
  6
CONTINUOUS
 70
0
 71
3
 72
11
 73
7
 74
0
 42
0.0000001
 43
0.0000001
 44
0.0000000001
 40
0.0
 40
0.0
 40
0.0
 40
0.0
 40
0.2314916821
 40
0.471192174
 40
0.7258718476
 40
1.0
 40
1.0
 40
1.0
 40
1.0
 10
4.3894816559
 20
4.7325972156
 30
0.0
 10
4.3894816327
 20
4.7318207572
 30
0.0
 10
4.3893056863
 20
4.7302351947
 30
0.0
 10
4.3885222717
 20
4.7279127733
 30
0.0
 10
4.3872396955
 20
4.7256612692
 30
0.0
 10
4.3861148722
 20
4.7242794946
 30
0.0
 10
4.3854869314
 20
4.7236078466
 30
0.0
  0
SPLINE
  5
372
100
AcDbEntity
  8
ALL_ASSEMBLY_MEMBERS
100
AcDbSpline
 62
7
  6
CONTINUOUS
 70
0
 71
3
 72
13
 73
9
 74
0
 42
0.0000001
 43
0.0000001
 44
0.0000000001
 40
0.0
 40
0.0
 40
0.0
 40
0.0
 40
0.2365451695
 40
0.3595200218
 40
0.4848773609
 40
0.6121484016
 40
0.7408447792
 40
1.0
 40
1.0
 40
1.0
 40
1.0
 10
4.3152496557
 20
4.7187762505
 30
0.0
 10
4.3175420552
 20
4.7175462283
 30
0.0
 10
4.3211620157
 20
4.7159191677
 30
0.0
 10
4.3262089249
 20
4.7141908032
 30
0.0
 10
4.330194131
 20
4.7130928066
 30
0.0
 10
4.3342997368
 20
4.7122239252
 30
0.0
 10
4.3399052154
 20
4.711386855
 30
0.0
 10
4.3441764512
 20
4.7111314154
 30
0.0
 10
4.3470266665
 20
4.7111314154
 30
0.0
  0
LINE
  5
373
100
AcDbEntity
  8
ALL_ASSEMBLY_MEMBERS
100
AcDbLine
 62
7
  6
CONTINUOUS
 10
4.3130483884
 20
4.7200333224
 11
4.3119572163
 21
4.7211035933
  0
SPLINE
  5
374
100
AcDbEntity
  8
ALL_ASSEMBLY_MEMBERS
100
AcDbSpline
 62
7
  6
CONTINUOUS
 70
0
 71
3
 72
20
 73
16
 74
0
 42
0.0000001
 43
0.0000001
 44
0.0000000001
 40
0.0
 40
0.0
 40
0.0
 40
0.0
 40
0.1285524996
 40
0.1883064915
 40
0.2456435222
 40
0.3012092731
 40
0.355735804
 40
0.4100209948
 40
0.4648929782
 40
0.5211420246
 40
0.5794835704
 40
0.7046587412
 40
0.7725556177
 40
0.84431897
 40
1.0
 40
1.0
 40
1.0
 40
1.0
 10
4.3119572163
 20
4.7211035933
 30
0.0
 10
4.3113325346
 20
4.721773435
 30
0.0
 10
4.3104952353
 20
4.7228370326
 30
0.0
 10
4.3096570912
 20
4.7243771989
 30
0.0
 10
4.3092029007
 20
4.725524068
 30
0.0
 10
4.3089104182
 20
4.7266842156
 30
0.0
 10
4.3087816729
 20
4.7278521294
 30
0.0
 10
4.3088186962
 20
4.7290217061
 30
0.0
 10
4.3090223732
 20
4.7301863233
 30
0.0
 10
4.3093906444
 20
4.7313399432
 30
0.0
 10
4.310114797
 20
4.7328914848
 30
0.0
 10
4.3111630846
 20
4.7343645246
 30
0.0
 10
4.3124636693
 20
4.7357334724
 30
0.0
 10
4.31404143
 20
4.7371293964
 30
0.0
 10
4.3153814647
 20
4.7380535648
 30
0.0
 10
4.3163307196
 20
4.7386273804
 30
0.0
  0
LINE
  5
375
100
AcDbEntity
  8
ALL_ASSEMBLY_MEMBERS
100
AcDbLine
 62
7
  6
CONTINUOUS
 10
4.3163307196
 20
4.7386273804
 11
4.3184001517
 21
4.7397662794
  0
LINE
  5
376
100
AcDbEntity
  8
ALL_ASSEMBLY_MEMBERS
100
AcDbLine
 62
7
  6
CONTINUOUS
 10
4.3854869314
 20
4.7236078466
 11
4.3826001202
 21
4.721023273
  0
SPLINE
  5
377
100
AcDbEntity
  8
ALL_ASSEMBLY_MEMBERS
100
AcDbSpline
 62
7
  6
CONTINUOUS
 70
0
 71
3
 72
16
 73
12
 74
0
 42
0.0000001
 43
0.0000001
 44
0.0000000001
 40
0.0
 40
0.0
 40
0.0
 40
0.0
 40
0.1252166148
 40
0.2506777926
 40
0.3758389593
 40
0.50088126
 40
0.6257820572
 40
0.7505217528
 40
0.8130201349
 40
0.8755730648
 40
1.0
 40
1.0
 40
1.0
 40
1.0
 10
4.0514383101
 20
3.9347718583
 30
0.0
 10
4.0513931061
 20
3.9334412645
 30
0.0
 10
4.0515798935
 20
3.9307608978
 30
0.0
 10
4.052644793
 20
3.9268836663
 30
0.0
 10
4.0544536316
 20
3.9232921444
 30
0.0
 10
4.0569387107
 20
3.9201386782
 30
0.0
 10
4.0599939564
 20
3.9175416617
 30
0.0
 10
4.062922862
 20
3.9159297241
 30
0.0
 10
4.0654197915
 20
3.9150126572
 30
0.0
 10
4.0679925728
 20
3.9143541539
 30
0.0
 10
4.0699876937
 20
3.9141498447
 30
0.0
 10
4.0713106589
 20
3.9141498447
 30
0.0
  0
SPLINE
  5
378
100
AcDbEntity
  8
ALL_ASSEMBLY_MEMBERS
100
AcDbSpline
 62
7
  6
CONTINUOUS
 70
0
 71
3
 72
20
 73
16
 74
0
 42
0.0000001
 43
0.0000001
 44
0.0000000001
 40
0.0
 40
0.0
 40
0.0
 40
0.0
 40
0.006221805
 40
0.0144726452
 40
0.0370287872
 40
0.0675363748
 40
0.1057957026
 40
0.1514785884
 40
0.2041994578
 40
0.2635628663
 40
0.3290697222
 40
0.4761951909
 40
0.6407565863
 40
0.8174795234
 40
1.0
 40
1.0
 40
1.0
 40
1.0
 10
4.0514383101
 20
3.9347718583
 30
0.0
 10
4.0514779081
 20
3.9347833867
 30
0.0
 10
4.051571732
 20
3.9348041311
 30
0.0
 10
4.0518140878
 20
3.9348431583
 30
0.0
 10
4.0522186778
 20
3.9348845604
 30
0.0
 10
4.0528225589
 20
3.9349265518
 30
0.0
 10
4.053580425
 20
3.9349624075
 30
0.0
 10
4.0544858392
 20
3.9349920806
 30
0.0
 10
4.0555313869
 20
3.9350150111
 30
0.0
 10
4.0567084749
 20
3.9350309164
 30
0.0
 10
4.0585114044
 20
3.93504298
 30
0.0
 10
4.0610117225
 20
3.9350379399
 30
0.0
 10
4.064249059
 20
3.9350038138
 30
0.0
 10
4.0677206441
 20
3.934942092
 30
0.0
 10
4.0701012536
 20
3.9348843456
 30
0.0
 10
4.0713106589
 20
3.9348511675
 30
0.0
  0
SPLINE
  5
379
100
AcDbEntity
  8
ALL_ASSEMBLY_MEMBERS
100
AcDbSpline
 62
7
  6
CONTINUOUS
 70
0
 71
3
 72
20
 73
16
 74
0
 42
0.0000001
 43
0.0000001
 44
0.0000000001
 40
0.0
 40
0.0
 40
0.0
 40
0.0
 40
0.1824734751
 40
0.3591748749
 40
0.5237337237
 40
0.6708695001
 40
0.7363844568
 40
0.7957569451
 40
0.8484872187
 40
0.8941792873
 40
0.9324470382
 40
0.9629618172
 40
0.9855235942
 40
0.9937765699
 40
1.0
 40
1.0
 40
1.0
 40
1.0
 10
4.2182596852
 20
3.9348511675
 30
0.0
 10
4.2194703437
 20
3.9348526482
 30
0.0
 10
4.2218533808
 20
3.9348479908
 30
0.0
 10
4.2253281075
 20
3.934818686
 30
0.0
 10
4.2285681073
 20
3.9347679015
 30
0.0
 10
4.2310700988
 20
3.9347073408
 30
0.0
 10
4.2328739294
 20
3.9346479597
 30
0.0
 10
4.2340514523
 20
3.9346011541
 30
0.0
 10
4.2350971821
 20
3.9345507692
 30
0.0
 10
4.2360025167
 20
3.9344973135
 30
0.0
 10
4.2367600414
 20
3.9344415426
 30
0.0
 10
4.2373633083
 20
3.9343836728
 30
0.0
 10
4.2377671434
 20
3.9343316235
 30
0.0
 10
4.2380086768
 20
3.9342862097
 30
0.0
 10
4.2381020354
 20
3.9342629894
 30
0.0
 10
4.2381413646
 20
3.9342504143
 30
0.0
  0
SPLINE
  5
37A
100
AcDbEntity
  8
ALL_ASSEMBLY_MEMBERS
100
AcDbSpline
 62
7
  6
CONTINUOUS
 70
0
 71
3
 72
17
 73
13
 74
0
 42
0.0000001
 43
0.0000001
 44
0.0000000001
 40
0.0
 40
0.0
 40
0.0
 40
0.0
 40
0.125297122
 40
0.1881630557
 40
0.250975931
 40
0.3762723327
 40
0.5014154883
 40
0.6263436684
 40
0.7510261752
 40
0.8134107623
 40
0.8757873947
 40
1.0
 40
1.0
 40
1.0
 40
1.0
 10
4.2685266665
 20
4.4034938034
 30
0.0
 10
4.2667316889
 20
4.4034869598
 30
0.0
 10
4.2640280315
 20
4.4032100656
 30
0.0
 10
4.2605370681
 20
4.4023329598
 30
0.0
 10
4.2571474145
 20
4.4011186599
 30
0.0
 10
4.2531601741
 20
4.3989929826
 30
0.0
 10
4.2489715207
 20
4.3955673599
 30
0.0
 10
4.2455285013
 20
4.3914041867
 30
0.0
 10
4.2433947638
 20
4.3874410987
 30
0.0
 10
4.2421806352
 20
4.3840745496
 30
0.0
 10
4.2413081303
 20
4.3806119217
 30
0.0
 10
4.2410380575
 20
4.3779296423
 30
0.0
 10
4.2410375485
 20
4.3761501884
 30
0.0
  0
SPLINE
  5
37B
100
AcDbEntity
  8
ALL_ASSEMBLY_MEMBERS
100
AcDbSpline
 62
7
  6
CONTINUOUS
 70
0
 71
3
 72
16
 73
12
 74
0
 42
0.0000001
 43
0.0000001
 44
0.0000000001
 40
0.0
 40
0.0
 40
0.0
 40
0.0
 40
0.156443482
 40
0.3052685804
 40
0.4447666547
 40
0.5741750288
 40
0.6933497007
 40
0.8028674439
 40
0.9041794572
 40
0.95259715
 40
1.0
 40
1.0
 40
1.0
 40
1.0
 10
4.3650247556
 20
4.7518228222
 30
0.0
 10
4.3666780786
 20
4.7513432802
 30
0.0
 10
4.3698703277
 20
4.7502842672
 30
0.0
 10
4.3743749966
 20
4.7483548018
 30
0.0
 10
4.3784124718
 20
4.7461403783
 30
0.0
 10
4.3819133188
 20
4.7436768809
 30
0.0
 10
4.3848178876
 20
4.7409938291
 30
0.0
 10
4.3870785958
 20
4.7381302101
 30
0.0
 10
4.3884032495
 20
4.7355786973
 30
0.0
 10
4.3890736615
 20
4.7335116754
 30
0.0
 10
4.3892830137
 20
4.7324753128
 30
0.0
 10
4.3893554639
 20
4.7319587601
 30
0.0
  0
LINE
  5
37C
100
AcDbEntity
  8
ALL_ASSEMBLY_MEMBERS
100
AcDbLine
 62
7
  6
CONTINUOUS
 10
4.0638783718
 20
4.3924534245
 11
4.0596192511
 21
4.3733306018
  0
SPLINE
  5
37D
100
AcDbEntity
  8
ALL_ASSEMBLY_MEMBERS
100
AcDbSpline
 62
7
  6
CONTINUOUS
 70
0
 71
3
 72
18
 73
14
 74
0
 42
0.0000001
 43
0.0000001
 44
0.0000000001
 40
0.0
 40
0.0
 40
0.0
 40
0.0
 40
0.163728737
 40
0.3177773084
 40
0.4600981165
 40
0.5898186976
 40
0.6499458886
 40
0.7069889177
 40
0.8123885409
 40
0.8615037379
 40
0.9087656016
 40
0.9547204483
 40
1.0
 40
1.0
 40
1.0
 40
1.0
 10
4.3650247556
 20
4.7518228222
 30
0.0
 10
4.3667914018
 20
4.7514093599
 30
0.0
 10
4.3701902192
 20
4.7504692906
 30
0.0
 10
4.3749700429
 20
4.7486722975
 30
0.0
 10
4.3792007629
 20
4.746554359
 30
0.0
 10
4.3822759106
 20
4.7445080051
 30
0.0
 10
4.3843650054
 20
4.742736438
 30
0.0
 10
4.3861072896
 20
4.7409884541
 30
0.0
 10
4.3875330084
 20
4.7391015864
 30
0.0
 10
4.3885493046
 20
4.7371044754
 30
0.0
 10
4.3890858285
 20
4.7356164066
 30
0.0
 10
4.3894096213
 20
4.7341114649
 30
0.0
 10
4.3894816709
 20
4.7330989877
 30
0.0
 10
4.3894816559
 20
4.7325972156
 30
0.0
  0
SPLINE
  5
37E
100
AcDbEntity
  8
ALL_ASSEMBLY_MEMBERS
100
AcDbSpline
 62
7
  6
CONTINUOUS
 70
0
 71
3
 72
15
 73
11
 74
0
 42
0.0000001
 43
0.0000001
 44
0.0000000001
 40
0.0
 40
0.0
 40
0.0
 40
0.0
 40
0.1048578078
 40
0.2129072137
 40
0.3262500766
 40
0.4462683821
 40
0.5737000081
 40
0.708779124
 40
0.8512002929
 40
1.0
 40
1.0
 40
1.0
 40
1.0
 10
4.383258089
 20
4.7314685051
 30
0.0
 10
4.3831949034
 20
4.7324663462
 30
0.0
 10
4.3828585034
 20
4.7344842824
 30
0.0
 10
4.3817669957
 20
4.7374147743
 30
0.0
 10
4.3801174196
 20
4.7402378145
 30
0.0
 10
4.377952947
 20
4.7429258153
 30
0.0
 10
4.3753125021
 20
4.7454547482
 30
0.0
 10
4.3722407188
 20
4.7478053295
 30
0.0
 10
4.3687855024
 20
4.7499564205
 30
0.0
 10
4.3663107643
 20
4.7512234292
 30
0.0
 10
4.3650247556
 20
4.7518228222
 30
0.0
  0
SPLINE
  5
37F
100
AcDbEntity
  8
ALL_ASSEMBLY_MEMBERS
100
AcDbSpline
 62
7
  6
CONTINUOUS
 70
0
 71
3
 72
35
 73
31
 74
0
 42
0.0000001
 43
0.0000001
 44
0.0000000001
 40
0.0
 40
0.0
 40
0.0
 40
0.0
 40
0.2264596151
 40
0.329930249
 40
0.4265943571
 40
0.5162367969
 40
0.5986955454
 40
0.673824638
 40
0.7414776753
 40
0.8015128999
 40
0.8538149872
 40
0.8770327695
 40
0.8982772398
 40
0.9175350334
 40
0.9347927756
 40
0.9500380803
 40
0.9632645951
 40
0.9744682279
 40
0.9836448894
 40
0.9874718276
 40
0.990790489
 40
0.993600362
 40
0.9959009351
 40
0.9976916967
 40
0.9983957384
 40
0.9989721353
 40
0.9994208235
 40
0.9997417392
 40
0.9999348187
 40
1.0
 40
1.0
 40
1.0
 40
1.0
 10
4.0416102599
 20
4.4400046916
 30
0.0
 10
4.0409527015
 20
4.4370955042
 30
0.0
 10
4.0399754792
 20
4.432861402
 30
0.0
 10
4.0386758035
 20
4.4273953413
 30
0.0
 10
4.0377781226
 20
4.4236859087
 30
0.0
 10
4.0369328959
 20
4.4202485341
 30
0.0
 10
4.0361444891
 20
4.4170892836
 30
0.0
 10
4.0354170187
 20
4.4142133355
 30
0.0
 10
4.0347545083
 20
4.4116255982
 30
0.0
 10
4.0341609614
 20
4.4093305518
 30
0.0
 10
4.0337100756
 20
4.4076031026
 30
0.0
 10
4.0333862777
 20
4.4063704928
 30
0.0
 10
4.0331723038
 20
4.4055590075
 30
0.0
 10
4.03297774
 20
4.4048235838
 30
0.0
 10
4.0328029282
 20
4.4041646647
 30
0.0
 10
4.0326482047
 20
4.403582599
 30
0.0
 10
4.0325137357
 20
4.4030776535
 30
0.0
 10
4.0323996336
 20
4.4026499967
 30
0.0
 10
4.0323172965
 20
4.4023419921
 30
0.0
 10
4.0322616952
 20
4.4021343353
 30
0.0
 10
4.0322277461
 20
4.402007689
 30
0.0
 10
4.0321989764
 20
4.4019004651
 30
0.0
 10
4.0321753787
 20
4.4018126936
 30
0.0
 10
4.0321589931
 20
4.4017516902
 30
0.0
 10
4.0321484265
 20
4.4017126589
 30
0.0
 10
4.0321425767
 20
4.4016906217
 30
0.0
 10
4.0321377338
 20
4.4016736387
 30
0.0
 10
4.032134908
 20
4.4016611063
 30
0.0
 10
4.0321320396
 20
4.4016542656
 30
0.0
 10
4.0321320381
 20
4.4016504446
 30
0.0
 10
4.032131424
 20
4.4016498447
 30
0.0
  0
SPLINE
  5
380
100
AcDbEntity
  8
ALL_ASSEMBLY_MEMBERS
100
AcDbSpline
 62
7
  6
CONTINUOUS
 70
0
 71
3
 72
32
 73
28
 74
0
 42
0.0000001
 43
0.0000001
 44
0.0000000001
 40
0.0
 40
0.0
 40
0.0
 40
0.0
 40
0.0851006932
 40
0.1691939736
 40
0.2509509252
 40
0.3292814824
 40
0.4032220348
 40
0.4718118792
 40
0.5038543512
 40
0.5342790549
 40
0.5630267671
 40
0.5900851526
 40
0.6155019743
 40
0.6393853981
 40
0.6619332804
 40
0.6834616243
 40
0.7043937881
 40
0.7252118716
 40
0.7464311059
 40
0.76853266
 40
0.7918739217
 40
0.8167076096
 40
0.8431923144
 40
0.871376348
 40
0.9012337608
 40
0.9326925982
 40
1.0
 40
1.0
 40
1.0
 40
1.0
 10
4.3470266665
 20
4.7529353665
 30
0.0
 10
4.344963048
 20
4.7529353665
 30
0.0
 10
4.3408599446
 20
4.7528746736
 30
0.0
 10
4.3347800566
 20
4.7525936306
 30
0.0
 10
4.3288768656
 20
4.7521147945
 30
0.0
 10
4.3232428524
 20
4.7514162343
 30
0.0
 10
4.3179673432
 20
4.7504767553
 30
0.0
 10
4.3138557318
 20
4.7494465804
 30
0.0
 10
4.3108359846
 20
4.7484518481
 30
0.0
 10
4.3087761064
 20
4.7476422587
 30
0.0
 10
4.3068834563
 20
4.7467490395
 30
0.0
 10
4.305172384
 20
4.745768599
 30
0.0
 10
4.3036580277
 20
4.7446973874
 30
0.0
 10
4.3023542152
 20
4.7435353198
 30
0.0
 10
4.3012752824
 20
4.7422822255
 30
0.0
 10
4.3004389196
 20
4.7409376847
 30
0.0
 10
4.2998586596
 20
4.7395087045
 30
0.0
 10
4.2995419246
 20
4.7380065805
 30
0.0
 10
4.299497015
 20
4.7364439035
 30
0.0
 10
4.299724008
 20
4.734836498
 30
0.0
 10
4.3002122461
 20
4.7331980135
 30
0.0
 10
4.3009542877
 20
4.7315416107
 30
0.0
 10
4.301941353
 20
4.7298813553
 30
0.0
 10
4.3031587303
 20
4.7282288398
 30
0.0
 10
4.3045927001
 20
4.7265964758
 30
0.0
 10
4.3068256786
 20
4.7244157083
 30
0.0
 10
4.3087102125
 20
4.7229241326
 30
0.0
 10
4.3100428202
 20
4.7219817639
 30
0.0
  0
SPLINE
  5
381
100
AcDbEntity
  8
ALL_ASSEMBLY_MEMBERS
100
AcDbSpline
 62
7
  6
CONTINUOUS
 70
0
 71
3
 72
9
 73
5
 74
0
 42
0.0000001
 43
0.0000001
 44
0.0000000001
 40
0.0
 40
0.0
 40
0.0
 40
0.0
 40
0.4762128285
 40
1.0
 40
1.0
 40
1.0
 40
1.0
 10
4.3100979034
 20
4.7327525532
 30
0.0
 10
4.3109940806
 20
4.73345022
 30
0.0
 10
4.3129854146
 20
4.7347765759
 30
0.0
 10
4.3151138108
 20
4.7358628833
 30
0.0
 10
4.3162519439
 20
4.7363777806
 30
0.0
  0
SPLINE
  5
382
100
AcDbEntity
  8
ALL_ASSEMBLY_MEMBERS
100
AcDbSpline
 62
7
  6
CONTINUOUS
 70
0
 71
3
 72
14
 73
10
 74
0
 42
0.0000001
 43
0.0000001
 44
0.0000000001
 40
0.0
 40
0.0
 40
0.0
 40
0.0
 40
0.2198973051
 40
0.4564869608
 40
0.5822665236
 40
0.6473645815
 40
0.7141020369
 40
0.8532016232
 40
1.0
 40
1.0
 40
1.0
 40
1.0
 10
4.2606306506
 20
4.4400052186
 30
0.0
 10
4.258816893
 20
4.4378953452
 30
0.0
 10
4.2551795348
 20
4.4334042309
 30
0.0
 10
4.2508782972
 20
4.4274168623
 30
0.0
 10
4.2479445488
 20
4.4228715462
 30
0.0
 10
4.2462601475
 20
4.4200806644
 30
0.0
 10
4.2445536754
 20
4.417107182
 30
0.0
 10
4.2424850271
 20
4.4131513688
 30
0.0
 10
4.2410191136
 20
4.4098396184
 30
0.0
 10
4.2403416783
 20
4.4081101521
 30
0.0
  0
SPLINE
  5
383
100
AcDbEntity
  8
ALL_ASSEMBLY_MEMBERS
100
AcDbSpline
 62
7
  6
CONTINUOUS
 70
0
 71
3
 72
15
 73
11
 74
0
 42
0.0000001
 43
0.0000001
 44
0.0000000001
 40
0.0
 40
0.0
 40
0.0
 40
0.0
 40
0.2408283807
 40
0.363687073
 40
0.4880761826
 40
0.6139853454
 40
0.6775126556
 40
0.7414129747
 40
0.8702780029
 40
1.0
 40
1.0
 40
1.0
 40
1.0
 10
4.260629339
 20
4.4400046916
 30
0.0
 10
4.2572212387
 20
4.4388484761
 30
0.0
 10
4.2521486129
 20
4.4368710644
 30
0.0
 10
4.2455475202
 20
4.433764122
 30
0.0
 10
4.240628173
 20
4.4311321771
 30
0.0
 10
4.2366254532
 20
4.4286819392
 30
0.0
 10
4.2335009202
 20
4.4265429205
 30
0.0
 10
4.2304233453
 20
4.4242617374
 30
0.0
 10
4.2267424289
 20
4.4211403728
 30
0.0
 10
4.2240822094
 20
4.4183194682
 30
0.0
 10
4.2228607409
 20
4.4168141641
 30
0.0
  0
SPLINE
  5
384
100
AcDbEntity
  8
ALL_ASSEMBLY_MEMBERS
100
AcDbSpline
 62
7
  6
CONTINUOUS
 70
0
 71
3
 72
9
 73
5
 74
0
 42
0.0000001
 43
0.0000001
 44
0.0000000001
 40
0.0
 40
0.0
 40
0.0
 40
0.0
 40
0.4999957103
 40
1.0
 40
1.0
 40
1.0
 40
1.0
 10
4.2403413771
 20
4.40811029
 30
0.0
 10
4.2394138186
 20
4.4057423203
 30
0.0
 10
4.2380485247
 20
4.400802522
 30
0.0
 10
4.2376610183
 20
4.3956962423
 30
0.0
 10
4.2377114107
 20
4.3931535413
 30
0.0
  0
SPLINE
  5
385
100
AcDbEntity
  8
ALL_ASSEMBLY_MEMBERS
100
AcDbSpline
 62
7
  6
CONTINUOUS
 70
0
 71
3
 72
9
 73
5
 74
0
 42
0.0000001
 43
0.0000001
 44
0.0000000001
 40
0.0
 40
0.0
 40
0.0
 40
0.0
 40
0.4999933132
 40
1.0
 40
1.0
 40
1.0
 40
1.0
 10
4.2228607409
 20
4.4168141641
 30
0.0
 10
4.2211824859
 20
4.4132340349
 30
0.0
 10
4.2186286015
 20
4.4056718347
 30
0.0
 10
4.2177779331
 20
4.3977400422
 30
0.0
 10
4.2177800698
 20
4.3937859687
 30
0.0
  0
SPLINE
  5
386
100
AcDbEntity
  8
ALL_ASSEMBLY_MEMBERS
100
AcDbSpline
 62
7
  6
CONTINUOUS
 70
0
 71
3
 72
15
 73
11
 74
0
 42
0.0000001
 43
0.0000001
 44
0.0000000001
 40
0.0
 40
0.0
 40
0.0
 40
0.0
 40
0.0263797833
 40
0.0591688645
 40
0.142945477
 40
0.2490817522
 40
0.3746459565
 40
0.5164222025
 40
0.6707459328
 40
1.0
 40
1.0
 40
1.0
 40
1.0
 10
4.2403413771
 20
4.40811029
 30
0.0
 10
4.2401948339
 20
4.4081998657
 30
0.0
 10
4.2398625331
 20
4.4083948589
 30
0.0
 10
4.2390508883
 20
4.4088503203
 30
0.0
 10
4.2377717565
 20
4.4095333805
 30
0.0
 10
4.2359460008
 20
4.4104744364
 30
0.0
 10
4.2337732272
 20
4.4115662113
 30
0.0
 10
4.231310594
 20
4.4127796658
 30
0.0
 10
4.2276468613
 20
4.4145557487
 30
0.0
 10
4.2248021099
 20
4.4159050528
 30
0.0
 10
4.2228607409
 20
4.4168141631
 30
0.0
  0
LINE
  5
387
100
AcDbEntity
  8
ALL_ASSEMBLY_MEMBERS
100
AcDbLine
 62
7
  6
CONTINUOUS
 10
4.2177800698
 20
4.3937859687
 11
4.2182595019
 21
3.9348511675
  0
SPLINE
  5
388
100
AcDbEntity
  8
ALL_ASSEMBLY_MEMBERS
100
AcDbSpline
 62
7
  6
CONTINUOUS
 70
0
 71
3
 72
21
 73
17
 74
0
 42
0.0000001
 43
0.0000001
 44
0.0000000001
 40
0.0
 40
0.0
 40
0.0
 40
0.0
 40
0.0051936572
 40
0.0124671173
 40
0.0218305065
 40
0.0332745392
 40
0.0623337046
 40
0.0994645507
 40
0.1443382005
 40
0.1965611452
 40
0.2557288526
 40
0.3213252347
 40
0.4693930089
 40
0.6357397964
 40
0.8148376171
 40
1.0
 40
1.0
 40
1.0
 40
1.0
 10
4.2377112873
 20
4.3931535414
 30
0.0
 10
4.237679444
 20
4.393166948
 30
0.0
 10
4.2375997107
 20
4.3931908992
 30
0.0
 10
4.237457853
 20
4.3932218944
 30
0.0
 10
4.2372735607
 20
4.3932529495
 30
0.0
 10
4.2369448776
 20
4.3932979423
 30
0.0
 10
4.2364309784
 20
4.3933505368
 30
0.0
 10
4.2356943852
 20
4.3934083823
 30
0.0
 10
4.2348031361
 20
4.3934638441
 30
0.0
 10
4.2337649183
 20
4.3935164449
 30
0.0
 10
4.2325885351
 20
4.393565496
 30
0.0
 10
4.2307746135
 20
4.3936281463
 30
0.0
 10
4.2282473898
 20
4.3936924919
 30
0.0
 10
4.2249647652
 20
4.3937472885
 30
0.0
 10
4.2214350697
 20
4.3937800967
 30
0.0
 10
4.2190118473
 20
4.3937866338
 30
0.0
 10
4.2177800698
 20
4.3937859686
 30
0.0
  0
LINE
  5
389
100
AcDbEntity
  8
ALL_ASSEMBLY_MEMBERS
100
AcDbLine
 62
7
  6
CONTINUOUS
 10
4.2377112873
 20
4.3931535414
 11
4.2381411017
 21
3.9342504137
  0
SPLINE
  5
38A
100
AcDbEntity
  8
ALL_ASSEMBLY_MEMBERS
100
AcDbSpline
 62
7
  6
CONTINUOUS
 70
0
 71
3
 72
15
 73
11
 74
0
 42
0.0000001
 43
0.0000001
 44
0.0000000001
 40
0.0
 40
0.0
 40
0.0
 40
0.0
 40
0.2405534159
 40
0.3633621984
 40
0.4877505818
 40
0.6137030163
 40
0.6772652526
 40
0.7412082958
 40
0.8701703736
 40
1.0
 40
1.0
 40
1.0
 40
1.0
 10
4.041611518
 20
4.4400046916
 30
0.0
 10
4.0449744821
 20
4.438844051
 30
0.0
 10
4.0499787143
 20
4.4368591158
 30
0.0
 10
4.0564873939
 20
4.4337445759
 30
0.0
 10
4.0613383349
 20
4.4311074805
 30
0.0
 10
4.0652840627
 20
4.4286550567
 30
0.0
 10
4.0683630813
 20
4.4265158434
 30
0.0
 10
4.0713953852
 20
4.4242359085
 30
0.0
 10
4.0750204746
 20
4.4211204337
 30
0.0
 10
4.0776387253
 20
4.4183112829
 30
0.0
 10
4.0788409616
 20
4.4168141641
 30
0.0
  0
SPLINE
  5
38B
100
AcDbEntity
  8
ALL_ASSEMBLY_MEMBERS
100
AcDbSpline
 62
7
  6
CONTINUOUS
 70
0
 71
3
 72
14
 73
10
 74
0
 42
0.0000001
 43
0.0000001
 44
0.0000000001
 40
0.0
 40
0.0
 40
0.0
 40
0.0
 40
0.2193261673
 40
0.4558284056
 40
0.5817104429
 40
0.6468881546
 40
0.7137187944
 40
0.8530188371
 40
1.0
 40
1.0
 40
1.0
 40
1.0
 10
4.0416102666
 20
4.4400052026
 30
0.0
 10
4.0433786768
 20
4.4379014835
 30
0.0
 10
4.0469253164
 20
4.4334198372
 30
0.0
 10
4.051112996
 20
4.427447914
 30
0.0
 10
4.0539704131
 20
4.4229145964
 30
0.0
 10
4.0556116984
 20
4.4201306881
 30
0.0
 10
4.0572747149
 20
4.4171652993
 30
0.0
 10
4.0592903851
 20
4.4132240668
 30
0.0
 10
4.060719424
 20
4.4099293837
 30
0.0
 10
4.0613803275
 20
4.4082103103
 30
0.0
  0
SPLINE
  5
38C
100
AcDbEntity
  8
ALL_ASSEMBLY_MEMBERS
100
AcDbSpline
 62
7
  6
CONTINUOUS
 70
0
 71
3
 72
9
 73
5
 74
0
 42
0.0000001
 43
0.0000001
 44
0.0000000001
 40
0.0
 40
0.0
 40
0.0
 40
0.0
 40
0.4999968506
 40
1.0
 40
1.0
 40
1.0
 40
1.0
 10
4.0788409616
 20
4.4168141641
 30
0.0
 10
4.0805888499
 20
4.4130469225
 30
0.0
 10
4.0831946413
 20
4.4050698483
 30
0.0
 10
4.0839123274
 20
4.3967145186
 30
0.0
 10
4.0838007984
 20
4.3925629865
 30
0.0
  0
SPLINE
  5
38D
100
AcDbEntity
  8
ALL_ASSEMBLY_MEMBERS
100
AcDbSpline
 62
7
  6
CONTINUOUS
 70
0
 71
3
 72
9
 73
5
 74
0
 42
0.0000001
 43
0.0000001
 44
0.0000000001
 40
0.0
 40
0.0
 40
0.0
 40
0.0
 40
0.5000449705
 40
1.0
 40
1.0
 40
1.0
 40
1.0
 10
4.0613804477
 20
4.4082103647
 30
0.0
 10
4.062339689
 20
4.4057151321
 30
0.0
 10
4.0637120176
 20
4.4005014883
 30
0.0
 10
4.0640012589
 20
4.3951233791
 30
0.0
 10
4.063877899
 20
4.3924534462
 30
0.0
  0
SPLINE
  5
38E
100
AcDbEntity
  8
ALL_ASSEMBLY_MEMBERS
100
AcDbSpline
 62
7
  6
CONTINUOUS
 70
0
 71
3
 72
15
 73
11
 74
0
 42
0.0000001
 43
0.0000001
 44
0.0000000001
 40
0.0
 40
0.0
 40
0.0
 40
0.0
 40
0.3276642625
 40
0.4814127611
 40
0.622874715
 40
0.7484544052
 40
0.8549881978
 40
0.9395840876
 40
0.9729435042
 40
1.0
 40
1.0
 40
1.0
 40
1.0
 10
4.0788409616
 20
4.4168141587
 30
0.0
 10
4.0769116385
 20
4.415919905
 30
0.0
 10
4.0740834384
 20
4.4145921168
 30
0.0
 10
4.0704388802
 20
4.4128433793
 30
0.0
 10
4.0679843268
 20
4.4116463342
 30
0.0
 10
4.0658134166
 20
4.4105668464
 30
0.0
 10
4.0639823003
 20
4.4096331555
 30
0.0
 10
4.0626938189
 20
4.4089529097
 30
0.0
 10
4.0618705095
 20
4.4084969643
 30
0.0
 10
4.0615309941
 20
4.408300745
 30
0.0
 10
4.0613804477
 20
4.4082103647
 30
0.0
  0
LINE
  5
38F
100
AcDbEntity
  8
ALL_ASSEMBLY_MEMBERS
100
AcDbLine
 62
7
  6
CONTINUOUS
 10
4.0638782577
 20
4.3924534361
 11
4.0514385734
 21
3.9347718508
  0
SPLINE
  5
390
100
AcDbEntity
  8
ALL_ASSEMBLY_MEMBERS
100
AcDbSpline
 62
7
  6
CONTINUOUS
 70
0
 71
3
 72
21
 73
17
 74
0
 42
0.0000001
 43
0.0000001
 44
0.0000000001
 40
0.0
 40
0.0
 40
0.0
 40
0.0
 40
0.1852041651
 40
0.3643181945
 40
0.5306631126
 40
0.6787179223
 40
0.7443057572
 40
0.8034646323
 40
0.8556791732
 40
0.9005454256
 40
0.937670449
 40
0.9667258437
 40
0.978168848
 40
0.987531819
 40
0.9948054937
 40
1.0
 40
1.0
 40
1.0
 40
1.0
 10
4.0838007984
 20
4.3925629864
 30
0.0
 10
4.0825703207
 20
4.3925959059
 30
0.0
 10
4.0801496109
 20
4.392652834
 30
0.0
 10
4.0766231541
 20
4.3927125077
 30
0.0
 10
4.0733432433
 20
4.3927437554
 30
0.0
 10
4.070817691
 20
4.3927456873
 30
0.0
 10
4.0690046278
 20
4.3927306324
 30
0.0
 10
4.0678286214
 20
4.3927124613
 30
0.0
 10
4.0667905045
 20
4.3926871278
 30
0.0
 10
4.0658990753
 20
4.3926550883
 30
0.0
 10
4.0651620126
 20
4.3926166181
 30
0.0
 10
4.064647457
 20
4.3925775587
 30
0.0
 10
4.0643180459
 20
4.3925412392
 30
0.0
 10
4.0641331815
 20
4.3925150546
 30
0.0
 10
4.0639906864
 20
4.392487818
 30
0.0
 10
4.063910419
 20
4.3924659887
 30
0.0
 10
4.0638782577
 20
4.3924534361
 30
0.0
  0
LINE
  5
391
100
AcDbEntity
  8
ALL_ASSEMBLY_MEMBERS
100
AcDbLine
 62
7
  6
CONTINUOUS
 10
4.0838007984
 20
4.3925629865
 11
4.0713108424
 21
3.9348511675
  0
LINE
  5
392
100
AcDbEntity
  8
ALL_ASSEMBLY_MEMBERS
100
AcDbLine
 62
7
  6
CONTINUOUS
 10
4.3840105127
 20
4.7219817639
 11
4.3869057081
 21
4.7242246048
  0
LINE
  5
393
100
AcDbEntity
  8
ALL_ASSEMBLY_MEMBERS
100
AcDbLine
 62
7
  6
CONTINUOUS
 10
4.3869057081
 20
4.7242246048
 11
4.3889585791
 21
4.7261204838
  0
SPLINE
  5
394
100
AcDbEntity
  8
ALL_ASSEMBLY_MEMBERS
100
AcDbSpline
 62
7
  6
CONTINUOUS
 70
0
 71
3
 72
9
 73
5
 74
0
 42
0.0000001
 43
0.0000001
 44
0.0000000001
 40
0.0
 40
0.0
 40
0.0
 40
0.0
 40
0.5162848163
 40
1.0
 40
1.0
 40
1.0
 40
1.0
 10
4.3889585791
 20
4.7261204838
 30
0.0
 10
4.3895525528
 20
4.7267180493
 30
0.0
 10
4.390656252
 20
4.7279233431
 30
0.0
 10
4.3916396086
 20
4.7292300962
 30
0.0
 10
4.3920767366
 20
4.7298874145
 30
0.0
  0
SPLINE
  5
395
100
AcDbEntity
  8
ALL_ASSEMBLY_MEMBERS
100
AcDbSpline
 62
7
  6
CONTINUOUS
 70
0
 71
3
 72
28
 73
24
 74
0
 42
0.0000001
 43
0.0000001
 44
0.0000000001
 40
0.0
 40
0.0
 40
0.0
 40
0.0
 40
0.0519087088
 40
0.0758686888
 40
0.0986643086
 40
0.1205052976
 40
0.1416700112
 40
0.1625129877
 40
0.1834033418
 40
0.2046918489
 40
0.226698399
 40
0.2496931038
 40
0.2738709684
 40
0.3261883402
 40
0.384184553
 40
0.447759052
 40
0.5164790878
 40
0.5526011133
 40
0.5897838932
 40
0.6669725704
 40
0.7473706189
 40
0.8302651056
 40
1.0
 40
1.0
 40
1.0
 40
1.0
 10
4.3920767366
 20
4.7298874145
 30
0.0
 10
4.392664969
 20
4.7307719514
 30
0.0
 10
4.3934274447
 20
4.7321390071
 30
0.0
 10
4.3941119712
 20
4.7340423602
 30
0.0
 10
4.3944282895
 20
4.7354138828
 30
0.0
 10
4.3945563259
 20
4.7367586868
 30
0.0
 10
4.3944903924
 20
4.7380684894
 30
0.0
 10
4.3942324348
 20
4.7393345359
 30
0.0
 10
4.3937868846
 20
4.7405498723
 30
0.0
 10
4.3931582559
 20
4.7417082389
 30
0.0
 10
4.3923516997
 20
4.7428037539
 30
0.0
 10
4.3913775874
 20
4.7438352985
 30
0.0
 10
4.3898270188
 20
4.7451597637
 30
0.0
 10
4.3874890605
 20
4.7466380601
 30
0.0
 10
4.3842418316
 20
4.748111342
 30
0.0
 10
4.3805453631
 20
4.7493528004
 30
0.0
 10
4.3772001179
 20
4.7501934387
 30
0.0
 10
4.3743523489
 20
4.7507757243
 30
0.0
 10
4.3713191579
 20
4.7513110849
 30
0.0
 10
4.3673702123
 20
4.751861959
 30
0.0
 10
4.36247232
 20
4.7523513699
 30
0.0
 10
4.3556716823
 20
4.752808061
 30
0.0
 10
4.3505001627
 20
4.7529353665
 30
0.0
 10
4.3470266665
 20
4.7529353665
 30
0.0
  0
SPLINE
  5
396
100
AcDbEntity
  8
ALL_ASSEMBLY_MEMBERS
100
AcDbSpline
 62
7
  6
CONTINUOUS
 70
0
 71
3
 72
17
 73
13
 74
0
 42
0.0000001
 43
0.0000001
 44
0.0000000001
 40
0.0
 40
0.0
 40
0.0
 40
0.0
 40
0.125219165
 40
0.1880235525
 40
0.2507652007
 40
0.3759111498
 40
0.5009351929
 40
0.6258167682
 40
0.7505563727
 40
0.8130150365
 40
0.8754964895
 40
1.0
 40
1.0
 40
1.0
 40
1.0
 10
4.2381413646
 20
3.9342504143
 30
0.0
 10
4.2381480075
 20
3.9329405294
 30
0.0
 10
4.237962289
 20
3.9309659262
 30
0.0
 10
4.2373405939
 20
3.928414369
 30
0.0
 10
4.2364706329
 20
3.9259363652
 30
0.0
 10
4.2349349258
 20
3.9230197477
 30
0.0
 10
4.2324461081
 20
3.9199546791
 30
0.0
 10
4.2294119706
 20
3.9174347656
 30
0.0
 10
4.2265185144
 20
3.9158735565
 30
0.0
 10
4.2240581889
 20
3.9149853108
 30
0.0
 10
4.2215249742
 20
3.9143469122
 30
0.0
 10
4.2195621005
 20
3.9141498447
 30
0.0
 10
4.2182596852
 20
3.9141498447
 30
0.0
  0
SPLINE
  5
397
100
AcDbEntity
  8
ALL_ASSEMBLY_MEMBERS
100
AcDbSpline
 62
7
  6
CONTINUOUS
 70
0
 71
3
 72
15
 73
11
 74
0
 42
0.0000001
 43
0.0000001
 44
0.0000000001
 40
0.0
 40
0.0
 40
0.0
 40
0.0
 40
0.0414433687
 40
0.1545443019
 40
0.3155767614
 40
0.4999968917
 40
0.6844178382
 40
0.8454508257
 40
0.9585536103
 40
1.0
 40
1.0
 40
1.0
 40
1.0
 10
4.9495266665
 20
5.0866498447
 30
0.0
 10
4.94712769
 20
5.0862831723
 30
0.0
 10
4.9381736126
 20
5.0849682903
 30
0.0
 10
4.9198315616
 20
5.0826894023
 30
0.0
 10
4.8930601858
 20
5.0804713691
 30
0.0
 10
4.862027165
 20
5.0795691988
 30
0.0
 10
4.8309941112
 20
5.080471309
 30
0.0
 10
4.8042225451
 20
5.0826893149
 30
0.0
 10
4.7858801779
 20
5.0849682243
 30
0.0
 10
4.7769258178
 20
5.0862831453
 30
0.0
 10
4.7745266665
 20
5.0866498447
 30
0.0
  0
ELLIPSE
  5
398
100
AcDbEntity
  8
ALL_ASSEMBLY_MEMBERS
100
AcDbEllipse
 62
7
  6
CONTINUOUS
 10
5.2527599421
 20
4.6016498447
 30
0.0
 11
-0.0
 21
0.48475
 31
0.0
 40
0.2210555332
 41
6.3004893413
 42
6.3175170955
  0
ELLIPSE
  5
399
100
AcDbEntity
  8
ALL_ASSEMBLY_MEMBERS
100
AcDbEllipse
 62
7
  6
CONTINUOUS
 10
5.2575807311
 20
4.6016498447
 30
0.0
 11
0.0
 21
0.48475
 31
0.0
 40
0.7957997678
 41
6.2863035852
 42
6.3004893413
  0
ELLIPSE
  5
39A
100
AcDbEntity
  8
ALL_ASSEMBLY_MEMBERS
100
AcDbEllipse
 62
7
  6
CONTINUOUS
 10
5.3263111853
 20
4.6016498447
 30
0.0
 11
0.0
 21
0.48475
 31
0.0
 40
0.7957996981
 41
-0.0173040341
 42
-0.0031182781
  0
ELLIPSE
  5
39B
100
AcDbEntity
  8
ALL_ASSEMBLY_MEMBERS
100
AcDbEllipse
 62
7
  6
CONTINUOUS
 10
5.3311319739
 20
4.6016498447
 30
0.0
 11
0.0
 21
0.48475
 31
0.0
 40
0.2210555139
 41
-0.0343317884
 42
-0.0173040341
  0
ELLIPSE
  5
39C
100
AcDbEntity
  8
ALL_ASSEMBLY_MEMBERS
100
AcDbEllipse
 62
7
  6
CONTINUOUS
 10
5.4105146697
 20
4.6016498447
 30
0.0
 11
3.2147129739
 21
0.0
 31
0.0
 40
0.1507910672
 41
1.6102429677
 42
1.6130823074
  0
ELLIPSE
  5
39D
100
AcDbEntity
  8
ALL_ASSEMBLY_MEMBERS
100
AcDbEllipse
 62
7
  6
CONTINUOUS
 10
5.3561554673
 20
4.6016498447
 30
0.0
 11
1.9288162072
 21
-0.0
 31
0.0
 40
0.2513199538
 41
1.6130823074
 42
1.6159220045
  0
ELLIPSE
  5
39E
100
AcDbEntity
  8
ALL_ASSEMBLY_MEMBERS
100
AcDbEllipse
 62
7
  6
CONTINUOUS
 10
5.327152443
 20
4.6016498447
 30
0.0
 11
1.2858813755
 21
0.0
 31
0.0
 40
0.3769787861
 41
1.6159220045
 42
1.621602498
  0
ELLIPSE
  5
39F
100
AcDbEntity
  8
ALL_ASSEMBLY_MEMBERS
100
AcDbEllipse
 62
7
  6
CONTINUOUS
 10
5.2945011064
 20
4.6016498447
 30
0.0
 11
0.6429400371
 21
-0.0
 31
0.0
 40
0.7539583352
 41
1.621602498
 42
1.6301263818
  0
ELLIPSE
  5
3A0
100
AcDbEntity
  8
ALL_ASSEMBLY_MEMBERS
100
AcDbEllipse
 62
7
  6
CONTINUOUS
 10
5.2792517713
 20
4.6016498447
 30
0.0
 11
-0.0
 21
0.48475
 31
0.0
 40
0.7957993124
 41
0.059330055
 42
0.0735464445
  0
ELLIPSE
  5
3A1
100
AcDbEntity
  8
ALL_ASSEMBLY_MEMBERS
100
AcDbEllipse
 62
7
  6
CONTINUOUS
 10
5.2587796811
 20
4.6016498447
 30
0.0
 11
0.0
 21
0.48475
 31
0.0
 40
0.2210555332
 41
0.0735464445
 42
0.0906260353
  0
ELLIPSE
  5
3A2
100
AcDbEntity
  8
ALL_ASSEMBLY_MEMBERS
100
AcDbEllipse
 62
7
  6
CONTINUOUS
 10
5.3251122354
 20
4.6016498447
 30
0.0
 11
-0.0
 21
0.48475
 31
0.0
 40
0.2210555139
 41
-0.0906260353
 42
-0.0735464445
  0
ELLIPSE
  5
3A3
100
AcDbEntity
  8
ALL_ASSEMBLY_MEMBERS
100
AcDbEllipse
 62
7
  6
CONTINUOUS
 10
5.304640147
 20
4.6016498447
 30
0.0
 11
-0.0
 21
0.48475
 31
0.0
 40
0.7957992427
 41
-0.0735464445
 42
-0.059330055
  0
ELLIPSE
  5
3A4
100
AcDbEntity
  8
ALL_ASSEMBLY_MEMBERS
100
AcDbEllipse
 62
7
  6
CONTINUOUS
 10
5.2893908144
 20
4.6016498447
 30
0.0
 11
0.642939962
 21
-0.0
 31
0.0
 40
0.7539584232
 41
7.794651579
 42
7.8031754627
  0
ELLIPSE
  5
3A5
100
AcDbEntity
  8
ALL_ASSEMBLY_MEMBERS
100
AcDbEllipse
 62
7
  6
CONTINUOUS
 10
5.2567394854
 20
4.6016498447
 30
0.0
 11
1.2858811504
 21
0.0
 31
0.0
 40
0.3769788521
 41
1.5199901556
 42
1.5256706491
  0
ELLIPSE
  5
3A6
100
AcDbEntity
  8
ALL_ASSEMBLY_MEMBERS
100
AcDbEllipse
 62
7
  6
CONTINUOUS
 10
5.2277363697
 20
4.6016498447
 30
0.0
 11
1.9288180083
 21
0.0
 31
0.0
 40
0.2513197191
 41
1.5256706491
 42
1.5285103462
  0
ELLIPSE
  5
3A7
100
AcDbEntity
  8
ALL_ASSEMBLY_MEMBERS
100
AcDbEllipse
 62
7
  6
CONTINUOUS
 10
5.1733772815
 20
4.6016498447
 30
0.0
 11
3.2147120734
 21
0.0
 31
0.0
 40
0.1507911094
 41
1.5285103462
 42
1.5313496859
  0
ELLIPSE
  5
3A8
100
AcDbEntity
  8
ALL_ASSEMBLY_MEMBERS
100
AcDbEllipse
 62
7
  6
CONTINUOUS
 10
5.3373275745
 20
4.6016498447
 30
0.0
 11
0.0
 21
0.48475
 31
0.0
 40
0.2652667178
 41
0.0906260353
 42
0.1048790886
  0
ELLIPSE
  5
3A9
100
AcDbEntity
  8
ALL_ASSEMBLY_MEMBERS
100
AcDbEllipse
 62
7
  6
CONTINUOUS
 10
5.3687376922
 20
4.6016498447
 30
0.0
 11
-0.0
 21
0.48475
 31
0.0
 40
0.8842220554
 41
0.1048790886
 42
0.1134410125
  0
ELLIPSE
  5
3AA
100
AcDbEntity
  8
ALL_ASSEMBLY_MEMBERS
100
AcDbEllipse
 62
7
  6
CONTINUOUS
 10
5.429387214
 20
4.6016498447
 30
0.0
 11
0.9644099335
 21
0.0
 31
0.0
 40
0.5026389538
 41
1.6842373393
 42
1.6956663613
  0
ELLIPSE
  5
3AB
100
AcDbEntity
  8
ALL_ASSEMBLY_MEMBERS
100
AcDbEllipse
 62
7
  6
CONTINUOUS
 10
5.7897286162
 20
4.6016498447
 30
0.0
 11
3.857654488
 21
0.0
 31
0.0
 40
0.1256592578
 41
1.6956663613
 42
1.6985261089
  0
ELLIPSE
  5
3AC
100
AcDbEntity
  8
ALL_ASSEMBLY_MEMBERS
100
AcDbEllipse
 62
7
  6
CONTINUOUS
 10
4.7941631848
 20
4.6016498447
 30
0.0
 11
3.8576553886
 21
0.0
 31
0.0
 40
0.1256592285
 41
1.4430665446
 42
1.4459262923
  0
ELLIPSE
  5
3AD
100
AcDbEntity
  8
ALL_ASSEMBLY_MEMBERS
100
AcDbEllipse
 62
7
  6
CONTINUOUS
 10
5.1545047412
 20
4.6016498447
 30
0.0
 11
0.9644095958
 21
0.0
 31
0.0
 40
0.5026391298
 41
1.4459262923
 42
1.4573553143
  0
ELLIPSE
  5
3AE
100
AcDbEntity
  8
ALL_ASSEMBLY_MEMBERS
100
AcDbEllipse
 62
7
  6
CONTINUOUS
 10
5.2151542248
 20
4.6016498447
 30
0.0
 11
0.0
 21
0.48475
 31
0.0
 40
0.8842220554
 41
-0.1134410125
 42
-0.1048790886
  0
ELLIPSE
  5
3AF
100
AcDbEntity
  8
ALL_ASSEMBLY_MEMBERS
100
AcDbEllipse
 62
7
  6
CONTINUOUS
 10
5.2465643425
 20
4.6016498447
 30
0.0
 11
-0.0
 21
0.48475
 31
0.0
 40
0.2652667178
 41
-0.1048790886
 42
-0.0906260353
  0
ELLIPSE
  5
3B0
100
AcDbEntity
  8
ALL_ASSEMBLY_MEMBERS
100
AcDbEllipse
 62
7
  6
CONTINUOUS
 10
5.4041328737
 20
4.6016498447
 30
0.0
 11
0.5716780154
 21
-0.4744956074
 31
0.0
 40
0.1734875795
 41
1.8341228243
 42
1.8564220296
  0
ELLIPSE
  5
3B1
100
AcDbEntity
  8
ALL_ASSEMBLY_MEMBERS
100
AcDbEllipse
 62
7
  6
CONTINUOUS
 10
5.3615726983
 20
4.6016498447
 30
0.0
 11
0.5716778757
 21
-0.4744956116
 31
0.0
 40
0.1734875871
 41
1.7601616376
 42
1.7823049235
  0
ELLIPSE
  5
3B2
100
AcDbEntity
  8
ALL_ASSEMBLY_MEMBERS
100
AcDbEllipse
 62
7
  6
CONTINUOUS
 10
5.3049072041
 20
4.6016498447
 30
0.0
 11
0.117123106
 21
0.4846535957
 31
0.0
 40
0.0825387411
 41
1.3243861563
 42
1.3391838673
  0
ELLIPSE
  5
3B3
100
AcDbEntity
  8
ALL_ASSEMBLY_MEMBERS
100
AcDbEllipse
 62
7
  6
CONTINUOUS
 10
5.3249892447
 20
4.6016498447
 30
0.0
 11
0.3205164298
 21
0.4819141273
 31
0.0
 40
0.1633544133
 41
1.4274608739
 42
1.438573063
  0
ELLIPSE
  5
3B4
100
AcDbEntity
  8
ALL_ASSEMBLY_MEMBERS
100
AcDbEllipse
 62
7
  6
CONTINUOUS
 10
5.3697132132
 20
4.6016498447
 30
0.0
 11
0.7387483593
 21
0.4700085841
 31
0.0
 40
0.1605905019
 41
1.5775999118
 42
1.5850154544
  0
ELLIPSE
  5
3B5
100
AcDbEntity
  8
ALL_ASSEMBLY_MEMBERS
100
AcDbEllipse
 62
7
  6
CONTINUOUS
 10
5.4556895649
 20
4.6016498447
 30
0.0
 11
1.4844556253
 21
0.4605286781
 31
0.0
 40
0.1019322549
 41
1.6552211679
 42
1.6589312972
  0
ELLIPSE
  5
3B6
100
AcDbEntity
  8
ALL_ASSEMBLY_MEMBERS
100
AcDbEllipse
 62
7
  6
CONTINUOUS
 10
5.0971943069
 20
4.6016498447
 30
0.0
 11
1.4844549309
 21
-0.4605286823
 31
0.0
 40
0.1019322941
 41
1.4826613836
 42
1.4863715129
  0
ELLIPSE
  5
3B7
100
AcDbEntity
  8
ALL_ASSEMBLY_MEMBERS
100
AcDbEllipse
 62
7
  6
CONTINUOUS
 10
5.1831705583
 20
4.6016498447
 30
0.0
 11
0.7387485344
 21
-0.47000858
 31
0.0
 40
0.1605904861
 41
1.5565771643
 42
1.5639927069
  0
ELLIPSE
  5
3B8
100
AcDbEntity
  8
ALL_ASSEMBLY_MEMBERS
100
AcDbEllipse
 62
7
  6
CONTINUOUS
 10
5.2278945455
 20
4.6016498447
 30
0.0
 11
-0.3205164298
 21
0.4819141273
 31
0.0
 40
0.1633544133
 41
-1.438573063
 42
-1.4274608739
  0
ELLIPSE
  5
3B9
100
AcDbEntity
  8
ALL_ASSEMBLY_MEMBERS
100
AcDbEllipse
 62
7
  6
CONTINUOUS
 10
5.4924132502
 20
4.6016498447
 30
0.0
 11
3.8575848219
 21
0.456341581
 31
0.0
 40
0.0423861521
 41
-1.6322987713
 42
-1.629457479
  0
ELLIPSE
  5
3BA
100
AcDbEntity
  8
ALL_ASSEMBLY_MEMBERS
100
AcDbEllipse
 62
7
  6
CONTINUOUS
 10
5.2479765861
 20
4.6016498447
 30
0.0
 11
-0.117123106
 21
0.4846535957
 31
0.0
 40
0.0825387411
 41
-1.3391838673
 42
-1.3243861563
  0
ELLIPSE
  5
3BB
100
AcDbEntity
  8
ALL_ASSEMBLY_MEMBERS
100
AcDbEllipse
 62
7
  6
CONTINUOUS
 10
5.3290668775
 20
4.6016498447
 30
0.0
 11
0.9622071635
 21
0.4656770005
 31
0.0
 40
0.1399266045
 41
-1.7062712763
 42
-1.6949013418
  0
ELLIPSE
  5
3BC
100
AcDbEntity
  8
ALL_ASSEMBLY_MEMBERS
100
AcDbEllipse
 62
7
  6
CONTINUOUS
 10
5.2927373828
 20
4.6016498447
 30
0.0
 11
0.4203531079
 21
0.479141308
 31
0.0
 40
0.1749164141
 41
-1.8439863269
 42
-1.8354531791
  0
ELLIPSE
  5
3BD
100
AcDbEntity
  8
ALL_ASSEMBLY_MEMBERS
100
AcDbEllipse
 62
7
  6
CONTINUOUS
 10
5.2698392875
 20
4.6016498447
 30
0.0
 11
0.1217484006
 21
0.4846385345
 31
0.0
 40
0.0853799597
 41
-1.9890427863
 42
-1.9748081556
  0
ELLIPSE
  5
3BE
100
AcDbEntity
  8
ALL_ASSEMBLY_MEMBERS
100
AcDbEllipse
 62
7
  6
CONTINUOUS
 10
5.2761633671
 20
4.6016498447
 30
0.0
 11
0.9880542361
 21
0.465285186
 31
0.0
 40
0.1376303424
 41
1.5113205669
 42
1.5186896574
  0
ELLIPSE
  5
3BF
100
AcDbEntity
  8
ALL_ASSEMBLY_MEMBERS
100
AcDbEllipse
 62
7
  6
CONTINUOUS
 10
5.2720001957
 20
4.6016498447
 30
0.0
 11
0.6553159276
 21
0.4721187462
 31
0.0
 40
0.1677639688
 41
1.4631295299
 42
1.4741845703
  0
ELLIPSE
  5
3C0
100
AcDbEntity
  8
ALL_ASSEMBLY_MEMBERS
100
AcDbEllipse
 62
7
  6
CONTINUOUS
 10
5.2634078884
 20
4.6016498447
 30
0.0
 11
0.2873264341
 21
0.4826711449
 31
0.0
 40
0.1560789432
 41
1.3380452399
 42
1.356477401
  0
ELLIPSE
  5
3C1
100
AcDbEntity
  8
ALL_ASSEMBLY_MEMBERS
100
AcDbEllipse
 62
7
  6
CONTINUOUS
 10
5.2550731526
 20
4.6016498447
 30
0.0
 11
0.0934735408
 21
0.4847090996
 31
0.0
 40
0.0673658948
 41
1.2768224913
 42
1.2952689988
  0
ELLIPSE
  5
3C2
100
AcDbEntity
  8
ALL_ASSEMBLY_MEMBERS
100
AcDbEllipse
 62
7
  6
CONTINUOUS
 10
5.2978106368
 20
4.6016498447
 30
0.0
 11
-0.0934735326
 21
0.4847090996
 31
0.0
 40
0.0673658893
 41
-1.2952689966
 42
-1.2768224891
  0
ELLIPSE
  5
3C3
100
AcDbEntity
  8
ALL_ASSEMBLY_MEMBERS
100
AcDbEllipse
 62
7
  6
CONTINUOUS
 10
5.2894759018
 20
4.6016498447
 30
0.0
 11
-0.287326408
 21
0.4826711454
 31
0.0
 40
0.1560789367
 41
-1.3564773887
 42
-1.3380452276
  0
ELLIPSE
  5
3C4
100
AcDbEntity
  8
ALL_ASSEMBLY_MEMBERS
100
AcDbEllipse
 62
7
  6
CONTINUOUS
 10
5.3140526294
 20
4.6016498447
 30
0.0
 11
-0.1217484006
 21
0.4846385345
 31
0.0
 40
0.0853799597
 41
-4.3083771516
 42
-4.2941425209
  0
ELLIPSE
  5
3C5
100
AcDbEntity
  8
ALL_ASSEMBLY_MEMBERS
100
AcDbEllipse
 62
7
  6
CONTINUOUS
 10
5.2911545341
 20
4.6016498447
 30
0.0
 11
-0.4203531079
 21
0.479141308
 31
0.0
 40
0.1749164141
 41
-4.4477321281
 42
-4.4391989803
  0
ELLIPSE
  5
3C6
100
AcDbEntity
  8
ALL_ASSEMBLY_MEMBERS
100
AcDbEllipse
 62
7
  6
CONTINUOUS
 10
5.2548250166
 20
4.6016498447
 30
0.0
 11
0.962207503
 21
-0.4656769952
 31
0.0
 40
0.1399265741
 41
-1.4466913509
 42
-1.4353214165
  0
ELLIPSE
  5
3C7
100
AcDbEntity
  8
ALL_ASSEMBLY_MEMBERS
100
AcDbEllipse
 62
7
  6
CONTINUOUS
 10
5.0914787138
 20
4.6016498447
 30
0.0
 11
3.8575839213
 21
-0.4563415814
 31
0.0
 40
0.0423861617
 41
-1.5121351722
 42
-1.5092938799
  0
ELLIPSE
  5
3C8
100
AcDbEntity
  8
ALL_ASSEMBLY_MEMBERS
100
AcDbEllipse
 62
7
  6
CONTINUOUS
 10
5.4140614804
 20
4.6016498447
 30
0.0
 11
0.7463252756
 21
-0.4698307894
 31
0.0
 40
0.1599009769
 41
-1.6130857077
 42
-1.5959095904
  0
ELLIPSE
  5
3C9
100
AcDbEntity
  8
ALL_ASSEMBLY_MEMBERS
100
AcDbEllipse
 62
7
  6
CONTINUOUS
 10
5.2936737621
 20
4.6016498447
 30
0.0
 11
0.5597140252
 21
-0.4748533936
 31
0.0
 40
0.1741096516
 41
-1.4868806225
 42
-1.4159149133
  0
ELLIPSE
  5
3CA
100
AcDbEntity
  8
ALL_ASSEMBLY_MEMBERS
100
AcDbEllipse
 62
7
  6
CONTINUOUS
 10
5.290393259
 20
4.6016498447
 30
0.0
 11
0.9622042765
 21
-0.4656770454
 31
0.0
 40
0.139926863
 41
-1.4949495759
 42
-1.489275252
  0
ELLIPSE
  5
3CB
100
AcDbEntity
  8
ALL_ASSEMBLY_MEMBERS
100
AcDbEllipse
 62
7
  6
CONTINUOUS
 10
5.2680451456
 20
4.6016498447
 30
0.0
 11
2.5716108227
 21
-0.4573304865
 31
0.0
 40
0.0624983615
 41
-1.5457781432
 42
-1.5429408411
  0
ELLIPSE
  5
3CC
100
AcDbEntity
  8
ALL_ASSEMBLY_MEMBERS
100
AcDbEllipse
 62
7
  6
CONTINUOUS
 10
5.3577989398
 20
4.6016498447
 30
0.0
 11
2.5716108227
 21
0.4573304865
 31
0.0
 40
0.0624983615
 41
-1.5986518125
 42
-1.5958145104
  0
ELLIPSE
  5
3CD
100
AcDbEntity
  8
ALL_ASSEMBLY_MEMBERS
100
AcDbEllipse
 62
7
  6
CONTINUOUS
 10
5.3309812573
 20
4.6016498447
 30
0.0
 11
0.6379530235
 21
0.4725921354
 31
0.0
 40
0.1691116546
 41
-1.7093280947
 42
-1.6979797282
  0
ELLIPSE
  5
3CE
100
AcDbEntity
  8
ALL_ASSEMBLY_MEMBERS
100
AcDbEllipse
 62
7
  6
CONTINUOUS
 10
5.3445080267
 20
4.6016498447
 30
0.0
 11
0.10123742
 21
0.4846944896
 31
0.0
 40
0.0724615456
 41
-2.012460577
 42
-1.9953544323
  0
ELLIPSE
  5
3CF
100
AcDbEntity
  8
ALL_ASSEMBLY_MEMBERS
100
AcDbEllipse
 62
7
  6
CONTINUOUS
 10
5.3744649897
 20
4.6016498447
 30
0.0
 11
0.3768576551
 21
0.4804196369
 31
0.0
 40
0.1715483869
 41
-1.9081086021
 42
-1.8938294856
  0
ELLIPSE
  5
3D0
100
AcDbEntity
  8
ALL_ASSEMBLY_MEMBERS
100
AcDbEllipse
 62
7
  6
CONTINUOUS
 10
5.3301596841
 20
4.6016498447
 30
0.0
 11
0.3118799231
 21
0.4821211713
 31
0.0
 40
0.1616508637
 41
-1.8182260229
 42
-1.8068779936
  0
ELLIPSE
  5
3D1
100
AcDbEntity
  8
ALL_ASSEMBLY_MEMBERS
100
AcDbEllipse
 62
7
  6
CONTINUOUS
 10
5.4057655514
 20
4.6016498447
 30
0.0
 11
0.6379533341
 21
0.4725921268
 31
0.0
 40
0.1691116311
 41
-1.8260145634
 42
-1.8174352631
  0
ELLIPSE
  5
3D2
100
AcDbEntity
  8
ALL_ASSEMBLY_MEMBERS
100
AcDbEllipse
 62
7
  6
CONTINUOUS
 10
5.4894887025
 20
4.6016498447
 30
0.0
 11
1.2847916974
 21
0.4619431809
 31
0.0
 40
0.1143679302
 41
-1.7482093125
 42
-1.7424844324
  0
ELLIPSE
  5
3D3
100
AcDbEntity
  8
ALL_ASSEMBLY_MEMBERS
100
AcDbEllipse
 62
7
  6
CONTINUOUS
 10
5.3320439775
 20
4.6016498447
 30
0.0
 11
0.10123742
 21
0.4846944896
 31
0.0
 40
0.0724615456
 41
-1.89593605
 42
-1.8789114217
  0
ELLIPSE
  5
3D4
100
AcDbEntity
  8
ALL_ASSEMBLY_MEMBERS
100
AcDbEllipse
 62
7
  6
CONTINUOUS
 10
5.5768617721
 20
4.6016498447
 30
0.0
 11
1.9284678459
 21
0.4586391126
 31
0.0
 40
0.0813849018
 41
-1.7293289027
 42
-1.7264648042
  0
ELLIPSE
  5
3D5
100
AcDbEntity
  8
ALL_ASSEMBLY_MEMBERS
100
AcDbEllipse
 62
7
  6
CONTINUOUS
 10
5.7552531865
 20
4.6016498447
 30
0.0
 11
3.2146291591
 21
0.4566950122
 31
0.0
 40
0.0505558762
 41
-1.7200233845
 42
-1.7171581365
  0
ELLIPSE
  5
3D6
100
AcDbEntity
  8
ALL_ASSEMBLY_MEMBERS
100
AcDbEllipse
 62
7
  6
CONTINUOUS
 10
4.8286386017
 20
4.6016498447
 30
0.0
 11
3.2146300597
 21
-0.4566950116
 31
0.0
 40
0.0505558626
 41
-1.4244345211
 42
-1.421569273
  0
ELLIPSE
  5
3D7
100
AcDbEntity
  8
ALL_ASSEMBLY_MEMBERS
100
AcDbEllipse
 62
7
  6
CONTINUOUS
 10
5.0070303909
 20
4.6016498447
 30
0.0
 11
1.9284660439
 21
-0.458639118
 31
0.0
 40
0.0813849697
 41
-1.4151278149
 42
-1.4122637165
  0
ELLIPSE
  5
3D8
100
AcDbEntity
  8
ALL_ASSEMBLY_MEMBERS
100
AcDbEllipse
 62
7
  6
CONTINUOUS
 10
5.3806816582
 20
4.6016498447
 30
0.0
 11
0.9622070503
 21
-0.4656770023
 31
0.0
 40
0.1399266146
 41
-1.5716017881
 42
-1.5659156053
  0
ELLIPSE
  5
3D9
100
AcDbEntity
  8
ALL_ASSEMBLY_MEMBERS
100
AcDbEllipse
 62
7
  6
CONTINUOUS
 10
5.0944031852
 20
4.6016498447
 30
0.0
 11
1.2847919231
 21
-0.461943179
 31
0.0
 40
0.1143679148
 41
-1.3991082341
 42
-1.393383354
  0
ELLIPSE
  5
3DA
100
AcDbEntity
  8
ALL_ASSEMBLY_MEMBERS
100
AcDbEllipse
 62
7
  6
CONTINUOUS
 10
5.1781263558
 20
4.6016498447
 30
0.0
 11
0.6379534101
 21
-0.4725921247
 31
0.0
 40
0.1691116253
 41
-1.3241574099
 42
-1.3155781096
  0
ELLIPSE
  5
3DB
100
AcDbEntity
  8
ALL_ASSEMBLY_MEMBERS
100
AcDbEllipse
 62
7
  6
CONTINUOUS
 10
5.3470907524
 20
4.6016498447
 30
0.0
 11
-0.4203531079
 21
0.479141308
 31
0.0
 40
0.1749164141
 41
-4.5783263692
 42
-4.5698008357
  0
ELLIPSE
  5
3DC
100
AcDbEntity
  8
ALL_ASSEMBLY_MEMBERS
100
AcDbEllipse
 62
7
  6
CONTINUOUS
 10
5.2094269225
 20
4.6016498447
 30
0.0
 11
-0.3768576893
 21
0.480419636
 31
0.0
 40
0.1715483905
 41
-4.3893558366
 42
-4.3750767201
  0
ELLIPSE
  5
3DD
100
AcDbEntity
  8
ALL_ASSEMBLY_MEMBERS
100
AcDbEllipse
 62
7
  6
CONTINUOUS
 10
5.3308334861
 20
4.6016498447
 30
0.0
 11
-0.1217484712
 21
0.4846385342
 31
0.0
 40
0.0853800028
 41
-4.4389790303
 42
-4.4247782581
  0
ELLIPSE
  5
3DE
100
AcDbEntity
  8
ALL_ASSEMBLY_MEMBERS
100
AcDbEllipse
 62
7
  6
CONTINUOUS
 10
5.2393838881
 20
4.6016498447
 30
0.0
 11
-0.101237429
 21
0.4846944896
 31
0.0
 40
0.0724615514
 41
-4.2878308774
 42
-4.2707247327
  0
ELLIPSE
  5
3DF
100
AcDbEntity
  8
ALL_ASSEMBLY_MEMBERS
100
AcDbEllipse
 62
7
  6
CONTINUOUS
 10
5.2478003967
 20
4.6016498447
 30
0.0
 11
1.9288162072
 21
0.0
 31
0.0
 40
0.2513199538
 41
7.8400775852
 42
7.8429147916
  0
ELLIPSE
  5
3E0
100
AcDbEntity
  8
ALL_ASSEMBLY_MEMBERS
100
AcDbEllipse
 62
7
  6
CONTINUOUS
 10
5.2299218013
 20
4.6016498447
 30
0.0
 11
3.2147129739
 21
0.0
 31
0.0
 40
0.1507910672
 41
7.837240283
 42
7.8400775852
  0
ELLIPSE
  5
3E1
100
AcDbEntity
  8
ALL_ASSEMBLY_MEMBERS
100
AcDbEllipse
 62
7
  6
CONTINUOUS
 10
5.3539700993
 20
4.6016498447
 30
0.0
 11
3.2147120734
 21
0.0
 31
0.0
 40
0.1507911094
 41
1.5847003756
 42
1.5875376778
  0
ELLIPSE
  5
3E2
100
AcDbEntity
  8
ALL_ASSEMBLY_MEMBERS
100
AcDbEllipse
 62
7
  6
CONTINUOUS
 10
5.2698392875
 20
4.6016498447
 30
0.0
 11
0.0
 21
0.48475
 31
0.0
 40
0.2652664142
 41
0.0763914046
 42
0.0906260353
  0
ELLIPSE
  5
3E3
100
AcDbEntity
  8
ALL_ASSEMBLY_MEMBERS
100
AcDbEllipse
 62
7
  6
CONTINUOUS
 10
5.2927373828
 20
4.6016498447
 30
0.0
 11
0.0
 21
0.48475
 31
0.0
 40
0.8842220554
 41
0.0678582568
 42
0.0763914046
  0
ELLIPSE
  5
3E4
100
AcDbEntity
  8
ALL_ASSEMBLY_MEMBERS
100
AcDbEllipse
 62
7
  6
CONTINUOUS
 10
5.3290668775
 20
4.6016498447
 30
0.0
 11
0.9644109754
 21
-0.0
 31
0.0
 40
0.5026384108
 41
1.6272846492
 42
1.6386545836
  0
ELLIPSE
  5
3E5
100
AcDbEntity
  8
ALL_ASSEMBLY_MEMBERS
100
AcDbEllipse
 62
7
  6
CONTINUOUS
 10
5.3290668775
 20
4.6016498447
 30
0.0
 11
0.9595037988
 21
-0.0
 31
0.0
 40
0.5026384108
 41
1.6275738566
 42
1.6336193552
  0
ELLIPSE
  5
3E6
100
AcDbEntity
  8
ALL_ASSEMBLY_MEMBERS
100
AcDbEllipse
 62
7
  6
CONTINUOUS
 10
5.4924132502
 20
4.6016498447
 30
0.0
 11
3.857633315
 21
0.0
 31
0.0
 40
0.1256599475
 41
1.6244433569
 42
1.6272846492
  0
ELLIPSE
  5
3E7
100
AcDbEntity
  8
ALL_ASSEMBLY_MEMBERS
100
AcDbEllipse
 62
7
  6
CONTINUOUS
 10
5.4924132502
 20
4.6016498447
 30
0.0
 11
3.8380046625
 21
-0.0
 31
0.0
 40
0.1256599475
 41
1.6247179887
 42
1.6275738566
  0
ELLIPSE
  5
3E8
100
AcDbEntity
  8
ALL_ASSEMBLY_MEMBERS
100
AcDbEllipse
 62
7
  6
CONTINUOUS
 10
5.3360915415
 20
4.6016498447
 30
0.0
 11
1.9288180083
 21
-0.0
 31
0.0
 40
0.2513197191
 41
1.5818631691
 42
1.5847003756
  0
ELLIPSE
  5
3E9
100
AcDbEntity
  8
ALL_ASSEMBLY_MEMBERS
100
AcDbEllipse
 62
7
  6
CONTINUOUS
 10
5.3289764059
 20
4.6016498447
 30
0.0
 11
1.2858811504
 21
0.0
 31
0.0
 40
0.3769788521
 41
1.5761890168
 42
1.5818631691
  0
ELLIPSE
  5
3EA
100
AcDbEntity
  8
ALL_ASSEMBLY_MEMBERS
100
AcDbEllipse
 62
7
  6
CONTINUOUS
 10
5.3895408442
 20
4.6016498447
 30
0.0
 11
0.57167825
 21
-0.4744956005
 31
0.0
 40
0.1734875667
 41
1.8341227539
 42
1.8564219592
  0
ELLIPSE
  5
3EB
100
AcDbEntity
  8
ALL_ASSEMBLY_MEMBERS
100
AcDbEllipse
 62
7
  6
CONTINUOUS
 10
5.3895408442
 20
4.6016498447
 30
0.0
 11
0.5687694008
 21
-0.4720812421
 31
0.0
 40
0.1734875667
 41
8.1199044316
 42
8.140341655
  0
ELLIPSE
  5
3EC
100
AcDbEntity
  8
ALL_ASSEMBLY_MEMBERS
100
AcDbEllipse
 62
7
  6
CONTINUOUS
 10
5.3255092401
 20
4.6016498447
 30
0.0
 11
0.642939962
 21
0.0
 31
0.0
 40
0.7539584232
 41
7.8508633559
 42
7.859374324
  0
ELLIPSE
  5
3ED
100
AcDbEntity
  8
ALL_ASSEMBLY_MEMBERS
100
AcDbEllipse
 62
7
  6
CONTINUOUS
 10
5.3469806518
 20
4.6016498447
 30
0.0
 11
0.5716781103
 21
-0.4744956046
 31
0.0
 40
0.1734875743
 41
1.7601615672
 42
1.7823048532
  0
ELLIPSE
  5
3EE
100
AcDbEntity
  8
ALL_ASSEMBLY_MEMBERS
100
AcDbEllipse
 62
7
  6
CONTINUOUS
 10
5.3469806518
 20
4.6016498447
 30
0.0
 11
0.5687692618
 21
-0.4720812463
 31
0.0
 40
0.1734875743
 41
8.0454832217
 42
8.0658410218
  0
ELLIPSE
  5
3EF
100
AcDbEntity
  8
ALL_ASSEMBLY_MEMBERS
100
AcDbEllipse
 62
7
  6
CONTINUOUS
 10
5.2758623362
 20
4.6016498447
 30
0.0
 11
-0.3622025764
 21
0.4808294012
 31
0.0
 40
0.1698707729
 41
-1.3947898515
 42
-1.3800412872
  0
ELLIPSE
  5
3F0
100
AcDbEntity
  8
ALL_ASSEMBLY_MEMBERS
100
AcDbEllipse
 62
7
  6
CONTINUOUS
 10
5.2758623362
 20
4.6016498447
 30
0.0
 11
-0.3603595945
 21
0.4783828148
 31
0.0
 40
0.1698707729
 41
-1.3950241974
 42
-1.3802000911
  0
ELLIPSE
  5
3F1
100
AcDbEntity
  8
ALL_ASSEMBLY_MEMBERS
100
AcDbEllipse
 62
7
  6
CONTINUOUS
 10
5.2871927571
 20
4.6016498447
 30
0.0
 11
-0.1171229363
 21
0.4846535963
 31
0.0
 40
0.082538636
 41
-1.3022224851
 42
-1.2874639355
  0
ELLIPSE
  5
3F2
100
AcDbEntity
  8
ALL_ASSEMBLY_MEMBERS
100
AcDbEllipse
 62
7
  6
CONTINUOUS
 10
5.2871927571
 20
4.6016498447
 30
0.0
 11
-0.116526984
 21
0.4821875514
 31
0.0
 40
0.082538636
 41
4.9806527798
 42
4.9954870257
  0
ELLIPSE
  5
3F3
100
AcDbEntity
  8
ALL_ASSEMBLY_MEMBERS
100
AcDbEllipse
 62
7
  6
CONTINUOUS
 10
5.2393838881
 20
4.6016498447
 30
0.0
 11
0.0
 21
0.48475
 31
0.0
 40
0.2210555332
 41
-0.10773218
 42
-0.0906260353
  0
ELLIPSE
  5
3F4
100
AcDbEntity
  8
ALL_ASSEMBLY_MEMBERS
100
AcDbEllipse
 62
7
  6
CONTINUOUS
 10
5.2393838881
 20
4.6016498447
 30
0.0
 11
0.0
 21
0.4822834646
 31
0.0
 40
0.2210555332
 41
-0.1082853113
 42
-0.0910908057
  0
ELLIPSE
  5
3F5
100
AcDbEntity
  8
ALL_ASSEMBLY_MEMBERS
100
AcDbEllipse
 62
7
  6
CONTINUOUS
 10
5.2094269225
 20
4.6016498447
 30
0.0
 11
0.0
 21
0.48475
 31
0.0
 40
0.7958002231
 41
-0.1220112966
 42
-0.10773218
  0
ELLIPSE
  5
3F6
100
AcDbEntity
  8
ALL_ASSEMBLY_MEMBERS
100
AcDbEllipse
 62
7
  6
CONTINUOUS
 10
5.2094269225
 20
4.6016498447
 30
0.0
 11
-0.0
 21
0.4822834646
 31
0.0
 40
0.7958002231
 41
-0.1226384364
 42
-0.1082853113
  0
ELLIPSE
  5
3F7
100
AcDbEntity
  8
ALL_ASSEMBLY_MEMBERS
100
AcDbEllipse
 62
7
  6
CONTINUOUS
 10
5.1781263558
 20
4.6016498447
 30
0.0
 11
0.6429400371
 21
0.0
 31
0.0
 40
0.7539583352
 41
1.4402057299
 42
1.4487850302
  0
ELLIPSE
  5
3F8
100
AcDbEntity
  8
ALL_ASSEMBLY_MEMBERS
100
AcDbEllipse
 62
7
  6
CONTINUOUS
 10
5.1781263558
 20
4.6016498447
 30
0.0
 11
0.6396685892
 21
-0.0
 31
0.0
 40
0.7539583352
 41
1.4395339999
 42
1.4481578904
  0
ELLIPSE
  5
3F9
100
AcDbEntity
  8
ALL_ASSEMBLY_MEMBERS
100
AcDbEllipse
 62
7
  6
CONTINUOUS
 10
5.2656910332
 20
4.6016498447
 30
0.0
 11
0.1171229363
 21
0.4846535963
 31
0.0
 40
0.082538636
 41
1.2874639355
 42
1.3022224851
  0
ELLIPSE
  5
3FA
100
AcDbEntity
  8
ALL_ASSEMBLY_MEMBERS
100
AcDbEllipse
 62
7
  6
CONTINUOUS
 10
5.2656910332
 20
4.6016498447
 30
0.0
 11
0.116526984
 21
0.4821875514
 31
0.0
 40
0.082538636
 41
1.2876982814
 42
1.3025325273
  0
ELLIPSE
  5
3FB
100
AcDbEntity
  8
ALL_ASSEMBLY_MEMBERS
100
AcDbEllipse
 62
7
  6
CONTINUOUS
 10
5.2465643425
 20
4.6016498447
 30
0.0
 11
-0.1211290532
 21
0.4821725657
 31
0.0
 40
0.0853800458
 41
-4.2918879649
 42
-4.2793511418
  0
ELLIPSE
  5
3FC
100
AcDbEntity
  8
ALL_ASSEMBLY_MEMBERS
100
AcDbEllipse
 62
7
  6
CONTINUOUS
 10
5.2751330477
 20
4.6016498447
 30
0.0
 11
0.3205164298
 21
0.4819141273
 31
0.0
 40
0.1633544133
 41
1.364678812
 42
1.3757409965
  0
ELLIPSE
  5
3FD
100
AcDbEntity
  8
ALL_ASSEMBLY_MEMBERS
100
AcDbEllipse
 62
7
  6
CONTINUOUS
 10
5.2751330477
 20
4.6016498447
 30
0.0
 11
0.318885558
 21
0.4794620215
 31
0.0
 40
0.1633544133
 41
1.3648564897
 42
1.3759753424
  0
ELLIPSE
  5
3FE
100
AcDbEntity
  8
ALL_ASSEMBLY_MEMBERS
100
AcDbEllipse
 62
7
  6
CONTINUOUS
 10
5.2980514463
 20
4.6016498447
 30
0.0
 11
0.9880542361
 21
0.465285186
 31
0.0
 40
0.1376303424
 41
1.533430284
 42
1.5408026323
  0
ELLIPSE
  5
3FF
100
AcDbEntity
  8
ALL_ASSEMBLY_MEMBERS
100
AcDbEllipse
 62
7
  6
CONTINUOUS
 10
5.2980514463
 20
4.6016498447
 30
0.0
 11
0.9830267564
 21
0.4629176926
 31
0.0
 40
0.1376303424
 41
1.5335702205
 42
1.5409803099
  0
ELLIPSE
  5
400
100
AcDbEntity
  8
ALL_ASSEMBLY_MEMBERS
100
AcDbEllipse
 62
7
  6
CONTINUOUS
 10
5.2465643425
 20
4.6016498447
 30
0.0
 11
-0.1217485418
 21
0.484638534
 31
0.0
 40
0.0853800458
 41
-4.2941425674
 42
-4.2798895141
  0
ELLIPSE
  5
401
100
AcDbEntity
  8
ALL_ASSEMBLY_MEMBERS
100
AcDbEllipse
 62
7
  6
CONTINUOUS
 10
5.0944031852
 20
4.6016498447
 30
0.0
 11
1.2858776966
 21
-0.0
 31
0.0
 40
0.3769798646
 41
7.7176661569
 42
7.7233910371
  0
ELLIPSE
  5
402
100
AcDbEntity
  8
ALL_ASSEMBLY_MEMBERS
100
AcDbEllipse
 62
7
  6
CONTINUOUS
 10
5.0944031852
 20
4.6016498447
 30
0.0
 11
1.2793348128
 21
-0.0
 31
0.0
 40
0.3769798646
 41
1.4337793091
 42
1.4395339999
  0
ELLIPSE
  5
403
100
AcDbEntity
  8
ALL_ASSEMBLY_MEMBERS
100
AcDbEllipse
 62
7
  6
CONTINUOUS
 10
5.2151542248
 20
4.6016498447
 30
0.0
 11
-0.4182142408
 21
0.4767033111
 31
0.0
 40
0.1749164141
 41
-4.4101729241
 42
-4.4015666817
  0
ELLIPSE
  5
404
100
AcDbEntity
  8
ALL_ASSEMBLY_MEMBERS
100
AcDbEllipse
 62
7
  6
CONTINUOUS
 10
5.2151542248
 20
4.6016498447
 30
0.0
 11
-0.4203531079
 21
0.479141308
 31
0.0
 40
0.1749164141
 41
-4.4107112963
 42
-4.4021493725
  0
ELLIPSE
  5
405
100
AcDbEntity
  8
ALL_ASSEMBLY_MEMBERS
100
AcDbEllipse
 62
7
  6
CONTINUOUS
 10
5.0070303909
 20
4.6016498447
 30
0.0
 11
1.928827244
 21
-0.0
 31
0.0
 40
0.2513185157
 41
1.4316167513
 42
1.4344808497
  0
ELLIPSE
  5
406
100
AcDbEntity
  8
ALL_ASSEMBLY_MEMBERS
100
AcDbEllipse
 62
7
  6
CONTINUOUS
 10
5.1545047412
 20
4.6016498447
 30
0.0
 11
0.9573098206
 21
-0.463307535
 31
0.0
 40
0.1399267287
 41
-1.3891557708
 42
-1.3776674525
  0
ELLIPSE
  5
407
100
AcDbEntity
  8
ALL_ASSEMBLY_MEMBERS
100
AcDbEllipse
 62
7
  6
CONTINUOUS
 10
5.1545047412
 20
4.6016498447
 30
0.0
 11
0.9622057766
 21
-0.4656770221
 31
0.0
 40
0.1399267287
 41
-1.3897384615
 42
-1.3783094395
  0
ELLIPSE
  5
408
100
AcDbEntity
  8
ALL_ASSEMBLY_MEMBERS
100
AcDbEllipse
 62
7
  6
CONTINUOUS
 10
5.0070303909
 20
4.6016498447
 30
0.0
 11
1.9190128639
 21
0.0
 31
0.0
 40
0.2513185157
 41
1.4309002792
 42
1.4337793091
  0
ELLIPSE
  5
409
100
AcDbEntity
  8
ALL_ASSEMBLY_MEMBERS
100
AcDbEllipse
 62
7
  6
CONTINUOUS
 10
4.7941631848
 20
4.6016498447
 30
0.0
 11
3.8379783783
 21
-0.4540195858
 31
0.0
 40
0.0423859163
 41
-1.4402702398
 42
-1.4373956289
  0
ELLIPSE
  5
40A
100
AcDbEntity
  8
ALL_ASSEMBLY_MEMBERS
100
AcDbEllipse
 62
7
  6
CONTINUOUS
 10
4.7941631848
 20
4.6016498447
 30
0.0
 11
3.8576068963
 21
-0.4563415717
 31
0.0
 40
0.0423859163
 41
-1.4409122269
 42
-1.4380524792
  0
ELLIPSE
  5
40B
100
AcDbEntity
  8
ALL_ASSEMBLY_MEMBERS
100
AcDbEllipse
 62
7
  6
CONTINUOUS
 10
5.2409016001
 20
4.6016498447
 30
0.0
 11
-0.0934736487
 21
0.4847090994
 31
0.0
 40
0.0673659664
 41
-1.3359330152
 42
-1.3174326445
  0
ELLIPSE
  5
40C
100
AcDbEntity
  8
ALL_ASSEMBLY_MEMBERS
100
AcDbEllipse
 62
7
  6
CONTINUOUS
 10
5.2409016001
 20
4.6016498447
 30
0.0
 11
-0.0929980302
 21
0.4822427721
 31
0.0
 40
0.0673659664
 41
-1.3364524313
 42
-1.3178566306
  0
ELLIPSE
  5
40D
100
AcDbEntity
  8
ALL_ASSEMBLY_MEMBERS
100
AcDbEllipse
 62
7
  6
CONTINUOUS
 10
4.8286386017
 20
4.6016498447
 30
0.0
 11
3.2147129739
 21
-0.0
 31
0.0
 40
0.1507910672
 41
1.4287515033
 42
1.4316167513
  0
ELLIPSE
  5
40E
100
AcDbEntity
  8
ALL_ASSEMBLY_MEMBERS
100
AcDbEllipse
 62
7
  6
CONTINUOUS
 10
5.2208932165
 20
4.6016498447
 30
0.0
 11
-0.2873264341
 21
0.4826711449
 31
0.0
 40
0.1560789432
 41
-1.4341230973
 42
-1.4155878961
  0
ELLIPSE
  5
40F
100
AcDbEntity
  8
ALL_ASSEMBLY_MEMBERS
100
AcDbEllipse
 62
7
  6
CONTINUOUS
 10
5.2208932165
 20
4.6016498447
 30
0.0
 11
-0.2858644416
 21
0.4802151872
 31
0.0
 40
0.1560789432
 41
-1.4347384861
 42
-1.4161073122
  0
ELLIPSE
  5
410
100
AcDbEntity
  8
ALL_ASSEMBLY_MEMBERS
100
AcDbEllipse
 62
7
  6
CONTINUOUS
 10
5.1775231832
 20
4.6016498447
 30
0.0
 11
0.6553159276
 21
-0.4721187462
 31
0.0
 40
0.1677639688
 41
1.5601896397
 42
1.5713302259
  0
ELLIPSE
  5
411
100
AcDbEntity
  8
ALL_ASSEMBLY_MEMBERS
100
AcDbEllipse
 62
7
  6
CONTINUOUS
 10
5.1775231832
 20
4.6016498447
 30
0.0
 11
0.6519815079
 21
-0.4697164819
 31
0.0
 40
0.1677639688
 41
1.5595163628
 42
1.5707148371
  0
ELLIPSE
  5
412
100
AcDbEntity
  8
ALL_ASSEMBLY_MEMBERS
100
AcDbEllipse
 62
7
  6
CONTINUOUS
 10
5.1021416553
 20
4.6016498447
 30
0.0
 11
1.2364591409
 21
-0.462368365
 31
0.0
 40
0.1177519922
 41
1.4764767822
 42
1.4839128544
  0
ELLIPSE
  5
413
100
AcDbEntity
  8
ALL_ASSEMBLY_MEMBERS
100
AcDbEllipse
 62
7
  6
CONTINUOUS
 10
5.1021416553
 20
4.6016498447
 30
0.0
 11
1.2301677117
 21
-0.4600157132
 31
0.0
 40
0.1177519922
 41
1.475764772
 42
1.4832395775
  0
ELLIPSE
  5
414
100
AcDbEntity
  8
ALL_ASSEMBLY_MEMBERS
100
AcDbEllipse
 62
7
  6
CONTINUOUS
 10
5.4507421576
 20
4.6016498447
 30
0.0
 11
1.2364593147
 21
0.4623683634
 31
0.0
 40
0.1177519797
 41
1.6576798102
 42
1.6651158823
  0
ELLIPSE
  5
415
100
AcDbEntity
  8
ALL_ASSEMBLY_MEMBERS
100
AcDbEllipse
 62
7
  6
CONTINUOUS
 10
5.4507421576
 20
4.6016498447
 30
0.0
 11
1.2301678846
 21
0.4600157117
 31
0.0
 40
0.1177519797
 41
1.6583530871
 42
1.6658278925
  0
ELLIPSE
  5
416
100
AcDbEntity
  8
ALL_ASSEMBLY_MEMBERS
100
AcDbEllipse
 62
7
  6
CONTINUOUS
 10
5.3753605995
 20
4.6016498447
 30
0.0
 11
0.6553158691
 21
0.4721187478
 31
0.0
 40
0.1677639734
 41
1.5702624133
 42
1.5814029995
  0
ELLIPSE
  5
417
100
AcDbEntity
  8
ALL_ASSEMBLY_MEMBERS
100
AcDbEllipse
 62
7
  6
CONTINUOUS
 10
5.3753605995
 20
4.6016498447
 30
0.0
 11
0.6519814497
 21
0.4697164835
 31
0.0
 40
0.1677639734
 41
1.5708778021
 42
1.5820762764
  0
ELLIPSE
  5
418
100
AcDbEntity
  8
ALL_ASSEMBLY_MEMBERS
100
AcDbEllipse
 62
7
  6
CONTINUOUS
 10
5.33199057
 20
4.6016498447
 30
0.0
 11
0.287326408
 21
0.4826711454
 31
0.0
 40
0.1560789367
 41
1.4155878838
 42
1.434123085
  0
ELLIPSE
  5
419
100
AcDbEntity
  8
ALL_ASSEMBLY_MEMBERS
100
AcDbEllipse
 62
7
  6
CONTINUOUS
 10
5.33199057
 20
4.6016498447
 30
0.0
 11
0.2858644157
 21
0.4802151878
 31
0.0
 40
0.1560789367
 41
1.4161072999
 42
1.4347384738
  0
ELLIPSE
  5
41A
100
AcDbEntity
  8
ALL_ASSEMBLY_MEMBERS
100
AcDbEllipse
 62
7
  6
CONTINUOUS
 10
5.3119821881
 20
4.6016498447
 30
0.0
 11
0.0934736405
 21
0.4847090994
 31
0.0
 40
0.0673659609
 41
1.3174326423
 42
1.335933013
  0
ELLIPSE
  5
41B
100
AcDbEntity
  8
ALL_ASSEMBLY_MEMBERS
100
AcDbEllipse
 62
7
  6
CONTINUOUS
 10
5.3119821881
 20
4.6016498447
 30
0.0
 11
0.092998022
 21
0.4822427721
 31
0.0
 40
0.0673659609
 41
1.3178566284
 42
1.3364524291
  0
ELLIPSE
  5
41C
100
AcDbEntity
  8
ALL_ASSEMBLY_MEMBERS
100
AcDbEllipse
 62
7
  6
CONTINUOUS
 10
4.8286386017
 20
4.6016498447
 30
0.0
 11
3.1983556692
 21
0.0
 31
0.0
 40
0.1507910672
 41
1.4280200816
 42
1.4309002792
  0
ELLIPSE
  5
41D
100
AcDbEntity
  8
ALL_ASSEMBLY_MEMBERS
100
AcDbEllipse
 62
7
  6
CONTINUOUS
 10
5.7897286162
 20
4.6016498447
 30
0.0
 11
3.8379774823
 21
0.4540195862
 31
0.0
 40
0.0423859259
 41
-1.704197027
 42
-1.7013224161
  0
ELLIPSE
  5
41E
100
AcDbEntity
  8
ALL_ASSEMBLY_MEMBERS
100
AcDbEllipse
 62
7
  6
CONTINUOUS
 10
5.7897286162
 20
4.6016498447
 30
0.0
 11
3.8576059957
 21
0.4563415721
 31
0.0
 40
0.0423859259
 41
-1.7035401767
 42
-1.700680429
  0
ELLIPSE
  5
41F
100
AcDbEntity
  8
ALL_ASSEMBLY_MEMBERS
100
AcDbEllipse
 62
7
  6
CONTINUOUS
 10
5.429387214
 20
4.6016498447
 30
0.0
 11
0.9573101584
 21
0.4633075297
 31
0.0
 40
0.1399266983
 41
-1.7639251619
 42
-1.7524368436
  0
ELLIPSE
  5
420
100
AcDbEntity
  8
ALL_ASSEMBLY_MEMBERS
100
AcDbEllipse
 62
7
  6
CONTINUOUS
 10
5.429387214
 20
4.6016498447
 30
0.0
 11
0.9622061161
 21
0.4656770168
 31
0.0
 40
0.1399266983
 41
-1.7632831748
 42
-1.7518541529
  0
ELLIPSE
  5
421
100
AcDbEntity
  8
ALL_ASSEMBLY_MEMBERS
100
AcDbEllipse
 62
7
  6
CONTINUOUS
 10
5.7552531865
 20
4.6016498447
 30
0.0
 11
3.2147120734
 21
-0.0
 31
0.0
 40
0.1507911094
 41
1.7099759023
 42
1.7128411503
  0
ELLIPSE
  5
422
100
AcDbEntity
  8
ALL_ASSEMBLY_MEMBERS
100
AcDbEllipse
 62
7
  6
CONTINUOUS
 10
5.7552531865
 20
4.6016498447
 30
0.0
 11
3.1983547732
 21
-0.0
 31
0.0
 40
0.1507911094
 41
1.7106923744
 42
1.713572572
  0
ELLIPSE
  5
423
100
AcDbEntity
  8
ALL_ASSEMBLY_MEMBERS
100
AcDbEllipse
 62
7
  6
CONTINUOUS
 10
5.5768617721
 20
4.6016498447
 30
0.0
 11
1.9288290452
 21
0.0
 31
0.0
 40
0.251318281
 41
1.7071118038
 42
1.7099759023
  0
ELLIPSE
  5
424
100
AcDbEntity
  8
ALL_ASSEMBLY_MEMBERS
100
AcDbEllipse
 62
7
  6
CONTINUOUS
 10
5.3687376922
 20
4.6016498447
 30
0.0
 11
0.4182142408
 21
0.4767033111
 31
0.0
 40
0.1749164141
 41
-1.8816186254
 42
-1.8730123831
  0
ELLIPSE
  5
425
100
AcDbEntity
  8
ALL_ASSEMBLY_MEMBERS
100
AcDbEllipse
 62
7
  6
CONTINUOUS
 10
5.3687376922
 20
4.6016498447
 30
0.0
 11
0.4203531079
 21
0.479141308
 31
0.0
 40
0.1749164141
 41
-1.8810359347
 42
-1.8724740109
  0
ELLIPSE
  5
426
100
AcDbEntity
  8
ALL_ASSEMBLY_MEMBERS
100
AcDbEllipse
 62
7
  6
CONTINUOUS
 10
5.5768617721
 20
4.6016498447
 30
0.0
 11
1.9190146559
 21
-0.0
 31
0.0
 40
0.251318281
 41
1.7078133445
 42
1.7106923744
  0
ELLIPSE
  5
427
100
AcDbEntity
  8
ALL_ASSEMBLY_MEMBERS
100
AcDbEllipse
 62
7
  6
CONTINUOUS
 10
5.3373275745
 20
4.6016498447
 30
0.0
 11
0.1211290532
 21
0.4821725657
 31
0.0
 40
0.0853800458
 41
-2.0038341653
 42
-1.9912973423
  0
ELLIPSE
  5
428
100
AcDbEntity
  8
ALL_ASSEMBLY_MEMBERS
100
AcDbEllipse
 62
7
  6
CONTINUOUS
 10
5.3373275745
 20
4.6016498447
 30
0.0
 11
0.1217485418
 21
0.484638534
 31
0.0
 40
0.0853800458
 41
-2.0032957931
 42
-1.9890427398
  0
ELLIPSE
  5
429
100
AcDbEntity
  8
ALL_ASSEMBLY_MEMBERS
100
AcDbEllipse
 62
7
  6
CONTINUOUS
 10
5.4894887025
 20
4.6016498447
 30
0.0
 11
1.2858774715
 21
-0.0
 31
0.0
 40
0.3769799306
 41
1.7013869237
 42
1.7071118038
  0
ELLIPSE
  5
42A
100
AcDbEntity
  8
ALL_ASSEMBLY_MEMBERS
100
AcDbEllipse
 62
7
  6
CONTINUOUS
 10
5.4894887025
 20
4.6016498447
 30
0.0
 11
1.2793345889
 21
0.0
 31
0.0
 40
0.3769799306
 41
1.7020586537
 42
1.7078133445
  0
ELLIPSE
  5
42B
100
AcDbEntity
  8
ALL_ASSEMBLY_MEMBERS
100
AcDbEllipse
 62
7
  6
CONTINUOUS
 10
5.4057655514
 20
4.6016498447
 30
0.0
 11
0.642939962
 21
-0.0
 31
0.0
 40
0.7539584232
 41
1.6928076234
 42
1.7013869237
  0
ELLIPSE
  5
42C
100
AcDbEntity
  8
ALL_ASSEMBLY_MEMBERS
100
AcDbEllipse
 62
7
  6
CONTINUOUS
 10
5.4057655514
 20
4.6016498447
 30
0.0
 11
0.6396685145
 21
0.0
 31
0.0
 40
0.7539584232
 41
1.6934347632
 42
1.7020586537
  0
ELLIPSE
  5
42D
100
AcDbEntity
  8
ALL_ASSEMBLY_MEMBERS
100
AcDbEllipse
 62
7
  6
CONTINUOUS
 10
5.4286535001
 20
4.6016498447
 30
0.0
 11
0.7463249724
 21
-0.4698307965
 31
0.0
 40
0.1599010046
 41
-1.6130856485
 42
-1.5959095311
  0
ELLIPSE
  5
42E
100
AcDbEntity
  8
ALL_ASSEMBLY_MEMBERS
100
AcDbEllipse
 62
7
  6
CONTINUOUS
 10
5.4286535001
 20
4.6016498447
 30
0.0
 11
0.7425274748
 21
-0.4674401739
 31
0.0
 40
0.1599010046
 41
-1.6138200371
 42
-1.5965544644
  0
ELLIPSE
  5
42F
100
AcDbEntity
  8
ALL_ASSEMBLY_MEMBERS
100
AcDbEllipse
 62
7
  6
CONTINUOUS
 10
5.3744649897
 20
4.6016498447
 30
0.0
 11
0.0
 21
0.48475
 31
0.0
 40
0.7958001534
 41
0.10773218
 42
0.1220112966
  0
ELLIPSE
  5
430
100
AcDbEntity
  8
ALL_ASSEMBLY_MEMBERS
100
AcDbEllipse
 62
7
  6
CONTINUOUS
 10
5.3744649897
 20
4.6016498447
 30
0.0
 11
0.0
 21
0.4822834646
 31
0.0
 40
0.7958001534
 41
0.1082853113
 42
0.1226384364
  0
ELLIPSE
  5
431
100
AcDbEntity
  8
ALL_ASSEMBLY_MEMBERS
100
AcDbEllipse
 62
7
  6
CONTINUOUS
 10
5.1733772815
 20
4.6016498447
 30
0.0
 11
3.1982722808
 21
-0.4543712279
 31
0.0
 40
0.0505558762
 41
-1.5239656048
 42
-1.5211117194
  0
ELLIPSE
  5
432
100
AcDbEntity
  8
ALL_ASSEMBLY_MEMBERS
100
AcDbEllipse
 62
7
  6
CONTINUOUS
 10
5.1733772815
 20
4.6016498447
 30
0.0
 11
3.2146291591
 21
-0.4566950122
 31
0.0
 40
0.0505558762
 41
-1.5241674517
 42
-1.521328112
  0
ELLIPSE
  5
433
100
AcDbEntity
  8
ALL_ASSEMBLY_MEMBERS
100
AcDbEllipse
 62
7
  6
CONTINUOUS
 10
5.3445080267
 20
4.6016498447
 30
0.0
 11
0.0
 21
0.48475
 31
0.0
 40
0.2210555139
 41
0.0906260353
 42
0.10773218
  0
ELLIPSE
  5
434
100
AcDbEntity
  8
ALL_ASSEMBLY_MEMBERS
100
AcDbEllipse
 62
7
  6
CONTINUOUS
 10
5.3445080267
 20
4.6016498447
 30
0.0
 11
-0.0
 21
0.4822834646
 31
0.0
 40
0.2210555139
 41
0.0910908057
 42
0.1082853113
  0
ELLIPSE
  5
435
100
AcDbEntity
  8
ALL_ASSEMBLY_MEMBERS
100
AcDbEllipse
 62
7
  6
CONTINUOUS
 10
5.2277363697
 20
4.6016498447
 30
0.0
 11
1.9186443081
 21
-0.4563054692
 31
0.0
 40
0.0813853176
 41
-1.5089407422
 42
-1.5060864941
  0
ELLIPSE
  5
436
100
AcDbEntity
  8
ALL_ASSEMBLY_MEMBERS
100
AcDbEllipse
 62
7
  6
CONTINUOUS
 10
5.2277363697
 20
4.6016498447
 30
0.0
 11
1.9284568033
 21
-0.4586391457
 31
0.0
 40
0.0813853176
 41
-1.5091571348
 42
-1.5063174377
  0
ELLIPSE
  5
437
100
AcDbEntity
  8
ALL_ASSEMBLY_MEMBERS
100
AcDbEllipse
 62
7
  6
CONTINUOUS
 10
5.2567394854
 20
4.6016498447
 30
0.0
 11
1.2782580077
 21
-0.4595926617
 31
0.0
 40
0.114367678
 41
-1.484342408
 42
-1.4786327952
  0
ELLIPSE
  5
438
100
AcDbEntity
  8
ALL_ASSEMBLY_MEMBERS
100
AcDbEllipse
 62
7
  6
CONTINUOUS
 10
5.2567394854
 20
4.6016498447
 30
0.0
 11
1.2847953844
 21
-0.4619431499
 31
0.0
 40
0.114367678
 41
-1.4845733516
 42
-1.478892858
  0
ELLIPSE
  5
439
100
AcDbEntity
  8
ALL_ASSEMBLY_MEMBERS
100
AcDbEllipse
 62
7
  6
CONTINUOUS
 10
5.2893908144
 20
4.6016498447
 30
0.0
 11
0.6347072598
 21
-0.4701874538
 31
0.0
 40
0.1691116311
 41
-1.3951024531
 42
-1.386534842
  0
ELLIPSE
  5
43A
100
AcDbEntity
  8
ALL_ASSEMBLY_MEMBERS
100
AcDbEllipse
 62
7
  6
CONTINUOUS
 10
5.2893908144
 20
4.6016498447
 30
0.0
 11
0.6379533341
 21
-0.4725921268
 31
0.0
 40
0.1691116311
 41
-1.3953625159
 42
-1.3868386321
  0
ELLIPSE
  5
43B
100
AcDbEntity
  8
ALL_ASSEMBLY_MEMBERS
100
AcDbEllipse
 62
7
  6
CONTINUOUS
 10
5.304640147
 20
4.6016498447
 30
0.0
 11
-0.3749396591
 21
0.4779751482
 31
0.0
 40
0.1715483401
 41
-4.4374539601
 42
-4.4231645383
  0
ELLIPSE
  5
43C
100
AcDbEntity
  8
ALL_ASSEMBLY_MEMBERS
100
AcDbEllipse
 62
7
  6
CONTINUOUS
 10
5.304640147
 20
4.6016498447
 30
0.0
 11
-0.3768572076
 21
0.4804196496
 31
0.0
 40
0.1715483401
 41
-4.4377577502
 42
-4.4235413607
  0
ELLIPSE
  5
43D
100
AcDbEntity
  8
ALL_ASSEMBLY_MEMBERS
100
AcDbEllipse
 62
7
  6
CONTINUOUS
 10
5.3251122354
 20
4.6016498447
 30
0.0
 11
-0.1007222974
 21
0.4822282366
 31
0.0
 40
0.0724615456
 41
-4.3045336433
 42
-4.2873661045
  0
ELLIPSE
  5
43E
100
AcDbEntity
  8
ALL_ASSEMBLY_MEMBERS
100
AcDbEllipse
 62
7
  6
CONTINUOUS
 10
5.3251122354
 20
4.6016498447
 30
0.0
 11
-0.10123742
 21
0.4846944896
 31
0.0
 40
0.0724615456
 41
-4.3049104657
 42
-4.2878308749
  0
ELLIPSE
  5
43F
100
AcDbEntity
  8
ALL_ASSEMBLY_MEMBERS
100
AcDbEllipse
 62
7
  6
CONTINUOUS
 10
5.2583826764
 20
4.6016498447
 30
0.0
 11
0.6429400371
 21
0.0
 31
0.0
 40
0.7539583352
 41
7.8485889439
 42
7.857099912
  0
ELLIPSE
  5
440
100
AcDbEntity
  8
ALL_ASSEMBLY_MEMBERS
100
AcDbEllipse
 62
7
  6
CONTINUOUS
 10
5.0914787138
 20
4.6016498447
 30
0.0
 11
3.8576324144
 21
0.0
 31
0.0
 40
0.1256599769
 41
1.5143080044
 42
1.5171492967
  0
ELLIPSE
  5
441
100
AcDbEntity
  8
ALL_ASSEMBLY_MEMBERS
100
AcDbEllipse
 62
7
  6
CONTINUOUS
 10
5.0914787138
 20
4.6016498447
 30
0.0
 11
3.8380037666
 21
0.0
 31
0.0
 40
0.1256599769
 41
7.7972041041
 42
7.8000599721
  0
ELLIPSE
  5
442
100
AcDbEntity
  8
ALL_ASSEMBLY_MEMBERS
100
AcDbEllipse
 62
7
  6
CONTINUOUS
 10
5.3382234106
 20
4.6016498447
 30
0.0
 11
-0.0866566919
 21
0.4847194462
 31
0.0
 40
0.0628055002
 41
-4.4316026612
 42
-4.4117214252
  0
ELLIPSE
  5
443
100
AcDbEntity
  8
ALL_ASSEMBLY_MEMBERS
100
AcDbEllipse
 62
7
  6
CONTINUOUS
 10
5.3382234106
 20
4.6016498447
 30
0.0
 11
-0.0862157599
 21
0.4822530662
 31
0.0
 40
0.0628055002
 41
-4.4318947599
 42
-4.4119116145
  0
ELLIPSE
  5
444
100
AcDbEntity
  8
ALL_ASSEMBLY_MEMBERS
100
AcDbEllipse
 62
7
  6
CONTINUOUS
 10
5.3513166292
 20
4.6016498447
 30
0.0
 11
-0.3118799231
 21
0.4821211713
 31
0.0
 40
0.1616508637
 41
-4.5359371337
 42
-4.5245667903
  0
ELLIPSE
  5
445
100
AcDbEntity
  8
ALL_ASSEMBLY_MEMBERS
100
AcDbEllipse
 62
7
  6
CONTINUOUS
 10
5.3513166292
 20
4.6016498447
 30
0.0
 11
-0.310292996
 21
0.4796680121
 31
0.0
 40
0.1616508637
 41
-4.5362876155
 42
-4.524858889
  0
ELLIPSE
  5
446
100
AcDbEntity
  8
ALL_ASSEMBLY_MEMBERS
100
AcDbEllipse
 62
7
  6
CONTINUOUS
 10
5.373295133
 20
4.6016498447
 30
0.0
 11
0.6379532564
 21
-0.4725921289
 31
0.0
 40
0.169111637
 41
-1.525970049
 42
-1.5145908343
  0
ELLIPSE
  5
447
100
AcDbEntity
  8
ALL_ASSEMBLY_MEMBERS
100
AcDbEllipse
 62
7
  6
CONTINUOUS
 10
5.373295133
 20
4.6016498447
 30
0.0
 11
0.6347071826
 21
-0.470187456
 31
0.0
 40
0.169111637
 41
-1.5263790513
 42
-1.5149413162
  0
ELLIPSE
  5
448
100
AcDbEntity
  8
ALL_ASSEMBLY_MEMBERS
100
AcDbEllipse
 62
7
  6
CONTINUOUS
 10
5.5270542156
 20
4.6016498447
 30
0.0
 11
2.5715997839
 21
-0.4573305014
 31
0.0
 40
0.0624986133
 41
-1.6423298464
 42
-1.639483481
  0
ELLIPSE
  5
449
100
AcDbEntity
  8
ALL_ASSEMBLY_MEMBERS
100
AcDbEllipse
 62
7
  6
CONTINUOUS
 10
5.5270542156
 20
4.6016498447
 30
0.0
 11
2.5585148082
 21
-0.4550034836
 31
0.0
 40
0.0624986133
 41
-1.6427535031
 42
-1.6398924833
  0
ELLIPSE
  5
44A
100
AcDbEntity
  8
ALL_ASSEMBLY_MEMBERS
100
AcDbEllipse
 62
7
  6
CONTINUOUS
 10
5.2548250166
 20
4.6016498447
 30
0.0
 11
0.9644113131
 21
0.0
 31
0.0
 40
0.5026382348
 41
7.7861233771
 42
7.7974933116
  0
ELLIPSE
  5
44B
100
AcDbEntity
  8
ALL_ASSEMBLY_MEMBERS
100
AcDbEllipse
 62
7
  6
CONTINUOUS
 10
5.2548250166
 20
4.6016498447
 30
0.0
 11
0.9595041348
 21
0.0
 31
0.0
 40
0.5026382348
 41
7.7911586055
 42
7.7972041041
  0
ELLIPSE
  5
44C
100
AcDbEntity
  8
ALL_ASSEMBLY_MEMBERS
100
AcDbEllipse
 62
7
  6
CONTINUOUS
 10
5.2911545341
 20
4.6016498447
 30
0.0
 11
-0.0
 21
0.48475
 31
0.0
 40
0.8842220554
 41
6.2067939025
 42
6.2153270503
  0
ELLIPSE
  5
44D
100
AcDbEntity
  8
ALL_ASSEMBLY_MEMBERS
100
AcDbEllipse
 62
7
  6
CONTINUOUS
 10
5.3140526294
 20
4.6016498447
 30
0.0
 11
-0.0
 21
0.48475
 31
0.0
 40
0.2652664142
 41
6.1925592719
 42
6.2067939025
  0
ELLIPSE
  5
44E
100
AcDbEntity
  8
ALL_ASSEMBLY_MEMBERS
100
AcDbEllipse
 62
7
  6
CONTINUOUS
 10
5.2549155099
 20
4.6016498447
 30
0.0
 11
1.2858813755
 21
0.0
 31
0.0
 40
0.3769787861
 41
7.8429147916
 42
7.8485889439
  0
ELLIPSE
  5
44F
100
AcDbEntity
  8
ALL_ASSEMBLY_MEMBERS
100
AcDbEllipse
 62
7
  6
CONTINUOUS
 10
5.2587796811
 20
4.6016498447
 30
0.0
 11
0.1007223063
 21
0.4822282366
 31
0.0
 40
0.0724615514
 41
-1.9958192001
 42
-1.9786516613
  0
ELLIPSE
  5
450
100
AcDbEntity
  8
ALL_ASSEMBLY_MEMBERS
100
AcDbEllipse
 62
7
  6
CONTINUOUS
 10
5.2587796811
 20
4.6016498447
 30
0.0
 11
0.101237429
 21
0.4846944896
 31
0.0
 40
0.0724615514
 41
-1.9953544298
 42
-1.9782748389
  0
ELLIPSE
  5
451
100
AcDbEntity
  8
ALL_ASSEMBLY_MEMBERS
100
AcDbEllipse
 62
7
  6
CONTINUOUS
 10
5.3220059096
 20
4.6016498447
 30
0.0
 11
0.1217484712
 21
0.4846385342
 31
0.0
 40
0.0853800028
 41
-1.8839500288
 42
-1.8697617145
  0
ELLIPSE
  5
452
100
AcDbEntity
  8
ALL_ASSEMBLY_MEMBERS
100
AcDbEllipse
 62
7
  6
CONTINUOUS
 10
5.3220059096
 20
4.6016498447
 30
0.0
 11
0.121128983
 21
0.482172566
 31
0.0
 40
0.0853800028
 41
-1.8838760368
 42
-1.8713258838
  0
ELLIPSE
  5
453
100
AcDbEntity
  8
ALL_ASSEMBLY_MEMBERS
100
AcDbEllipse
 62
7
  6
CONTINUOUS
 10
5.3176654919
 20
4.6016498447
 30
0.0
 11
0.4203531079
 21
0.479141308
 31
0.0
 40
0.1749164141
 41
-1.7616396296
 42
-1.7531282233
  0
ELLIPSE
  5
454
100
AcDbEntity
  8
ALL_ASSEMBLY_MEMBERS
100
AcDbEllipse
 62
7
  6
CONTINUOUS
 10
5.3176654919
 20
4.6016498447
 30
0.0
 11
0.4182142408
 21
0.4767033111
 31
0.0
 40
0.1749164141
 41
-1.7616091722
 42
-1.7530542313
  0
ELLIPSE
  5
455
100
AcDbEntity
  8
ALL_ASSEMBLY_MEMBERS
100
AcDbEllipse
 62
7
  6
CONTINUOUS
 10
5.3144747589
 20
4.6016498447
 30
0.0
 11
0.9622070503
 21
0.4656770023
 31
0.0
 40
0.1399266146
 41
-1.6381317277
 42
-1.6324577399
  0
ELLIPSE
  5
456
100
AcDbEntity
  8
ALL_ASSEMBLY_MEMBERS
100
AcDbEllipse
 62
7
  6
CONTINUOUS
 10
5.3144747589
 20
4.6016498447
 30
0.0
 11
0.9573110879
 21
0.4633075153
 31
0.0
 40
0.1399266146
 41
-1.638130289
 42
-1.6324272825
  0
ELLIPSE
  5
457
100
AcDbEntity
  8
ALL_ASSEMBLY_MEMBERS
100
AcDbEllipse
 62
7
  6
CONTINUOUS
 10
5.3114597576
 20
4.6016498447
 30
0.0
 11
1.2847953844
 21
-0.4619431499
 31
0.0
 40
0.114367678
 41
-1.5356543218
 42
-1.5299803341
  0
ELLIPSE
  5
458
100
AcDbEntity
  8
ALL_ASSEMBLY_MEMBERS
100
AcDbEllipse
 62
7
  6
CONTINUOUS
 10
5.3114597576
 20
4.6016498447
 30
0.0
 11
1.2782580077
 21
-0.4595926617
 31
0.0
 40
0.114367678
 41
-1.5356847793
 42
-1.5299817728
  0
ELLIPSE
  5
459
100
AcDbEntity
  8
ALL_ASSEMBLY_MEMBERS
100
AcDbEllipse
 62
7
  6
CONTINUOUS
 10
5.3072206411
 20
4.6016498447
 30
0.0
 11
0.5681047491
 21
-0.4746020763
 31
0.0
 40
0.1736797508
 41
-1.5122023158
 42
-1.4326628245
  0
ELLIPSE
  5
45A
100
AcDbEntity
  8
ALL_ASSEMBLY_MEMBERS
100
AcDbEllipse
 62
7
  6
CONTINUOUS
 10
5.3072206411
 20
4.6016498447
 30
0.0
 11
0.5652140828
 21
-0.4721871761
 31
0.0
 40
0.1736797508
 41
-1.5126406373
 42
-1.4326932819
  0
ELLIPSE
  5
45B
100
AcDbEntity
  8
ALL_ASSEMBLY_MEMBERS
100
AcDbEllipse
 62
7
  6
CONTINUOUS
 10
5.4105146697
 20
4.6016498447
 30
0.0
 11
3.2146300597
 21
0.4566950116
 31
0.0
 40
0.0505558626
 41
-1.6202645376
 42
-1.6174251979
  0
ELLIPSE
  5
45C
100
AcDbEntity
  8
ALL_ASSEMBLY_MEMBERS
100
AcDbEllipse
 62
7
  6
CONTINUOUS
 10
5.4105146697
 20
4.6016498447
 30
0.0
 11
3.1982731769
 21
0.4543712273
 31
0.0
 40
0.0505558626
 41
-1.6204809302
 42
-1.6176270448
  0
ELLIPSE
  5
45D
100
AcDbEntity
  8
ALL_ASSEMBLY_MEMBERS
100
AcDbEllipse
 62
7
  6
CONTINUOUS
 10
5.3561554673
 20
4.6016498447
 30
0.0
 11
1.9284550012
 21
0.4586391511
 31
0.0
 40
0.0813853855
 41
-1.6352752504
 42
-1.6324355533
  0
ELLIPSE
  5
45E
100
AcDbEntity
  8
ALL_ASSEMBLY_MEMBERS
100
AcDbEllipse
 62
7
  6
CONTINUOUS
 10
5.3561554673
 20
4.6016498447
 30
0.0
 11
1.9186425152
 21
0.4563054746
 31
0.0
 40
0.0813853855
 41
-1.635506194
 42
-1.6326519458
  0
ELLIPSE
  5
45F
100
AcDbEntity
  8
ALL_ASSEMBLY_MEMBERS
100
AcDbEllipse
 62
7
  6
CONTINUOUS
 10
5.327152443
 20
4.6016498447
 30
0.0
 11
1.28479561
 21
0.461943148
 31
0.0
 40
0.1143676625
 41
-1.6626997827
 42
-1.6570192891
  0
ELLIPSE
  5
460
100
AcDbEntity
  8
ALL_ASSEMBLY_MEMBERS
100
AcDbEllipse
 62
7
  6
CONTINUOUS
 10
5.327152443
 20
4.6016498447
 30
0.0
 11
1.2782582322
 21
0.4595926598
 31
0.0
 40
0.1143676625
 41
-1.6629598455
 42
-1.6572502327
  0
ELLIPSE
  5
461
100
AcDbEntity
  8
ALL_ASSEMBLY_MEMBERS
100
AcDbEllipse
 62
7
  6
CONTINUOUS
 10
5.2945011064
 20
4.6016498447
 30
0.0
 11
0.6379534101
 21
0.4725921247
 31
0.0
 40
0.1691116253
 41
-1.754754002
 42
-1.7462301183
  0
ELLIPSE
  5
462
100
AcDbEntity
  8
ALL_ASSEMBLY_MEMBERS
100
AcDbEllipse
 62
7
  6
CONTINUOUS
 10
5.2945011064
 20
4.6016498447
 30
0.0
 11
0.6347073354
 21
0.4701874517
 31
0.0
 40
0.1691116253
 41
-1.7550577922
 42
-1.7464901811
  0
ELLIPSE
  5
463
100
AcDbEntity
  8
ALL_ASSEMBLY_MEMBERS
100
AcDbEllipse
 62
7
  6
CONTINUOUS
 10
5.2792517713
 20
4.6016498447
 30
0.0
 11
0.3768572419
 21
0.4804196487
 31
0.0
 40
0.1715483437
 41
-1.8596439314
 42
-1.8454275419
  0
ELLIPSE
  5
464
100
AcDbEntity
  8
ALL_ASSEMBLY_MEMBERS
100
AcDbEllipse
 62
7
  6
CONTINUOUS
 10
5.2792517713
 20
4.6016498447
 30
0.0
 11
0.3749396931
 21
0.4779751472
 31
0.0
 40
0.1715483437
 41
-1.8600207538
 42
-1.8457313321
  0
ENDSEC
  0
SECTION
  2
OBJECTS
  0
DICTIONARY
  5
C
100
AcDbDictionary
280
0
281
1
  3
ACAD_GROUP
350
D
  3
ACAD_MLINESTYLE
350
17
  3
ACAD_LAYOUT
350
1A
  3
ACAD_PLOTSETTINGS
350
19
  3
ACAD_PLOTSTYLENAME
350
E
  0
DICTIONARY
  5
D
102
{ACAD_REACTORS
330
C
102
}
100
AcDbDictionary
280
0
281
1
  0
ACDBDICTIONARYWDFLT
  5
E
102
{ACAD_REACTORS
330
C
102
}
100
AcDbDictionary
281
1
  3
Normal
350
F
100
AcDbDictionaryWithDefault
340
F
  0
DICTIONARY
  5
17
102
{ACAD_REACTORS
330
C
102
}
100
AcDbDictionary
280
0
281
1
  3
Standard
350
18
  0
DICTIONARY
  5
19
102
{ACAD_REACTORS
330
C
102
}
100
AcDbDictionary
281
1
  0
DICTIONARY
  5
1A
102
{ACAD_REACTORS
330
C
102
}
100
AcDbDictionary
281
1
  3
Model
350
465
  3
Layout1
350
466
  0
ACDBPLACEHOLDER
  5
F
102
{ACAD_REACTORS
330
E
102
}
  0
MLINESTYLE
  5
18
102
{ACAD_REACTORS
330
17
102
}
100
AcDbMlineStyle
  2
STANDARD
 70
0
  3

 62
256
 51
90.0
 52
90.0
 71
2
 49
0.5
 62
256
  6
BYLAYER
 49
-0.5
 62
256
  6
BYLAYER
  0
LAYOUT
  5
465
102
{ACAD_REACTORS
330
1A
102
}
100
AcDbPlotSettings
  1

  2
none_device
  4
ANSI_A_(11.00_x_8.50_Inches)
  6

 40
0.0
 41
0.0
 42
0.0
 43
0.0
 44
279.4
 45
215.9
 46
0.0
 47
0.0
 48
0.0
 49
0.0
140
0.0
141
0.0
142
1.0
143
1.0
 70
1024
 72
0
 73
0
 74
0
  7

 75
0
147
1.0
148
0.0
149
0.0
100
AcDbLayout
  1
Model
 70
0
 71
0
 10
0.0
 20
0.0
 11
11.0
 21
8.5
 12
0.0
 22
0.0
 32
0.0
 14
0.0
 24
0.0
 34
0.0
 15
0.0
 25
0.0
 35
0.0
146
0.0
 13
0.0
 23
0.0
 33
0.0
 16
1.0
 26
0.0
 36
0.0
 17
0.0
 27
1.0
 37
0.0
 76
0
330
220
345
0
346
0
  0
LAYOUT
  5
466
102
{ACAD_REACTORS
330
1A
102
}
100
AcDbPlotSettings
  1

  2
none_device
  4
ANSI_A_(11.00_x_8.50_Inches)
  6

 40
0.0
 41
0.0
 42
0.0
 43
0.0
 44
279.4
 45
215.9
 46
0.0
 47
0.0
 48
0.0
 49
0.0
140
0.0
141
0.0
142
1.0
143
1.0
 70
0
 72
0
 73
0
 74
0
  7

 75
0
147
1.0
148
0.0
149
0.0
100
AcDbLayout
  1
Layout1
 70
0
 71
1
 10
0.0
 20
0.0
 11
11.0
 21
8.5
 12
0.0
 22
0.0
 32
0.0
 14
0.0
 24
0.0
 34
0.0
 15
0.0
 25
0.0
 35
0.0
146
0.0
 13
0.0
 23
0.0
 33
0.0
 16
1.0
 26
0.0
 36
0.0
 17
0.0
 27
1.0
 37
0.0
 76
0
330
221
345
0
346
0
  0
ENDSEC
  0
EOF
