999
DXF file: 3-914ts_TOP.dxf
999
Pro/ENGINEER 2018400 by Parametric Technology Corporation
  0
SECTION
  2
HEADER
  9
$ACADVER
  1
AC1027
  9
$DWGCODEPAGE
  3
ANSI_1252
  9
$EXTMAX
 10
11.0
 20
8.5
 30
0.0
  9
$EXTMIN
 10
0.0
 20
0.0
 30
0.0
  9
$LIMMIN
 10
0.0
 20
0.0
  9
$LIMMAX
 10
11.0
 20
8.5
  9
$VIEWCTR
 10
5.5
 20
4.25
  9
$VIEWSIZE
 40
8.5
  9
$CLAYER
  8
0
  9
$LTSCALE
 40
0.605
  9
$CELTYPE
  6
BYLAYER
  9
$DIMSCALE
 40
1.0
  9
$DIMASZ
 40
0.1
  9
$DIMEXO
 40
0.0625
  9
$DIMDLI
 40
0.418
  9
$DIMEXE
 40
0.125
  9
$DIMCEN
 40
0.099
  9
$DIMLFAC
 40
1.0
  9
$DIMBLK
  1
_FILLED
  9
$DIMALT
 70
1
  9
$DIMALTD
 70
2
  9
$DIMALTTD
 70
2
  9
$DIMALTF
 40
25.4
  9
$DIMTXT
 40
0.08
  9
$DIMTOL
 70
1
  9
$DIMLIM
 70
0
  9
$DIMTFAC
 40
1.0
  9
$DIMTP
 40
0.001
  9
$DIMTM
 40
0.001
  9
$DIMGAP
 40
0.09
  9
$DIMDSEP
 70
46
  9
$AUNITS
 70
0
  9
$PDMODE
 70
3
  9
$PDSIZE
 40
0.3125
  9
$HANDSEED
  5
478
  9
$TILEMODE
 70
1
  9
$MEASUREMENT
 70
0
  9
$INSUNITS
 70
1
  0
ENDSEC
  0
SECTION
  2
CLASSES
  0
CLASS
  1
ACDBDICTIONARYWDFLT
  2
AcDbDictionaryWithDefault
  3
AutoCAD 2000
 90
0
 91
1
280
0
281
0
  0
CLASS
  1
ACDBPLACEHOLDER
  2
AcDbPlaceHolder
  3
AutoCAD 2000
 90
0
 91
1
280
0
281
0
  0
CLASS
  1
LAYOUT
  2
AcDbLayout
  3
AutoCAD 2000
 90
0
 91
0
280
0
281
0
  0
ENDSEC
  0
SECTION
  2
TABLES
  0
TABLE
  2
VPORT
  5
8
100
AcDbSymbolTable
 70
2
  0
VPORT
  5
1F4
100
AcDbSymbolTableRecord
100
AcDbViewportTableRecord
  2
*ACTIVE
 70
0
 10
0.0
 20
0.0
 11
1.0
 21
1.0
 12
5.5
 22
4.25
 13
0.0
 23
0.0
 14
1.0
 24
1.0
 15
0.0
 25
0.0
 16
0.0
 26
0.0
 36
1.0
 17
0.0
 27
0.0
 37
0.0
 40
8.5
 41
1.2941176471
 42
50.0
 43
0.0
 44
0.0
 50
0.0
 51
0.0
 71
0
 72
100
 73
1
 74
1
 75
0
 76
0
 77
0
 78
0
  0
ENDTAB
  0
TABLE
  2
LTYPE
  5
5
100
AcDbSymbolTable
 70
6
  0
LTYPE
  5
14
100
AcDbSymbolTableRecord
100
AcDbLinetypeTableRecord
  2
BYBLOCK
 70
0
  3

 72
65
 73
0
 40
0.0
  0
LTYPE
  5
15
100
AcDbSymbolTableRecord
100
AcDbLinetypeTableRecord
  2
BYLAYER
 70
0
  3

 72
65
 73
0
 40
0.0
  0
LTYPE
  5
16
100
AcDbSymbolTableRecord
100
AcDbLinetypeTableRecord
  2
CONTINUOUS
 70
64
  3
Solid line
 72
65
 73
0
 40
0.0
  0
LTYPE
  5
1F5
100
AcDbSymbolTableRecord
100
AcDbLinetypeTableRecord
  2
CENTER
 70
64
  3
____ _ ____ _ ____ _ ____ _ ____ _ ____ _ ____
 72
65
 73
4
 40
0.6
 49
0.375
 74
0
 49
-0.075
 74
0
 49
0.075
 74
0
 49
-0.075
 74
0
  0
LTYPE
  5
1F6
100
AcDbSymbolTableRecord
100
AcDbLinetypeTableRecord
  2
HIDDEN
 70
64
  3
- - - - - - - - - - - - - - - - - - - -
 72
65
 73
2
 40
0.2
 49
0.1
 74
0
 49
-0.1
 74
0
  0
LTYPE
  5
1F7
100
AcDbSymbolTableRecord
100
AcDbLinetypeTableRecord
  2
PHANTOM
 70
64
  3
_____ _ _ _____ _ _ _____ _ _ _____
 72
65
 73
6
 40
0.8
 49
0.45
 74
0
 49
-0.05
 74
0
 49
0.1
 74
0
 49
-0.05
 74
0
 49
0.1
 74
0
 49
-0.05
 74
0
  0
LTYPE
  5
1F8
100
AcDbSymbolTableRecord
100
AcDbLinetypeTableRecord
  2
DOT
 70
64
  3
. . . . . . . . . . . . . . . . . . . .
 72
65
 73
2
 40
0.2
 49
0.1
 74
0
 49
-0.1
 74
0
  0
LTYPE
  5
1F9
100
AcDbSymbolTableRecord
100
AcDbLinetypeTableRecord
  2
DASHED
 70
64
  3
- - - - - - - - - - - - - - - - - - - -
 72
65
 73
2
 40
0.2
 49
0.1
 74
0
 49
-0.1
 74
0
  0
ENDTAB
  0
TABLE
  2
LAYER
  5
2
100
AcDbSymbolTable
 70
36
  0
LAYER
  5
10
100
AcDbSymbolTableRecord
100
AcDbLayerTableRecord
  2
0
 70
0
 62
7
  6
CONTINUOUS
370
-3
390
F
  0
LAYER
  5
1FA
100
AcDbSymbolTableRecord
100
AcDbLayerTableRecord
  2
DEFAULT_1
 70
0
 62
7
  6
CENTER
370
-3
390
F
  0
LAYER
  5
1FB
100
AcDbSymbolTableRecord
100
AcDbLayerTableRecord
  2
DEFAULT_2
 70
0
 62
8
  6
HIDDEN
370
-3
390
F
  0
LAYER
  5
1FC
100
AcDbSymbolTableRecord
100
AcDbLayerTableRecord
  2
DEFAULT_3
 70
0
 62
7
  6
PHANTOM
370
-3
390
F
  0
LAYER
  5
1FD
100
AcDbSymbolTableRecord
100
AcDbLayerTableRecord
  2
2-265_ASSY_PLANES
 70
0
 62
7
  6
CONTINUOUS
370
-3
390
F
  0
LAYER
  5
1FE
100
AcDbSymbolTableRecord
100
AcDbLayerTableRecord
  2
AA
 70
0
 62
7
  6
CONTINUOUS
370
-3
390
F
  0
LAYER
  5
1FF
100
AcDbSymbolTableRecord
100
AcDbLayerTableRecord
  2
ALL_ASSEMBLY_MEMBERS
 70
0
 62
7
  6
CONTINUOUS
370
-3
390
F
  0
LAYER
  5
200
100
AcDbSymbolTableRecord
100
AcDbLayerTableRecord
  2
ALL_FEATURES
 70
0
 62
7
  6
CONTINUOUS
370
-3
390
F
  0
LAYER
  5
201
100
AcDbSymbolTableRecord
100
AcDbLayerTableRecord
  2
AXES_FEATURES
 70
0
 62
7
  6
CONTINUOUS
370
-3
390
F
  0
LAYER
  5
202
100
AcDbSymbolTableRecord
100
AcDbLayerTableRecord
  2
CHAMFER_FEATURES
 70
0
 62
7
  6
CONTINUOUS
370
-3
390
F
  0
LAYER
  5
203
100
AcDbSymbolTableRecord
100
AcDbLayerTableRecord
  2
CURVE
 70
0
 62
7
  6
CONTINUOUS
370
-3
390
F
  0
LAYER
  5
204
100
AcDbSymbolTableRecord
100
AcDbLayerTableRecord
  2
CURVES
 70
0
 62
7
  6
CONTINUOUS
370
-3
390
F
  0
LAYER
  5
205
100
AcDbSymbolTableRecord
100
AcDbLayerTableRecord
  2
CUT_FEATURES
 70
0
 62
7
  6
CONTINUOUS
370
-3
390
F
  0
LAYER
  5
206
100
AcDbSymbolTableRecord
100
AcDbLayerTableRecord
  2
DATUM_CURVES
 70
0
 62
7
  6
CONTINUOUS
370
-3
390
F
  0
LAYER
  5
207
100
AcDbSymbolTableRecord
100
AcDbLayerTableRecord
  2
DATUM_PLANES
 70
0
 62
7
  6
CONTINUOUS
370
-3
390
F
  0
LAYER
  5
208
100
AcDbSymbolTableRecord
100
AcDbLayerTableRecord
  2
DATUM_POINTS
 70
0
 62
7
  6
CONTINUOUS
370
-3
390
F
  0
LAYER
  5
209
100
AcDbSymbolTableRecord
100
AcDbLayerTableRecord
  2
DEFAULT_COORDINATE_SYSTEM
 70
0
 62
7
  6
CONTINUOUS
370
-3
390
F
  0
LAYER
  5
20A
100
AcDbSymbolTableRecord
100
AcDbLayerTableRecord
  2
DEFAULT_DATUM_AXES
 70
0
 62
7
  6
CONTINUOUS
370
-3
390
F
  0
LAYER
  5
20B
100
AcDbSymbolTableRecord
100
AcDbLayerTableRecord
  2
DEFAULT_DATUM_CURVES
 70
0
 62
7
  6
CONTINUOUS
370
-3
390
F
  0
LAYER
  5
20C
100
AcDbSymbolTableRecord
100
AcDbLayerTableRecord
  2
DEFAULT_DATUM_PLANES
 70
0
 62
7
  6
CONTINUOUS
370
-3
390
F
  0
LAYER
  5
20D
100
AcDbSymbolTableRecord
100
AcDbLayerTableRecord
  2
DEFAULT_SURFACES
 70
0
 62
7
  6
CONTINUOUS
370
-3
390
F
  0
LAYER
  5
20E
100
AcDbSymbolTableRecord
100
AcDbLayerTableRecord
  2
DIMENSIONS
 70
0
 62
7
  6
CONTINUOUS
370
-3
390
F
  0
LAYER
  5
20F
100
AcDbSymbolTableRecord
100
AcDbLayerTableRecord
  2
HOLE_FEATURES
 70
0
 62
7
  6
CONTINUOUS
370
-3
390
F
  0
LAYER
  5
210
100
AcDbSymbolTableRecord
100
AcDbLayerTableRecord
  2
LAY0001
 70
0
 62
7
  6
CONTINUOUS
370
-3
390
F
  0
LAYER
  5
211
100
AcDbSymbolTableRecord
100
AcDbLayerTableRecord
  2
NOTES
 70
0
 62
7
  6
CONTINUOUS
370
-3
390
F
  0
LAYER
  5
212
100
AcDbSymbolTableRecord
100
AcDbLayerTableRecord
  2
PART_REFERENCE_DIMENSIONS
 70
0
 62
7
  6
CONTINUOUS
370
-3
390
F
  0
LAYER
  5
213
100
AcDbSymbolTableRecord
100
AcDbLayerTableRecord
  2
PLATED_SURFACE_AREA
 70
0
 62
7
  6
CONTINUOUS
370
-3
390
F
  0
LAYER
  5
214
100
AcDbSymbolTableRecord
100
AcDbLayerTableRecord
  2
POINTS
 70
0
 62
7
  6
CONTINUOUS
370
-3
390
F
  0
LAYER
  5
215
100
AcDbSymbolTableRecord
100
AcDbLayerTableRecord
  2
PROTRUSION
 70
0
 62
7
  6
CONTINUOUS
370
-3
390
F
  0
LAYER
  5
216
100
AcDbSymbolTableRecord
100
AcDbLayerTableRecord
  2
PROTRUSION_FEATURES
 70
0
 62
7
  6
CONTINUOUS
370
-3
390
F
  0
LAYER
  5
217
100
AcDbSymbolTableRecord
100
AcDbLayerTableRecord
  2
QUILT
 70
0
 62
7
  6
CONTINUOUS
370
-3
390
F
  0
LAYER
  5
218
100
AcDbSymbolTableRecord
100
AcDbLayerTableRecord
  2
QUILTS
 70
0
 62
7
  6
CONTINUOUS
370
-3
390
F
  0
LAYER
  5
219
100
AcDbSymbolTableRecord
100
AcDbLayerTableRecord
  2
REFERENCE_DIMENSIONS
 70
0
 62
7
  6
CONTINUOUS
370
-3
390
F
  0
LAYER
  5
21A
100
AcDbSymbolTableRecord
100
AcDbLayerTableRecord
  2
ROUND_FEATURES
 70
0
 62
7
  6
CONTINUOUS
370
-3
390
F
  0
LAYER
  5
21B
100
AcDbSymbolTableRecord
100
AcDbLayerTableRecord
  2
SHELL_FEATURES
 70
0
 62
7
  6
CONTINUOUS
370
-3
390
F
  0
LAYER
  5
21C
100
AcDbSymbolTableRecord
100
AcDbLayerTableRecord
  2
SURFACE_FEATURES
 70
0
 62
7
  6
CONTINUOUS
370
-3
390
F
  0
LAYER
  5
21D
100
AcDbSymbolTableRecord
100
AcDbLayerTableRecord
  2
XSEC_DATUMS
 70
0
 62
7
  6
CONTINUOUS
370
-3
390
F
  0
ENDTAB
  0
TABLE
  2
STYLE
  5
3
100
AcDbSymbolTable
 70
1
  0
STYLE
  5
11
100
AcDbSymbolTableRecord
100
AcDbTextStyleTableRecord
  2
STANDARD
 70
0
 40
0.0
 41
0.8
 50
0.0
 71
0
 42
0.2
  3
txt
  4

  0
STYLE
  5
21E
100
AcDbSymbolTableRecord
100
AcDbTextStyleTableRecord
  2
TEXTSTYLE_1
 70
0
 40
0.0
 41
0.8
 50
0.0
 71
0
 42
0.2
  3
gdt
  4

  0
ENDTAB
  0
TABLE
  2
VIEW
  5
6
100
AcDbSymbolTable
 70
0
  0
ENDTAB
  0
TABLE
  2
UCS
  5
7
100
AcDbSymbolTable
 70
0
  0
ENDTAB
  0
TABLE
  2
APPID
  5
9
100
AcDbSymbolTable
 70
1
  0
APPID
  5
21F
100
AcDbSymbolTableRecord
100
AcDbRegAppTableRecord
  2
ACAD
 70
0
  0
ENDTAB
  0
TABLE
  2
BLOCK_RECORD
  5
1
100
AcDbSymbolTable
 70
0
  0
BLOCK_RECORD
  5
220
100
AcDbSymbolTableRecord
100
AcDbBlockTableRecord
  2
*Model_Space
  0
BLOCK_RECORD
  5
221
100
AcDbSymbolTableRecord
100
AcDbBlockTableRecord
  2
*Paper_Space
  0
BLOCK_RECORD
  5
222
100
AcDbSymbolTableRecord
100
AcDbBlockTableRecord
  2
_FILLED
  0
ENDTAB
  0
TABLE
  2
DIMSTYLE
  5
A
100
AcDbSymbolTable
 70
1
100
AcDbDimStyleTable
 71
0
  0
DIMSTYLE
105
223
100
AcDbSymbolTableRecord
100
AcDbDimStyleTableRecord
  2
STANDARD
 70
0
  3

  4

 40
1.0
 41
0.1
 42
0.0625
 43
0.38
 44
0.125
 45
0.0
 46
0.0
 47
0.001
 48
0.001
140
0.08
141
0.09
142
0.0
143
25.4
144
1.0
145
0.0
146
1.0
147
0.09
 71
1.0
 72
0.0
 73
1
 74
1
 75
0
 76
0
 77
0
 78
4
 79
1
170
1
171
2
172
0
173
0
174
0
175
0
176
0
177
0
178
0
270
2
179
3
271
3
272
3
273
2
274
2
275
0
280
0
281
0
282
0
283
1
284
4
285
0
286
0
287
3
288
0
340
11
278
46
341
222
342
222
343
222
344
222
  0
ENDTAB
  0
ENDSEC
  0
SECTION
  2
BLOCKS
  0
BLOCK
  5
20
100
AcDbEntity
  8
0
100
AcDbBlockBegin
  2
*Model_Space
 70
0
 10
0.0
 20
0.0
 30
0.0
  3
*Model_Space
  1

  0
ENDBLK
  5
21
100
AcDbEntity
  8
0
100
AcDbBlockEnd
  0
BLOCK
  5
1C
100
AcDbEntity
  8
0
100
AcDbBlockBegin
  2
*Paper_Space
 70
0
 10
0.0
 20
0.0
 30
0.0
  3
*Paper_Space
  1

  0
ENDBLK
  5
1D
100
AcDbEntity
  8
0
100
AcDbBlockEnd
  0
BLOCK
  5
224
100
AcDbEntity
  8
0
100
AcDbBlockBegin
  2
_FILLED
 70
64
 10
0.0
 20
0.0
  3
_FILLED
  1

  0
SOLID
  5
225
100
AcDbEntity
  8
0
  6
BYBLOCK
 62
0
100
AcDbTrace
 10
0.0
 20
0.0
 11
-1.0
 21
0.2
 12
-1.0
 22
-0.2
 13
-1.0
 23
-0.2
  0
ENDBLK
  5
226
100
AcDbEntity
  8
0
  6
BYBLOCK
 62
0
100
AcDbBlockEnd
  0
ENDSEC
  0
SECTION
  2
ENTITIES
  0
MTEXT
  5
227
100
AcDbEntity
  8
0
100
AcDbMText
 62
2
  6
CONTINUOUS
  7
STANDARD
 71
3
 72
1
 10
2.9980978261
 20
2.6984684367
 30
0.0
 11
1.0
 21
0.0
 31
0.0
 73
2
 44
0.9
  1
SCALE  .500
 40
0.08
 41
0.704
  0
LINE
  5
228
100
AcDbEntity
  8
0
100
AcDbLine
 62
7
  6
CONTINUOUS
 10
0.0
 20
0.0
 11
0.0
 21
8.5
  0
LINE
  5
229
100
AcDbEntity
  8
0
100
AcDbLine
 62
7
  6
CONTINUOUS
 10
0.0
 20
0.0
 11
11.0
 21
0.0
  0
LINE
  5
22A
100
AcDbEntity
  8
0
100
AcDbLine
 62
7
  6
CONTINUOUS
 10
0.0
 20
8.5
 11
11.0
 21
8.5
  0
LINE
  5
22B
100
AcDbEntity
  8
0
100
AcDbLine
 62
7
  6
CONTINUOUS
 10
11.0
 20
0.0
 11
11.0
 21
8.5
  0
LINE
  5
22C
100
AcDbEntity
  8
ALL_ASSEMBLY_MEMBERS
100
AcDbLine
 62
7
  6
CONTINUOUS
 10
3.3677018634
 20
5.3077000416
 11
3.3677018634
 21
5.4017000416
  0
LINE
  5
22D
100
AcDbEntity
  8
ALL_ASSEMBLY_MEMBERS
100
AcDbLine
 62
7
  6
CONTINUOUS
 10
4.8614577607
 20
3.5774746479
 11
5.123945966
 21
3.5774746479
  0
LINE
  5
22E
100
AcDbEntity
  8
ALL_ASSEMBLY_MEMBERS
100
AcDbLine
 62
7
  6
CONTINUOUS
 10
4.8614518634
 20
3.5924746479
 11
5.1239518634
 21
3.5924746479
  0
LINE
  5
22F
100
AcDbEntity
  8
ALL_ASSEMBLY_MEMBERS
100
AcDbLine
 62
7
  6
CONTINUOUS
 10
4.8364518634
 20
3.6024746479
 11
5.1489518634
 21
3.6024746479
  0
LINE
  5
230
100
AcDbEntity
  8
ALL_ASSEMBLY_MEMBERS
100
AcDbLine
 62
7
  6
CONTINUOUS
 10
4.7927034925
 20
3.6399746479
 11
5.1927002342
 21
3.6399746479
  0
LINE
  5
231
100
AcDbEntity
  8
ALL_ASSEMBLY_MEMBERS
100
AcDbLine
 62
7
  6
CONTINUOUS
 10
4.7927018718
 20
3.8774746479
 11
5.1927018549
 21
3.8774746479
  0
LINE
  5
232
100
AcDbEntity
  8
ALL_ASSEMBLY_MEMBERS
100
AcDbLine
 62
7
  6
CONTINUOUS
 10
4.8364518634
 20
3.8874746479
 11
5.1489518634
 21
3.8874746479
  0
LINE
  5
233
100
AcDbEntity
  8
ALL_ASSEMBLY_MEMBERS
100
AcDbLine
 62
7
  6
CONTINUOUS
 10
4.9077018634
 20
3.9359746479
 11
4.9277018634
 21
3.9359746479
  0
LINE
  5
234
100
AcDbEntity
  8
ALL_ASSEMBLY_MEMBERS
100
AcDbLine
 62
7
  6
CONTINUOUS
 10
5.0577018634
 20
3.9359746479
 11
5.0777018634
 21
3.9359746479
  0
LINE
  5
235
100
AcDbEntity
  8
ALL_ASSEMBLY_MEMBERS
100
AcDbLine
 62
7
  6
CONTINUOUS
 10
5.0877018634
 20
3.9559746479
 11
5.0689518634
 21
3.9559746479
  0
LINE
  5
236
100
AcDbEntity
  8
ALL_ASSEMBLY_MEMBERS
100
AcDbLine
 62
7
  6
CONTINUOUS
 10
4.8977018634
 20
3.9559746479
 11
4.9164518634
 21
3.9559746479
  0
LINE
  5
237
100
AcDbEntity
  8
ALL_ASSEMBLY_MEMBERS
100
AcDbLine
 62
7
  6
CONTINUOUS
 10
5.0777018634
 20
3.9759746479
 11
5.0577018634
 21
3.9759746479
  0
LINE
  5
238
100
AcDbEntity
  8
ALL_ASSEMBLY_MEMBERS
100
AcDbLine
 62
7
  6
CONTINUOUS
 10
4.9277018634
 20
3.9759746479
 11
4.9077018634
 21
3.9759746479
  0
LINE
  5
239
100
AcDbEntity
  8
ALL_ASSEMBLY_MEMBERS
100
AcDbLine
 62
7
  6
CONTINUOUS
 10
4.8364518634
 20
4.0339746479
 11
5.1489518634
 21
4.0339746479
  0
LINE
  5
23A
100
AcDbEntity
  8
ALL_ASSEMBLY_MEMBERS
100
AcDbLine
 62
7
  6
CONTINUOUS
 10
4.8176832015
 20
4.0489746479
 11
5.1677205252
 21
4.0489746479
  0
LINE
  5
23B
100
AcDbEntity
  8
ALL_ASSEMBLY_MEMBERS
100
AcDbLine
 62
7
  6
CONTINUOUS
 10
4.7864518634
 20
4.0713071931
 11
5.1989518634
 21
4.0713071931
  0
LINE
  5
23C
100
AcDbEntity
  8
ALL_ASSEMBLY_MEMBERS
100
AcDbLine
 62
7
  6
CONTINUOUS
 10
4.5002018634
 20
4.9958250416
 11
4.5002018634
 21
5.1657000416
  0
LINE
  5
23D
100
AcDbEntity
  8
ALL_ASSEMBLY_MEMBERS
100
AcDbLine
 62
7
  6
CONTINUOUS
 10
4.5077018634
 20
4.3715107225
 11
4.5077018634
 21
4.7989746479
  0
LINE
  5
23E
100
AcDbEntity
  8
ALL_ASSEMBLY_MEMBERS
100
AcDbLine
 62
7
  6
CONTINUOUS
 10
4.5079518634
 20
4.9466124431
 11
4.5079518634
 21
4.858029766
  0
LINE
  5
23F
100
AcDbEntity
  8
ALL_ASSEMBLY_MEMBERS
100
AcDbLine
 62
7
  6
CONTINUOUS
 10
4.5081207624
 20
4.9466124431
 11
4.5081207624
 21
4.858029766
  0
LINE
  5
240
100
AcDbEntity
  8
ALL_ASSEMBLY_MEMBERS
100
AcDbLine
 62
7
  6
CONTINUOUS
 10
4.5104183988
 20
4.9958250416
 11
4.5104183988
 21
4.9466124431
  0
LINE
  5
241
100
AcDbEntity
  8
ALL_ASSEMBLY_MEMBERS
100
AcDbLine
 62
7
  6
CONTINUOUS
 10
4.5104183988
 20
4.858029766
 11
4.5104183988
 21
4.7989746479
  0
LINE
  5
242
100
AcDbEntity
  8
ALL_ASSEMBLY_MEMBERS
100
AcDbLine
 62
7
  6
CONTINUOUS
 10
4.5105881619
 20
4.9466124431
 11
4.5105881619
 21
4.858029766
  0
LINE
  5
243
100
AcDbEntity
  8
ALL_ASSEMBLY_MEMBERS
100
AcDbLine
 62
7
  6
CONTINUOUS
 10
4.5227076642
 20
4.8853898758
 11
4.5227076642
 21
4.8799178544
  0
LINE
  5
244
100
AcDbEntity
  8
ALL_ASSEMBLY_MEMBERS
100
AcDbLine
 62
7
  6
CONTINUOUS
 10
4.5230124705
 20
4.9218700215
 11
4.5230124705
 21
4.916398
  0
LINE
  5
245
100
AcDbEntity
  8
ALL_ASSEMBLY_MEMBERS
100
AcDbLine
 62
7
  6
CONTINUOUS
 10
4.5242615511
 20
4.8853898758
 11
4.5242615511
 21
4.8799178544
  0
LINE
  5
246
100
AcDbEntity
  8
ALL_ASSEMBLY_MEMBERS
100
AcDbLine
 62
7
  6
CONTINUOUS
 10
4.5245812744
 20
4.9218700215
 11
4.5245812744
 21
4.9182220072
  0
LINE
  5
247
100
AcDbEntity
  8
ALL_ASSEMBLY_MEMBERS
100
AcDbLine
 62
7
  6
CONTINUOUS
 10
4.5265885785
 20
4.8853898758
 11
4.5265885785
 21
4.8799178544
  0
LINE
  5
248
100
AcDbEntity
  8
ALL_ASSEMBLY_MEMBERS
100
AcDbLine
 62
7
  6
CONTINUOUS
 10
4.5269077773
 20
4.9218700215
 11
4.5269077773
 21
4.9182220072
  0
LINE
  5
249
100
AcDbEntity
  8
ALL_ASSEMBLY_MEMBERS
100
AcDbLine
 62
7
  6
CONTINUOUS
 10
4.5331440576
 20
4.9218700215
 11
4.5331440576
 21
4.9182220072
  0
LINE
  5
24A
100
AcDbEntity
  8
ALL_ASSEMBLY_MEMBERS
100
AcDbLine
 62
7
  6
CONTINUOUS
 10
4.5335377624
 20
4.8853898758
 11
4.5335377624
 21
4.8799178544
  0
LINE
  5
24B
100
AcDbEntity
  8
ALL_ASSEMBLY_MEMBERS
100
AcDbLine
 62
7
  6
CONTINUOUS
 10
4.5351420415
 20
4.9218700215
 11
4.5351420415
 21
4.916398
  0
LINE
  5
24C
100
AcDbEntity
  8
ALL_ASSEMBLY_MEMBERS
100
AcDbLine
 62
7
  6
CONTINUOUS
 10
4.5355504733
 20
4.8853898758
 11
4.5355504733
 21
4.8799178544
  0
LINE
  5
24D
100
AcDbEntity
  8
ALL_ASSEMBLY_MEMBERS
100
AcDbLine
 62
7
  6
CONTINUOUS
 10
4.53746001
 20
4.9218700215
 11
4.53746001
 21
4.916398
  0
LINE
  5
24E
100
AcDbEntity
  8
ALL_ASSEMBLY_MEMBERS
100
AcDbLine
 62
7
  6
CONTINUOUS
 10
4.5378683749
 20
4.8853898758
 11
4.5378683749
 21
4.8799178544
  0
LINE
  5
24F
100
AcDbEntity
  8
ALL_ASSEMBLY_MEMBERS
100
AcDbLine
 62
7
  6
CONTINUOUS
 10
4.5389239201
 20
4.9437581124
 11
4.5389239201
 21
4.8963339213
  0
LINE
  5
250
100
AcDbEntity
  8
ALL_ASSEMBLY_MEMBERS
100
AcDbLine
 62
7
  6
CONTINUOUS
 10
4.5411280187
 20
4.9346380767
 11
4.5411280187
 21
4.9054539571
  0
LINE
  5
251
100
AcDbEntity
  8
ALL_ASSEMBLY_MEMBERS
100
AcDbLine
 62
7
  6
CONTINUOUS
 10
4.5434464228
 20
4.9346380767
 11
4.5434464228
 21
4.9109259786
  0
LINE
  5
252
100
AcDbEntity
  8
ALL_ASSEMBLY_MEMBERS
100
AcDbLine
 62
7
  6
CONTINUOUS
 10
4.5537792604
 20
4.887213883
 11
4.5537792604
 21
4.8835658687
  0
LINE
  5
253
100
AcDbEntity
  8
ALL_ASSEMBLY_MEMBERS
100
AcDbLine
 62
7
  6
CONTINUOUS
 10
4.5553680737
 20
4.9437581124
 11
4.5553680737
 21
4.9346380767
  0
LINE
  5
254
100
AcDbEntity
  8
ALL_ASSEMBLY_MEMBERS
100
AcDbLine
 62
7
  6
CONTINUOUS
 10
4.5564422071
 20
4.8890378902
 11
4.5564422071
 21
4.8817418615
  0
LINE
  5
255
100
AcDbEntity
  8
ALL_ASSEMBLY_MEMBERS
100
AcDbLine
 62
7
  6
CONTINUOUS
 10
4.5576968449
 20
4.9437581124
 11
4.5576968449
 21
4.9346380767
  0
LINE
  5
256
100
AcDbEntity
  8
ALL_ASSEMBLY_MEMBERS
100
AcDbLine
 62
7
  6
CONTINUOUS
 10
4.5587721724
 20
4.8890378902
 11
4.5587721724
 21
4.8817418615
  0
LINE
  5
257
100
AcDbEntity
  8
ALL_ASSEMBLY_MEMBERS
100
AcDbLine
 62
7
  6
CONTINUOUS
 10
4.6694306526
 20
4.1739746479
 11
5.3159730742
 21
4.1739746479
  0
LINE
  5
258
100
AcDbEntity
  8
ALL_ASSEMBLY_MEMBERS
100
AcDbLine
 62
7
  6
CONTINUOUS
 10
4.8977018634
 20
3.9559746479
 11
4.9077018634
 21
3.9359746479
  0
LINE
  5
259
100
AcDbEntity
  8
ALL_ASSEMBLY_MEMBERS
100
AcDbLine
 62
7
  6
CONTINUOUS
 10
4.7042762862
 20
4.9466124431
 11
4.7042762862
 21
4.858029766
  0
LINE
  5
25A
100
AcDbEntity
  8
ALL_ASSEMBLY_MEMBERS
100
AcDbLine
 62
7
  6
CONTINUOUS
 10
4.7252388385
 20
4.9466124431
 11
4.7252388385
 21
4.858029766
  0
LINE
  5
25B
100
AcDbEntity
  8
ALL_ASSEMBLY_MEMBERS
100
AcDbLine
 62
7
  6
CONTINUOUS
 10
4.7266540807
 20
4.9466124431
 11
4.7266540807
 21
4.858029766
  0
LINE
  5
25C
100
AcDbEntity
  8
ALL_ASSEMBLY_MEMBERS
100
AcDbLine
 62
7
  6
CONTINUOUS
 10
4.969186669
 20
4.9328140695
 11
4.9650609923
 21
4.9291660552
  0
LINE
  5
25D
100
AcDbEntity
  8
ALL_ASSEMBLY_MEMBERS
100
AcDbLine
 62
7
  6
CONTINUOUS
 10
4.9678114447
 20
4.9419341053
 11
4.9609353156
 21
4.9364620838
  0
LINE
  5
25E
100
AcDbEntity
  8
ALL_ASSEMBLY_MEMBERS
100
AcDbLine
 62
7
  6
CONTINUOUS
 10
5.0283213706
 20
4.9419341053
 11
5.0214452375
 21
4.9364620838
  0
LINE
  5
25F
100
AcDbEntity
  8
ALL_ASSEMBLY_MEMBERS
100
AcDbLine
 62
7
  6
CONTINUOUS
 10
4.9164518634
 20
3.9559746479
 11
4.9264518634
 21
3.9359746479
  0
LINE
  5
260
100
AcDbEntity
  8
ALL_ASSEMBLY_MEMBERS
100
AcDbLine
 62
7
  6
CONTINUOUS
 10
4.9377018634
 20
3.9559746479
 11
4.9277018634
 21
3.9759746479
  0
LINE
  5
261
100
AcDbEntity
  8
ALL_ASSEMBLY_MEMBERS
100
AcDbLine
 62
7
  6
CONTINUOUS
 10
5.0477018634
 20
3.9559746479
 11
5.0577018634
 21
3.9359746479
  0
LINE
  5
262
100
AcDbEntity
  8
ALL_ASSEMBLY_MEMBERS
100
AcDbLine
 62
7
  6
CONTINUOUS
 10
4.4327018634
 20
5.2452000416
 11
4.4627018634
 21
5.1657000416
  0
LINE
  5
263
100
AcDbEntity
  8
ALL_ASSEMBLY_MEMBERS
100
AcDbLine
 62
7
  6
CONTINUOUS
 10
4.7927018634
 20
3.6399746479
 11
4.7927018634
 21
3.8774746479
  0
LINE
  5
264
100
AcDbEntity
  8
ALL_ASSEMBLY_MEMBERS
100
AcDbLine
 62
7
  6
CONTINUOUS
 10
4.8364518634
 20
3.8874746479
 11
4.8364518634
 21
4.0339746479
  0
LINE
  5
265
100
AcDbEntity
  8
ALL_ASSEMBLY_MEMBERS
100
AcDbLine
 62
7
  6
CONTINUOUS
 10
4.8614518634
 20
3.5774746479
 11
4.8614518634
 21
3.5924746479
  0
LINE
  5
266
100
AcDbEntity
  8
ALL_ASSEMBLY_MEMBERS
100
AcDbLine
 62
7
  6
CONTINUOUS
 10
4.9540591885
 20
4.9236940337
 11
4.9526839623
 21
4.9182220072
  0
LINE
  5
267
100
AcDbEntity
  8
ALL_ASSEMBLY_MEMBERS
100
AcDbLine
 62
7
  6
CONTINUOUS
 10
4.9568096389
 20
4.9309900624
 11
4.9540591885
 21
4.9236940337
  0
LINE
  5
268
100
AcDbEntity
  8
ALL_ASSEMBLY_MEMBERS
100
AcDbLine
 62
7
  6
CONTINUOUS
 10
4.9650609923
 20
4.9291660552
 11
4.9595600914
 21
4.9182220072
  0
LINE
  5
269
100
AcDbEntity
  8
ALL_ASSEMBLY_MEMBERS
100
AcDbLine
 62
7
  6
CONTINUOUS
 10
4.9925655008
 20
4.8835658687
 11
4.9870645999
 21
4.8726218245
  0
LINE
  5
26A
100
AcDbEntity
  8
ALL_ASSEMBLY_MEMBERS
100
AcDbLine
 62
7
  6
CONTINUOUS
 10
5.0255709142
 20
4.9291660552
 11
5.0200700172
 21
4.9182220072
  0
LINE
  5
26B
100
AcDbEntity
  8
ALL_ASSEMBLY_MEMBERS
100
AcDbLine
 62
7
  6
CONTINUOUS
 10
4.9320555789
 20
4.9437581124
 11
4.9238042256
 21
4.9309900624
  0
LINE
  5
26C
100
AcDbEntity
  8
ALL_ASSEMBLY_MEMBERS
100
AcDbLine
 62
7
  6
CONTINUOUS
 10
4.9320555789
 20
4.9291660552
 11
4.9238042256
 21
4.916398
  0
LINE
  5
26D
100
AcDbEntity
  8
ALL_ASSEMBLY_MEMBERS
100
AcDbLine
 62
7
  6
CONTINUOUS
 10
4.9609353156
 20
4.9364620838
 11
4.9568096389
 21
4.9309900624
  0
LINE
  5
26E
100
AcDbEntity
  8
ALL_ASSEMBLY_MEMBERS
100
AcDbLine
 62
7
  6
CONTINUOUS
 10
5.0214452375
 20
4.9364620838
 11
5.0173195609
 21
4.9309900624
  0
LINE
  5
26F
100
AcDbEntity
  8
ALL_ASSEMBLY_MEMBERS
100
AcDbLine
 62
7
  6
CONTINUOUS
 10
4.9953159572
 20
4.8707978173
 11
4.9911902805
 21
4.8653257952
  0
LINE
  5
270
100
AcDbEntity
  8
ALL_ASSEMBLY_MEMBERS
100
AcDbLine
 62
7
  6
CONTINUOUS
 10
5.0558258791
 20
4.8707978173
 11
5.0517002024
 21
4.8653257952
  0
LINE
  5
271
100
AcDbEntity
  8
ALL_ASSEMBLY_MEMBERS
100
AcDbLine
 62
7
  6
CONTINUOUS
 10
5.0296965909
 20
4.9328140695
 11
5.0255709142
 21
4.9291660552
  0
LINE
  5
272
100
AcDbEntity
  8
ALL_ASSEMBLY_MEMBERS
100
AcDbLine
 62
7
  6
CONTINUOUS
 10
4.9870645999
 20
4.8726218245
 11
4.9829389232
 21
4.8689738102
  0
LINE
  5
273
100
AcDbEntity
  8
ALL_ASSEMBLY_MEMBERS
100
AcDbLine
 62
7
  6
CONTINUOUS
 10
5.0475745258
 20
4.8726218245
 11
5.0434488491
 21
4.8689738102
  0
LINE
  5
274
100
AcDbEntity
  8
ALL_ASSEMBLY_MEMBERS
100
AcDbLine
 62
7
  6
CONTINUOUS
 10
4.9911902805
 20
4.8653257952
 11
4.9843141514
 21
4.8598537733
  0
LINE
  5
275
100
AcDbEntity
  8
ALL_ASSEMBLY_MEMBERS
100
AcDbLine
 62
7
  6
CONTINUOUS
 10
5.0517002024
 20
4.8653257952
 11
5.0448240773
 21
4.8598537733
  0
LINE
  5
276
100
AcDbEntity
  8
ALL_ASSEMBLY_MEMBERS
100
AcDbLine
 62
7
  6
CONTINUOUS
 10
4.5077018634
 20
4.3715107225
 11
5.4777018634
 21
4.3715107225
  0
LINE
  5
277
100
AcDbEntity
  8
ALL_ASSEMBLY_MEMBERS
100
AcDbLine
 62
7
  6
CONTINUOUS
 10
5.0689518634
 20
3.9559746479
 11
5.0589518634
 21
3.9759746479
  0
LINE
  5
278
100
AcDbEntity
  8
ALL_ASSEMBLY_MEMBERS
100
AcDbLine
 62
7
  6
CONTINUOUS
 10
5.0877018634
 20
3.9559746479
 11
5.0777018634
 21
3.9759746479
  0
LINE
  5
279
100
AcDbEntity
  8
ALL_ASSEMBLY_MEMBERS
100
AcDbLine
 62
7
  6
CONTINUOUS
 10
4.9008272999
 20
4.0489746479
 11
4.9008272999
 21
4.0339746479
  0
LINE
  5
27A
100
AcDbEntity
  8
ALL_ASSEMBLY_MEMBERS
100
AcDbLine
 62
7
  6
CONTINUOUS
 10
4.9037114027
 20
4.0489746479
 11
4.9037114027
 21
4.0339746479
  0
LINE
  5
27B
100
AcDbEntity
  8
ALL_ASSEMBLY_MEMBERS
100
AcDbLine
 62
7
  6
CONTINUOUS
 10
4.9119302665
 20
4.0489746479
 11
4.9119302665
 21
4.0339746479
  0
LINE
  5
27C
100
AcDbEntity
  8
ALL_ASSEMBLY_MEMBERS
100
AcDbLine
 62
7
  6
CONTINUOUS
 10
4.9201434965
 20
4.0489746479
 11
4.9201434965
 21
4.0339746479
  0
LINE
  5
27D
100
AcDbEntity
  8
ALL_ASSEMBLY_MEMBERS
100
AcDbLine
 62
7
  6
CONTINUOUS
 10
4.9238042256
 20
4.9309900624
 11
4.9238042256
 21
4.916398
  0
LINE
  5
27E
100
AcDbEntity
  8
ALL_ASSEMBLY_MEMBERS
100
AcDbLine
 62
7
  6
CONTINUOUS
 10
4.9315940262
 20
4.0339746479
 11
4.9315940262
 21
4.0489746479
  0
LINE
  5
27F
100
AcDbEntity
  8
ALL_ASSEMBLY_MEMBERS
100
AcDbLine
 62
7
  6
CONTINUOUS
 10
4.9320555789
 20
4.9291660552
 11
4.9320555789
 21
4.858029766
  0
LINE
  5
280
100
AcDbEntity
  8
ALL_ASSEMBLY_MEMBERS
100
AcDbLine
 62
7
  6
CONTINUOUS
 10
4.9353299765
 20
4.0489746479
 11
4.9353299765
 21
4.0339746479
  0
LINE
  5
281
100
AcDbEntity
  8
ALL_ASSEMBLY_MEMBERS
100
AcDbLine
 62
7
  6
CONTINUOUS
 10
4.9403069323
 20
4.9437581124
 11
4.9403069323
 21
4.858029766
  0
LINE
  5
282
100
AcDbEntity
  8
ALL_ASSEMBLY_MEMBERS
100
AcDbLine
 62
7
  6
CONTINUOUS
 10
4.9476219439
 20
4.0489746479
 11
4.9476219439
 21
4.0339746479
  0
LINE
  5
283
100
AcDbEntity
  8
ALL_ASSEMBLY_MEMBERS
100
AcDbLine
 62
7
  6
CONTINUOUS
 10
4.9513087361
 20
4.9091019714
 11
4.9513087361
 21
4.892685907
  0
LINE
  5
284
100
AcDbEntity
  8
ALL_ASSEMBLY_MEMBERS
100
AcDbLine
 62
7
  6
CONTINUOUS
 10
4.9570267198
 20
4.0339746479
 11
4.9570267198
 21
4.0489746479
  0
LINE
  5
285
100
AcDbEntity
  8
ALL_ASSEMBLY_MEMBERS
100
AcDbLine
 62
7
  6
CONTINUOUS
 10
4.9581848632
 20
4.9072779642
 11
4.9581848632
 21
4.8945099142
  0
LINE
  5
286
100
AcDbEntity
  8
ALL_ASSEMBLY_MEMBERS
100
AcDbLine
 62
7
  6
CONTINUOUS
 10
4.9632018634
 20
4.5288948516
 11
4.9632018634
 21
4.534422858
  0
LINE
  5
287
100
AcDbEntity
  8
ALL_ASSEMBLY_MEMBERS
100
AcDbLine
 62
7
  6
CONTINUOUS
 10
4.9659167186
 20
4.0339746479
 11
4.9659167186
 21
4.0489746479
  0
LINE
  5
288
100
AcDbEntity
  8
ALL_ASSEMBLY_MEMBERS
100
AcDbLine
 62
7
  6
CONTINUOUS
 10
4.9674640362
 20
4.0489746479
 11
4.9674640362
 21
4.0339746479
  0
LINE
  5
289
100
AcDbEntity
  8
ALL_ASSEMBLY_MEMBERS
100
AcDbLine
 62
7
  6
CONTINUOUS
 10
4.9819634004
 20
4.0489746479
 11
4.9819634004
 21
4.0339746479
  0
LINE
  5
28A
100
AcDbEntity
  8
ALL_ASSEMBLY_MEMBERS
100
AcDbLine
 62
7
  6
CONTINUOUS
 10
4.9827023787
 20
5.1308250416
 11
4.9827023787
 21
5.0508250416
  0
LINE
  5
28B
100
AcDbEntity
  8
ALL_ASSEMBLY_MEMBERS
100
AcDbLine
 62
7
  6
CONTINUOUS
 10
4.9878906307
 20
4.0339746479
 11
4.9878906307
 21
4.0489746479
  0
LINE
  5
28C
100
AcDbEntity
  8
ALL_ASSEMBLY_MEMBERS
100
AcDbLine
 62
7
  6
CONTINUOUS
 10
4.993940729
 20
4.9072779642
 11
4.993940729
 21
4.8945099142
  0
LINE
  5
28D
100
AcDbEntity
  8
ALL_ASSEMBLY_MEMBERS
100
AcDbLine
 62
7
  6
CONTINUOUS
 10
4.997513096
 20
4.0339746479
 11
4.997513096
 21
4.0489746479
  0
LINE
  5
28E
100
AcDbEntity
  8
ALL_ASSEMBLY_MEMBERS
100
AcDbLine
 62
7
  6
CONTINUOUS
 10
5.0008168542
 20
4.9091019714
 11
5.0008168542
 21
4.892685907
  0
LINE
  5
28F
100
AcDbEntity
  8
ALL_ASSEMBLY_MEMBERS
100
AcDbLine
 62
7
  6
CONTINUOUS
 10
5.002701348
 20
5.1308250416
 11
5.002701348
 21
5.0508250416
  0
LINE
  5
290
100
AcDbEntity
  8
ALL_ASSEMBLY_MEMBERS
100
AcDbLine
 62
7
  6
CONTINUOUS
 10
5.0034403263
 20
4.0489746479
 11
5.0034403263
 21
4.0339746479
  0
LINE
  5
291
100
AcDbEntity
  8
ALL_ASSEMBLY_MEMBERS
100
AcDbLine
 62
7
  6
CONTINUOUS
 10
4.9595600914
 20
4.9182220072
 11
4.9581848632
 21
4.9072779642
  0
LINE
  5
292
100
AcDbEntity
  8
ALL_ASSEMBLY_MEMBERS
100
AcDbLine
 62
7
  6
CONTINUOUS
 10
4.993940729
 20
4.8945099142
 11
4.9925655008
 21
4.8835658687
  0
LINE
  5
293
100
AcDbEntity
  8
ALL_ASSEMBLY_MEMBERS
100
AcDbLine
 62
7
  6
CONTINUOUS
 10
5.0200700172
 20
4.9182220072
 11
5.018694789
 21
4.9072779642
  0
LINE
  5
294
100
AcDbEntity
  8
ALL_ASSEMBLY_MEMBERS
100
AcDbLine
 62
7
  6
CONTINUOUS
 10
4.9526839623
 20
4.9182220072
 11
4.9513087361
 21
4.9091019714
  0
LINE
  5
295
100
AcDbEntity
  8
ALL_ASSEMBLY_MEMBERS
100
AcDbLine
 62
7
  6
CONTINUOUS
 10
5.0008168542
 20
4.892685907
 11
4.9994416339
 21
4.8835658687
  0
LINE
  5
296
100
AcDbEntity
  8
ALL_ASSEMBLY_MEMBERS
100
AcDbLine
 62
7
  6
CONTINUOUS
 10
5.0131938842
 20
4.9182220072
 11
5.0118186639
 21
4.9091019714
  0
LINE
  5
297
100
AcDbEntity
  8
ALL_ASSEMBLY_MEMBERS
100
AcDbLine
 62
7
  6
CONTINUOUS
 10
4.9994416339
 20
4.8835658687
 11
4.9980664057
 21
4.8780938472
  0
LINE
  5
298
100
AcDbEntity
  8
ALL_ASSEMBLY_MEMBERS
100
AcDbLine
 62
7
  6
CONTINUOUS
 10
5.0145691124
 20
4.9236940337
 11
5.0131938842
 21
4.9182220072
  0
LINE
  5
299
100
AcDbEntity
  8
ALL_ASSEMBLY_MEMBERS
100
AcDbLine
 62
7
  6
CONTINUOUS
 10
5.0599515558
 20
4.8835658687
 11
5.0585763355
 21
4.8780938472
  0
LINE
  5
29A
100
AcDbEntity
  8
ALL_ASSEMBLY_MEMBERS
100
AcDbLine
 62
7
  6
CONTINUOUS
 10
5.0173195609
 20
4.9309900624
 11
5.0145691124
 21
4.9236940337
  0
LINE
  5
29B
100
AcDbEntity
  8
ALL_ASSEMBLY_MEMBERS
100
AcDbLine
 62
7
  6
CONTINUOUS
 10
4.9980664057
 20
4.8780938472
 11
4.9953159572
 21
4.8707978173
  0
LINE
  5
29C
100
AcDbEntity
  8
ALL_ASSEMBLY_MEMBERS
100
AcDbLine
 62
7
  6
CONTINUOUS
 10
5.0585763355
 20
4.8780938472
 11
5.0558258791
 21
4.8707978173
  0
LINE
  5
29D
100
AcDbEntity
  8
ALL_ASSEMBLY_MEMBERS
100
AcDbLine
 62
7
  6
CONTINUOUS
 10
5.0530754306
 20
4.8835658687
 11
5.0475745258
 21
4.8726218245
  0
LINE
  5
29E
100
AcDbEntity
  8
ALL_ASSEMBLY_MEMBERS
100
AcDbLine
 62
7
  6
CONTINUOUS
 10
5.0192181293
 20
4.5357246479
 11
4.99810847
 21
4.5357246479
  0
LINE
  5
29F
100
AcDbEntity
  8
ALL_ASSEMBLY_MEMBERS
100
AcDbLine
 62
7
  6
CONTINUOUS
 10
4.9872952568
 20
4.5357246479
 11
4.9661855974
 21
4.5357246479
  0
LINE
  5
2A0
100
AcDbEntity
  8
ALL_ASSEMBLY_MEMBERS
100
AcDbLine
 62
7
  6
CONTINUOUS
 10
4.9526839623
 20
4.8835658687
 11
4.9513087361
 21
4.892685907
  0
LINE
  5
2A1
100
AcDbEntity
  8
ALL_ASSEMBLY_MEMBERS
100
AcDbLine
 62
7
  6
CONTINUOUS
 10
4.9595600914
 20
4.8835658687
 11
4.9581848632
 21
4.8945099142
  0
LINE
  5
2A2
100
AcDbEntity
  8
ALL_ASSEMBLY_MEMBERS
100
AcDbLine
 62
7
  6
CONTINUOUS
 10
5.0118186639
 20
4.9091019714
 11
5.0118186639
 21
4.892685907
  0
LINE
  5
2A3
100
AcDbEntity
  8
ALL_ASSEMBLY_MEMBERS
100
AcDbLine
 62
7
  6
CONTINUOUS
 10
5.0179396905
 20
4.0489746479
 11
5.0179396905
 21
4.0339746479
  0
LINE
  5
2A4
100
AcDbEntity
  8
ALL_ASSEMBLY_MEMBERS
100
AcDbLine
 62
7
  6
CONTINUOUS
 10
5.018694789
 20
4.9072779642
 11
5.018694789
 21
4.8945099142
  0
LINE
  5
2A5
100
AcDbEntity
  8
ALL_ASSEMBLY_MEMBERS
100
AcDbLine
 62
7
  6
CONTINUOUS
 10
5.0194870081
 20
4.0339746479
 11
5.0194870081
 21
4.0489746479
  0
LINE
  5
2A6
100
AcDbEntity
  8
ALL_ASSEMBLY_MEMBERS
100
AcDbLine
 62
7
  6
CONTINUOUS
 10
5.0222018634
 20
4.5288948516
 11
5.0222018634
 21
4.534422858
  0
LINE
  5
2A7
100
AcDbEntity
  8
ALL_ASSEMBLY_MEMBERS
100
AcDbLine
 62
7
  6
CONTINUOUS
 10
5.0283770069
 20
4.0339746479
 11
5.0283770069
 21
4.0489746479
  0
LINE
  5
2A8
100
AcDbEntity
  8
ALL_ASSEMBLY_MEMBERS
100
AcDbLine
 62
7
  6
CONTINUOUS
 10
5.0377817828
 20
4.0489746479
 11
5.0377817828
 21
4.0339746479
  0
LINE
  5
2A9
100
AcDbEntity
  8
ALL_ASSEMBLY_MEMBERS
100
AcDbLine
 62
7
  6
CONTINUOUS
 10
5.0500737502
 20
4.0489746479
 11
5.0500737502
 21
4.0339746479
  0
LINE
  5
2AA
100
AcDbEntity
  8
ALL_ASSEMBLY_MEMBERS
100
AcDbLine
 62
7
  6
CONTINUOUS
 10
5.0538097006
 20
4.0339746479
 11
5.0538097006
 21
4.0489746479
  0
LINE
  5
2AB
100
AcDbEntity
  8
ALL_ASSEMBLY_MEMBERS
100
AcDbLine
 62
7
  6
CONTINUOUS
 10
5.0544506509
 20
4.9072779642
 11
5.0544506509
 21
4.8945099142
  0
LINE
  5
2AC
100
AcDbEntity
  8
ALL_ASSEMBLY_MEMBERS
100
AcDbLine
 62
7
  6
CONTINUOUS
 10
5.0613267761
 20
4.9091019714
 11
5.0613267761
 21
4.892685907
  0
LINE
  5
2AD
100
AcDbEntity
  8
ALL_ASSEMBLY_MEMBERS
100
AcDbLine
 62
7
  6
CONTINUOUS
 10
5.0652602302
 20
4.0489746479
 11
5.0652602302
 21
4.0339746479
  0
LINE
  5
2AE
100
AcDbEntity
  8
ALL_ASSEMBLY_MEMBERS
100
AcDbLine
 62
7
  6
CONTINUOUS
 10
5.0734734602
 20
4.0489746479
 11
5.0734734602
 21
4.0339746479
  0
LINE
  5
2AF
100
AcDbEntity
  8
ALL_ASSEMBLY_MEMBERS
100
AcDbLine
 62
7
  6
CONTINUOUS
 10
5.081692324
 20
4.0489746479
 11
5.081692324
 21
4.0339746479
  0
LINE
  5
2B0
100
AcDbEntity
  8
ALL_ASSEMBLY_MEMBERS
100
AcDbLine
 62
7
  6
CONTINUOUS
 10
5.0845764268
 20
4.0489746479
 11
5.0845764268
 21
4.0339746479
  0
LINE
  5
2B1
100
AcDbEntity
  8
ALL_ASSEMBLY_MEMBERS
100
AcDbLine
 62
7
  6
CONTINUOUS
 10
5.1239518634
 20
3.5774746479
 11
5.1239518634
 21
3.5924746479
  0
LINE
  5
2B2
100
AcDbEntity
  8
ALL_ASSEMBLY_MEMBERS
100
AcDbLine
 62
7
  6
CONTINUOUS
 10
5.0544506509
 20
4.8945099142
 11
5.0530754306
 21
4.8835658687
  0
LINE
  5
2B3
100
AcDbEntity
  8
ALL_ASSEMBLY_MEMBERS
100
AcDbLine
 62
7
  6
CONTINUOUS
 10
5.0613267761
 20
4.892685907
 11
5.0599515558
 21
4.8835658687
  0
LINE
  5
2B4
100
AcDbEntity
  8
ALL_ASSEMBLY_MEMBERS
100
AcDbLine
 62
7
  6
CONTINUOUS
 10
4.9609353156
 20
4.8653257952
 11
4.9568096389
 21
4.8707978173
  0
LINE
  5
2B5
100
AcDbEntity
  8
ALL_ASSEMBLY_MEMBERS
100
AcDbLine
 62
7
  6
CONTINUOUS
 10
4.9650609923
 20
4.8726218245
 11
4.9595600914
 21
4.8835658687
  0
LINE
  5
2B6
100
AcDbEntity
  8
ALL_ASSEMBLY_MEMBERS
100
AcDbLine
 62
7
  6
CONTINUOUS
 10
4.9925655008
 20
4.9182220072
 11
4.9870645999
 21
4.9291660552
  0
LINE
  5
2B7
100
AcDbEntity
  8
ALL_ASSEMBLY_MEMBERS
100
AcDbLine
 62
7
  6
CONTINUOUS
 10
4.9568096389
 20
4.8707978173
 11
4.9540591885
 21
4.8780938472
  0
LINE
  5
2B8
100
AcDbEntity
  8
ALL_ASSEMBLY_MEMBERS
100
AcDbLine
 62
7
  6
CONTINUOUS
 10
5.0173195609
 20
4.8707978173
 11
5.0145691124
 21
4.8780938472
  0
LINE
  5
2B9
100
AcDbEntity
  8
ALL_ASSEMBLY_MEMBERS
100
AcDbLine
 62
7
  6
CONTINUOUS
 10
4.9980664057
 20
4.9236940337
 11
4.9953159572
 21
4.9309900624
  0
LINE
  5
2BA
100
AcDbEntity
  8
ALL_ASSEMBLY_MEMBERS
100
AcDbLine
 62
7
  6
CONTINUOUS
 10
4.9540591885
 20
4.8780938472
 11
4.9526839623
 21
4.8835658687
  0
LINE
  5
2BB
100
AcDbEntity
  8
ALL_ASSEMBLY_MEMBERS
100
AcDbLine
 62
7
  6
CONTINUOUS
 10
4.9994416339
 20
4.9182220072
 11
4.9980664057
 21
4.9236940337
  0
LINE
  5
2BC
100
AcDbEntity
  8
ALL_ASSEMBLY_MEMBERS
100
AcDbLine
 62
7
  6
CONTINUOUS
 10
5.0145691124
 20
4.8780938472
 11
5.0131938842
 21
4.8835658687
  0
LINE
  5
2BD
100
AcDbEntity
  8
ALL_ASSEMBLY_MEMBERS
100
AcDbLine
 62
7
  6
CONTINUOUS
 10
5.0599515558
 20
4.9182220072
 11
5.0585763355
 21
4.9236940337
  0
LINE
  5
2BE
100
AcDbEntity
  8
ALL_ASSEMBLY_MEMBERS
100
AcDbLine
 62
7
  6
CONTINUOUS
 10
5.0008168542
 20
4.9091019714
 11
4.9994416339
 21
4.9182220072
  0
LINE
  5
2BF
100
AcDbEntity
  8
ALL_ASSEMBLY_MEMBERS
100
AcDbLine
 62
7
  6
CONTINUOUS
 10
5.0131938842
 20
4.8835658687
 11
5.0118186639
 21
4.892685907
  0
LINE
  5
2C0
100
AcDbEntity
  8
ALL_ASSEMBLY_MEMBERS
100
AcDbLine
 62
7
  6
CONTINUOUS
 10
5.0613267761
 20
4.9091019714
 11
5.0599515558
 21
4.9182220072
  0
LINE
  5
2C1
100
AcDbEntity
  8
ALL_ASSEMBLY_MEMBERS
100
AcDbLine
 62
7
  6
CONTINUOUS
 10
4.993940729
 20
4.9072779642
 11
4.9925655008
 21
4.9182220072
  0
LINE
  5
2C2
100
AcDbEntity
  8
ALL_ASSEMBLY_MEMBERS
100
AcDbLine
 62
7
  6
CONTINUOUS
 10
5.0200700172
 20
4.8835658687
 11
5.018694789
 21
4.8945099142
  0
LINE
  5
2C3
100
AcDbEntity
  8
ALL_ASSEMBLY_MEMBERS
100
AcDbLine
 62
7
  6
CONTINUOUS
 10
5.0544506509
 20
4.9072779642
 11
5.0530754306
 21
4.9182220072
  0
LINE
  5
2C4
100
AcDbEntity
  8
ALL_ASSEMBLY_MEMBERS
100
AcDbLine
 62
7
  6
CONTINUOUS
 10
5.1489518634
 20
3.8874746479
 11
5.1489518634
 21
4.0339746479
  0
LINE
  5
2C5
100
AcDbEntity
  8
ALL_ASSEMBLY_MEMBERS
100
AcDbLine
 62
7
  6
CONTINUOUS
 10
5.1927018634
 20
3.6399746479
 11
5.1927018634
 21
3.8774746479
  0
LINE
  5
2C6
100
AcDbEntity
  8
ALL_ASSEMBLY_MEMBERS
100
AcDbLine
 62
7
  6
CONTINUOUS
 10
5.258749646
 20
4.9466124431
 11
5.258749646
 21
4.858029766
  0
LINE
  5
2C7
100
AcDbEntity
  8
ALL_ASSEMBLY_MEMBERS
100
AcDbLine
 62
7
  6
CONTINUOUS
 10
5.2601648882
 20
4.9466124431
 11
5.2601648882
 21
4.858029766
  0
LINE
  5
2C8
100
AcDbEntity
  8
ALL_ASSEMBLY_MEMBERS
100
AcDbLine
 62
7
  6
CONTINUOUS
 10
4.9077018634
 20
3.9759746479
 11
4.8977018634
 21
3.9559746479
  0
LINE
  5
2C9
100
AcDbEntity
  8
ALL_ASSEMBLY_MEMBERS
100
AcDbLine
 62
7
  6
CONTINUOUS
 10
4.9264518634
 20
3.9759746479
 11
4.9164518634
 21
3.9559746479
  0
LINE
  5
2CA
100
AcDbEntity
  8
ALL_ASSEMBLY_MEMBERS
100
AcDbLine
 62
7
  6
CONTINUOUS
 10
4.9277018634
 20
3.9359746479
 11
4.9377018634
 21
3.9559746479
  0
LINE
  5
2CB
100
AcDbEntity
  8
ALL_ASSEMBLY_MEMBERS
100
AcDbLine
 62
7
  6
CONTINUOUS
 10
5.0434488491
 20
4.8689738102
 11
5.0365727239
 21
4.867149803
  0
LINE
  5
2CC
100
AcDbEntity
  8
ALL_ASSEMBLY_MEMBERS
100
AcDbLine
 62
7
  6
CONTINUOUS
 10
4.9829389232
 20
4.8689738102
 11
4.9760627981
 21
4.867149803
  0
LINE
  5
2CD
100
AcDbEntity
  8
ALL_ASSEMBLY_MEMBERS
100
AcDbLine
 62
7
  6
CONTINUOUS
 10
5.0448240773
 20
4.8598537733
 11
5.0365727239
 21
4.858029766
  0
LINE
  5
2CE
100
AcDbEntity
  8
ALL_ASSEMBLY_MEMBERS
100
AcDbLine
 62
7
  6
CONTINUOUS
 10
4.9843141514
 20
4.8598537733
 11
4.9760627981
 21
4.858029766
  0
LINE
  5
2CF
100
AcDbEntity
  8
ALL_ASSEMBLY_MEMBERS
100
AcDbLine
 62
7
  6
CONTINUOUS
 10
4.5077018634
 20
4.7989746479
 11
5.4777018634
 21
4.7989746479
  0
LINE
  5
2D0
100
AcDbEntity
  8
ALL_ASSEMBLY_MEMBERS
100
AcDbLine
 62
7
  6
CONTINUOUS
 10
5.4774518634
 20
4.858029766
 11
5.4748155648
 21
4.858029766
  0
LINE
  5
2D1
100
AcDbEntity
  8
ALL_ASSEMBLY_MEMBERS
100
AcDbLine
 62
7
  6
CONTINUOUS
 10
5.4603581032
 20
4.858029766
 11
5.4550934726
 21
4.858029766
  0
LINE
  5
2D2
100
AcDbEntity
  8
ALL_ASSEMBLY_MEMBERS
100
AcDbLine
 62
7
  6
CONTINUOUS
 10
5.4440669634
 20
4.858029766
 11
5.4377260353
 21
4.858029766
  0
LINE
  5
2D3
100
AcDbEntity
  8
ALL_ASSEMBLY_MEMBERS
100
AcDbLine
 62
7
  6
CONTINUOUS
 10
5.4297947167
 20
4.858029766
 11
5.4226909093
 21
4.858029766
  0
LINE
  5
2D4
100
AcDbEntity
  8
ALL_ASSEMBLY_MEMBERS
100
AcDbLine
 62
7
  6
CONTINUOUS
 10
5.2811274405
 20
4.858029766
 11
5.258749646
 21
4.858029766
  0
LINE
  5
2D5
100
AcDbEntity
  8
ALL_ASSEMBLY_MEMBERS
100
AcDbLine
 62
7
  6
CONTINUOUS
 10
4.9403069323
 20
4.858029766
 11
4.9320555789
 21
4.858029766
  0
LINE
  5
2D6
100
AcDbEntity
  8
ALL_ASSEMBLY_MEMBERS
100
AcDbLine
 62
7
  6
CONTINUOUS
 10
4.5081207624
 20
4.858029766
 11
4.5105881619
 21
4.858029766
  0
LINE
  5
2D7
100
AcDbEntity
  8
ALL_ASSEMBLY_MEMBERS
100
AcDbLine
 62
7
  6
CONTINUOUS
 10
4.5275925345
 20
4.858029766
 11
4.5320538895
 21
4.858029766
  0
LINE
  5
2D8
100
AcDbEntity
  8
ALL_ASSEMBLY_MEMBERS
100
AcDbLine
 62
7
  6
CONTINUOUS
 10
4.5457572785
 20
4.858029766
 11
4.5509991222
 21
4.858029766
  0
LINE
  5
2D9
100
AcDbEntity
  8
ALL_ASSEMBLY_MEMBERS
100
AcDbLine
 62
7
  6
CONTINUOUS
 10
4.7042762862
 20
4.858029766
 11
4.7266540807
 21
4.858029766
  0
LINE
  5
2DA
100
AcDbEntity
  8
ALL_ASSEMBLY_MEMBERS
100
AcDbLine
 62
7
  6
CONTINUOUS
 10
5.4547923509
 20
4.8598537733
 11
5.4524724995
 21
4.8598537733
  0
LINE
  5
2DB
100
AcDbEntity
  8
ALL_ASSEMBLY_MEMBERS
100
AcDbLine
 62
7
  6
CONTINUOUS
 10
4.5315987117
 20
4.8598537733
 11
4.5339179599
 21
4.8598537733
  0
LINE
  5
2DC
100
AcDbEntity
  8
ALL_ASSEMBLY_MEMBERS
100
AcDbLine
 62
7
  6
CONTINUOUS
 10
4.551190802
 20
4.8598537733
 11
4.5535154224
 21
4.8598537733
  0
LINE
  5
2DD
100
AcDbEntity
  8
ALL_ASSEMBLY_MEMBERS
100
AcDbLine
 62
7
  6
CONTINUOUS
 10
5.4520141577
 20
4.8653257952
 11
5.4496957198
 21
4.8653257952
  0
LINE
  5
2DE
100
AcDbEntity
  8
ALL_ASSEMBLY_MEMBERS
100
AcDbLine
 62
7
  6
CONTINUOUS
 10
4.5335377624
 20
4.8653257952
 11
4.5358561486
 21
4.8653257952
  0
LINE
  5
2DF
100
AcDbEntity
  8
ALL_ASSEMBLY_MEMBERS
100
AcDbLine
 62
7
  6
CONTINUOUS
 10
4.5537792604
 20
4.8653257952
 11
4.5561063581
 21
4.8653257952
  0
LINE
  5
2E0
100
AcDbEntity
  8
ALL_ASSEMBLY_MEMBERS
100
AcDbLine
 62
7
  6
CONTINUOUS
 10
5.4603581032
 20
4.867149803
 11
5.4574155346
 21
4.867149803
  0
LINE
  5
2E1
100
AcDbEntity
  8
ALL_ASSEMBLY_MEMBERS
100
AcDbLine
 62
7
  6
CONTINUOUS
 10
4.5486765926
 20
4.867149803
 11
4.5457572785
 21
4.867149803
  0
LINE
  5
2E2
100
AcDbEntity
  8
ALL_ASSEMBLY_MEMBERS
100
AcDbLine
 62
7
  6
CONTINUOUS
 10
4.5293691972
 20
4.867149803
 11
4.5279419491
 21
4.867149803
  0
LINE
  5
2E3
100
AcDbEntity
  8
ALL_ASSEMBLY_MEMBERS
100
AcDbLine
 62
7
  6
CONTINUOUS
 10
5.462194931
 20
4.8689738102
 11
5.4598660262
 21
4.8689738102
  0
LINE
  5
2E4
100
AcDbEntity
  8
ALL_ASSEMBLY_MEMBERS
100
AcDbLine
 62
7
  6
CONTINUOUS
 10
4.526562068
 20
4.8689738102
 11
4.5288857499
 21
4.8689738102
  0
LINE
  5
2E5
100
AcDbEntity
  8
ALL_ASSEMBLY_MEMBERS
100
AcDbLine
 62
7
  6
CONTINUOUS
 10
4.5438701755
 20
4.8689738102
 11
4.5461896713
 21
4.8689738102
  0
LINE
  5
2E6
100
AcDbEntity
  8
ALL_ASSEMBLY_MEMBERS
100
AcDbLine
 62
7
  6
CONTINUOUS
 10
4.5347365533
 20
4.8707978173
 11
4.5370546036
 21
4.8707978173
  0
LINE
  5
2E7
100
AcDbEntity
  8
ALL_ASSEMBLY_MEMBERS
100
AcDbLine
 62
7
  6
CONTINUOUS
 10
5.4635067132
 20
4.8726218245
 11
5.4611751162
 21
4.8726218245
  0
LINE
  5
2E8
100
AcDbEntity
  8
ALL_ASSEMBLY_MEMBERS
100
AcDbLine
 62
7
  6
CONTINUOUS
 10
5.450272959
 20
4.8726218245
 11
5.4479549885
 21
4.8726218245
  0
LINE
  5
2E9
100
AcDbEntity
  8
ALL_ASSEMBLY_MEMBERS
100
AcDbLine
 62
7
  6
CONTINUOUS
 10
4.5252296505
 20
4.8726218245
 11
4.5275551511
 21
4.8726218245
  0
LINE
  5
2EA
100
AcDbEntity
  8
ALL_ASSEMBLY_MEMBERS
100
AcDbLine
 62
7
  6
CONTINUOUS
 10
4.5424858303
 20
4.8726218245
 11
4.5448047123
 21
4.8726218245
  0
LINE
  5
2EB
100
AcDbEntity
  8
ALL_ASSEMBLY_MEMBERS
100
AcDbLine
 62
7
  6
CONTINUOUS
 10
4.5553680737
 20
4.8726218245
 11
4.5576968449
 21
4.8726218245
  0
LINE
  5
2EC
100
AcDbEntity
  8
ALL_ASSEMBLY_MEMBERS
100
AcDbLine
 62
7
  6
CONTINUOUS
 10
4.9760627981
 20
4.858029766
 11
4.9678114447
 21
4.8598537733
  0
LINE
  5
2ED
100
AcDbEntity
  8
ALL_ASSEMBLY_MEMBERS
100
AcDbLine
 62
7
  6
CONTINUOUS
 10
5.0365727239
 20
4.858029766
 11
5.0283213706
 21
4.8598537733
  0
LINE
  5
2EE
100
AcDbEntity
  8
ALL_ASSEMBLY_MEMBERS
100
AcDbLine
 62
7
  6
CONTINUOUS
 10
4.9760627981
 20
4.867149803
 11
4.969186669
 21
4.8689738102
  0
LINE
  5
2EF
100
AcDbEntity
  8
ALL_ASSEMBLY_MEMBERS
100
AcDbLine
 62
7
  6
CONTINUOUS
 10
5.0365727239
 20
4.867149803
 11
5.0296965909
 21
4.8689738102
  0
LINE
  5
2F0
100
AcDbEntity
  8
ALL_ASSEMBLY_MEMBERS
100
AcDbLine
 62
7
  6
CONTINUOUS
 10
4.9678114447
 20
4.8598537733
 11
4.9609353156
 21
4.8653257952
  0
LINE
  5
2F1
100
AcDbEntity
  8
ALL_ASSEMBLY_MEMBERS
100
AcDbLine
 62
7
  6
CONTINUOUS
 10
5.0283213706
 20
4.8598537733
 11
5.0214452375
 21
4.8653257952
  0
LINE
  5
2F2
100
AcDbEntity
  8
ALL_ASSEMBLY_MEMBERS
100
AcDbLine
 62
7
  6
CONTINUOUS
 10
4.9911902805
 20
4.9364620838
 11
4.9843141514
 21
4.9419341053
  0
LINE
  5
2F3
100
AcDbEntity
  8
ALL_ASSEMBLY_MEMBERS
100
AcDbLine
 62
7
  6
CONTINUOUS
 10
4.969186669
 20
4.8689738102
 11
4.9650609923
 21
4.8726218245
  0
LINE
  5
2F4
100
AcDbEntity
  8
ALL_ASSEMBLY_MEMBERS
100
AcDbLine
 62
7
  6
CONTINUOUS
 10
5.0296965909
 20
4.8689738102
 11
5.0255709142
 21
4.8726218245
  0
LINE
  5
2F5
100
AcDbEntity
  8
ALL_ASSEMBLY_MEMBERS
100
AcDbLine
 62
7
  6
CONTINUOUS
 10
4.9870645999
 20
4.9291660552
 11
4.9829389232
 21
4.9328140695
  0
LINE
  5
2F6
100
AcDbEntity
  8
ALL_ASSEMBLY_MEMBERS
100
AcDbLine
 62
7
  6
CONTINUOUS
 10
5.0214452375
 20
4.8653257952
 11
5.0173195609
 21
4.8707978173
  0
LINE
  5
2F7
100
AcDbEntity
  8
ALL_ASSEMBLY_MEMBERS
100
AcDbLine
 62
7
  6
CONTINUOUS
 10
4.9953159572
 20
4.9309900624
 11
4.9911902805
 21
4.9364620838
  0
LINE
  5
2F8
100
AcDbEntity
  8
ALL_ASSEMBLY_MEMBERS
100
AcDbLine
 62
7
  6
CONTINUOUS
 10
5.0558258791
 20
4.9309900624
 11
5.0517002024
 21
4.9364620838
  0
LINE
  5
2F9
100
AcDbEntity
  8
ALL_ASSEMBLY_MEMBERS
100
AcDbLine
 62
7
  6
CONTINUOUS
 10
5.0255709142
 20
4.8726218245
 11
5.0200700172
 21
4.8835658687
  0
LINE
  5
2FA
100
AcDbEntity
  8
ALL_ASSEMBLY_MEMBERS
100
AcDbLine
 62
7
  6
CONTINUOUS
 10
5.0530754306
 20
4.9182220072
 11
5.0475745258
 21
4.9291660552
  0
LINE
  5
2FB
100
AcDbEntity
  8
ALL_ASSEMBLY_MEMBERS
100
AcDbLine
 62
7
  6
CONTINUOUS
 10
5.0585763355
 20
4.9236940337
 11
5.0558258791
 21
4.9309900624
  0
LINE
  5
2FC
100
AcDbEntity
  8
ALL_ASSEMBLY_MEMBERS
100
AcDbLine
 62
7
  6
CONTINUOUS
 10
5.2811274405
 20
4.9466124431
 11
5.2811274405
 21
4.858029766
  0
LINE
  5
2FD
100
AcDbEntity
  8
ALL_ASSEMBLY_MEMBERS
100
AcDbLine
 62
7
  6
CONTINUOUS
 10
5.5527018634
 20
5.2452000416
 11
5.5227018634
 21
5.1657000416
  0
LINE
  5
2FE
100
AcDbEntity
  8
ALL_ASSEMBLY_MEMBERS
100
AcDbLine
 62
7
  6
CONTINUOUS
 10
5.0577018634
 20
3.9759746479
 11
5.0477018634
 21
3.9559746479
  0
LINE
  5
2FF
100
AcDbEntity
  8
ALL_ASSEMBLY_MEMBERS
100
AcDbLine
 62
7
  6
CONTINUOUS
 10
5.0589518634
 20
3.9359746479
 11
5.0689518634
 21
3.9559746479
  0
LINE
  5
300
100
AcDbEntity
  8
ALL_ASSEMBLY_MEMBERS
100
AcDbLine
 62
7
  6
CONTINUOUS
 10
5.0777018634
 20
3.9359746479
 11
5.0877018634
 21
3.9559746479
  0
LINE
  5
301
100
AcDbEntity
  8
ALL_ASSEMBLY_MEMBERS
100
AcDbLine
 62
7
  6
CONTINUOUS
 10
5.0365727239
 20
4.9346380767
 11
5.0296965909
 21
4.9328140695
  0
LINE
  5
302
100
AcDbEntity
  8
ALL_ASSEMBLY_MEMBERS
100
AcDbLine
 62
7
  6
CONTINUOUS
 10
4.9760627981
 20
4.9346380767
 11
4.969186669
 21
4.9328140695
  0
LINE
  5
303
100
AcDbEntity
  8
ALL_ASSEMBLY_MEMBERS
100
AcDbLine
 62
7
  6
CONTINUOUS
 10
5.0365727239
 20
4.9437581124
 11
5.0283213706
 21
4.9419341053
  0
LINE
  5
304
100
AcDbEntity
  8
ALL_ASSEMBLY_MEMBERS
100
AcDbLine
 62
7
  6
CONTINUOUS
 10
4.9760627981
 20
4.9437581124
 11
4.9678114447
 21
4.9419341053
  0
LINE
  5
305
100
AcDbEntity
  8
ALL_ASSEMBLY_MEMBERS
100
AcDbLine
 62
7
  6
CONTINUOUS
 10
5.4643497774
 20
4.8780938472
 11
5.4620162191
 21
4.8780938472
  0
LINE
  5
306
100
AcDbEntity
  8
ALL_ASSEMBLY_MEMBERS
100
AcDbLine
 62
7
  6
CONTINUOUS
 10
5.4525821812
 20
4.8799178544
 11
5.446763415
 21
4.8799178544
  0
LINE
  5
307
100
AcDbEntity
  8
ALL_ASSEMBLY_MEMBERS
100
AcDbLine
 62
7
  6
CONTINUOUS
 10
4.5242615511
 20
4.8799178544
 11
4.5265885785
 21
4.8799178544
  0
LINE
  5
308
100
AcDbEntity
  8
ALL_ASSEMBLY_MEMBERS
100
AcDbLine
 62
7
  6
CONTINUOUS
 10
4.5389239201
 20
4.8799178544
 11
4.5438962221
 21
4.8799178544
  0
LINE
  5
309
100
AcDbEntity
  8
ALL_ASSEMBLY_MEMBERS
100
AcDbLine
 62
7
  6
CONTINUOUS
 10
4.5355504733
 20
4.8799178544
 11
4.5378683749
 21
4.8799178544
  0
LINE
  5
30A
100
AcDbEntity
  8
ALL_ASSEMBLY_MEMBERS
100
AcDbLine
 62
7
  6
CONTINUOUS
 10
4.5564422071
 20
4.8817418615
 11
4.5587721724
 21
4.8817418615
  0
LINE
  5
30B
100
AcDbEntity
  8
ALL_ASSEMBLY_MEMBERS
100
AcDbLine
 62
7
  6
CONTINUOUS
 10
5.4647618463
 20
4.8835658687
 11
5.462427257
 21
4.8835658687
  0
LINE
  5
30C
100
AcDbEntity
  8
ALL_ASSEMBLY_MEMBERS
100
AcDbLine
 62
7
  6
CONTINUOUS
 10
4.5242615511
 20
4.8853898758
 11
4.5265885785
 21
4.8853898758
  0
LINE
  5
30D
100
AcDbEntity
  8
ALL_ASSEMBLY_MEMBERS
100
AcDbLine
 62
7
  6
CONTINUOUS
 10
4.5355504733
 20
4.8853898758
 11
4.5378683749
 21
4.8853898758
  0
LINE
  5
30E
100
AcDbEntity
  8
ALL_ASSEMBLY_MEMBERS
100
AcDbLine
 62
7
  6
CONTINUOUS
 10
5.4647618463
 20
4.887213883
 11
5.462427257
 21
4.887213883
  0
LINE
  5
30F
100
AcDbEntity
  8
ALL_ASSEMBLY_MEMBERS
100
AcDbLine
 62
7
  6
CONTINUOUS
 10
4.5564422071
 20
4.8890378902
 11
4.5587721724
 21
4.8890378902
  0
LINE
  5
310
100
AcDbEntity
  8
ALL_ASSEMBLY_MEMBERS
100
AcDbLine
 62
7
  6
CONTINUOUS
 10
5.4643497774
 20
4.892685907
 11
5.4620162191
 21
4.892685907
  0
LINE
  5
311
100
AcDbEntity
  8
ALL_ASSEMBLY_MEMBERS
100
AcDbLine
 62
7
  6
CONTINUOUS
 10
4.5252296505
 20
4.892685907
 11
4.5275551511
 21
4.892685907
  0
LINE
  5
312
100
AcDbEntity
  8
ALL_ASSEMBLY_MEMBERS
100
AcDbLine
 62
7
  6
CONTINUOUS
 10
4.5347365533
 20
4.8945099142
 11
4.5370546036
 21
4.8945099142
  0
LINE
  5
313
100
AcDbEntity
  8
ALL_ASSEMBLY_MEMBERS
100
AcDbLine
 62
7
  6
CONTINUOUS
 10
5.4531440158
 20
4.8963339213
 11
5.446763415
 21
4.8963339213
  0
LINE
  5
314
100
AcDbEntity
  8
ALL_ASSEMBLY_MEMBERS
100
AcDbLine
 62
7
  6
CONTINUOUS
 10
4.526562068
 20
4.8963339213
 11
4.5288857499
 21
4.8963339213
  0
LINE
  5
315
100
AcDbEntity
  8
ALL_ASSEMBLY_MEMBERS
100
AcDbLine
 62
7
  6
CONTINUOUS
 10
4.5389239201
 20
4.8963339213
 11
4.5443489859
 21
4.8963339213
  0
LINE
  5
316
100
AcDbEntity
  8
ALL_ASSEMBLY_MEMBERS
100
AcDbLine
 62
7
  6
CONTINUOUS
 10
5.4635067132
 20
4.8981579285
 11
5.4611751162
 21
4.8981579285
  0
LINE
  5
317
100
AcDbEntity
  8
ALL_ASSEMBLY_MEMBERS
100
AcDbLine
 62
7
  6
CONTINUOUS
 10
4.5293691972
 20
4.8981579285
 11
4.5279419491
 21
4.8981579285
  0
LINE
  5
318
100
AcDbEntity
  8
ALL_ASSEMBLY_MEMBERS
100
AcDbLine
 62
7
  6
CONTINUOUS
 10
4.5553680737
 20
4.8981579285
 11
4.5576968449
 21
4.8981579285
  0
LINE
  5
319
100
AcDbEntity
  8
ALL_ASSEMBLY_MEMBERS
100
AcDbLine
 62
7
  6
CONTINUOUS
 10
4.5331440576
 20
4.8999819356
 11
4.5354625861
 21
4.8999819356
  0
LINE
  5
31A
100
AcDbEntity
  8
ALL_ASSEMBLY_MEMBERS
100
AcDbLine
 62
7
  6
CONTINUOUS
 10
5.462194931
 20
4.9018059428
 11
5.4598660262
 21
4.9018059428
  0
LINE
  5
31B
100
AcDbEntity
  8
ALL_ASSEMBLY_MEMBERS
100
AcDbLine
 62
7
  6
CONTINUOUS
 10
4.532365488
 20
4.9018059428
 11
4.5346843461
 21
4.9018059428
  0
LINE
  5
31C
100
AcDbEntity
  8
ALL_ASSEMBLY_MEMBERS
100
AcDbLine
 62
7
  6
CONTINUOUS
 10
4.5438701755
 20
4.9018059428
 11
4.5461896713
 21
4.9018059428
  0
LINE
  5
31D
100
AcDbEntity
  8
ALL_ASSEMBLY_MEMBERS
100
AcDbLine
 62
7
  6
CONTINUOUS
 10
5.4603581032
 20
4.9036299499
 11
5.4574155346
 21
4.9036299499
  0
LINE
  5
31E
100
AcDbEntity
  8
ALL_ASSEMBLY_MEMBERS
100
AcDbLine
 62
7
  6
CONTINUOUS
 10
4.5486765926
 20
4.9036299499
 11
4.5457572785
 21
4.9036299499
  0
LINE
  5
31F
100
AcDbEntity
  8
ALL_ASSEMBLY_MEMBERS
100
AcDbLine
 62
7
  6
CONTINUOUS
 10
4.5331440576
 20
4.9036299499
 11
4.5354625861
 21
4.9036299499
  0
LINE
  5
320
100
AcDbEntity
  8
ALL_ASSEMBLY_MEMBERS
100
AcDbLine
 62
7
  6
CONTINUOUS
 10
4.5293691972
 20
4.9054539571
 11
4.5279419491
 21
4.9054539571
  0
LINE
  5
321
100
AcDbEntity
  8
ALL_ASSEMBLY_MEMBERS
100
AcDbLine
 62
7
  6
CONTINUOUS
 10
4.5537792604
 20
4.9054539571
 11
4.5561063581
 21
4.9054539571
  0
LINE
  5
322
100
AcDbEntity
  8
ALL_ASSEMBLY_MEMBERS
100
AcDbLine
 62
7
  6
CONTINUOUS
 10
4.526562068
 20
4.9072779642
 11
4.5288857499
 21
4.9072779642
  0
LINE
  5
323
100
AcDbEntity
  8
ALL_ASSEMBLY_MEMBERS
100
AcDbLine
 62
7
  6
CONTINUOUS
 10
4.5343340112
 20
4.9091019714
 11
4.5366521584
 21
4.9091019714
  0
LINE
  5
324
100
AcDbEntity
  8
ALL_ASSEMBLY_MEMBERS
100
AcDbLine
 62
7
  6
CONTINUOUS
 10
5.4547923509
 20
4.9109259786
 11
5.4524724995
 21
4.9109259786
  0
LINE
  5
325
100
AcDbEntity
  8
ALL_ASSEMBLY_MEMBERS
100
AcDbLine
 62
7
  6
CONTINUOUS
 10
4.551190802
 20
4.9109259786
 11
4.5535154224
 21
4.9109259786
  0
LINE
  5
326
100
AcDbEntity
  8
ALL_ASSEMBLY_MEMBERS
100
AcDbLine
 62
7
  6
CONTINUOUS
 10
5.4603581032
 20
4.9127499857
 11
5.4550934726
 21
4.9127499857
  0
LINE
  5
327
100
AcDbEntity
  8
ALL_ASSEMBLY_MEMBERS
100
AcDbLine
 62
7
  6
CONTINUOUS
 10
4.5252296505
 20
4.9127499857
 11
4.5275551511
 21
4.9127499857
  0
LINE
  5
328
100
AcDbEntity
  8
ALL_ASSEMBLY_MEMBERS
100
AcDbLine
 62
7
  6
CONTINUOUS
 10
4.5457572785
 20
4.9127499857
 11
4.5509991222
 21
4.9127499857
  0
LINE
  5
329
100
AcDbEntity
  8
ALL_ASSEMBLY_MEMBERS
100
AcDbLine
 62
7
  6
CONTINUOUS
 10
5.435802334
 20
4.916398
 11
5.433479073
 21
4.916398
  0
LINE
  5
32A
100
AcDbEntity
  8
ALL_ASSEMBLY_MEMBERS
100
AcDbLine
 62
7
  6
CONTINUOUS
 10
5.4200290667
 20
4.916398
 11
5.4176873865
 21
4.916398
  0
LINE
  5
32B
100
AcDbEntity
  8
ALL_ASSEMBLY_MEMBERS
100
AcDbLine
 62
7
  6
CONTINUOUS
 10
4.5351420415
 20
4.916398
 11
4.53746001
 21
4.916398
  0
LINE
  5
32C
100
AcDbEntity
  8
ALL_ASSEMBLY_MEMBERS
100
AcDbLine
 62
7
  6
CONTINUOUS
 10
4.5245812744
 20
4.9182220072
 11
4.5269077773
 21
4.9182220072
  0
LINE
  5
32D
100
AcDbEntity
  8
ALL_ASSEMBLY_MEMBERS
100
AcDbLine
 62
7
  6
CONTINUOUS
 10
4.5245812744
 20
4.9218700215
 11
4.5269077773
 21
4.9218700215
  0
LINE
  5
32E
100
AcDbEntity
  8
ALL_ASSEMBLY_MEMBERS
100
AcDbLine
 62
7
  6
CONTINUOUS
 10
4.5351420415
 20
4.9218700215
 11
4.53746001
 21
4.9218700215
  0
LINE
  5
32F
100
AcDbEntity
  8
ALL_ASSEMBLY_MEMBERS
100
AcDbLine
 62
7
  6
CONTINUOUS
 10
4.5252296505
 20
4.9273420481
 11
4.5275551511
 21
4.9273420481
  0
LINE
  5
330
100
AcDbEntity
  8
ALL_ASSEMBLY_MEMBERS
100
AcDbLine
 62
7
  6
CONTINUOUS
 10
5.435802334
 20
4.9309900624
 11
5.433479073
 21
4.9309900624
  0
LINE
  5
331
100
AcDbEntity
  8
ALL_ASSEMBLY_MEMBERS
100
AcDbLine
 62
7
  6
CONTINUOUS
 10
5.4200290667
 20
4.9309900624
 11
5.4176873865
 21
4.9309900624
  0
LINE
  5
332
100
AcDbEntity
  8
ALL_ASSEMBLY_MEMBERS
100
AcDbLine
 62
7
  6
CONTINUOUS
 10
4.5343340112
 20
4.9309900624
 11
4.5366521584
 21
4.9309900624
  0
LINE
  5
333
100
AcDbEntity
  8
ALL_ASSEMBLY_MEMBERS
100
AcDbLine
 62
7
  6
CONTINUOUS
 10
4.526562068
 20
4.9328140695
 11
4.5288857499
 21
4.9328140695
  0
LINE
  5
334
100
AcDbEntity
  8
ALL_ASSEMBLY_MEMBERS
100
AcDbLine
 62
7
  6
CONTINUOUS
 10
5.4659601131
 20
4.9346380767
 11
5.4520141577
 21
4.9346380767
  0
LINE
  5
335
100
AcDbEntity
  8
ALL_ASSEMBLY_MEMBERS
100
AcDbLine
 62
7
  6
CONTINUOUS
 10
4.5293691972
 20
4.9346380767
 11
4.5279419491
 21
4.9346380767
  0
LINE
  5
336
100
AcDbEntity
  8
ALL_ASSEMBLY_MEMBERS
100
AcDbLine
 62
7
  6
CONTINUOUS
 10
4.5411280187
 20
4.9346380767
 11
4.5576968449
 21
4.9346380767
  0
LINE
  5
337
100
AcDbEntity
  8
ALL_ASSEMBLY_MEMBERS
100
AcDbLine
 62
7
  6
CONTINUOUS
 10
4.5331440576
 20
4.9364620838
 11
4.5354625861
 21
4.9364620838
  0
LINE
  5
338
100
AcDbEntity
  8
ALL_ASSEMBLY_MEMBERS
100
AcDbLine
 62
7
  6
CONTINUOUS
 10
4.5312197464
 20
4.9419341053
 11
4.5335392123
 21
4.9419341053
  0
LINE
  5
339
100
AcDbEntity
  8
ALL_ASSEMBLY_MEMBERS
100
AcDbLine
 62
7
  6
CONTINUOUS
 10
5.4659601131
 20
4.9437581124
 11
5.446763415
 21
4.9437581124
  0
LINE
  5
33A
100
AcDbEntity
  8
ALL_ASSEMBLY_MEMBERS
100
AcDbLine
 62
7
  6
CONTINUOUS
 10
5.4440669634
 20
4.9437581124
 11
5.4377260353
 21
4.9437581124
  0
LINE
  5
33B
100
AcDbEntity
  8
ALL_ASSEMBLY_MEMBERS
100
AcDbLine
 62
7
  6
CONTINUOUS
 10
5.4297947167
 20
4.9437581124
 11
5.4226909093
 21
4.9437581124
  0
LINE
  5
33C
100
AcDbEntity
  8
ALL_ASSEMBLY_MEMBERS
100
AcDbLine
 62
7
  6
CONTINUOUS
 10
4.9403069323
 20
4.9437581124
 11
4.9320555789
 21
4.9437581124
  0
LINE
  5
33D
100
AcDbEntity
  8
ALL_ASSEMBLY_MEMBERS
100
AcDbLine
 62
7
  6
CONTINUOUS
 10
4.5279419491
 20
4.9437581124
 11
4.5316899795
 21
4.9437581124
  0
LINE
  5
33E
100
AcDbEntity
  8
ALL_ASSEMBLY_MEMBERS
100
AcDbLine
 62
7
  6
CONTINUOUS
 10
4.5389239201
 20
4.9437581124
 11
4.5576968449
 21
4.9437581124
  0
LINE
  5
33F
100
AcDbEntity
  8
ALL_ASSEMBLY_MEMBERS
100
AcDbLine
 62
7
  6
CONTINUOUS
 10
5.4774518634
 20
4.9466124431
 11
5.4748155648
 21
4.9466124431
  0
LINE
  5
340
100
AcDbEntity
  8
ALL_ASSEMBLY_MEMBERS
100
AcDbLine
 62
7
  6
CONTINUOUS
 10
5.2811274405
 20
4.9466124431
 11
5.258749646
 21
4.9466124431
  0
LINE
  5
341
100
AcDbEntity
  8
ALL_ASSEMBLY_MEMBERS
100
AcDbLine
 62
7
  6
CONTINUOUS
 10
4.5081207624
 20
4.9466124431
 11
4.5105881619
 21
4.9466124431
  0
LINE
  5
342
100
AcDbEntity
  8
ALL_ASSEMBLY_MEMBERS
100
AcDbLine
 62
7
  6
CONTINUOUS
 10
4.7042762862
 20
4.9466124431
 11
4.7266540807
 21
4.9466124431
  0
LINE
  5
343
100
AcDbEntity
  8
ALL_ASSEMBLY_MEMBERS
100
AcDbLine
 62
7
  6
CONTINUOUS
 10
4.5002018634
 20
4.9958250416
 11
5.4852018634
 21
4.9958250416
  0
LINE
  5
344
100
AcDbEntity
  8
ALL_ASSEMBLY_MEMBERS
100
AcDbLine
 62
7
  6
CONTINUOUS
 10
4.9843141514
 20
4.9419341053
 11
4.9760627981
 21
4.9437581124
  0
LINE
  5
345
100
AcDbEntity
  8
ALL_ASSEMBLY_MEMBERS
100
AcDbLine
 62
7
  6
CONTINUOUS
 10
5.0448240773
 20
4.9419341053
 11
5.0365727239
 21
4.9437581124
  0
LINE
  5
346
100
AcDbEntity
  8
ALL_ASSEMBLY_MEMBERS
100
AcDbLine
 62
7
  6
CONTINUOUS
 10
4.9829389232
 20
4.9328140695
 11
4.9760627981
 21
4.9346380767
  0
LINE
  5
347
100
AcDbEntity
  8
ALL_ASSEMBLY_MEMBERS
100
AcDbLine
 62
7
  6
CONTINUOUS
 10
5.0434488491
 20
4.9328140695
 11
5.0365727239
 21
4.9346380767
  0
LINE
  5
348
100
AcDbEntity
  8
ALL_ASSEMBLY_MEMBERS
100
AcDbLine
 62
7
  6
CONTINUOUS
 10
5.0517002024
 20
4.9364620838
 11
5.0448240773
 21
4.9419341053
  0
LINE
  5
349
100
AcDbEntity
  8
ALL_ASSEMBLY_MEMBERS
100
AcDbLine
 62
7
  6
CONTINUOUS
 10
5.0475745258
 20
4.9291660552
 11
5.0434488491
 21
4.9328140695
  0
LINE
  5
34A
100
AcDbEntity
  8
ALL_ASSEMBLY_MEMBERS
100
AcDbLine
 62
7
  6
CONTINUOUS
 10
5.4176873865
 20
4.9309900624
 11
5.4176873865
 21
4.916398
  0
LINE
  5
34B
100
AcDbEntity
  8
ALL_ASSEMBLY_MEMBERS
100
AcDbLine
 62
7
  6
CONTINUOUS
 10
5.4200290667
 20
4.9309900624
 11
5.4200290667
 21
4.916398
  0
LINE
  5
34C
100
AcDbEntity
  8
ALL_ASSEMBLY_MEMBERS
100
AcDbLine
 62
7
  6
CONTINUOUS
 10
5.4226909093
 20
4.9231283089
 11
5.4226909093
 21
4.858029766
  0
LINE
  5
34D
100
AcDbEntity
  8
ALL_ASSEMBLY_MEMBERS
100
AcDbLine
 62
7
  6
CONTINUOUS
 10
5.425025659
 20
4.9291660552
 11
5.425025659
 21
4.858029766
  0
LINE
  5
34E
100
AcDbEntity
  8
ALL_ASSEMBLY_MEMBERS
100
AcDbLine
 62
7
  6
CONTINUOUS
 10
5.4297947167
 20
4.9437581124
 11
5.4297947167
 21
4.858029766
  0
LINE
  5
34F
100
AcDbEntity
  8
ALL_ASSEMBLY_MEMBERS
100
AcDbLine
 62
7
  6
CONTINUOUS
 10
5.433479073
 20
4.9309900624
 11
5.433479073
 21
4.916398
  0
LINE
  5
350
100
AcDbEntity
  8
ALL_ASSEMBLY_MEMBERS
100
AcDbLine
 62
7
  6
CONTINUOUS
 10
5.435802334
 20
4.9309900624
 11
5.435802334
 21
4.916398
  0
LINE
  5
351
100
AcDbEntity
  8
ALL_ASSEMBLY_MEMBERS
100
AcDbLine
 62
7
  6
CONTINUOUS
 10
5.4377260353
 20
4.922104293
 11
5.4377260353
 21
4.858029766
  0
LINE
  5
352
100
AcDbEntity
  8
ALL_ASSEMBLY_MEMBERS
100
AcDbLine
 62
7
  6
CONTINUOUS
 10
5.4400463255
 20
4.9291660552
 11
5.4400463255
 21
4.858029766
  0
LINE
  5
353
100
AcDbEntity
  8
ALL_ASSEMBLY_MEMBERS
100
AcDbLine
 62
7
  6
CONTINUOUS
 10
5.4440669634
 20
4.9437581124
 11
5.4440669634
 21
4.858029766
  0
LINE
  5
354
100
AcDbEntity
  8
ALL_ASSEMBLY_MEMBERS
100
AcDbLine
 62
7
  6
CONTINUOUS
 10
5.446763415
 20
4.9437581124
 11
5.446763415
 21
4.8963339213
  0
LINE
  5
355
100
AcDbEntity
  8
ALL_ASSEMBLY_MEMBERS
100
AcDbLine
 62
7
  6
CONTINUOUS
 10
5.4490812322
 20
4.9437581124
 11
5.4490812322
 21
4.8963339213
  0
LINE
  5
356
100
AcDbEntity
  8
ALL_ASSEMBLY_MEMBERS
100
AcDbLine
 62
7
  6
CONTINUOUS
 10
5.4520141577
 20
4.9346380767
 11
5.4520141577
 21
4.9054539571
  0
LINE
  5
357
100
AcDbEntity
  8
ALL_ASSEMBLY_MEMBERS
100
AcDbLine
 62
7
  6
CONTINUOUS
 10
5.462427257
 20
4.887213883
 11
5.462427257
 21
4.8835658687
  0
LINE
  5
358
100
AcDbEntity
  8
ALL_ASSEMBLY_MEMBERS
100
AcDbLine
 62
7
  6
CONTINUOUS
 10
5.4647618463
 20
4.887213883
 11
5.4647618463
 21
4.8835658687
  0
LINE
  5
359
100
AcDbEntity
  8
ALL_ASSEMBLY_MEMBERS
100
AcDbLine
 62
7
  6
CONTINUOUS
 10
5.4659601131
 20
4.9437581124
 11
5.4659601131
 21
4.9346380767
  0
LINE
  5
35A
100
AcDbEntity
  8
ALL_ASSEMBLY_MEMBERS
100
AcDbLine
 62
7
  6
CONTINUOUS
 10
5.4667272491
 20
4.8890378902
 11
5.4667272491
 21
4.8817418615
  0
LINE
  5
35B
100
AcDbEntity
  8
ALL_ASSEMBLY_MEMBERS
100
AcDbLine
 62
7
  6
CONTINUOUS
 10
5.4748155648
 20
4.9466124431
 11
5.4748155648
 21
4.858029766
  0
LINE
  5
35C
100
AcDbEntity
  8
ALL_ASSEMBLY_MEMBERS
100
AcDbLine
 62
7
  6
CONTINUOUS
 10
5.4749853279
 20
4.9958250416
 11
5.4749853279
 21
4.9466124431
  0
LINE
  5
35D
100
AcDbEntity
  8
ALL_ASSEMBLY_MEMBERS
100
AcDbLine
 62
7
  6
CONTINUOUS
 10
5.4749853279
 20
4.858029766
 11
5.4749853279
 21
4.7989746479
  0
LINE
  5
35E
100
AcDbEntity
  8
ALL_ASSEMBLY_MEMBERS
100
AcDbLine
 62
7
  6
CONTINUOUS
 10
5.4772829643
 20
4.9466124431
 11
5.4772829643
 21
4.858029766
  0
LINE
  5
35F
100
AcDbEntity
  8
ALL_ASSEMBLY_MEMBERS
100
AcDbLine
 62
7
  6
CONTINUOUS
 10
5.4774518634
 20
4.9466124431
 11
5.4774518634
 21
4.858029766
  0
LINE
  5
360
100
AcDbEntity
  8
ALL_ASSEMBLY_MEMBERS
100
AcDbLine
 62
7
  6
CONTINUOUS
 10
5.4777018634
 20
4.3715107225
 11
5.4777018634
 21
4.7989746479
  0
LINE
  5
361
100
AcDbEntity
  8
ALL_ASSEMBLY_MEMBERS
100
AcDbLine
 62
7
  6
CONTINUOUS
 10
5.4852018634
 20
4.9958250416
 11
5.4852018634
 21
5.1657000416
  0
LINE
  5
362
100
AcDbEntity
  8
ALL_ASSEMBLY_MEMBERS
100
AcDbLine
 62
7
  6
CONTINUOUS
 10
5.002701348
 20
5.0508250416
 11
4.9827023787
 21
5.0508250416
  0
LINE
  5
363
100
AcDbEntity
  8
ALL_ASSEMBLY_MEMBERS
100
AcDbLine
 62
7
  6
CONTINUOUS
 10
4.9827023787
 20
5.1308250416
 11
5.002701348
 21
5.1308250416
  0
LINE
  5
364
100
AcDbEntity
  8
ALL_ASSEMBLY_MEMBERS
100
AcDbLine
 62
7
  6
CONTINUOUS
 10
4.4627018634
 20
5.1657000416
 11
5.5227018634
 21
5.1657000416
  0
LINE
  5
365
100
AcDbEntity
  8
ALL_ASSEMBLY_MEMBERS
100
AcDbLine
 62
7
  6
CONTINUOUS
 10
6.5602018634
 20
5.2452000416
 11
3.4252018634
 21
5.2452000416
  0
LINE
  5
366
100
AcDbEntity
  8
ALL_ASSEMBLY_MEMBERS
100
AcDbLine
 62
7
  6
CONTINUOUS
 10
6.6177018634
 20
5.3077000416
 11
3.3677018634
 21
5.3077000416
  0
LINE
  5
367
100
AcDbEntity
  8
ALL_ASSEMBLY_MEMBERS
100
AcDbLine
 62
7
  6
CONTINUOUS
 10
6.6177018634
 20
5.4017000416
 11
3.3677018634
 21
5.4017000416
  0
LINE
  5
368
100
AcDbEntity
  8
ALL_ASSEMBLY_MEMBERS
100
AcDbLine
 62
7
  6
CONTINUOUS
 10
6.6177018634
 20
5.3077000416
 11
6.6177018634
 21
5.4017000416
  0
ARC
  5
369
100
AcDbEntity
  8
ALL_ASSEMBLY_MEMBERS
100
AcDbCircle
 62
7
  6
CONTINUOUS
 10
4.7092018634
 20
4.3715107225
 40
0.2015
100
AcDbArc
 50
180.0
 51
258.6164589941
  0
ARC
  5
36A
100
AcDbEntity
  8
ALL_ASSEMBLY_MEMBERS
100
AcDbCircle
 62
7
  6
CONTINUOUS
 10
4.6385906938
 20
4.0207984113
 40
0.15625
100
AcDbArc
 50
18.8599610433
 51
78.6164589941
  0
ARC
  5
36B
100
AcDbEntity
  8
ALL_ASSEMBLY_MEMBERS
100
AcDbCircle
 62
7
  6
CONTINUOUS
 10
4.9051083008
 20
3.9586570516
 40
0.0477549516
100
AcDbArc
 50
37.5883763232
 51
42.2390137963
  0
ARC
  5
36C
100
AcDbEntity
  8
ALL_ASSEMBLY_MEMBERS
100
AcDbCircle
 62
7
  6
CONTINUOUS
 10
4.909020562
 20
3.9626985377
 40
0.0421204083
100
AcDbArc
 50
51.2245880453
 51
51.9088506152
  0
ARC
  5
36D
100
AcDbEntity
  8
ALL_ASSEMBLY_MEMBERS
100
AcDbCircle
 62
7
  6
CONTINUOUS
 10
4.9123672843
 20
3.9472163945
 40
0.042084308
100
AcDbArc
 50
14.0639525561
 51
21.6316984761
  0
ARC
  5
36E
100
AcDbEntity
  8
ALL_ASSEMBLY_MEMBERS
100
AcDbCircle
 62
7
  6
CONTINUOUS
 10
4.9298256022
 20
3.9565641271
 40
0.0409386543
100
AcDbArc
 50
183.202867289
 51
193.0922585958
  0
ARC
  5
36F
100
AcDbEntity
  8
ALL_ASSEMBLY_MEMBERS
100
AcDbCircle
 62
7
  6
CONTINUOUS
 10
4.9098365862
 20
3.9637548621
 40
0.0407856331
100
AcDbArc
 50
51.8956092094
 51
56.8494827189
  0
ARC
  5
370
100
AcDbEntity
  8
ALL_ASSEMBLY_MEMBERS
100
AcDbCircle
 62
7
  6
CONTINUOUS
 10
4.7989518634
 20
3.6024746479
 40
0.0375
100
AcDbArc
 50
0.0
 51
90.0
  0
ARC
  5
371
100
AcDbEntity
  8
ALL_ASSEMBLY_MEMBERS
100
AcDbCircle
 62
7
  6
CONTINUOUS
 10
4.9140878927
 20
3.9623682069
 40
0.0370613858
100
AcDbArc
 50
52.2193662704
 51
59.9092345697
  0
ARC
  5
372
100
AcDbEntity
  8
ALL_ASSEMBLY_MEMBERS
100
AcDbCircle
 62
7
  6
CONTINUOUS
 10
4.8176801424
 20
4.0819746479
 40
0.033
100
AcDbArc
 50
198.8599610433
 51
270.0
  0
ARC
  5
373
100
AcDbEntity
  8
ALL_ASSEMBLY_MEMBERS
100
AcDbCircle
 62
7
  6
CONTINUOUS
 10
4.914920242
 20
3.9597666418
 40
0.0324687535
100
AcDbArc
 50
81.6242669223
 51
99.4020596259
  0
ARC
  5
374
100
AcDbEntity
  8
ALL_ASSEMBLY_MEMBERS
100
AcDbCircle
 62
7
  6
CONTINUOUS
 10
4.9186622355
 20
3.9495295054
 40
0.0322254662
100
AcDbArc
 50
302.7044848227
 51
308.1563614013
  0
ARC
  5
375
100
AcDbEntity
  8
ALL_ASSEMBLY_MEMBERS
100
AcDbCircle
 62
7
  6
CONTINUOUS
 10
4.9185244494
 20
3.9614723726
 40
0.0256657059
100
AcDbArc
 50
117.2290678345
 51
123.7117379951
  0
ARC
  5
376
100
AcDbEntity
  8
ALL_ASSEMBLY_MEMBERS
100
AcDbCircle
 62
7
  6
CONTINUOUS
 10
4.9181468098
 20
3.9621969551
 40
0.0248486302
100
AcDbArc
 50
110.5957557564
 51
117.2192469153
  0
ARC
  5
377
100
AcDbEntity
  8
ALL_ASSEMBLY_MEMBERS
100
AcDbCircle
 62
7
  6
CONTINUOUS
 10
4.9176705007
 20
3.9467734257
 40
0.0247475671
100
AcDbArc
 50
285.5903278674
 51
291.9436994559
  0
ARC
  5
378
100
AcDbEntity
  8
ALL_ASSEMBLY_MEMBERS
100
AcDbCircle
 62
7
  6
CONTINUOUS
 10
4.8514518634
 20
3.5924746479
 40
0.01
100
AcDbArc
 50
0.0
 51
90.0
  0
ARC
  5
379
100
AcDbEntity
  8
ALL_ASSEMBLY_MEMBERS
100
AcDbCircle
 62
7
  6
CONTINUOUS
 10
4.8264518634
 20
3.8874746479
 40
0.01
100
AcDbArc
 50
270.0
 51
360.0
  0
ARC
  5
37A
100
AcDbEntity
  8
ALL_ASSEMBLY_MEMBERS
100
AcDbCircle
 62
7
  6
CONTINUOUS
 10
3.362484472
 20
5.2452000416
 40
0.0627173913
100
AcDbArc
 50
0.0
 51
85.2281119392
  0
ARC
  5
37B
100
AcDbEntity
  8
ALL_ASSEMBLY_MEMBERS
100
AcDbCircle
 62
7
  6
CONTINUOUS
 10
5.2762018634
 20
4.3715107225
 40
0.2015
100
AcDbArc
 50
281.3835410059
 51
360.0
  0
ARC
  5
37C
100
AcDbEntity
  8
ALL_ASSEMBLY_MEMBERS
100
AcDbCircle
 62
7
  6
CONTINUOUS
 10
5.3468130329
 20
4.0207984113
 40
0.15625
100
AcDbArc
 50
101.3835410059
 51
161.1400389567
  0
ARC
  5
37D
100
AcDbEntity
  8
ALL_ASSEMBLY_MEMBERS
100
AcDbCircle
 62
7
  6
CONTINUOUS
 10
5.0849321051
 20
3.9559676274
 40
0.053156616
100
AcDbArc
 50
161.2602473168
 51
179.9924328901
  0
ARC
  5
37E
100
AcDbEntity
  8
ALL_ASSEMBLY_MEMBERS
100
AcDbCircle
 62
7
  6
CONTINUOUS
 10
5.0841958108
 20
3.9561848388
 40
0.0523891072
100
AcDbArc
 50
156.5110328748
 51
161.2265047868
  0
ARC
  5
37F
100
AcDbEntity
  8
ALL_ASSEMBLY_MEMBERS
100
AcDbCircle
 62
7
  6
CONTINUOUS
 10
5.0835394317
 20
3.9564775293
 40
0.0516704598
100
AcDbArc
 50
151.8516779534
 51
156.5185982595
  0
ARC
  5
380
100
AcDbEntity
  8
ALL_ASSEMBLY_MEMBERS
100
AcDbCircle
 62
7
  6
CONTINUOUS
 10
5.0820410905
 20
3.9573339994
 40
0.0499453072
100
AcDbArc
 50
142.490785825
 51
151.9071136735
  0
ARC
  5
381
100
AcDbEntity
  8
ALL_ASSEMBLY_MEMBERS
100
AcDbCircle
 62
7
  6
CONTINUOUS
 10
5.0528114878
 20
3.9574133649
 40
0.0489190351
100
AcDbArc
 50
357.125292332
 51
1.4996891368
  0
ARC
  5
382
100
AcDbEntity
  8
ALL_ASSEMBLY_MEMBERS
100
AcDbCircle
 62
7
  6
CONTINUOUS
 10
5.080159978
 20
3.9587716979
 40
0.0475777059
100
AcDbArc
 50
138.328644219
 51
142.4848529437
  0
ARC
  5
383
100
AcDbEntity
  8
ALL_ASSEMBLY_MEMBERS
100
AcDbCircle
 62
7
  6
CONTINUOUS
 10
5.0794802842
 20
3.9593696144
 40
0.0466724659
100
AcDbArc
 50
137.7356891863
 51
138.3221709059
  0
ARC
  5
384
100
AcDbEntity
  8
ALL_ASSEMBLY_MEMBERS
100
AcDbCircle
 62
7
  6
CONTINUOUS
 10
5.0756021261
 20
3.95532527
 40
0.0416029335
100
AcDbArc
 50
179.105637002
 51
187.8492849322
  0
ARC
  5
385
100
AcDbEntity
  8
ALL_ASSEMBLY_MEMBERS
100
AcDbCircle
 62
7
  6
CONTINUOUS
 10
5.1864518634
 20
3.6024746479
 40
0.0375
100
AcDbArc
 50
90.0
 51
180.0
  0
ARC
  5
386
100
AcDbEntity
  8
ALL_ASSEMBLY_MEMBERS
100
AcDbCircle
 62
7
  6
CONTINUOUS
 10
5.0690456416
 20
3.9509250467
 40
0.0335375188
100
AcDbArc
 50
230.0350207599
 51
235.0634539067
  0
ARC
  5
387
100
AcDbEntity
  8
ALL_ASSEMBLY_MEMBERS
100
AcDbCircle
 62
7
  6
CONTINUOUS
 10
5.1677235843
 20
4.0819746479
 40
0.033
100
AcDbArc
 50
270.0
 51
341.1400389567
  0
ARC
  5
388
100
AcDbEntity
  8
ALL_ASSEMBLY_MEMBERS
100
AcDbCircle
 62
7
  6
CONTINUOUS
 10
5.0629228252
 20
3.9635986799
 40
0.0292235868
100
AcDbArc
 50
125.7687754746
 51
126.7692232667
  0
ARC
  5
389
100
AcDbEntity
  8
ALL_ASSEMBLY_MEMBERS
100
AcDbCircle
 62
7
  6
CONTINUOUS
 10
5.0650702829
 20
3.9500538196
 40
0.0280317438
100
AcDbArc
 50
246.259113362
 51
257.1428728772
  0
ARC
  5
38A
100
AcDbEntity
  8
ALL_ASSEMBLY_MEMBERS
100
AcDbCircle
 62
7
  6
CONTINUOUS
 10
5.0649091579
 20
3.9493810104
 40
0.027340057
100
AcDbArc
 50
257.1583205548
 51
263.3054517807
  0
ARC
  5
38B
100
AcDbEntity
  8
ALL_ASSEMBLY_MEMBERS
100
AcDbCircle
 62
7
  6
CONTINUOUS
 10
5.0648640812
 20
3.9490568325
 40
0.0270128355
100
AcDbArc
 50
263.3202524913
 51
264.9641785144
  0
ARC
  5
38C
100
AcDbEntity
  8
ALL_ASSEMBLY_MEMBERS
100
AcDbCircle
 62
7
  6
CONTINUOUS
 10
5.0610311217
 20
3.9669782908
 40
0.0253409364
100
AcDbArc
 50
109.307626933
 51
114.9866691086
  0
ARC
  5
38D
100
AcDbEntity
  8
ALL_ASSEMBLY_MEMBERS
100
AcDbCircle
 62
7
  6
CONTINUOUS
 10
5.0604305875
 20
3.9701204958
 40
0.0221140442
100
AcDbArc
 50
73.87888235
 51
85.8435677768
  0
ARC
  5
38E
100
AcDbEntity
  8
ALL_ASSEMBLY_MEMBERS
100
AcDbCircle
 62
7
  6
CONTINUOUS
 10
5.1339518634
 20
3.5924746479
 40
0.01
100
AcDbArc
 50
90.0
 51
180.0
  0
ARC
  5
38F
100
AcDbEntity
  8
ALL_ASSEMBLY_MEMBERS
100
AcDbCircle
 62
7
  6
CONTINUOUS
 10
5.1589518634
 20
3.8874746479
 40
0.01
100
AcDbArc
 50
180.0
 51
270.0
  0
CIRCLE
  5
390
100
AcDbEntity
  8
ALL_ASSEMBLY_MEMBERS
100
AcDbCircle
 62
7
  6
CONTINUOUS
 10
4.9927018634
 20
4.4709746479
 40
0.07
  0
CIRCLE
  5
391
100
AcDbEntity
  8
ALL_ASSEMBLY_MEMBERS
100
AcDbCircle
 62
7
  6
CONTINUOUS
 10
4.9927018634
 20
4.4709746479
 40
0.065
  0
ARC
  5
392
100
AcDbEntity
  8
ALL_ASSEMBLY_MEMBERS
100
AcDbCircle
 62
7
  6
CONTINUOUS
 10
6.6229192547
 20
5.2452000416
 40
0.0627173913
100
AcDbArc
 50
94.7718880608
 51
180.0
  0
CIRCLE
  5
393
100
AcDbEntity
  8
ALL_ASSEMBLY_MEMBERS
100
AcDbCircle
 62
7
  6
CONTINUOUS
 10
4.9927018634
 20
4.4709746479
 40
0.0445454545
  0
SPLINE
  5
394
100
AcDbEntity
  8
ALL_ASSEMBLY_MEMBERS
100
AcDbSpline
 62
7
  6
CONTINUOUS
 70
0
 71
3
 72
11
 73
7
 74
0
 42
0.0000001
 43
0.0000001
 44
0.0000000001
 40
0.0
 40
0.0
 40
0.0
 40
0.0
 40
0.2530180378
 40
0.5041925509
 40
0.7532606234
 40
1.0
 40
1.0
 40
1.0
 40
1.0
 10
4.8899510834
 20
3.9472907151
 30
0.0
 10
4.8901386651
 20
3.9464865152
 30
0.0
 10
4.8905623026
 20
3.9448951138
 30
0.0
 10
4.891343787
 20
3.9425624833
 30
0.0
 10
4.892265541
 20
3.9403037169
 30
0.0
 10
4.8929743374
 20
3.938847465
 30
0.0
 10
4.8933508626
 20
3.938135616
 30
0.0
  0
SPLINE
  5
395
100
AcDbEntity
  8
ALL_ASSEMBLY_MEMBERS
100
AcDbSpline
 62
7
  6
CONTINUOUS
 70
0
 71
3
 72
25
 73
21
 74
0
 42
0.0000001
 43
0.0000001
 44
0.0000000001
 40
0.0
 40
0.0
 40
0.0
 40
0.0
 40
0.0673709548
 40
0.1007752379
 40
0.1339825965
 40
0.1997827971
 40
0.2647692996
 40
0.3289451872
 40
0.3923326491
 40
0.4549721221
 40
0.5169231746
 40
0.578263245
 40
0.6390861538
 40
0.6995011726
 40
0.7596297054
 40
0.8196038164
 40
0.8495838058
 40
0.8795772879
 40
0.9396580665
 40
1.0
 40
1.0
 40
1.0
 40
1.0
 10
4.8933508626
 20
3.938135616
 30
0.0
 10
4.8937431095
 20
3.9373940438
 30
0.0
 10
4.8943690272
 20
3.9363047914
 30
0.0
 10
4.8952776532
 20
3.9349052151
 30
0.0
 10
4.8962254765
 20
3.93355565
 30
0.0
 10
4.8974910961
 20
3.9319504114
 30
0.0
 10
4.8991360753
 20
3.9301617484
 30
0.0
 10
4.9008937101
 20
3.9285272303
 30
0.0
 10
4.9027537288
 20
3.9270567663
 30
0.0
 10
4.9047055601
 20
3.9257597713
 30
0.0
 10
4.9067375762
 20
3.9246442397
 30
0.0
 10
4.9088379109
 20
3.9237178452
 30
0.0
 10
4.9109937585
 20
3.9229864872
 30
0.0
 10
4.9131921436
 20
3.9224557445
 30
0.0
 10
4.9154192832
 20
3.9221292355
 30
0.0
 10
4.9172884314
 20
3.9220299616
 30
0.0
 10
4.9187823053
 20
3.9220547369
 30
0.0
 10
4.9202747528
 20
3.9221491461
 30
0.0
 10
4.9221340085
 20
3.9223979126
 30
0.0
 10
4.9235978213
 20
3.9227344986
 30
0.0
 10
4.9243215881
 20
3.9229363724
 30
0.0
  0
SPLINE
  5
396
100
AcDbEntity
  8
ALL_ASSEMBLY_MEMBERS
100
AcDbSpline
 62
7
  6
CONTINUOUS
 70
0
 71
3
 72
15
 73
11
 74
0
 42
0.0000001
 43
0.0000001
 44
0.0000000001
 40
0.0
 40
0.0
 40
0.0
 40
0.0
 40
0.120380099
 40
0.2418671159
 40
0.3646050514
 40
0.4887001813
 40
0.6142392836
 40
0.7413020341
 40
0.8699243904
 40
1.0
 40
1.0
 40
1.0
 40
1.0
 10
4.926918551
 20
3.9238187826
 30
0.0
 10
4.9275528562
 20
3.9240741274
 30
0.0
 10
4.9288068446
 20
3.9246396478
 30
0.0
 10
4.9306221228
 20
3.9256408759
 30
0.0
 10
4.9323700403
 20
3.9267944766
 30
0.0
 10
4.9340411446
 20
3.928094466
 30
0.0
 10
4.9356260929
 20
3.9295349236
 30
0.0
 10
4.9371163333
 20
3.9311087305
 30
0.0
 10
4.9385027901
 20
3.9328078615
 30
0.0
 10
4.9393482783
 20
3.9340114907
 30
0.0
 10
4.9397513436
 20
3.9346307064
 30
0.0
  0
SPLINE
  5
397
100
AcDbEntity
  8
ALL_ASSEMBLY_MEMBERS
100
AcDbSpline
 62
7
  6
CONTINUOUS
 70
0
 71
3
 72
53
 73
49
 74
0
 42
0.0000001
 43
0.0000001
 44
0.0000000001
 40
0.0
 40
0.0
 40
0.0
 40
0.0
 40
0.0334291084
 40
0.0667942003
 40
0.0834215145
 40
0.0999987315
 40
0.1329657405
 40
0.1656393653
 40
0.1818515261
 40
0.1979700027
 40
0.2139897367
 40
0.2299066137
 40
0.2614109999
 40
0.2770037033
 40
0.2924865603
 40
0.3078603382
 40
0.3231267938
 40
0.3382890947
 40
0.3533512936
 40
0.3831858599
 40
0.4126938857
 40
0.4419427393
 40
0.4565000848
 40
0.4710231591
 40
0.5
 40
0.5289768409
 40
0.5434999152
 40
0.5580572607
 40
0.5873061143
 40
0.6168141401
 40
0.6466487064
 40
0.6617109053
 40
0.6768732062
 40
0.6921396618
 40
0.7075134397
 40
0.7229962967
 40
0.7385890001
 40
0.7700933863
 40
0.7860102633
 40
0.8020299973
 40
0.8181484739
 40
0.8343606347
 40
0.8670342595
 40
0.9000012685
 40
0.9165784855
 40
0.9332057997
 40
0.9665708916
 40
1.0
 40
1.0
 40
1.0
 40
1.0
 10
4.9445486509
 20
3.9559746479
 30
0.0
 10
4.9445486509
 20
3.9549610994
 30
0.0
 10
4.9444624184
 20
3.952934967
 30
0.0
 10
4.9441403289
 20
3.9504230518
 30
0.0
 10
4.9437549649
 20
3.9484412632
 30
0.0
 10
4.943287432
 20
3.9464896669
 30
0.0
 10
4.942549332
 20
3.9441051439
 30
0.0
 10
4.9416084734
 20
3.9418048793
 30
0.0
 10
4.9407402877
 20
3.9400348761
 30
0.0
 10
4.9400353476
 20
3.9387489535
 30
0.0
 10
4.9392765892
 20
3.9375044623
 30
0.0
 10
4.9381994123
 20
3.9359102681
 30
0.0
 10
4.9370186961
 20
3.9344037812
 30
0.0
 10
4.935741751
 20
3.9329996074
 30
0.0
 10
4.934743693
 20
3.9320051516
 30
0.0
 10
4.9337046201
 20
3.9310683775
 30
0.0
 10
4.9326268797
 20
3.930191661
 30
0.0
 10
4.9315131069
 20
3.9293770184
 30
0.0
 10
4.9299889046
 20
3.9283794748
 30
0.0
 10
4.9280055503
 20
3.927294755
 30
0.0
 10
4.925518947
 20
3.9262656529
 30
0.0
 10
4.923379028
 20
3.9256458684
 30
0.0
 10
4.9216442296
 20
3.9252981064
 30
0.0
 10
4.9199007539
 20
3.9250497754
 30
0.0
 10
4.9177018634
 20
3.9249246028
 30
0.0
 10
4.9155029728
 20
3.9250497754
 30
0.0
 10
4.9137594971
 20
3.9252981064
 30
0.0
 10
4.9120246987
 20
3.9256458684
 30
0.0
 10
4.9098847797
 20
3.9262656529
 30
0.0
 10
4.9073981764
 20
3.927294755
 30
0.0
 10
4.9054148221
 20
3.9283794748
 30
0.0
 10
4.9038906198
 20
3.9293770184
 30
0.0
 10
4.902776847
 20
3.930191661
 30
0.0
 10
4.9016991066
 20
3.9310683775
 30
0.0
 10
4.9006600337
 20
3.9320051516
 30
0.0
 10
4.8996619757
 20
3.9329996074
 30
0.0
 10
4.8983850306
 20
3.9344037812
 30
0.0
 10
4.8972043144
 20
3.9359102681
 30
0.0
 10
4.8961271375
 20
3.9375044623
 30
0.0
 10
4.8953683792
 20
3.9387489535
 30
0.0
 10
4.894663439
 20
3.9400348761
 30
0.0
 10
4.8937952533
 20
3.9418048793
 30
0.0
 10
4.8928543947
 20
3.9441051439
 30
0.0
 10
4.8921162947
 20
3.9464896669
 30
0.0
 10
4.8916487618
 20
3.9484412632
 30
0.0
 10
4.8912633978
 20
3.9504230518
 30
0.0
 10
4.8909413083
 20
3.952934967
 30
0.0
 10
4.8908550758
 20
3.9549610994
 30
0.0
 10
4.8908550758
 20
3.9559746479
 30
0.0
  0
SPLINE
  5
398
100
AcDbEntity
  8
ALL_ASSEMBLY_MEMBERS
100
AcDbSpline
 62
7
  6
CONTINUOUS
 70
0
 71
3
 72
13
 73
9
 74
0
 42
0.0000001
 43
0.0000001
 44
0.0000000001
 40
0.0
 40
0.0
 40
0.0
 40
0.0
 40
0.1212162861
 40
0.2438663657
 40
0.367792928
 40
0.4928628747
 40
0.745430897
 40
1.0
 40
1.0
 40
1.0
 40
1.0
 10
4.9397513436
 20
3.9346307064
 30
0.0
 10
4.940305398
 20
3.9353671281
 30
0.0
 10
4.9413558842
 20
3.93689813
 30
0.0
 10
4.9427388713
 20
3.9393319232
 30
0.0
 10
4.9439281857
 20
3.9418986031
 30
0.0
 10
4.9452469362
 20
3.9454803365
 30
0.0
 10
4.946360908
 20
3.9501773724
 30
0.0
 10
4.9466591601
 20
3.9540392353
 30
0.0
 10
4.9466591601
 20
3.9559746479
 30
0.0
  0
SPLINE
  5
399
100
AcDbEntity
  8
ALL_ASSEMBLY_MEMBERS
100
AcDbSpline
 62
7
  6
CONTINUOUS
 70
0
 71
3
 72
16
 73
12
 74
0
 42
0.0000001
 43
0.0000001
 44
0.0000000001
 40
0.0
 40
0.0
 40
0.0
 40
0.0
 40
0.1268356935
 40
0.2533725618
 40
0.3794679182
 40
0.4423247418
 40
0.5050261183
 40
0.6298888488
 40
0.7540241947
 40
0.8774268058
 40
1.0
 40
1.0
 40
1.0
 40
1.0
 10
4.9514877074
 20
3.962730307
 30
0.0
 10
4.951123219
 20
3.9636483566
 30
0.0
 10
4.9503290777
 20
3.9654569349
 30
0.0
 10
4.9489442695
 20
3.9680704281
 30
0.0
 10
4.9476325583
 20
3.9701510333
 30
0.0
 10
4.946492411
 20
3.9717455869
 30
0.0
 10
4.9452964842
 20
3.9732866017
 30
0.0
 10
4.9436945351
 20
3.9751141719
 30
0.0
 10
4.9416076487
 20
3.9771329117
 30
0.0
 10
4.9393705985
 20
3.9789558201
 30
0.0
 10
4.9377829371
 20
3.9800330121
 30
0.0
 10
4.9369694562
 20
3.980532452
 30
0.0
  0
SPLINE
  5
39A
100
AcDbEntity
  8
ALL_ASSEMBLY_MEMBERS
100
AcDbSpline
 62
7
  6
CONTINUOUS
 70
0
 71
3
 72
15
 73
11
 74
0
 42
0.0000001
 43
0.0000001
 44
0.0000000001
 40
0.0
 40
0.0
 40
0.0
 40
0.0
 40
0.1283996572
 40
0.2564456432
 40
0.3837692271
 40
0.5100577352
 40
0.6350235624
 40
0.7584331467
 40
0.88012878
 40
1.0
 40
1.0
 40
1.0
 40
1.0
 10
4.9466591601
 20
3.9559746479
 30
0.0
 10
4.9466591601
 20
3.9571330836
 30
0.0
 10
4.9465520762
 20
3.9594481974
 30
0.0
 10
4.9460719194
 20
3.9628819582
 30
0.0
 10
4.9452775024
 20
3.9662377153
 30
0.0
 10
4.9441779519
 20
3.9694769564
 30
0.0
 10
4.9427854492
 20
3.972562953
 30
0.0
 10
4.9411156628
 20
3.975460788
 30
0.0
 10
4.9391875638
 20
3.9781369336
 30
0.0
 10
4.9377325945
 20
3.9797661341
 30
0.0
 10
4.9369694562
 20
3.980532452
 30
0.0
  0
SPLINE
  5
39B
100
AcDbEntity
  8
ALL_ASSEMBLY_MEMBERS
100
AcDbSpline
 62
7
  6
CONTINUOUS
 70
0
 71
3
 72
21
 73
17
 74
0
 42
0.0000001
 43
0.0000001
 44
0.0000000001
 40
0.0
 40
0.0
 40
0.0
 40
0.0
 40
0.0649299911
 40
0.1298360075
 40
0.1946007488
 40
0.2591447719
 40
0.3234169515
 40
0.3873659806
 40
0.450934937
 40
0.5140706724
 40
0.6388206905
 40
0.7614223442
 40
0.8219071039
 40
0.8818239961
 40
0.9411816192
 40
1.0
 40
1.0
 40
1.0
 40
1.0
 10
4.8908550758
 20
3.9559746479
 30
0.0
 10
4.8908550758
 20
3.9566505009
 30
0.0
 10
4.8908935015
 20
3.9580022665
 30
0.0
 10
4.8910655255
 20
3.9600215742
 30
0.0
 10
4.8913516136
 20
3.9620239265
 30
0.0
 10
4.8917505191
 20
3.9640001439
 30
0.0
 10
4.8922603682
 20
3.9659419358
 30
0.0
 10
4.8928792047
 20
3.9678411108
 30
0.0
 10
4.8936041114
 20
3.9696897865
 30
0.0
 10
4.8947037351
 20
3.9720663855
 30
0.0
 10
4.8963237729
 20
3.9748727424
 30
0.0
 10
4.8982645984
 20
3.9774340519
 30
0.0
 10
4.8999824639
 20
3.9792927139
 30
0.0
 10
4.9013412645
 20
3.9805811776
 30
0.0
 10
4.9027702145
 20
3.9817641829
 30
0.0
 10
4.9037701803
 20
3.9824825492
 30
0.0
 10
4.9042796014
 20
3.9828221446
 30
0.0
  0
SPLINE
  5
39C
100
AcDbEntity
  8
ALL_ASSEMBLY_MEMBERS
100
AcDbSpline
 62
7
  6
CONTINUOUS
 70
0
 71
3
 72
36
 73
32
 74
0
 42
0.0000001
 43
0.0000001
 44
0.0000000001
 40
0.0
 40
0.0
 40
0.0
 40
0.0
 40
0.0296865642
 40
0.0592342838
 40
0.0886725589
 40
0.1180330899
 40
0.1473487281
 40
0.1766529847
 40
0.2059799127
 40
0.2353627227
 40
0.2648340815
 40
0.2944249063
 40
0.324164006
 40
0.3540781745
 40
0.3841907005
 40
0.4145221925
 40
0.4758768812
 40
0.538265105
 40
0.5698723738
 40
0.6017451457
 40
0.6338776925
 40
0.6662615193
 40
0.7317089331
 40
0.7647646995
 40
0.7980064804
 40
0.8314102594
 40
0.86495308
 40
0.8986139653
 40
0.932370082
 40
0.9661822474
 40
1.0
 40
1.0
 40
1.0
 40
1.0
 10
4.9094057498
 20
3.9854573999
 30
0.0
 10
4.9099056652
 20
3.9856449606
 30
0.0
 10
4.9109158139
 20
3.9859864501
 30
0.0
 10
4.9124583947
 20
3.986395897
 30
0.0
 10
4.9140193168
 20
3.9866997559
 30
0.0
 10
4.9155930656
 20
3.9868967853
 30
0.0
 10
4.9171741502
 20
3.9869866212
 30
0.0
 10
4.9187570832
 20
3.9869686242
 30
0.0
 10
4.9203363283
 20
3.986842997
 30
0.0
 10
4.9219064176
 20
3.9866103125
 30
0.0
 10
4.923461823
 20
3.9862710595
 30
0.0
 10
4.9249971913
 20
3.9858267611
 30
0.0
 10
4.9265071706
 20
3.9852788381
 30
0.0
 10
4.927986431
 20
3.984629106
 30
0.0
 10
4.9294300281
 20
3.983880083
 30
0.0
 10
4.9313070622
 20
3.9827481404
 30
0.0
 10
4.9335401577
 20
3.981094283
 30
0.0
 10
4.935571295
 20
3.9791652581
 30
0.0
 10
4.9370702318
 20
3.9774673044
 30
0.0
 10
4.9381322473
 20
3.9761134854
 30
0.0
 10
4.9391234915
 20
3.9746899903
 30
0.0
 10
4.9403499602
 20
3.9726989596
 30
0.0
 10
4.9414165348
 20
3.9705940256
 30
0.0
 10
4.9423144924
 20
3.9684003166
 30
0.0
 10
4.9429051632
 20
3.9667062132
 30
0.0
 10
4.9434084526
 20
3.9649750959
 30
0.0
 10
4.9438225476
 20
3.9632127494
 30
0.0
 10
4.9441462426
 20
3.9614251566
 30
0.0
 10
4.9443780998
 20
3.9596184548
 30
0.0
 10
4.9445175255
 20
3.9577995112
 30
0.0
 10
4.9445486509
 20
3.9565828938
 30
0.0
 10
4.9445486509
 20
3.9559746479
 30
0.0
  0
SPLINE
  5
39D
100
AcDbEntity
  8
ALL_ASSEMBLY_MEMBERS
100
AcDbSpline
 62
7
  6
CONTINUOUS
 70
0
 71
3
 72
34
 73
30
 74
0
 42
0.0000001
 43
0.0000001
 44
0.0000000001
 40
0.0
 40
0.0
 40
0.0
 40
0.0
 40
0.0630595634
 40
0.1270257522
 40
0.1917741835
 40
0.224405285
 40
0.2571604455
 40
0.2900092368
 40
0.3229191947
 40
0.3558553384
 40
0.3887813916
 40
0.4216604379
 40
0.4544550001
 40
0.5196154945
 40
0.5840066979
 40
0.6158476285
 40
0.6474048456
 40
0.6786540496
 40
0.7095755195
 40
0.7401532812
 40
0.7703771171
 40
0.8002412891
 40
0.8297464306
 40
0.8588984782
 40
0.8877097556
 40
0.9161985222
 40
0.9443889049
 40
0.9723110483
 40
1.0
 40
1.0
 40
1.0
 40
1.0
 10
4.9369694562
 20
3.980532452
 30
0.0
 10
4.9379867724
 20
3.9795673226
 30
0.0
 10
4.9399082823
 20
3.9774838203
 30
0.0
 10
4.9423813593
 20
3.9739967328
 30
0.0
 10
4.9440832929
 20
3.9708269406
 30
0.0
 10
4.9452171654
 20
3.9681629629
 30
0.0
 10
4.9459514519
 20
3.9661041235
 30
0.0
 10
4.9465644376
 20
3.963999626
 30
0.0
 10
4.9470534882
 20
3.9618587883
 30
0.0
 10
4.9474171397
 20
3.9596913906
 30
0.0
 10
4.9476537388
 20
3.9575071849
 30
0.0
 10
4.9477629588
 20
3.9553160027
 30
0.0
 10
4.9477382928
 20
3.9524053186
 30
0.0
 10
4.947392113
 20
3.9488029497
 30
0.0
 10
4.9466275237
 20
3.9452869624
 30
0.0
 10
4.9457730641
 20
3.9425751851
 30
0.0
 10
4.9450181959
 20
3.9406089953
 30
0.0
 10
4.9441504979
 20
3.9387124252
 30
0.0
 10
4.9431746019
 20
3.9368938128
 30
0.0
 10
4.9420949266
 20
3.9351615948
 30
0.0
 10
4.9409170111
 20
3.9335234431
 30
0.0
 10
4.9396463094
 20
3.9319869331
 30
0.0
 10
4.9382890572
 20
3.9305589545
 30
0.0
 10
4.9368517098
 20
3.9292460176
 30
0.0
 10
4.9353410787
 20
3.9280541806
 30
0.0
 10
4.9337644955
 20
3.9269887168
 30
0.0
 10
4.932129259
 20
3.9260547577
 30
0.0
 10
4.9304434956
 20
3.9252562932
 30
0.0
 10
4.9292865417
 20
3.9248152663
 30
0.0
 10
4.9287029494
 20
3.9246189326
 30
0.0
  0
SPLINE
  5
39E
100
AcDbEntity
  8
ALL_ASSEMBLY_MEMBERS
100
AcDbSpline
 62
7
  6
CONTINUOUS
 70
0
 71
3
 72
22
 73
18
 74
0
 42
0.0000001
 43
0.0000001
 44
0.0000000001
 40
0.0
 40
0.0
 40
0.0
 40
0.0
 40
0.0651404515
 40
0.1300888956
 40
0.1948018398
 40
0.2592295802
 40
0.3870046688
 40
0.4503309376
 40
0.5132291561
 40
0.5756777188
 40
0.6376625665
 40
0.6991766278
 40
0.7602207144
 40
0.8208039937
 40
0.8809434217
 40
0.9406645052
 40
1.0
 40
1.0
 40
1.0
 40
1.0
 10
5.034383862
 20
3.9496421948
 30
0.0
 10
5.0345353474
 20
3.9489410137
 30
0.0
 10
5.0348745412
 20
3.9475483392
 30
0.0
 10
5.0354917415
 20
3.9454928094
 30
0.0
 10
5.0362152141
 20
3.9434803825
 30
0.0
 10
5.0373148688
 20
3.9408724665
 30
0.0
 10
5.0386200626
 20
3.9383715825
 30
0.0
 10
5.0401206091
 20
3.9360095788
 30
0.0
 10
5.0413343631
 20
3.9343216813
 30
0.0
 10
5.0426353369
 20
3.9327191007
 30
0.0
 10
5.044019323
 20
3.9312081683
 30
0.0
 10
5.0454812677
 20
3.9297946469
 30
0.0
 10
5.0470162918
 20
3.9284844305
 30
0.0
 10
5.0486187286
 20
3.9272825936
 30
0.0
 10
5.0502829938
 20
3.9261942194
 30
0.0
 10
5.0520028752
 20
3.9252238302
 30
0.0
 10
5.0531861495
 20
3.924656437
 30
0.0
 10
5.0537846051
 20
3.9243940951
 30
0.0
  0
SPLINE
  5
39F
100
AcDbEntity
  8
ALL_ASSEMBLY_MEMBERS
100
AcDbSpline
 62
7
  6
CONTINUOUS
 70
0
 71
3
 72
23
 73
19
 74
0
 42
0.0000001
 43
0.0000001
 44
0.0000000001
 40
0.0
 40
0.0
 40
0.0
 40
0.0
 40
0.0607103891
 40
0.1214049974
 40
0.1821485997
 40
0.2430044616
 40
0.3040352336
 40
0.3652999988
 40
0.4268534196
 40
0.4887468393
 40
0.5510250056
 40
0.6137276064
 40
0.6768825581
 40
0.7405113839
 40
0.8046352376
 40
0.8692723909
 40
0.9344124449
 40
1.0
 40
1.0
 40
1.0
 40
1.0
 10
5.0624929337
 20
3.9221482662
 30
0.0
 10
5.0630962122
 20
3.9220951097
 30
0.0
 10
5.0643065911
 20
3.9220294134
 30
0.0
 10
5.0661247758
 20
3.9220537723
 30
0.0
 10
5.0679386482
 20
3.9222015984
 30
0.0
 10
5.0697416464
 20
3.92247236
 30
0.0
 10
5.0715272583
 20
3.9228656863
 30
0.0
 10
5.0732890026
 20
3.9233802825
 30
0.0
 10
5.0750204397
 20
3.9240145624
 30
0.0
 10
5.0767151081
 20
3.9247666225
 30
0.0
 10
5.0783668405
 20
3.9256337164
 30
0.0
 10
5.0799692652
 20
3.9266131741
 30
0.0
 10
5.0815164997
 20
3.9277012258
 30
0.0
 10
5.083002544
 20
3.9288942168
 30
0.0
 10
5.0844218573
 20
3.9301878773
 30
0.0
 10
5.0857689631
 20
3.9315776385
 30
0.0
 10
5.0870382275
 20
3.9330579896
 30
0.0
 10
5.0878266858
 20
3.9340978588
 30
0.0
 10
5.0882063436
 20
3.9346307064
 30
0.0
  0
SPLINE
  5
3A0
100
AcDbEntity
  8
ALL_ASSEMBLY_MEMBERS
100
AcDbSpline
 62
7
  6
CONTINUOUS
 70
0
 71
3
 72
13
 73
9
 74
0
 42
0.0000001
 43
0.0000001
 44
0.0000000001
 40
0.0
 40
0.0
 40
0.0
 40
0.0
 40
0.1212162861
 40
0.2438663656
 40
0.3677929279
 40
0.4928628747
 40
0.745430897
 40
1.0
 40
1.0
 40
1.0
 40
1.0
 10
5.0882063436
 20
3.9346307064
 30
0.0
 10
5.0887603981
 20
3.9353671281
 30
0.0
 10
5.0898108843
 20
3.93689813
 30
0.0
 10
5.0911938713
 20
3.9393319232
 30
0.0
 10
5.0923831858
 20
3.9418986031
 30
0.0
 10
5.0937019362
 20
3.9454803365
 30
0.0
 10
5.094815908
 20
3.9501773724
 30
0.0
 10
5.0951141601
 20
3.9540392353
 30
0.0
 10
5.0951141601
 20
3.9559746479
 30
0.0
  0
SPLINE
  5
3A1
100
AcDbEntity
  8
ALL_ASSEMBLY_MEMBERS
100
AcDbSpline
 62
7
  6
CONTINUOUS
 70
0
 71
3
 72
15
 73
11
 74
0
 42
0.0000001
 43
0.0000001
 44
0.0000000001
 40
0.0
 40
0.0
 40
0.0
 40
0.0
 40
0.1283996572
 40
0.2564456431
 40
0.3837692271
 40
0.5100577351
 40
0.6350235624
 40
0.7584331467
 40
0.8801287799
 40
1.0
 40
1.0
 40
1.0
 40
1.0
 10
5.0951141601
 20
3.9559746479
 30
0.0
 10
5.0951141601
 20
3.9571330836
 30
0.0
 10
5.0950070763
 20
3.9594481974
 30
0.0
 10
5.0945269194
 20
3.9628819582
 30
0.0
 10
5.0937325024
 20
3.9662377153
 30
0.0
 10
5.0926329519
 20
3.9694769564
 30
0.0
 10
5.0912404492
 20
3.972562953
 30
0.0
 10
5.0895706628
 20
3.975460788
 30
0.0
 10
5.0876425639
 20
3.9781369336
 30
0.0
 10
5.0861875946
 20
3.9797661341
 30
0.0
 10
5.0854244562
 20
3.980532452
 30
0.0
  0
SPLINE
  5
3A2
100
AcDbEntity
  8
ALL_ASSEMBLY_MEMBERS
100
AcDbSpline
 62
7
  6
CONTINUOUS
 70
0
 71
3
 72
53
 73
49
 74
0
 42
0.0000001
 43
0.0000001
 44
0.0000000001
 40
0.0
 40
0.0
 40
0.0
 40
0.0
 40
0.0334291084
 40
0.0667942003
 40
0.0834215145
 40
0.0999987315
 40
0.1329657405
 40
0.1656393653
 40
0.1818515261
 40
0.1979700027
 40
0.2139897367
 40
0.2299066137
 40
0.2614109999
 40
0.2770037033
 40
0.2924865603
 40
0.3078603382
 40
0.3231267938
 40
0.3382890947
 40
0.3533512936
 40
0.3831858599
 40
0.4126938857
 40
0.4419427393
 40
0.4565000848
 40
0.4710231591
 40
0.5
 40
0.5289768409
 40
0.5434999152
 40
0.5580572607
 40
0.5873061143
 40
0.6168141401
 40
0.6466487064
 40
0.6617109053
 40
0.6768732062
 40
0.6921396618
 40
0.7075134397
 40
0.7229962967
 40
0.7385890001
 40
0.7700933863
 40
0.7860102633
 40
0.8020299973
 40
0.8181484739
 40
0.8343606347
 40
0.8670342595
 40
0.9000012685
 40
0.9165784855
 40
0.9332057997
 40
0.9665708916
 40
1.0
 40
1.0
 40
1.0
 40
1.0
 10
5.0945486509
 20
3.9559746479
 30
0.0
 10
5.0945486509
 20
3.9549610994
 30
0.0
 10
5.0944624184
 20
3.952934967
 30
0.0
 10
5.0941403289
 20
3.9504230518
 30
0.0
 10
5.0937549649
 20
3.9484412632
 30
0.0
 10
5.093287432
 20
3.9464896669
 30
0.0
 10
5.092549332
 20
3.9441051439
 30
0.0
 10
5.0916084734
 20
3.9418048793
 30
0.0
 10
5.0907402877
 20
3.9400348761
 30
0.0
 10
5.0900353476
 20
3.9387489535
 30
0.0
 10
5.0892765892
 20
3.9375044623
 30
0.0
 10
5.0881994123
 20
3.9359102681
 30
0.0
 10
5.0870186961
 20
3.9344037812
 30
0.0
 10
5.085741751
 20
3.9329996074
 30
0.0
 10
5.084743693
 20
3.9320051516
 30
0.0
 10
5.0837046201
 20
3.9310683775
 30
0.0
 10
5.0826268797
 20
3.930191661
 30
0.0
 10
5.0815131069
 20
3.9293770184
 30
0.0
 10
5.0799889046
 20
3.9283794748
 30
0.0
 10
5.0780055503
 20
3.927294755
 30
0.0
 10
5.075518947
 20
3.9262656529
 30
0.0
 10
5.073379028
 20
3.9256458684
 30
0.0
 10
5.0716442296
 20
3.9252981064
 30
0.0
 10
5.0699007539
 20
3.9250497754
 30
0.0
 10
5.0677018634
 20
3.9249246028
 30
0.0
 10
5.0655029728
 20
3.9250497754
 30
0.0
 10
5.0637594971
 20
3.9252981064
 30
0.0
 10
5.0620246987
 20
3.9256458684
 30
0.0
 10
5.0598847797
 20
3.9262656529
 30
0.0
 10
5.0573981764
 20
3.927294755
 30
0.0
 10
5.0554148221
 20
3.9283794748
 30
0.0
 10
5.0538906198
 20
3.9293770184
 30
0.0
 10
5.052776847
 20
3.930191661
 30
0.0
 10
5.0516991066
 20
3.9310683775
 30
0.0
 10
5.0506600337
 20
3.9320051516
 30
0.0
 10
5.0496619757
 20
3.9329996074
 30
0.0
 10
5.0483850306
 20
3.9344037812
 30
0.0
 10
5.0472043144
 20
3.9359102681
 30
0.0
 10
5.0461271375
 20
3.9375044623
 30
0.0
 10
5.0453683792
 20
3.9387489535
 30
0.0
 10
5.044663439
 20
3.9400348761
 30
0.0
 10
5.0437952533
 20
3.9418048793
 30
0.0
 10
5.0428543947
 20
3.9441051439
 30
0.0
 10
5.0421162947
 20
3.9464896669
 30
0.0
 10
5.0416487618
 20
3.9484412632
 30
0.0
 10
5.0412633978
 20
3.9504230518
 30
0.0
 10
5.0409413083
 20
3.952934967
 30
0.0
 10
5.0408550758
 20
3.9549610994
 30
0.0
 10
5.0408550758
 20
3.9559746479
 30
0.0
  0
SPLINE
  5
3A3
100
AcDbEntity
  8
ALL_ASSEMBLY_MEMBERS
100
AcDbSpline
 62
7
  6
CONTINUOUS
 70
0
 71
3
 72
27
 73
23
 74
0
 42
0.0000001
 43
0.0000001
 44
0.0000000001
 40
0.0
 40
0.0
 40
0.0
 40
0.0
 40
0.0659761142
 40
0.1321117538
 40
0.1982534327
 40
0.2642950753
 40
0.3301116983
 40
0.3628968473
 40
0.3955718676
 40
0.4605064526
 40
0.4927419371
 40
0.5247936638
 40
0.588261228
 40
0.6507791513
 40
0.712216037
 40
0.7424993432
 40
0.7724708619
 40
0.8314137518
 40
0.8889913921
 40
0.917271756
 40
0.945208518
 40
1.0
 40
1.0
 40
1.0
 40
1.0
 10
5.092363648
 20
3.9334379065
 30
0.0
 10
5.0928552988
 20
3.9344503647
 30
0.0
 10
5.093766505
 20
3.9365142467
 30
0.0
 10
5.094906727
 20
3.9397013237
 30
0.0
 10
5.0958132965
 20
3.9429639767
 30
0.0
 10
5.0964787508
 20
3.9462785422
 30
0.0
 10
5.0968282449
 20
3.9490682631
 30
0.0
 10
5.0969817187
 20
3.9513029836
 30
0.0
 10
5.0970505914
 20
3.9535267921
 30
0.0
 10
5.0969933149
 20
3.9557437373
 30
0.0
 10
5.0968077006
 20
3.9579408308
 30
0.0
 10
5.0965390139
 20
3.960104122
 30
0.0
 10
5.0960469891
 20
3.9627581482
 30
0.0
 10
5.0952065536
 20
3.9658467501
 30
0.0
 10
5.0942996924
 20
3.9683206945
 30
0.0
 10
5.0934554707
 20
3.9702179801
 30
0.0
 10
5.0925442203
 20
3.9720365048
 30
0.0
 10
5.0912694471
 20
3.974190689
 30
0.0
 10
5.0898050484
 20
3.9761857214
 30
0.0
 10
5.0885361338
 20
3.9776560476
 30
0.0
 10
5.087222981
 20
3.9790213969
 30
0.0
 10
5.0861612455
 20
3.9799572713
 30
0.0
 10
5.0854244562
 20
3.980532452
 30
0.0
  0
SPLINE
  5
3A4
100
AcDbEntity
  8
ALL_ASSEMBLY_MEMBERS
100
AcDbSpline
 62
7
  6
CONTINUOUS
 70
0
 71
3
 72
38
 73
34
 74
0
 42
0.0000001
 43
0.0000001
 44
0.0000000001
 40
0.0
 40
0.0
 40
0.0
 40
0.0
 40
0.0339179855
 40
0.0678254354
 40
0.1016639347
 40
0.1353925352
 40
0.1689856749
 40
0.2024183139
 40
0.2356624321
 40
0.2686910573
 40
0.3339885399
 40
0.3662534535
 40
0.3982375428
 40
0.4299338731
 40
0.4613409781
 40
0.4924615734
 40
0.5233032364
 40
0.5538787035
 40
0.5842046957
 40
0.6143032493
 40
0.6441999934
 40
0.6739246888
 40
0.7035104571
 40
0.7329928439
 40
0.7624099187
 40
0.7918005608
 40
0.8212046514
 40
0.8506614129
 40
0.8802092597
 40
0.9098847225
 40
0.9397216269
 40
0.9697511168
 40
1.0
 40
1.0
 40
1.0
 40
1.0
 10
5.0408550758
 20
3.9559746479
 30
0.0
 10
5.0408550758
 20
3.9566322855
 30
0.0
 10
5.0408914593
 20
3.9579476416
 30
0.0
 10
5.041054365
 20
3.9599130196
 30
0.0
 10
5.041325287
 20
3.9618628097
 30
0.0
 10
5.0417031807
 20
3.9637884958
 30
0.0
 10
5.0421862797
 20
3.9656824236
 30
0.0
 10
5.0427728991
 20
3.9675370204
 30
0.0
 10
5.0434604048
 20
3.9693450588
 30
0.0
 10
5.0445038925
 20
3.9716740305
 30
0.0
 10
5.0457407645
 20
3.9738916452
 30
0.0
 10
5.0471595701
 20
3.9759658036
 30
0.0
 10
5.0483029003
 20
3.9774348743
 30
0.0
 10
5.0495250234
 20
3.9788168885
 30
0.0
 10
5.0508209254
 20
3.9801064141
 30
0.0
 10
5.0521853224
 20
3.9812982498
 30
0.0
 10
5.0536128834
 20
3.9823873221
 30
0.0
 10
5.0550975892
 20
3.9833695094
 30
0.0
 10
5.0566336519
 20
3.9842404862
 30
0.0
 10
5.0582147094
 20
3.984996881
 30
0.0
 10
5.05983437
 20
3.9856356077
 30
0.0
 10
5.0614861231
 20
3.9861538117
 30
0.0
 10
5.0631631405
 20
3.9865497427
 30
0.0
 10
5.0648586993
 20
3.9868213626
 30
0.0
 10
5.0665658232
 20
3.9869678473
 30
0.0
 10
5.0682775893
 20
3.9869885205
 30
0.0
 10
5.0699869955
 20
3.9868831201
 30
0.0
 10
5.0716871115
 20
3.9866524442
 30
0.0
 10
5.0733709527
 20
3.9862970125
 30
0.0
 10
5.0750317142
 20
3.9858186431
 30
0.0
 10
5.0766626482
 20
3.9852191389
 30
0.0
 10
5.0782569751
 20
3.9845009334
 30
0.0
 10
5.0792874509
 20
3.9839471606
 30
0.0
 10
5.0797942319
 20
3.9836519454
 30
0.0
  0
SPLINE
  5
3A5
100
AcDbEntity
  8
ALL_ASSEMBLY_MEMBERS
100
AcDbSpline
 62
7
  6
CONTINUOUS
 70
0
 71
3
 72
21
 73
17
 74
0
 42
0.0000001
 43
0.0000001
 44
0.0000000001
 40
0.0
 40
0.0
 40
0.0
 40
0.0
 40
0.0585897665
 40
0.1177256119
 40
0.177437906
 40
0.2377453292
 40
0.2986543644
 40
0.3601610388
 40
0.4222486206
 40
0.4848918439
 40
0.5480549424
 40
0.6116942298
 40
0.740111524
 40
0.8697281252
 40
0.9348479639
 40
1.0
 40
1.0
 40
1.0
 40
1.0
 10
5.0797942319
 20
3.9836519454
 30
0.0
 10
5.0803476376
 20
3.98332957
 30
0.0
 10
5.0814356876
 20
3.9826397945
 30
0.0
 10
5.0829948325
 20
3.9814833305
 30
0.0
 10
5.0844810813
 20
3.9802054739
 30
0.0
 10
5.0858873993
 20
3.9788125821
 30
0.0
 10
5.0872071507
 20
3.9773112379
 30
0.0
 10
5.0884339646
 20
3.9757085325
 30
0.0
 10
5.0895622982
 20
3.9740122591
 30
0.0
 10
5.0905864689
 20
3.9722302879
 30
0.0
 10
5.0915020567
 20
3.9703712044
 30
0.0
 10
5.092574723
 20
3.9677941218
 30
0.0
 10
5.093619976
 20
3.9644268755
 30
0.0
 10
5.0942518253
 20
3.9609420973
 30
0.0
 10
5.0945059796
 20
3.9581112732
 30
0.0
 10
5.0945486509
 20
3.9566868372
 30
0.0
 10
5.0945486509
 20
3.9559746479
 30
0.0
  0
SPLINE
  5
3A6
100
AcDbEntity
  8
ALL_ASSEMBLY_MEMBERS
100
AcDbSpline
 62
7
  6
CONTINUOUS
 70
0
 71
3
 72
11
 73
7
 74
0
 42
0.0000001
 43
0.0000001
 44
0.0000000001
 40
0.0
 40
0.0
 40
0.0
 40
0.0
 40
0.2476094727
 40
0.4963836294
 40
0.7470996135
 40
1.0
 40
1.0
 40
1.0
 40
1.0
 10
4.9170993635
 20
3.9984296373
 30
0.0
 10
4.9184389225
 20
3.9984296141
 30
0.0
 10
4.9211274172
 20
3.9982600322
 30
0.0
 10
4.9251069803
 20
3.997496858
 30
0.0
 10
4.9289878253
 20
3.9962367219
 30
0.0
 10
4.9314654252
 20
3.9950847976
 30
0.0
 10
4.9326694075
 20
3.9944349127
 30
0.0
  0
SPLINE
  5
3A7
100
AcDbEntity
  8
ALL_ASSEMBLY_MEMBERS
100
AcDbSpline
 62
7
  6
CONTINUOUS
 70
0
 71
3
 72
17
 73
13
 74
0
 42
0.0000001
 43
0.0000001
 44
0.0000000001
 40
0.0
 40
0.0
 40
0.0
 40
0.0
 40
0.1299319256
 40
0.2595365043
 40
0.3879024346
 40
0.5145722941
 40
0.5772050329
 40
0.6392949046
 40
0.700818236
 40
0.7617693423
 40
0.8819039079
 40
1.0
 40
1.0
 40
1.0
 40
1.0
 10
5.1026302996
 20
3.9559746479
 30
0.0
 10
5.1025273961
 20
3.9540314753
 30
0.0
 10
5.1020782385
 20
3.9501586719
 30
0.0
 10
5.1006908938
 20
3.9445019614
 30
0.0
 10
5.0986039514
 20
3.9391154543
 30
0.0
 10
5.0963062041
 20
3.9349314895
 30
0.0
 10
5.0941597948
 20
3.9318351955
 30
0.0
 10
5.0924124895
 20
3.929657956
 30
0.0
 10
5.0905296665
 20
3.927630796
 30
0.0
 10
5.0878649435
 20
3.925156777
 30
0.0
 10
5.0842463456
 20
3.922483621
 30
0.0
 10
5.0810617282
 20
3.9208354246
 30
0.0
 10
5.079429517
 20
3.9201542714
 30
0.0
  0
SPLINE
  5
3A8
100
AcDbEntity
  8
ALL_ASSEMBLY_MEMBERS
100
AcDbSpline
 62
7
  6
CONTINUOUS
 70
0
 71
3
 72
12
 73
8
 74
0
 42
0.0000001
 43
0.0000001
 44
0.0000000001
 40
0.0
 40
0.0
 40
0.0
 40
0.0
 40
0.2513831468
 40
0.5005710103
 40
0.6250291425
 40
0.749639612
 40
1.0
 40
1.0
 40
1.0
 40
1.0
 10
5.079429517
 20
3.9201542714
 30
0.0
 10
5.0777215946
 20
3.9194415224
 30
0.0
 10
5.0741897989
 20
3.9183137098
 30
0.0
 10
5.0695999752
 20
3.9177216128
 30
0.0
 10
5.0659271658
 20
3.9177533751
 30
0.0
 10
5.0622652543
 20
3.9181229656
 30
0.0
 10
5.0595629788
 20
3.918778272
 30
0.0
 10
5.0578181939
 20
3.9193723451
 30
0.0
  0
SPLINE
  5
3A9
100
AcDbEntity
  8
ALL_ASSEMBLY_MEMBERS
100
AcDbSpline
 62
7
  6
CONTINUOUS
 70
0
 71
3
 72
9
 73
5
 74
0
 42
0.0000001
 43
0.0000001
 44
0.0000000001
 40
0.0
 40
0.0
 40
0.0
 40
0.0
 40
0.4965542548
 40
1.0
 40
1.0
 40
1.0
 40
1.0
 10
5.0578181939
 20
3.9193723451
 30
0.0
 10
5.0564121351
 20
3.919851087
 30
0.0
 10
5.0536473078
 20
3.9210224371
 30
0.0
 10
5.0510744181
 20
3.9225691986
 30
0.0
 10
5.049839748
 20
3.9234314327
 30
0.0
  0
SPLINE
  5
3AA
100
AcDbEntity
  8
ALL_ASSEMBLY_MEMBERS
100
AcDbSpline
 62
7
  6
CONTINUOUS
 70
0
 71
3
 72
14
 73
10
 74
0
 42
0.0000001
 43
0.0000001
 44
0.0000000001
 40
0.0
 40
0.0
 40
0.0
 40
0.0
 40
0.1204868077
 40
0.2424735023
 40
0.3659411918
 40
0.4907741768
 40
0.7436288793
 40
0.8715246638
 40
1.0
 40
1.0
 40
1.0
 40
1.0
 10
5.0475038473
 20
3.9252206451
 30
0.0
 10
5.0466313598
 20
3.9259512508
 30
0.0
 10
5.0449476822
 20
3.9275100854
 30
0.0
 10
5.0426475548
 20
3.9300965825
 30
0.0
 10
5.0405798576
 20
3.9329240394
 30
0.0
 10
5.0381475853
 20
3.9369906891
 30
0.0
 10
5.036269962
 20
3.9414149993
 30
0.0
 10
5.0349902702
 20
3.9460556107
 30
0.0
 10
5.0345546279
 20
3.9484415702
 30
0.0
 10
5.0343889816
 20
3.949643651
 30
0.0
  0
SPLINE
  5
3AB
100
AcDbEntity
  8
ALL_ASSEMBLY_MEMBERS
100
AcDbSpline
 62
7
  6
CONTINUOUS
 70
0
 71
3
 72
9
 73
5
 74
0
 42
0.0000001
 43
0.0000001
 44
0.0000000001
 40
0.0
 40
0.0
 40
0.0
 40
0.0
 40
0.2527267792
 40
1.0
 40
1.0
 40
1.0
 40
1.0
 10
5.0350046359
 20
3.973972737
 30
0.0
 10
5.0353445795
 20
3.9748113467
 30
0.0
 10
5.0367886941
 20
3.9780883293
 30
0.0
 10
5.0386266054
 20
3.9811938629
 30
0.0
 10
5.0402048743
 20
3.9833544208
 30
0.0
  0
SPLINE
  5
3AC
100
AcDbEntity
  8
ALL_ASSEMBLY_MEMBERS
100
AcDbSpline
 62
7
  6
CONTINUOUS
 70
0
 71
3
 72
9
 73
5
 74
0
 42
0.0000001
 43
0.0000001
 44
0.0000000001
 40
0.0
 40
0.0
 40
0.0
 40
0.0
 40
0.2525425585
 40
1.0
 40
1.0
 40
1.0
 40
1.0
 10
5.0402048743
 20
3.9833544208
 30
0.0
 10
5.0405474711
 20
3.9838234158
 30
0.0
 10
5.0419430071
 20
3.9856516819
 30
0.0
 10
5.0434940307
 20
3.9873617544
 30
0.0
 10
5.0447311596
 20
3.9885552831
 30
0.0
  0
SPLINE
  5
3AD
100
AcDbEntity
  8
ALL_ASSEMBLY_MEMBERS
100
AcDbSpline
 62
7
  6
CONTINUOUS
 70
0
 71
3
 72
9
 73
5
 74
0
 42
0.0000001
 43
0.0000001
 44
0.0000000001
 40
0.0
 40
0.0
 40
0.0
 40
0.0
 40
0.505670996
 40
1.0
 40
1.0
 40
1.0
 40
1.0
 10
5.0447311596
 20
3.9885552831
 30
0.0
 10
5.0463379724
 20
3.990105467
 30
0.0
 10
5.0497903193
 20
3.9929004115
 30
0.0
 10
5.0537003021
 20
3.9950152366
 30
0.0
 10
5.0557119605
 20
3.9958620167
 30
0.0
  0
SPLINE
  5
3AE
100
AcDbEntity
  8
ALL_ASSEMBLY_MEMBERS
100
AcDbSpline
 62
7
  6
CONTINUOUS
 70
0
 71
3
 72
11
 73
7
 74
0
 42
0.0000001
 43
0.0000001
 44
0.0000000001
 40
0.0
 40
0.0
 40
0.0
 40
0.0
 40
0.252142091
 40
0.5024898673
 40
0.7515735969
 40
1.0
 40
1.0
 40
1.0
 40
1.0
 10
5.0557119605
 20
3.9958620167
 30
0.0
 10
5.0567137099
 20
3.9962836894
 30
0.0
 10
5.0587524288
 20
3.9970273571
 30
0.0
 10
5.0618954227
 20
3.9978339353
 30
0.0
 10
5.0650873541
 20
3.9983214321
 30
0.0
 10
5.0672334992
 20
3.9984296557
 30
0.0
 10
5.0683043632
 20
3.9984296373
 30
0.0
  0
SPLINE
  5
3AF
100
AcDbEntity
  8
ALL_ASSEMBLY_MEMBERS
100
AcDbSpline
 62
7
  6
CONTINUOUS
 70
0
 71
3
 72
15
 73
11
 74
0
 42
0.0000001
 43
0.0000001
 44
0.0000000001
 40
0.0
 40
0.0
 40
0.0
 40
0.0
 40
0.116624004
 40
0.2359330186
 40
0.3578676915
 40
0.4824482292
 40
0.6094217249
 40
0.7383757468
 40
0.8688490563
 40
1.0
 40
1.0
 40
1.0
 40
1.0
 10
5.0838744072
 20
3.9944349127
 30
0.0
 10
5.0853644906
 20
3.9935295589
 30
0.0
 10
5.0882411804
 20
3.9914614336
 30
0.0
 10
5.0920943057
 20
3.9877241612
 30
0.0
 10
5.0954522858
 20
3.9833843904
 30
0.0
 10
5.0982438005
 20
3.9785292405
 30
0.0
 10
5.1004127701
 20
3.9732529088
 30
0.0
 10
5.1019088259
 20
3.967656718
 30
0.0
 10
5.102695009
 20
3.9618558949
 30
0.0
 10
5.1027339884
 20
3.95793265
 30
0.0
 10
5.1026302996
 20
3.9559746479
 30
0.0
  0
SPLINE
  5
3B0
100
AcDbEntity
  8
ALL_ASSEMBLY_MEMBERS
100
AcDbSpline
 62
7
  6
CONTINUOUS
 70
0
 71
3
 72
14
 73
10
 74
0
 42
0.0000001
 43
0.0000001
 44
0.0000000001
 40
0.0
 40
0.0
 40
0.0
 40
0.0
 40
0.1302953463
 40
0.2599851688
 40
0.5146621653
 40
0.6393580442
 40
0.7618879628
 40
0.8821044369
 40
1.0
 40
1.0
 40
1.0
 40
1.0
 10
4.9532123617
 20
3.9559746479
 30
0.0
 10
4.9531901005
 20
3.9544058134
 30
0.0
 10
4.9529867953
 20
3.9512748945
 30
0.0
 10
4.9519639403
 20
3.9451553589
 30
0.0
 10
4.9500161911
 20
3.9392839349
 30
0.0
 10
4.9471906983
 20
3.9339300185
 30
0.0
 10
4.944690685
 20
3.9302666119
 30
0.0
 10
4.9418306701
 20
3.9269854492
 30
0.0
 10
4.9396879432
 20
3.9250666007
 30
0.0
 10
4.9385714404
 20
3.9241897298
 30
0.0
  0
SPLINE
  5
3B1
100
AcDbEntity
  8
ALL_ASSEMBLY_MEMBERS
100
AcDbSpline
 62
7
  6
CONTINUOUS
 70
0
 71
3
 72
17
 73
13
 74
0
 42
0.0000001
 43
0.0000001
 44
0.0000000001
 40
0.0
 40
0.0
 40
0.0
 40
0.0
 40
0.1262668573
 40
0.2504075879
 40
0.373204009
 40
0.4344424226
 40
0.4957029506
 40
0.6186764872
 40
0.6807450728
 40
0.7433147186
 40
0.8701918803
 40
1.0
 40
1.0
 40
1.0
 40
1.0
 10
4.9360738543
 20
3.922412791
 30
0.0
 10
4.9346912652
 20
3.9215262201
 30
0.0
 10
4.9318048486
 20
3.919980956
 30
0.0
 10
4.9271863401
 20
3.9184171574
 30
0.0
 10
4.9232036015
 20
3.9177972682
 30
0.0
 10
4.92001024
 20
3.9177212865
 30
0.0
 10
4.9168204525
 20
3.9179258524
 30
0.0
 10
4.9136589358
 20
3.9185528838
 30
0.0
 10
4.9106044043
 20
3.9195842412
 30
0.0
 10
4.90760267
 20
3.920894617
 30
0.0
 10
4.9040204373
 20
3.9230347767
 30
0.0
 10
4.9014604159
 20
3.9252037548
 30
0.0
 10
4.9002601501
 20
3.9263913385
 30
0.0
  0
SPLINE
  5
3B2
100
AcDbEntity
  8
ALL_ASSEMBLY_MEMBERS
100
AcDbSpline
 62
7
  6
CONTINUOUS
 70
0
 71
3
 72
12
 73
8
 74
0
 42
0.0000001
 43
0.0000001
 44
0.0000000001
 40
0.0
 40
0.0
 40
0.0
 40
0.0
 40
0.241025211
 40
0.3640970925
 40
0.4887170992
 40
0.7419818472
 40
1.0
 40
1.0
 40
1.0
 40
1.0
 10
4.9002601501
 20
3.9263913385
 30
0.0
 10
4.8989074369
 20
3.9277297589
 30
0.0
 10
4.8970363029
 20
3.9299356452
 30
0.0
 10
4.8949201995
 20
3.9331654835
 30
0.0
 10
4.8930228686
 20
3.9366404911
 30
0.0
 10
4.8911525809
 20
3.9413225744
 30
0.0
 10
4.8902418301
 20
3.9452736104
 30
0.0
 10
4.8899347588
 20
3.9472874421
 30
0.0
  0
SPLINE
  5
3B3
100
AcDbEntity
  8
ALL_ASSEMBLY_MEMBERS
100
AcDbSpline
 62
7
  6
CONTINUOUS
 70
0
 71
3
 72
15
 73
11
 74
0
 42
0.0000001
 43
0.0000001
 44
0.0000000001
 40
0.0
 40
0.0
 40
0.0
 40
0.0
 40
0.1196724199
 40
0.2411862639
 40
0.3645453833
 40
0.4896226434
 40
0.616103092
 40
0.7436464881
 40
0.871856845
 40
1.0
 40
1.0
 40
1.0
 40
1.0
 10
4.9367931779
 20
3.9916601228
 30
0.0
 10
4.9380764529
 20
3.9906672871
 30
0.0
 10
4.9405377158
 20
3.9884990091
 30
0.0
 10
4.9438221424
 20
3.9847901975
 30
0.0
 10
4.946681774
 20
3.9806551212
 30
0.0
 10
4.9490724786
 20
3.9761566377
 30
0.0
 10
4.9509570339
 20
3.9713630992
 30
0.0
 10
4.9523051779
 20
3.966347952
 30
0.0
 10
4.9530920678
 20
3.9611927762
 30
0.0
 10
4.9532370116
 20
3.9577118216
 30
0.0
 10
4.9532123617
 20
3.9559746479
 30
0.0
  0
SPLINE
  5
3B4
100
AcDbEntity
  8
ALL_ASSEMBLY_MEMBERS
100
AcDbSpline
 62
7
  6
CONTINUOUS
 70
0
 71
3
 72
11
 73
7
 74
0
 42
0.0000001
 43
0.0000001
 44
0.0000000001
 40
0.0
 40
0.0
 40
0.0
 40
0.0
 40
0.2470113402
 40
0.4954098748
 40
0.7461410012
 40
1.0
 40
1.0
 40
1.0
 40
1.0
 10
5.068301044
 20
3.9983958485
 30
0.0
 10
5.0695185098
 20
3.9983381706
 30
0.0
 10
5.0719558023
 20
3.998072556
 30
0.0
 10
5.0755481787
 20
3.9972273712
 30
0.0
 10
5.0790444692
 20
3.9959452528
 30
0.0
 10
5.0812713952
 20
3.9948170694
 30
0.0
 10
5.082354586
 20
3.9941879795
 30
0.0
  0
SPLINE
  5
3B5
100
AcDbEntity
  8
ALL_ASSEMBLY_MEMBERS
100
AcDbSpline
 62
7
  6
CONTINUOUS
 70
0
 71
3
 72
9
 73
5
 74
0
 42
0.0000001
 43
0.0000001
 44
0.0000000001
 40
0.0
 40
0.0
 40
0.0
 40
0.0
 40
0.2475543929
 40
1.0
 40
1.0
 40
1.0
 40
1.0
 10
5.082354586
 20
3.9941879795
 30
0.0
 10
5.082823141
 20
3.9939158546
 30
0.0
 10
5.0846884826
 20
3.9927699246
 30
0.0
 10
5.0864410012
 20
3.9914416965
 30
0.0
 10
5.0876819978
 20
3.990358941
 30
0.0
  0
SPLINE
  5
3B6
100
AcDbEntity
  8
ALL_ASSEMBLY_MEMBERS
100
AcDbSpline
 62
7
  6
CONTINUOUS
 70
0
 71
3
 72
14
 73
10
 74
0
 42
0.0000001
 43
0.0000001
 44
0.0000000001
 40
0.0
 40
0.0
 40
0.0
 40
0.0
 40
0.1180428354
 40
0.2383315785
 40
0.3608400028
 40
0.4854645923
 40
0.6120134126
 40
0.7402183662
 40
1.0
 40
1.0
 40
1.0
 40
1.0
 10
5.0876819978
 20
3.990358941
 30
0.0
 10
5.0887374833
 20
3.9894380418
 30
0.0
 10
5.0907611145
 20
3.9874517935
 30
0.0
 10
5.0934648959
 20
3.9841209488
 30
0.0
 10
5.0958365973
 20
3.9804524054
 30
0.0
 10
5.0978421124
 20
3.9764888545
 30
0.0
 10
5.0994591985
 20
3.972278703
 30
0.0
 10
5.1010739996
 20
3.9663832451
 30
0.0
 10
5.1016329364
 20
3.9617752814
 30
0.0
 10
5.1017137665
 20
3.9586936506
 30
0.0
  0
SPLINE
  5
3B7
100
AcDbEntity
  8
ALL_ASSEMBLY_MEMBERS
100
AcDbSpline
 62
7
  6
CONTINUOUS
 70
0
 71
3
 72
11
 73
7
 74
0
 42
0.0000001
 43
0.0000001
 44
0.0000000001
 40
0.0
 40
0.0
 40
0.0
 40
0.0
 40
0.2513732975
 40
0.502399855
 40
0.7522104686
 40
1.0
 40
1.0
 40
1.0
 40
1.0
 10
5.1016689628
 20
3.9549599742
 30
0.0
 10
5.101581833
 20
3.9532208626
 30
0.0
 10
5.1012234731
 20
3.9497514232
 30
0.0
 10
5.1001368592
 20
3.9446454606
 30
0.0
 10
5.0985162605
 20
3.9397091213
 30
0.0
 10
5.0970866109
 20
3.9365634582
 30
0.0
 10
5.0962892163
 20
3.9350434506
 30
0.0
  0
SPLINE
  5
3B8
100
AcDbEntity
  8
ALL_ASSEMBLY_MEMBERS
100
AcDbSpline
 62
7
  6
CONTINUOUS
 70
0
 71
3
 72
11
 73
7
 74
0
 42
0.0000001
 43
0.0000001
 44
0.0000000001
 40
0.0
 40
0.0
 40
0.0
 40
0.0
 40
0.2476094727
 40
0.4963836294
 40
0.7470996135
 40
1.0
 40
1.0
 40
1.0
 40
1.0
 10
5.0683043632
 20
3.9984296373
 30
0.0
 10
5.0696439222
 20
3.9984296141
 30
0.0
 10
5.0723324169
 20
3.9982600322
 30
0.0
 10
5.07631198
 20
3.997496858
 30
0.0
 10
5.080192825
 20
3.9962367219
 30
0.0
 10
5.0826704249
 20
3.9950847976
 30
0.0
 10
5.0838744072
 20
3.9944349127
 30
0.0
  0
SPLINE
  5
3B9
100
AcDbEntity
  8
ALL_ASSEMBLY_MEMBERS
100
AcDbSpline
 62
7
  6
CONTINUOUS
 70
0
 71
3
 72
15
 73
11
 74
0
 42
0.0000001
 43
0.0000001
 44
0.0000000001
 40
0.0
 40
0.0
 40
0.0
 40
0.0
 40
0.1327511392
 40
0.2647650836
 40
0.3948457489
 40
0.522254253
 40
0.6465662945
 40
0.7675031861
 40
0.8851718014
 40
1.0
 40
1.0
 40
1.0
 40
1.0
 10
5.1041821225
 20
3.9559746479
 30
0.0
 10
5.1041821225
 20
3.95804473
 30
0.0
 10
5.1040072273
 20
3.9621755447
 30
0.0
 10
5.1032216728
 20
3.9682898263
 30
0.0
 10
5.1019090199
 20
3.9742291486
 30
0.0
 10
5.100063832
 20
3.9799004214
 30
0.0
 10
5.0976826763
 20
3.985214664
 30
0.0
 10
5.0947577892
 20
3.9900779897
 30
0.0
 10
5.0912862077
 20
3.9943820673
 30
0.0
 10
5.0885831919
 20
3.9968284217
 30
0.0
 10
5.0871535574
 20
3.9979065605
 30
0.0
  0
SPLINE
  5
3BA
100
AcDbEntity
  8
ALL_ASSEMBLY_MEMBERS
100
AcDbSpline
 62
7
  6
CONTINUOUS
 70
0
 71
3
 72
19
 73
15
 74
0
 42
0.0000001
 43
0.0000001
 44
0.0000000001
 40
0.0
 40
0.0
 40
0.0
 40
0.0
 40
0.1200921135
 40
0.1798510186
 40
0.2396128265
 40
0.3597332752
 40
0.4204986849
 40
0.481881977
 40
0.6067509991
 40
0.6704205575
 40
0.7348883137
 40
0.8001458053
 40
0.8661453241
 40
1.0
 40
1.0
 40
1.0
 40
1.0
 10
5.0871535574
 20
3.9979065605
 30
0.0
 10
5.0858672457
 20
3.9988766145
 30
0.0
 10
5.0838175932
 20
4.0001777218
 30
0.0
 10
5.0808988949
 20
4.0015326352
 30
0.0
 10
5.0778692941
 20
4.0026194093
 30
0.0
 10
5.0746876401
 20
4.0032822638
 30
0.0
 10
5.0714415291
 20
4.0035051887
 30
0.0
 10
5.0681245931
 20
4.0034288327
 30
0.0
 10
5.0647936462
 20
4.0029024376
 30
0.0
 10
5.0615289529
 20
4.0019643862
 30
0.0
 10
5.0590980404
 20
4.0010496683
 30
0.0
 10
5.0567154008
 20
3.999940393
 30
0.0
 10
5.0536059946
 20
3.9982092918
 30
0.0
 10
5.0514044026
 20
3.99666048
 30
0.0
 10
5.0500044389
 20
3.9955358889
 30
0.0
  0
SPLINE
  5
3BB
100
AcDbEntity
  8
ALL_ASSEMBLY_MEMBERS
100
AcDbSpline
 62
7
  6
CONTINUOUS
 70
0
 71
3
 72
9
 73
5
 74
0
 42
0.0000001
 43
0.0000001
 44
0.0000000001
 40
0.0
 40
0.0
 40
0.0
 40
0.0
 40
0.2483805389
 40
1.0
 40
1.0
 40
1.0
 40
1.0
 10
5.0500044389
 20
3.9955358889
 30
0.0
 10
5.0495548405
 20
3.9951747264
 30
0.0
 10
5.0477745728
 20
3.9936837756
 30
0.0
 10
5.0461140114
 20
3.9920507338
 30
0.0
 10
5.0449403181
 20
3.9907592594
 30
0.0
  0
SPLINE
  5
3BC
100
AcDbEntity
  8
ALL_ASSEMBLY_MEMBERS
100
AcDbSpline
 62
7
  6
CONTINUOUS
 70
0
 71
3
 72
14
 73
10
 74
0
 42
0.0000001
 43
0.0000001
 44
0.0000000001
 40
0.0
 40
0.0
 40
0.0
 40
0.0
 40
0.1267668408
 40
0.2536408457
 40
0.3802095905
 40
0.5062801532
 40
0.6317196317
 40
0.7561907799
 40
1.0
 40
1.0
 40
1.0
 40
1.0
 10
5.0317755553
 20
3.9559746479
 30
0.0
 10
5.0317755553
 20
3.9539476816
 30
0.0
 10
5.0320102858
 20
3.949888366
 30
0.0
 10
5.0330494164
 20
3.9438856372
 30
0.0
 10
5.0347681682
 20
3.9380514817
 30
0.0
 10
5.0371370818
 20
3.9324754489
 30
0.0
 10
5.0401246096
 20
3.9272403409
 30
0.0
 10
5.044830542
 20
3.9208889372
 30
0.0
 10
5.0492148455
 20
3.9168217463
 30
0.0
 10
5.0524249446
 20
3.9146097096
 30
0.0
  0
SPLINE
  5
3BD
100
AcDbEntity
  8
ALL_ASSEMBLY_MEMBERS
100
AcDbSpline
 62
7
  6
CONTINUOUS
 70
0
 71
3
 72
28
 73
24
 74
0
 42
0.0000001
 43
0.0000001
 44
0.0000000001
 40
0.0
 40
0.0
 40
0.0
 40
0.0
 40
0.0642036527
 40
0.0957916378
 40
0.1269901517
 40
0.1881625189
 40
0.2182060987
 40
0.247902995
 40
0.2773113157
 40
0.3065025851
 40
0.3355450371
 40
0.3645133051
 40
0.4225525514
 40
0.4518275038
 40
0.481336746
 40
0.541267656
 40
0.6026819625
 40
0.6657019601
 40
0.7302941414
 40
0.7963094457
 40
0.8635383872
 40
0.9316167372
 40
1.0
 40
1.0
 40
1.0
 40
1.0
 10
5.0524249446
 20
3.9146097096
 30
0.0
 10
5.0539055662
 20
3.9135894329
 30
0.0
 10
5.0562225175
 20
3.9122136362
 30
0.0
 10
5.0594654559
 20
3.9107466772
 30
0.0
 10
5.0627320507
 20
3.9095632106
 30
0.0
 10
5.0660923264
 20
3.9087914503
 30
0.0
 10
5.0694670263
 20
3.9084706177
 30
0.0
 10
5.0719674476
 20
3.9084602926
 30
0.0
 10
5.0744340816
 20
3.9086799389
 30
0.0
 10
5.0768517468
 20
3.9091234443
 30
0.0
 10
5.0792061583
 20
3.9097863337
 30
0.0
 10
5.0822423727
 20
3.9109563988
 30
0.0
 10
5.0851115606
 20
3.9125384534
 30
0.0
 10
5.0877573337
 20
3.9144677143
 30
0.0
 10
5.0902796332
 20
3.9166389093
 30
0.0
 10
5.0931558684
 20
3.9197554329
 30
0.0
 10
5.0961218078
 20
3.9239983597
 30
0.0
 10
5.0986204207
 20
3.9286783565
 30
0.0
 10
5.1006569569
 20
3.9337140123
 30
0.0
 10
5.102235587
 20
3.9390331256
 30
0.0
 10
5.1033593228
 20
3.9445653102
 30
0.0
 10
5.1040322864
 20
3.9502359875
 30
0.0
 10
5.1041821225
 20
3.9540594806
 30
0.0
 10
5.1041821225
 20
3.9559746479
 30
0.0
  0
SPLINE
  5
3BE
100
AcDbEntity
  8
ALL_ASSEMBLY_MEMBERS
100
AcDbSpline
 62
7
  6
CONTINUOUS
 70
0
 71
3
 72
12
 73
8
 74
0
 42
0.0000001
 43
0.0000001
 44
0.0000000001
 40
0.0
 40
0.0
 40
0.0
 40
0.0
 40
0.2512449554
 40
0.3769980449
 40
0.5025029591
 40
0.7522464475
 40
1.0
 40
1.0
 40
1.0
 40
1.0
 10
4.9536281714
 20
3.9559746479
 30
0.0
 10
4.9536281714
 20
3.9588328871
 30
0.0
 10
4.9532779684
 20
3.9631319723
 30
0.0
 10
4.9521323783
 20
3.9687371159
 30
0.0
 10
4.9505397486
 20
3.9742157179
 30
0.0
 10
4.9477385689
 20
3.9807611781
 30
0.0
 10
4.9446695263
 20
3.9855536323
 30
0.0
 10
4.9429499647
 20
3.987786828
 30
0.0
  0
SPLINE
  5
3BF
100
AcDbEntity
  8
ALL_ASSEMBLY_MEMBERS
100
AcDbSpline
 62
7
  6
CONTINUOUS
 70
0
 71
3
 72
9
 73
5
 74
0
 42
0.0000001
 43
0.0000001
 44
0.0000000001
 40
0.0
 40
0.0
 40
0.0
 40
0.0
 40
0.2516900323
 40
1.0
 40
1.0
 40
1.0
 40
1.0
 10
4.9404635377
 20
3.9907591173
 30
0.0
 10
4.9400705061
 20
3.9911915935
 30
0.0
 10
4.938476781
 20
3.9928802884
 30
0.0
 10
4.9367538326
 20
3.9944477831
 30
0.0
 10
4.9353992809
 20
3.9955358942
 30
0.0
  0
SPLINE
  5
3C0
100
AcDbEntity
  8
ALL_ASSEMBLY_MEMBERS
100
AcDbSpline
 62
7
  6
CONTINUOUS
 70
0
 71
3
 72
27
 73
23
 74
0
 42
0.0000001
 43
0.0000001
 44
0.0000000001
 40
0.0
 40
0.0
 40
0.0
 40
0.0
 40
0.0639900447
 40
0.1264957891
 40
0.1571927351
 40
0.1875084294
 40
0.2174590956
 40
0.2470801937
 40
0.2764357452
 40
0.3055949419
 40
0.3346240093
 40
0.3636022289
 40
0.4217204504
 40
0.4805805538
 40
0.540661285
 40
0.602221671
 40
0.6653743016
 40
0.7300744377
 40
0.7961741565
 40
0.8634649665
 40
0.9315850174
 40
1.0
 40
1.0
 40
1.0
 40
1.0
 10
4.9321398165
 20
3.9979020989
 30
0.0
 10
4.9306567164
 20
3.9988691839
 30
0.0
 10
4.9275912604
 20
4.0005854237
 30
0.0
 10
4.9235068648
 20
4.0021343481
 30
0.0
 10
4.9201830345
 20
4.0029446066
 30
0.0
 10
4.917693379
 20
4.0033343875
 30
0.0
 10
4.9152088382
 20
4.0035047321
 30
0.0
 10
4.9127454605
 20
4.0034497456
 30
0.0
 10
4.9103192623
 20
4.0031718523
 30
0.0
 10
4.9079447463
 20
4.0026765334
 30
0.0
 10
4.9056356698
 20
4.0019678343
 30
0.0
 10
4.9026600668
 20
4.0007456185
 30
0.0
 10
4.8991421802
 20
3.9987178998
 30
0.0
 10
4.8953448916
 20
3.9955913589
 30
0.0
 10
4.891992558
 20
3.9918670453
 30
0.0
 10
4.8890954353
 20
3.987637994
 30
0.0
 10
4.8866550656
 20
3.9829879263
 30
0.0
 10
4.8846656076
 20
3.9779944409
 30
0.0
 10
4.8831234413
 20
3.9727271358
 30
0.0
 10
4.8820255506
 20
3.9672539562
 30
0.0
 10
4.8813680074
 20
3.9616470724
 30
0.0
 10
4.8812216042
 20
3.9578676296
 30
0.0
 10
4.8812216042
 20
3.9559746479
 30
0.0
  0
SPLINE
  5
3C1
100
AcDbEntity
  8
ALL_ASSEMBLY_MEMBERS
100
AcDbSpline
 62
7
  6
CONTINUOUS
 70
0
 71
3
 72
15
 73
11
 74
0
 42
0.0000001
 43
0.0000001
 44
0.0000000001
 40
0.0
 40
0.0
 40
0.0
 40
0.0
 40
0.1310393783
 40
0.2606637062
 40
0.3883074007
 40
0.5139102259
 40
0.637607593
 40
0.7596099076
 40
0.8802486422
 40
1.0
 40
1.0
 40
1.0
 40
1.0
 10
4.8837996362
 20
3.973972737
 30
0.0
 10
4.8845349482
 20
3.9756526719
 30
0.0
 10
4.8861981265
 20
3.9789107885
 30
0.0
 10
4.8892408523
 20
3.9834290881
 30
0.0
 10
4.8927791937
 20
3.9874722893
 30
0.0
 10
4.8967488612
 20
3.9909695587
 30
0.0
 10
4.9010878736
 20
3.9938575663
 30
0.0
 10
4.9057219735
 20
3.9960902643
 30
0.0
 10
4.9105746809
 20
3.9976205753
 30
0.0
 10
4.9139097832
 20
3.9981593709
 30
0.0
 10
4.9155794216
 20
3.9983034453
 30
0.0
  0
SPLINE
  5
3C2
100
AcDbEntity
  8
ALL_ASSEMBLY_MEMBERS
100
AcDbSpline
 62
7
  6
CONTINUOUS
 70
0
 71
3
 72
10
 73
6
 74
0
 42
0.0000001
 43
0.0000001
 44
0.0000000001
 40
0.0
 40
0.0
 40
0.0
 40
0.0
 40
0.2483399567
 40
0.4973454155
 40
1.0
 40
1.0
 40
1.0
 40
1.0
 10
5.0620334094
 20
3.9921763775
 30
0.0
 10
5.0612470348
 20
3.9922337377
 30
0.0
 10
5.0596645417
 20
3.9922648035
 30
0.0
 10
5.0564973855
 20
3.9919934631
 30
0.0
 10
5.0541586521
 20
3.9914213012
 30
0.0
 10
5.0526523939
 20
3.9908939756
 30
0.0
  0
SPLINE
  5
3C3
100
AcDbEntity
  8
ALL_ASSEMBLY_MEMBERS
100
AcDbSpline
 62
7
  6
CONTINUOUS
 70
0
 71
3
 72
9
 73
5
 74
0
 42
0.0000001
 43
0.0000001
 44
0.0000000001
 40
0.0
 40
0.0
 40
0.0
 40
0.0
 40
0.2472718588
 40
1.0
 40
1.0
 40
1.0
 40
1.0
 10
5.0503269231
 20
3.98994747
 30
0.0
 10
5.0499377165
 20
3.9897664094
 30
0.0
 10
5.0483818742
 20
3.9889955692
 30
0.0
 10
5.0469014519
 20
3.9880739691
 30
0.0
 10
5.0458411834
 20
3.9873101864
 30
0.0
  0
SPLINE
  5
3C4
100
AcDbEntity
  8
ALL_ASSEMBLY_MEMBERS
100
AcDbSpline
 62
7
  6
CONTINUOUS
 70
0
 71
3
 72
9
 73
5
 74
0
 42
0.0000001
 43
0.0000001
 44
0.0000000001
 40
0.0
 40
0.0
 40
0.0
 40
0.0
 40
0.4936510142
 40
1.0
 40
1.0
 40
1.0
 40
1.0
 10
5.0454297792
 20
3.9870083225
 30
0.0
 10
5.0444074952
 20
3.9862444406
 30
0.0
 10
5.0424356989
 20
3.9845608046
 30
0.0
 10
5.040682004
 20
3.9826525175
 30
0.0
 10
5.0398521626
 20
3.9816401918
 30
0.0
  0
SPLINE
  5
3C5
100
AcDbEntity
  8
ALL_ASSEMBLY_MEMBERS
100
AcDbSpline
 62
7
  6
CONTINUOUS
 70
0
 71
3
 72
9
 73
5
 74
0
 42
0.0000001
 43
0.0000001
 44
0.0000000001
 40
0.0
 40
0.0
 40
0.0
 40
0.0
 40
0.2455297459
 40
1.0
 40
1.0
 40
1.0
 40
1.0
 10
5.0398521626
 20
3.9816401918
 30
0.0
 10
5.0393808584
 20
3.9810652467
 30
0.0
 10
5.0375369056
 20
3.9786622184
 30
0.0
 10
5.035993209
 20
3.9760321935
 30
0.0
 10
5.0350046359
 20
3.973972737
 30
0.0
  0
SPLINE
  5
3C6
100
AcDbEntity
  8
ALL_ASSEMBLY_MEMBERS
100
AcDbSpline
 62
7
  6
CONTINUOUS
 70
0
 71
3
 72
18
 73
14
 74
0
 42
0.0000001
 43
0.0000001
 44
0.0000000001
 40
0.0
 40
0.0
 40
0.0
 40
0.0
 40
0.1328475183
 40
0.1985786471
 40
0.2636883119
 40
0.3918005248
 40
0.5172888426
 40
0.5791631542
 40
0.640479011
 40
0.7012835914
 40
0.7616392
 40
0.8812208731
 40
1.0
 40
1.0
 40
1.0
 40
1.0
 10
4.8837996362
 20
3.973972737
 30
0.0
 10
4.8845287753
 20
3.9757714565
 30
0.0
 10
4.8857935173
 20
3.9783945002
 30
0.0
 10
4.8878024852
 20
3.9816841363
 30
0.0
 10
4.8899889477
 20
3.9847748153
 30
0.0
 10
4.8930656865
 20
3.9882911313
 30
0.0
 10
4.8965781946
 20
3.9913027479
 30
0.0
 10
4.8995872501
 20
3.9933440691
 30
0.0
 10
4.9019218463
 20
3.9946820246
 30
0.0
 10
4.9043328849
 20
3.9958262595
 30
0.0
 10
4.9076225435
 20
3.9970795502
 30
0.0
 10
4.9118753363
 20
3.9981430012
 30
0.0
 10
4.9153640156
 20
3.9984296672
 30
0.0
 10
4.9170993635
 20
3.9984296373
 30
0.0
  0
SPLINE
  5
3C7
100
AcDbEntity
  8
ALL_ASSEMBLY_MEMBERS
100
AcDbSpline
 62
7
  6
CONTINUOUS
 70
0
 71
3
 72
15
 73
11
 74
0
 42
0.0000001
 43
0.0000001
 44
0.0000000001
 40
0.0
 40
0.0
 40
0.0
 40
0.0
 40
0.1220059156
 40
0.244584098
 40
0.3679570914
 40
0.4922559078
 40
0.6176181588
 40
0.7441299578
 40
0.8716968581
 40
1.0
 40
1.0
 40
1.0
 40
1.0
 10
4.9096161001
 20
3.9917992194
 30
0.0
 10
4.9083201991
 20
3.9915863671
 30
0.0
 10
4.9057450169
 20
3.9910057249
 30
0.0
 10
4.9020003949
 20
3.9896907985
 30
0.0
 10
4.8984030836
 20
3.9879566458
 30
0.0
 10
4.8949895282
 20
3.9858279696
 30
0.0
 10
4.8917901725
 20
3.9833346075
 30
0.0
 10
4.8888330596
 20
3.9805075535
 30
0.0
 10
4.8861442961
 20
3.9773834016
 30
0.0
 10
4.8845471016
 20
3.9751340248
 30
0.0
 10
4.8837996362
 20
3.973972737
 30
0.0
  0
SPLINE
  5
3C8
100
AcDbEntity
  8
ALL_ASSEMBLY_MEMBERS
100
AcDbSpline
 62
7
  6
CONTINUOUS
 70
0
 71
3
 72
29
 73
25
 74
0
 42
0.0000001
 43
0.0000001
 44
0.0000000001
 40
0.0
 40
0.0
 40
0.0
 40
0.0
 40
0.0682988634
 40
0.1362675291
 40
0.203336514
 40
0.2691359714
 40
0.3334538039
 40
0.3961399093
 40
0.4571907832
 40
0.5167555452
 40
0.5461093251
 40
0.5752553057
 40
0.6331261979
 40
0.6620923437
 40
0.6911835
 40
0.7204715641
 40
0.7500310322
 40
0.7799316294
 40
0.8102119462
 40
0.8408889201
 40
0.8719672781
 40
0.9034474637
 40
0.9353112473
 40
1.0
 40
1.0
 40
1.0
 40
1.0
 10
4.8812216042
 20
3.9559746479
 30
0.0
 10
4.8812216042
 20
3.9540045493
 30
0.0
 10
4.8813801089
 20
3.9500720278
 30
0.0
 10
4.8820920116
 20
3.9442436794
 30
0.0
 10
4.8832810469
 20
3.9385661392
 30
0.0
 10
4.8849517914
 20
3.9331202159
 30
0.0
 10
4.8871073874
 20
3.9279825306
 30
0.0
 10
4.8897530357
 20
3.9232323972
 30
0.0
 10
4.8928939331
 20
3.9189601776
 30
0.0
 10
4.8959379901
 20
3.9158608344
 30
0.0
 10
4.898603935
 20
3.9137356133
 30
0.0
 10
4.9013992195
 20
3.9118716683
 30
0.0
 10
4.9044232299
 20
3.9103888397
 30
0.0
 10
4.9076088171
 20
3.9093583084
 30
0.0
 10
4.9100732128
 20
3.9088151512
 30
0.0
 10
4.9125948776
 20
3.908507153
 30
0.0
 10
4.9151578739
 20
3.9084402768
 30
0.0
 10
4.9177440873
 20
3.9086176468
 30
0.0
 10
4.9203353101
 20
3.9090325461
 30
0.0
 10
4.9229134433
 20
3.9096795849
 30
0.0
 10
4.9254599977
 20
3.9105538189
 30
0.0
 10
4.9279592984
 20
3.911643672
 30
0.0
 10
4.9312245085
 20
3.9133746804
 30
0.0
 10
4.9335364753
 20
3.9149494575
 30
0.0
 10
4.9350050622
 20
3.9161005762
 30
0.0
  0
SPLINE
  5
3C9
100
AcDbEntity
  8
ALL_ASSEMBLY_MEMBERS
100
AcDbSpline
 62
7
  6
CONTINUOUS
 70
0
 71
3
 72
9
 73
5
 74
0
 42
0.0000001
 43
0.0000001
 44
0.0000000001
 40
0.0
 40
0.0
 40
0.0
 40
0.0
 40
0.4967600802
 40
1.0
 40
1.0
 40
1.0
 40
1.0
 10
4.9350050622
 20
3.9161005762
 30
0.0
 10
4.9364898725
 20
3.9172644112
 30
0.0
 10
4.9393237794
 20
3.9198107397
 30
0.0
 10
4.9418176448
 20
3.9226885806
 30
0.0
 10
4.9429820085
 20
3.9242041299
 30
0.0
  0
SPLINE
  5
3CA
100
AcDbEntity
  8
ALL_ASSEMBLY_MEMBERS
100
AcDbSpline
 62
7
  6
CONTINUOUS
 70
0
 71
3
 72
12
 73
8
 74
0
 42
0.0000001
 43
0.0000001
 44
0.0000000001
 40
0.0
 40
0.0
 40
0.0
 40
0.0
 40
0.2477627654
 40
0.4975068553
 40
0.6230103071
 40
0.748760944
 40
1.0
 40
1.0
 40
1.0
 40
1.0
 10
4.9429820085
 20
3.9242041299
 30
0.0
 10
4.9446965797
 20
3.9264358356
 30
0.0
 10
4.947756547
 20
3.9312237188
 30
0.0
 10
4.9505492811
 20
3.9377608933
 30
0.0
 10
4.9521370178
 20
3.9432317349
 30
0.0
 10
4.953279058
 20
3.9488285086
 30
0.0
 10
4.9536281714
 20
3.9531208647
 30
0.0
 10
4.9536281714
 20
3.9559746479
 30
0.0
  0
SPLINE
  5
3CB
100
AcDbEntity
  8
ALL_ASSEMBLY_MEMBERS
100
AcDbSpline
 62
7
  6
CONTINUOUS
 70
0
 71
3
 72
19
 73
15
 74
0
 42
0.0000001
 43
0.0000001
 44
0.0000000001
 40
0.0
 40
0.0
 40
0.0
 40
0.0
 40
0.1249158798
 40
0.1874766357
 40
0.2500078059
 40
0.3749226349
 40
0.4998388355
 40
0.5623760549
 40
0.624922107
 40
0.6874570601
 40
0.7499641082
 40
0.8124888753
 40
0.8750775682
 40
1.0
 40
1.0
 40
1.0
 40
1.0
 10
5.002701348
 20
5.1308250416
 30
0.0
 10
5.002701348
 20
5.1314787305
 30
0.0
 10
5.0026042337
 20
5.1324633229
 30
0.0
 10
5.0022858134
 20
5.1337338321
 30
0.0
 10
5.001844356
 20
5.1349674397
 30
0.0
 10
5.0010684938
 20
5.1364188458
 30
0.0
 10
5.000023718
 20
5.1376905983
 30
0.0
 10
4.9990528045
 20
5.1385700603
 30
0.0
 10
4.9982627477
 20
5.1391557088
 30
0.0
 10
4.9974192916
 20
5.1396610368
 30
0.0
 10
4.996529934
 20
5.1400800584
 30
0.0
 10
4.9956033936
 20
5.1404099134
 30
0.0
 10
4.9943336863
 20
5.1407305381
 30
0.0
 10
4.9933493532
 20
5.1408347624
 30
0.0
 10
4.9926956301
 20
5.1408347624
 30
0.0
  0
SPLINE
  5
3CC
100
AcDbEntity
  8
ALL_ASSEMBLY_MEMBERS
100
AcDbSpline
 62
7
  6
CONTINUOUS
 70
0
 71
3
 72
19
 73
15
 74
0
 42
0.0000001
 43
0.0000001
 44
0.0000000001
 40
0.0
 40
0.0
 40
0.0
 40
0.0
 40
0.1249852322
 40
0.1876498082
 40
0.2502234468
 40
0.3127340834
 40
0.3752485557
 40
0.4377807889
 40
0.5003042382
 40
0.6251763742
 40
0.750059398
 40
0.8125725634
 40
0.8751106733
 40
1.0
 40
1.0
 40
1.0
 40
1.0
 10
4.9926956301
 20
5.1408347624
 30
0.0
 10
4.9920420859
 20
5.1408347624
 30
0.0
 10
4.9910576394
 20
5.1407305904
 30
0.0
 10
4.9897886623
 20
5.1404070127
 30
0.0
 10
4.9888630385
 20
5.1400749652
 30
0.0
 10
4.9879746383
 20
5.1396553947
 30
0.0
 10
4.9871323031
 20
5.1391499739
 30
0.0
 10
4.9863436631
 20
5.1385641133
 30
0.0
 10
4.9853745539
 20
5.1376847438
 30
0.0
 10
4.9843318466
 20
5.1364135851
 30
0.0
 10
4.9835575937
 20
5.1349633531
 30
0.0
 10
4.9831170786
 20
5.1337308982
 30
0.0
 10
4.9827992425
 20
5.1324616563
 30
0.0
 10
4.9827023787
 20
5.1314780843
 30
0.0
 10
4.9827023787
 20
5.1308250416
 30
0.0
  0
SPLINE
  5
3CD
100
AcDbEntity
  8
ALL_ASSEMBLY_MEMBERS
100
AcDbSpline
 62
7
  6
CONTINUOUS
 70
0
 71
3
 72
19
 73
15
 74
0
 42
0.0000001
 43
0.0000001
 44
0.0000000001
 40
0.0
 40
0.0
 40
0.0
 40
0.0
 40
0.1248897374
 40
0.1874284864
 40
0.2499423405
 40
0.3748263175
 40
0.4996987803
 40
0.5622219563
 40
0.6247539668
 40
0.6872683074
 40
0.7497784126
 40
0.8123512284
 40
0.8750150897
 40
1.0
 40
1.0
 40
1.0
 40
1.0
 10
4.9827023787
 20
5.0508250416
 30
0.0
 10
4.9827023787
 20
5.0501719945
 30
0.0
 10
4.9827992441
 20
5.0491884134
 30
0.0
 10
4.9831170866
 20
5.047919159
 30
0.0
 10
4.9835576108
 20
5.0466866897
 30
0.0
 10
4.9843318805
 20
5.0452364481
 30
0.0
 10
4.9853746031
 20
5.0439652879
 30
0.0
 10
4.9863437212
 20
5.0430859224
 30
0.0
 10
4.9871323665
 20
5.0425000692
 30
0.0
 10
4.9879746998
 20
5.0419946475
 30
0.0
 10
4.9888631
 20
5.0415750861
 30
0.0
 10
4.989788723
 20
5.0412430585
 30
0.0
 10
4.9910576988
 20
5.0409194986
 30
0.0
 10
4.9920421423
 20
5.0408153237
 30
0.0
 10
4.9926956871
 20
5.0408153237
 30
0.0
  0
SPLINE
  5
3CE
100
AcDbEntity
  8
ALL_ASSEMBLY_MEMBERS
100
AcDbSpline
 62
7
  6
CONTINUOUS
 70
0
 71
3
 72
19
 73
15
 74
0
 42
0.0000001
 43
0.0000001
 44
0.0000000001
 40
0.0
 40
0.0
 40
0.0
 40
0.0
 40
0.1249225465
 40
0.1875115499
 40
0.2500366903
 40
0.3125439719
 40
0.3750791332
 40
0.4376254688
 40
0.5001629066
 40
0.625079081
 40
0.7499938268
 40
0.8125248195
 40
0.8750850005
 40
1.0
 40
1.0
 40
1.0
 40
1.0
 10
4.9926956871
 20
5.0408153237
 30
0.0
 10
4.9933494085
 20
5.0408153237
 30
0.0
 10
4.9943337409
 20
5.0409195475
 30
0.0
 10
4.9956034445
 20
5.0412401856
 30
0.0
 10
4.9965299824
 20
5.0415700505
 30
0.0
 10
4.9974193406
 20
5.0419890726
 30
0.0
 10
4.9982627944
 20
5.042494405
 30
0.0
 10
4.9990528488
 20
5.0430800571
 30
0.0
 10
5.0000237536
 20
5.0439595254
 30
0.0
 10
5.0010685218
 20
5.0452312767
 30
0.0
 10
5.0018443729
 20
5.0466826808
 30
0.0
 10
5.0022858207
 20
5.0479162819
 30
0.0
 10
5.0026042392
 20
5.0491867778
 30
0.0
 10
5.002701348
 20
5.0501713596
 30
0.0
 10
5.002701348
 20
5.0508250416
 30
0.0
  0
SPLINE
  5
3CF
100
AcDbEntity
  8
ALL_ASSEMBLY_MEMBERS
100
AcDbSpline
 62
7
  6
CONTINUOUS
 70
0
 71
3
 72
23
 73
19
 74
0
 42
0.0000001
 43
0.0000001
 44
0.0000000001
 40
0.0
 40
0.0
 40
0.0
 40
0.0
 40
0.0625896051
 40
0.1251105549
 40
0.1875529431
 40
0.2499536192
 40
0.312371529
 40
0.3748505889
 40
0.4374004402
 40
0.4999979437
 40
0.5625956039
 40
0.6251456092
 40
0.6876247296
 40
0.7500420843
 40
0.8124423434
 40
0.8748846849
 40
0.9374075992
 40
1.0
 40
1.0
 40
1.0
 40
1.0
 10
4.9927018634
 20
4.5584746479
 30
0.0
 10
4.9982067957
 20
4.5584746479
 30
0.0
 10
5.0092494552
 20
4.5572359852
 30
0.0
 10
5.0249576659
 20
4.5518063043
 30
0.0
 10
5.0391471999
 20
4.5431910454
 30
0.0
 10
5.0512896537
 20
4.5319046396
 30
0.0
 10
5.0610338441
 20
4.5185004164
 30
0.0
 10
5.0681437957
 20
4.503524748
 30
0.0
 10
5.0724679403
 20
4.4875090934
 30
0.0
 10
5.0739189721
 20
4.4709751828
 30
0.0
 10
5.0724681284
 20
4.4544412418
 30
0.0
 10
5.0681441544
 20
4.4384255064
 30
0.0
 10
5.0610343782
 20
4.4234497895
 30
0.0
 10
5.0512904104
 20
4.4100455043
 30
0.0
 10
5.039148171
 20
4.3987590095
 30
0.0
 10
5.0249586859
 20
4.3901434055
 30
0.0
 10
5.0092501129
 20
4.3847134779
 30
0.0
 10
4.9982070416
 20
4.3834746479
 30
0.0
 10
4.9927018634
 20
4.3834746479
 30
0.0
  0
SPLINE
  5
3D0
100
AcDbEntity
  8
ALL_ASSEMBLY_MEMBERS
100
AcDbSpline
 62
7
  6
CONTINUOUS
 70
0
 71
3
 72
23
 73
19
 74
0
 42
0.0000001
 43
0.0000001
 44
0.0000000001
 40
0.0
 40
0.0
 40
0.0
 40
0.0
 40
0.0625893598
 40
0.125110194
 40
0.187552642
 40
0.249953392
 40
0.3123713752
 40
0.3748504743
 40
0.437400375
 40
0.4999979289
 40
0.5625956395
 40
0.6251456932
 40
0.687624854
 40
0.7500422825
 40
0.8124426153
 40
0.874885017
 40
0.937407823
 40
1.0
 40
1.0
 40
1.0
 40
1.0
 10
4.9927018634
 20
4.3834746479
 30
0.0
 10
4.9871969526
 20
4.3834746479
 30
0.0
 10
4.9761543243
 20
4.3847132968
 30
0.0
 10
4.960446136
 20
4.3901429604
 30
0.0
 10
4.9462565889
 20
4.3987582006
 30
0.0
 10
4.9341141129
 20
4.4100446104
 30
0.0
 10
4.9243699042
 20
4.4234488409
 30
0.0
 10
4.9172599408
 20
4.4384245198
 30
0.0
 10
4.9129357887
 20
4.4544401852
 30
0.0
 10
4.9114847538
 20
4.4709741091
 30
0.0
 10
4.9129355992
 20
4.4875080634
 30
0.0
 10
4.9172595793
 20
4.5035238101
 30
0.0
 10
4.9243693662
 20
4.5184995381
 30
0.0
 10
4.9341133511
 20
4.5319038316
 30
0.0
 10
4.9462556116
 20
4.5431903315
 30
0.0
 10
4.9604451095
 20
4.5518059186
 30
0.0
 10
4.976153662
 20
4.5572358314
 30
0.0
 10
4.9871967048
 20
4.5584746479
 30
0.0
 10
4.9927018634
 20
4.5584746479
 30
0.0
  0
ELLIPSE
  5
3D1
100
AcDbEntity
  8
ALL_ASSEMBLY_MEMBERS
100
AcDbEllipse
 62
7
  6
CONTINUOUS
 10
4.9927018634
 20
4.8955322009
 30
0.0
 11
0.4356620756
 21
0.3097087495
 31
0.0
 40
0.6863174071
 41
-3.9803437747
 42
-3.9676270558
  0
ELLIPSE
  5
3D2
100
AcDbEntity
  8
ALL_ASSEMBLY_MEMBERS
100
AcDbEllipse
 62
7
  6
CONTINUOUS
 10
4.9927018634
 20
4.9057947193
 30
0.0
 11
0.4845296417
 21
0.0531218498
 31
0.0
 40
0.2751161207
 41
2.7138845034
 42
2.7266070117
  0
ELLIPSE
  5
3D3
100
AcDbEntity
  8
ALL_ASSEMBLY_MEMBERS
100
AcDbEllipse
 62
7
  6
CONTINUOUS
 10
4.9927018634
 20
4.864985033
 30
0.0
 11
0.4845296416
 21
-0.0531218552
 31
0.0
 40
0.2751161442
 41
-2.726607006
 42
-2.7138844977
  0
ELLIPSE
  5
3D4
100
AcDbEntity
  8
ALL_ASSEMBLY_MEMBERS
100
AcDbEllipse
 62
7
  6
CONTINUOUS
 10
4.9927018634
 20
4.8752475523
 30
0.0
 11
-0.4356620527
 21
0.3097088087
 31
0.0
 40
0.6863174268
 41
0.8260345095
 42
0.8387512283
  0
ELLIPSE
  5
3D5
100
AcDbEntity
  8
ALL_ASSEMBLY_MEMBERS
100
AcDbEllipse
 62
7
  6
CONTINUOUS
 10
4.9927018634
 20
4.8873741148
 30
0.0
 11
-0.2110172983
 21
0.9517381511
 31
0.0
 40
0.4585406789
 41
1.4848993014
 42
1.4925274221
  0
ELLIPSE
  5
3D6
100
AcDbEntity
  8
ALL_ASSEMBLY_MEMBERS
100
AcDbEllipse
 62
7
  6
CONTINUOUS
 10
4.9927018634
 20
4.8947503042
 30
0.0
 11
-0.1839239125
 21
1.4338152941
 31
0.0
 40
0.3128035903
 41
1.5410292945
 42
1.5461141727
  0
ELLIPSE
  5
3D7
100
AcDbEntity
  8
ALL_ASSEMBLY_MEMBERS
100
AcDbEllipse
 62
7
  6
CONTINUOUS
 10
4.9927018634
 20
4.8557197181
 30
0.0
 11
0.4841680723
 21
0.069531332
 31
0.0
 40
0.3415053426
 41
2.6695629887
 42
2.6797561081
  0
ELLIPSE
  5
3D8
100
AcDbEntity
  8
ALL_ASSEMBLY_MEMBERS
100
AcDbEllipse
 62
7
  6
CONTINUOUS
 10
4.9927018634
 20
4.8336295478
 30
0.0
 11
0.4021127937
 21
0.3867250719
 31
0.0
 40
0.7000252448
 41
-4.164805553
 42
-4.15715572
  0
ELLIPSE
  5
3D9
100
AcDbEntity
  8
ALL_ASSEMBLY_MEMBERS
100
AcDbEllipse
 62
7
  6
CONTINUOUS
 10
4.9927018634
 20
4.7848890977
 30
0.0
 11
0.2001645895
 21
1.0730713555
 31
0.0
 40
0.4114299686
 41
1.5606800957
 42
1.5657826121
  0
ELLIPSE
  5
3DA
100
AcDbEntity
  8
ALL_ASSEMBLY_MEMBERS
100
AcDbEllipse
 62
7
  6
CONTINUOUS
 10
4.9927018634
 20
4.691684925
 30
0.0
 11
0.173492527
 21
2.1521377604
 31
0.0
 40
0.2103210759
 41
1.498485551
 42
1.5010376571
  0
ELLIPSE
  5
3DB
100
AcDbEntity
  8
ALL_ASSEMBLY_MEMBERS
100
AcDbEllipse
 62
7
  6
CONTINUOUS
 10
4.9927018634
 20
5.0790949163
 30
0.0
 11
-0.1734925196
 21
2.1521387659
 31
0.0
 40
0.210320979
 41
-4.6426302942
 42
-4.6400781881
  0
ELLIPSE
  5
3DC
100
AcDbEntity
  8
ALL_ASSEMBLY_MEMBERS
100
AcDbEllipse
 62
7
  6
CONTINUOUS
 10
4.9927018634
 20
4.9858906348
 30
0.0
 11
-0.2001646079
 21
1.0730711015
 31
0.0
 40
0.4114300582
 41
-4.7073753074
 42
-4.7022727909
  0
ELLIPSE
  5
3DD
100
AcDbEntity
  8
ALL_ASSEMBLY_MEMBERS
100
AcDbEllipse
 62
7
  6
CONTINUOUS
 10
4.9927018634
 20
4.9371502052
 30
0.0
 11
-0.4021127937
 21
0.3867250719
 31
0.0
 40
0.7000252448
 41
1.0155630664
 42
1.0232128994
  0
ELLIPSE
  5
3DE
100
AcDbEntity
  8
ALL_ASSEMBLY_MEMBERS
100
AcDbEllipse
 62
7
  6
CONTINUOUS
 10
4.9927018634
 20
4.9150600349
 30
0.0
 11
0.4841680723
 21
-0.069531332
 31
0.0
 40
0.3415053426
 41
-2.6797561081
 42
-2.6695629887
  0
ELLIPSE
  5
3DF
100
AcDbEntity
  8
ALL_ASSEMBLY_MEMBERS
100
AcDbEllipse
 62
7
  6
CONTINUOUS
 10
4.9927018634
 20
4.9145439455
 30
0.0
 11
0.4841680714
 21
0.0695313633
 31
0.0
 40
0.3415054598
 41
2.7840417005
 42
2.7942212431
  0
ELLIPSE
  5
3E0
100
AcDbEntity
  8
ALL_ASSEMBLY_MEMBERS
100
AcDbEllipse
 62
7
  6
CONTINUOUS
 10
4.9927018634
 20
4.9290759157
 30
0.0
 11
0.3546536662
 21
0.4793660332
 31
0.0
 40
0.6893673371
 41
-4.2104130135
 42
-4.2002376741
  0
ELLIPSE
  5
3E1
100
AcDbEntity
  8
ALL_ASSEMBLY_MEMBERS
100
AcDbEllipse
 62
7
  6
CONTINUOUS
 10
4.9927018634
 20
4.9454018223
 30
0.0
 11
0.2001647206
 21
1.0730695455
 31
0.0
 40
0.4114306072
 41
-4.6105355829
 42
-4.6054491537
  0
ELLIPSE
  5
3E2
100
AcDbEntity
  8
ALL_ASSEMBLY_MEMBERS
100
AcDbEllipse
 62
7
  6
CONTINUOUS
 10
4.9927018634
 20
4.894690181
 30
0.0
 11
-0.200164647
 21
1.0730705612
 31
0.0
 40
0.4114302488
 41
1.4638566668
 42
1.468943096
  0
ELLIPSE
  5
3E3
100
AcDbEntity
  8
ALL_ASSEMBLY_MEMBERS
100
AcDbEllipse
 62
7
  6
CONTINUOUS
 10
4.9927018634
 20
4.9110161181
 30
0.0
 11
-0.3546536662
 21
0.4793660332
 31
0.0
 40
0.6893673371
 41
1.0586450205
 42
1.06882036
  0
ELLIPSE
  5
3E4
100
AcDbEntity
  8
ALL_ASSEMBLY_MEMBERS
100
AcDbEllipse
 62
7
  6
CONTINUOUS
 10
4.9927018634
 20
4.9255480883
 30
0.0
 11
0.4841680714
 21
-0.0695313633
 31
0.0
 40
0.3415054598
 41
-2.7942212431
 42
-2.7840417005
  0
ELLIPSE
  5
3E5
100
AcDbEntity
  8
ALL_ASSEMBLY_MEMBERS
100
AcDbEllipse
 62
7
  6
CONTINUOUS
 10
4.9927018634
 20
4.8762397914
 30
0.0
 11
0.4841680714
 21
0.0695313633
 31
0.0
 40
0.3415054598
 41
2.7840417005
 42
2.7942212431
  0
ELLIPSE
  5
3E6
100
AcDbEntity
  8
ALL_ASSEMBLY_MEMBERS
100
AcDbEllipse
 62
7
  6
CONTINUOUS
 10
4.9927018634
 20
4.8835057778
 30
0.0
 11
0.4668511673
 21
0.2089255909
 31
0.0
 40
0.6246664746
 41
2.5502781873
 42
2.5604535267
  0
ELLIPSE
  5
3E7
100
AcDbEntity
  8
ALL_ASSEMBLY_MEMBERS
100
AcDbEllipse
 62
7
  6
CONTINUOUS
 10
4.9927018634
 20
4.9016456981
 30
0.0
 11
0.2110171867
 21
0.9517391668
 31
0.0
 40
0.4585402462
 41
-4.5883562274
 42
-4.5807268405
  0
ELLIPSE
  5
3E8
100
AcDbEntity
  8
ALL_ASSEMBLY_MEMBERS
100
AcDbEllipse
 62
7
  6
CONTINUOUS
 10
4.9927018634
 20
4.8636620283
 30
0.0
 11
-0.211017168
 21
0.9517393376
 31
0.0
 40
0.4585401734
 41
1.4391342299
 42
1.4467636167
  0
ELLIPSE
  5
3E9
100
AcDbEntity
  8
ALL_ASSEMBLY_MEMBERS
100
AcDbEllipse
 62
7
  6
CONTINUOUS
 10
4.9927018634
 20
4.8818019537
 30
0.0
 11
0.4668511673
 21
-0.2089255909
 31
0.0
 40
0.6246664746
 41
-2.5604535267
 42
-2.5502781873
  0
ELLIPSE
  5
3EA
100
AcDbEntity
  8
ALL_ASSEMBLY_MEMBERS
100
AcDbEllipse
 62
7
  6
CONTINUOUS
 10
4.9927018634
 20
4.8890679401
 30
0.0
 11
0.4841680714
 21
-0.0695313633
 31
0.0
 40
0.3415054598
 41
-2.7942212431
 42
-2.7840417005
  0
ELLIPSE
  5
3EB
100
AcDbEntity
  8
ALL_ASSEMBLY_MEMBERS
100
AcDbEllipse
 62
7
  6
CONTINUOUS
 10
4.9927018634
 20
4.8726819251
 30
0.0
 11
0.4668512029
 21
-0.2089254365
 31
0.0
 40
0.6246663258
 41
-2.6063101801
 42
-2.6012078026
  0
ELLIPSE
  5
3EC
100
AcDbEntity
  8
ALL_ASSEMBLY_MEMBERS
100
AcDbEllipse
 62
7
  6
CONTINUOUS
 10
4.9927018634
 20
4.8417338929
 30
0.0
 11
-0.2578960711
 21
0.7014332479
 31
0.0
 40
0.5851642007
 41
1.2648458323
 42
1.272503669
  0
ELLIPSE
  5
3ED
100
AcDbEntity
  8
ALL_ASSEMBLY_MEMBERS
100
AcDbEllipse
 62
7
  6
CONTINUOUS
 10
4.9927018634
 20
4.7743658123
 30
0.0
 11
-0.1839239562
 21
1.4338136914
 31
0.0
 40
0.3128039274
 41
1.4315508783
 42
1.436659149
  0
ELLIPSE
  5
3EE
100
AcDbEntity
  8
ALL_ASSEMBLY_MEMBERS
100
AcDbEllipse
 62
7
  6
CONTINUOUS
 10
4.9927018634
 20
4.9984888256
 30
0.0
 11
0.3259986888
 21
0.53452672
 31
0.0
 40
0.6711697407
 41
-1.3248817727
 42
-1.3025825674
  0
ELLIPSE
  5
3EF
100
AcDbEntity
  8
ALL_ASSEMBLY_MEMBERS
100
AcDbEllipse
 62
7
  6
CONTINUOUS
 10
4.9927018634
 20
5.0994103556
 30
0.0
 11
0.1770586083
 21
1.7931568303
 31
0.0
 40
0.2516550235
 41
-4.5935119134
 42
-4.5884036427
  0
ELLIPSE
  5
3F0
100
AcDbEntity
  8
ALL_ASSEMBLY_MEMBERS
100
AcDbEllipse
 62
7
  6
CONTINUOUS
 10
4.9927018634
 20
4.9983581409
 30
0.0
 11
0.2578960711
 21
0.7014332479
 31
0.0
 40
0.5851642007
 41
-4.4140963225
 42
-4.4064384859
  0
ELLIPSE
  5
3F1
100
AcDbEntity
  8
ALL_ASSEMBLY_MEMBERS
100
AcDbEllipse
 62
7
  6
CONTINUOUS
 10
4.9927018634
 20
4.9735997163
 30
0.0
 11
0.4356621873
 21
0.3097084593
 31
0.0
 40
0.6863173103
 41
-3.8709533301
 42
-3.8582013196
  0
ELLIPSE
  5
3F2
100
AcDbEntity
  8
ALL_ASSEMBLY_MEMBERS
100
AcDbEllipse
 62
7
  6
CONTINUOUS
 10
4.9927018634
 20
4.952489309
 30
0.0
 11
0.4845296421
 21
0.0531218233
 31
0.0
 40
0.2751160055
 41
2.8232569308
 42
2.835996958
  0
ELLIPSE
  5
3F3
100
AcDbEntity
  8
ALL_ASSEMBLY_MEMBERS
100
AcDbEllipse
 62
7
  6
CONTINUOUS
 10
4.9927018634
 20
4.9559286332
 30
0.0
 11
0.3259987817
 21
0.5345265359
 31
0.0
 40
0.671169814
 41
-1.2507643659
 42
-1.2286210799
  0
ELLIPSE
  5
3F4
100
AcDbEntity
  8
ALL_ASSEMBLY_MEMBERS
100
AcDbEllipse
 62
7
  6
CONTINUOUS
 10
4.9927018634
 20
4.8848103175
 30
0.0
 11
0.4630591816
 21
0.2245111552
 31
0.0
 40
0.6386464466
 41
-0.6183052266
 42
-0.6035566623
  0
ELLIPSE
  5
3F5
100
AcDbEntity
  8
ALL_ASSEMBLY_MEMBERS
100
AcDbEllipse
 62
7
  6
CONTINUOUS
 10
4.9927018634
 20
4.8961407384
 30
0.0
 11
0.4846322909
 21
0.0448829864
 31
0.0
 40
0.2379966242
 41
-0.3253141803
 42
-0.3105556307
  0
ELLIPSE
  5
3F6
100
AcDbEntity
  8
ALL_ASSEMBLY_MEMBERS
100
AcDbEllipse
 62
7
  6
CONTINUOUS
 10
4.9927018634
 20
4.8746390145
 30
0.0
 11
0.4846322909
 21
-0.0448829864
 31
0.0
 40
0.2379966242
 41
0.3105556307
 42
0.3253141803
  0
ELLIPSE
  5
3F7
100
AcDbEntity
  8
ALL_ASSEMBLY_MEMBERS
100
AcDbEllipse
 62
7
  6
CONTINUOUS
 10
4.9927018634
 20
4.884081029
 30
0.0
 11
0.4734427814
 21
-0.1768432279
 31
0.0
 40
0.588594106
 41
0.5196885314
 42
0.5307507159
  0
ELLIPSE
  5
3F8
100
AcDbEntity
  8
ALL_ASSEMBLY_MEMBERS
100
AcDbEllipse
 62
7
  6
CONTINUOUS
 10
4.9927018634
 20
4.9069994277
 30
0.0
 11
-0.207495773
 21
0.9858241387
 31
0.0
 40
0.4443956471
 41
-1.6987885097
 42
-1.6914161614
  0
ELLIPSE
  5
3F9
100
AcDbEntity
  8
ALL_ASSEMBLY_MEMBERS
100
AcDbEllipse
 62
7
  6
CONTINUOUS
 10
4.9927018634
 20
4.8498495815
 30
0.0
 11
0.4847035227
 21
0.0351495033
 31
0.0
 40
0.1909698234
 41
-0.2802019056
 42
-0.2617015349
  0
ELLIPSE
  5
3FA
100
AcDbEntity
  8
ALL_ASSEMBLY_MEMBERS
100
AcDbEllipse
 62
7
  6
CONTINUOUS
 10
4.9927018634
 20
4.8298411979
 30
0.0
 11
0.4782981758
 21
0.1456294577
 31
0.0
 40
0.5412725914
 41
-0.4111891223
 42
-0.3926539211
  0
ELLIPSE
  5
3FB
100
AcDbEntity
  8
ALL_ASSEMBLY_MEMBERS
100
AcDbEllipse
 62
7
  6
CONTINUOUS
 10
4.9927018634
 20
4.7864711645
 30
0.0
 11
0.2800134072
 21
0.636735321
 31
0.0
 40
0.6214444929
 41
-1.1842741772
 42
-1.1731335909
  0
ELLIPSE
  5
3FC
100
AcDbEntity
  8
ALL_ASSEMBLY_MEMBERS
100
AcDbEllipse
 62
7
  6
CONTINUOUS
 10
4.9927018634
 20
4.7110896367
 30
0.0
 11
0.190868369
 21
1.2357421379
 31
0.0
 40
0.3605861895
 41
-1.3842710587
 42
-1.3768349866
  0
ELLIPSE
  5
3FD
100
AcDbEntity
  8
ALL_ASSEMBLY_MEMBERS
100
AcDbEllipse
 62
7
  6
CONTINUOUS
 10
4.9927018634
 20
5.0596901389
 30
0.0
 11
-0.1908683611
 21
1.2357423122
 31
0.0
 40
0.3605861413
 41
-1.7647576494
 42
-1.7573215773
  0
ELLIPSE
  5
3FE
100
AcDbEntity
  8
ALL_ASSEMBLY_MEMBERS
100
AcDbEllipse
 62
7
  6
CONTINUOUS
 10
4.9927018634
 20
4.9843085809
 30
0.0
 11
-0.2800134331
 21
0.6367352539
 31
0.0
 40
0.6214445296
 41
-1.968459128
 42
-1.9573185418
  0
ELLIPSE
  5
3FF
100
AcDbEntity
  8
ALL_ASSEMBLY_MEMBERS
100
AcDbEllipse
 62
7
  6
CONTINUOUS
 10
4.9927018634
 20
4.9409385513
 30
0.0
 11
0.4782981788
 21
-0.1456294353
 31
0.0
 40
0.541272552
 41
0.3926538838
 42
0.411189085
  0
ELLIPSE
  5
400
100
AcDbEntity
  8
ALL_ASSEMBLY_MEMBERS
100
AcDbEllipse
 62
7
  6
CONTINUOUS
 10
4.9927018634
 20
4.9209301695
 30
0.0
 11
0.4847035227
 21
-0.0351495
 31
0.0
 40
0.1909698069
 41
0.2617015324
 42
0.2802019031
  0
ELLIPSE
  5
401
100
AcDbEntity
  8
ALL_ASSEMBLY_MEMBERS
100
AcDbEllipse
 62
7
  6
CONTINUOUS
 10
4.9927018634
 20
4.8489337671
 30
0.0
 11
0.484529642
 21
-0.0531218287
 31
0.0
 40
0.275116029
 41
-2.8385463295
 42
-2.8258040739
  0
ELLIPSE
  5
402
100
AcDbEntity
  8
ALL_ASSEMBLY_MEMBERS
100
AcDbEllipse
 62
7
  6
CONTINUOUS
 10
4.9927018634
 20
4.8270937523
 30
0.0
 11
-0.4356621459
 21
0.3097085669
 31
0.0
 40
0.6863173461
 41
0.7140568349
 42
0.7268114943
  0
ELLIPSE
  5
403
100
AcDbEntity
  8
ALL_ASSEMBLY_MEMBERS
100
AcDbEllipse
 62
7
  6
CONTINUOUS
 10
4.9927018634
 20
4.8016057196
 30
0.0
 11
-0.2578960294
 21
0.701433387
 31
0.0
 40
0.5851641221
 41
1.2622921148
 42
1.2699517446
  0
ELLIPSE
  5
404
100
AcDbEntity
  8
ALL_ASSEMBLY_MEMBERS
100
AcDbEllipse
 62
7
  6
CONTINUOUS
 10
4.9927018634
 20
4.6978175843
 30
0.0
 11
-0.1770586193
 21
1.7931559956
 31
0.0
 40
0.2516551382
 41
1.4442558639
 42
1.4493654161
  0
ELLIPSE
  5
405
100
AcDbEntity
  8
ALL_ASSEMBLY_MEMBERS
100
AcDbEllipse
 62
7
  6
CONTINUOUS
 10
4.9927018634
 20
5.0674901714
 30
0.0
 11
0.177058616
 21
1.7931562471
 31
0.0
 40
0.2516551037
 41
-4.5909580771
 42
-4.5858485249
  0
ELLIPSE
  5
406
100
AcDbEntity
  8
ALL_ASSEMBLY_MEMBERS
100
AcDbEllipse
 62
7
  6
CONTINUOUS
 10
4.9927018634
 20
4.9464039791
 30
0.0
 11
0.3546537589
 21
0.4793658574
 31
0.0
 40
0.6893673822
 41
-4.1543810131
 42
-4.1441693573
  0
ELLIPSE
  5
407
100
AcDbEntity
  8
ALL_ASSEMBLY_MEMBERS
100
AcDbEllipse
 62
7
  6
CONTINUOUS
 10
4.9927018634
 20
4.9309299605
 30
0.0
 11
0.4668512029
 21
0.2089254365
 31
0.0
 40
0.6246663258
 41
2.6012078026
 42
2.6063101801
  0
ELLIPSE
  5
408
100
AcDbEntity
  8
ALL_ASSEMBLY_MEMBERS
100
AcDbEllipse
 62
7
  6
CONTINUOUS
 10
4.9927018634
 20
4.875843891
 30
0.0
 11
0.4817044942
 21
-0.0691776629
 31
0.0
 40
0.3415058114
 41
-2.7050160301
 42
-2.6947853447
  0
ELLIPSE
  5
409
100
AcDbEntity
  8
ALL_ASSEMBLY_MEMBERS
100
AcDbEllipse
 62
7
  6
CONTINUOUS
 10
4.9927018634
 20
4.8434978016
 30
0.0
 11
0.4644757236
 21
-0.2078624458
 31
0.0
 40
0.6246664002
 41
-2.6016242452
 42
-2.5913732513
  0
ELLIPSE
  5
40A
100
AcDbEntity
  8
ALL_ASSEMBLY_MEMBERS
100
AcDbEllipse
 62
7
  6
CONTINUOUS
 10
4.9927018634
 20
4.8434978016
 30
0.0
 11
0.4668511851
 21
-0.2089255137
 31
0.0
 40
0.6246664002
 41
-2.601207666
 42
-2.5910091369
  0
ELLIPSE
  5
40B
100
AcDbEntity
  8
ALL_ASSEMBLY_MEMBERS
100
AcDbEllipse
 62
7
  6
CONTINUOUS
 10
4.9927018634
 20
4.8562358082
 30
0.0
 11
0.4817044969
 21
-0.0691775694
 31
0.0
 40
0.3415054598
 41
-2.8149612884
 42
-2.8098396765
  0
ELLIPSE
  5
40C
100
AcDbEntity
  8
ALL_ASSEMBLY_MEMBERS
100
AcDbEllipse
 62
7
  6
CONTINUOUS
 10
4.9927018634
 20
4.8562358082
 30
0.0
 11
0.4841680714
 21
-0.0695313633
 31
0.0
 40
0.3415054598
 41
-2.8145971741
 42
-2.804406043
  0
ELLIPSE
  5
40D
100
AcDbEntity
  8
ALL_ASSEMBLY_MEMBERS
100
AcDbEllipse
 62
7
  6
CONTINUOUS
 10
4.9927018634
 20
4.875843891
 30
0.0
 11
0.4841680686
 21
-0.0695314572
 31
0.0
 40
0.3415058114
 41
-2.7052120566
 42
-2.6950335265
  0
ELLIPSE
  5
40E
100
AcDbEntity
  8
ALL_ASSEMBLY_MEMBERS
100
AcDbEllipse
 62
7
  6
CONTINUOUS
 10
4.9927018634
 20
5.0130808551
 30
0.0
 11
0.3259988447
 21
0.534526411
 31
0.0
 40
0.6711698637
 41
-1.3248813381
 42
-1.3025821329
  0
ELLIPSE
  5
40F
100
AcDbEntity
  8
ALL_ASSEMBLY_MEMBERS
100
AcDbEllipse
 62
7
  6
CONTINUOUS
 10
4.9927018634
 20
5.0130808551
 30
0.0
 11
0.3243400769
 21
0.5318066001
 31
0.0
 40
0.6711698637
 41
-1.3256157268
 42
-1.3032004624
  0
ELLIPSE
  5
410
100
AcDbEntity
  8
ALL_ASSEMBLY_MEMBERS
100
AcDbEllipse
 62
7
  6
CONTINUOUS
 10
4.9927018634
 20
4.921894051
 30
0.0
 11
0.4820642286
 21
-0.0528514816
 31
0.0
 40
0.2751158134
 41
-2.6982804374
 42
-2.6854723786
  0
ELLIPSE
  5
411
100
AcDbEntity
  8
ALL_ASSEMBLY_MEMBERS
100
AcDbEllipse
 62
7
  6
CONTINUOUS
 10
4.9927018634
 20
4.921894051
 30
0.0
 11
0.4845296428
 21
-0.0531217792
 31
0.0
 40
0.2751158134
 41
-2.6986070031
 42
-2.6858644385
  0
ELLIPSE
  5
412
100
AcDbEntity
  8
ALL_ASSEMBLY_MEMBERS
100
AcDbEllipse
 62
7
  6
CONTINUOUS
 10
4.9927018634
 20
4.9438302337
 30
0.0
 11
-0.4334453124
 21
0.30813287
 31
0.0
 40
0.6863174071
 41
0.879885828
 42
0.8927065257
  0
ELLIPSE
  5
413
100
AcDbEntity
  8
ALL_ASSEMBLY_MEMBERS
100
AcDbEllipse
 62
7
  6
CONTINUOUS
 10
4.9927018634
 20
4.9438302337
 30
0.0
 11
-0.4356620756
 21
0.3097087495
 31
0.0
 40
0.6863174071
 41
0.879493768
 42
0.8922487784
  0
ELLIPSE
  5
414
100
AcDbEntity
  8
ALL_ASSEMBLY_MEMBERS
100
AcDbEllipse
 62
7
  6
CONTINUOUS
 10
4.9927018634
 20
4.9907345392
 30
0.0
 11
-0.2099434945
 21
0.9468962978
 31
0.0
 40
0.4585403189
 41
1.5591997581
 42
1.5668991476
  0
ELLIPSE
  5
415
100
AcDbEntity
  8
ALL_ASSEMBLY_MEMBERS
100
AcDbEllipse
 62
7
  6
CONTINUOUS
 10
4.9927018634
 20
4.9907345392
 30
0.0
 11
-0.2110172055
 21
0.951738996
 31
0.0
 40
0.4585403189
 41
1.5587420108
 42
1.5664018812
  0
ELLIPSE
  5
416
100
AcDbEntity
  8
ALL_ASSEMBLY_MEMBERS
100
AcDbEllipse
 62
7
  6
CONTINUOUS
 10
4.9927018634
 20
4.9705206797
 30
0.0
 11
0.3259989376
 21
0.5345262269
 31
0.0
 40
0.6711699369
 41
-1.2507639313
 42
-1.2286206453
  0
ELLIPSE
  5
417
100
AcDbEntity
  8
ALL_ASSEMBLY_MEMBERS
100
AcDbEllipse
 62
7
  6
CONTINUOUS
 10
4.9927018634
 20
4.9705206797
 30
0.0
 11
0.3243401693
 21
0.5318064169
 31
0.0
 40
0.6711699369
 41
-1.2511147927
 42
-1.2288578778
  0
ELLIPSE
  5
418
100
AcDbEntity
  8
ALL_ASSEMBLY_MEMBERS
100
AcDbEllipse
 62
7
  6
CONTINUOUS
 10
4.9927018634
 20
4.894935862
 30
0.0
 11
0.4817044942
 21
0.0691776629
 31
0.0
 40
0.3415058114
 41
8.9779706519
 42
8.9882013373
  0
ELLIPSE
  5
419
100
AcDbEntity
  8
ALL_ASSEMBLY_MEMBERS
100
AcDbEllipse
 62
7
  6
CONTINUOUS
 10
4.9927018634
 20
4.9364861202
 30
0.0
 11
0.4820642278
 21
-0.0528515343
 31
0.0
 40
0.2751160439
 41
-2.8133316337
 42
-2.8005427031
  0
ELLIPSE
  5
41A
100
AcDbEntity
  8
ALL_ASSEMBLY_MEMBERS
100
AcDbEllipse
 62
7
  6
CONTINUOUS
 10
4.9927018634
 20
4.894935862
 30
0.0
 11
0.4841680686
 21
0.0695314572
 31
0.0
 40
0.3415058114
 41
2.6950335265
 42
2.7052120566
  0
ELLIPSE
  5
41B
100
AcDbEntity
  8
ALL_ASSEMBLY_MEMBERS
100
AcDbEllipse
 62
7
  6
CONTINUOUS
 10
4.9927018634
 20
4.9364861202
 30
0.0
 11
0.484529642
 21
-0.0531218322
 31
0.0
 40
0.2751160439
 41
-2.8130721217
 42
-2.8003483937
  0
ELLIPSE
  5
41C
100
AcDbEntity
  8
ALL_ASSEMBLY_MEMBERS
100
AcDbEllipse
 62
7
  6
CONTINUOUS
 10
4.9927018634
 20
4.8811957299
 30
0.0
 11
0.3528493905
 21
0.4769263331
 31
0.0
 40
0.6893674814
 41
-4.2792623293
 42
-4.2690356602
  0
ELLIPSE
  5
41D
100
AcDbEntity
  8
ALL_ASSEMBLY_MEMBERS
100
AcDbEllipse
 62
7
  6
CONTINUOUS
 10
4.9927018634
 20
4.9255901547
 30
0.0
 11
-0.4334454607
 21
0.308132485
 31
0.0
 40
0.686317278
 41
0.7648147469
 42
0.777597438
  0
ELLIPSE
  5
41E
100
AcDbEntity
  8
ALL_ASSEMBLY_MEMBERS
100
AcDbEllipse
 62
7
  6
CONTINUOUS
 10
4.9927018634
 20
4.9255901547
 30
0.0
 11
-0.4356622246
 21
0.3097083626
 31
0.0
 40
0.686317278
 41
0.7650090563
 42
0.7777266395
  0
ELLIPSE
  5
41F
100
AcDbEntity
  8
ALL_ASSEMBLY_MEMBERS
100
AcDbEllipse
 62
7
  6
CONTINUOUS
 10
4.9927018634
 20
4.8811957299
 30
0.0
 11
0.3546539631
 21
0.4793654706
 31
0.0
 40
0.6893674814
 41
-4.2790663028
 42
-4.2688917277
  0
ELLIPSE
  5
420
100
AcDbEntity
  8
ALL_ASSEMBLY_MEMBERS
100
AcDbEllipse
 62
7
  6
CONTINUOUS
 10
4.9927018634
 20
4.9183421984
 30
0.0
 11
-0.2565838281
 21
0.6978641712
 31
0.0
 40
0.5851642007
 41
1.3334926163
 42
1.3411601046
  0
ELLIPSE
  5
421
100
AcDbEntity
  8
ALL_ASSEMBLY_MEMBERS
100
AcDbEllipse
 62
7
  6
CONTINUOUS
 10
4.9927018634
 20
5.0717392877
 30
0.0
 11
-0.176157672
 21
1.7840339535
 31
0.0
 40
0.251654861
 41
-4.6398114528
 42
-4.6346753393
  0
ELLIPSE
  5
422
100
AcDbEntity
  8
ALL_ASSEMBLY_MEMBERS
100
AcDbEllipse
 62
7
  6
CONTINUOUS
 10
4.9927018634
 20
4.9183421984
 30
0.0
 11
-0.2578960711
 21
0.7014332479
 31
0.0
 40
0.5851642007
 41
1.3336218178
 42
1.3412502738
  0
ELLIPSE
  5
423
100
AcDbEntity
  8
ALL_ASSEMBLY_MEMBERS
100
AcDbEllipse
 62
7
  6
CONTINUOUS
 10
4.9927018634
 20
4.9138551855
 30
0.0
 11
0.4846322902
 21
-0.0448830582
 31
0.0
 40
0.2379969588
 41
0.2735943692
 42
0.2883920801
  0
ELLIPSE
  5
424
100
AcDbEntity
  8
ALL_ASSEMBLY_MEMBERS
100
AcDbEllipse
 62
7
  6
CONTINUOUS
 10
4.9927018634
 20
4.9138551855
 30
0.0
 11
0.4821663537
 21
-0.0446546814
 31
0.0
 40
0.2379969588
 41
6.5562793864
 42
6.5711534012
  0
ELLIPSE
  5
425
100
AcDbEntity
  8
ALL_ASSEMBLY_MEMBERS
100
AcDbEllipse
 62
7
  6
CONTINUOUS
 10
4.9927018634
 20
4.8993703999
 30
0.0
 11
-0.1761576992
 21
1.7840318986
 31
0.0
 40
0.2516551449
 41
1.5282335062
 42
1.533344561
  0
ELLIPSE
  5
426
100
AcDbEntity
  8
ALL_ASSEMBLY_MEMBERS
100
AcDbEllipse
 62
7
  6
CONTINUOUS
 10
4.9927018634
 20
4.9339372261
 30
0.0
 11
0.4734427814
 21
-0.1768432279
 31
0.0
 40
0.588594106
 41
0.4568564648
 42
0.4679686539
  0
ELLIPSE
  5
427
100
AcDbEntity
  8
ALL_ASSEMBLY_MEMBERS
100
AcDbEllipse
 62
7
  6
CONTINUOUS
 10
4.9927018634
 20
4.9339372261
 30
0.0
 11
0.47103378
 21
-0.175943403
 31
0.0
 40
0.588594106
 41
0.4562987307
 42
0.467468364
  0
ELLIPSE
  5
428
100
AcDbEntity
  8
ALL_ASSEMBLY_MEMBERS
100
AcDbEllipse
 62
7
  6
CONTINUOUS
 10
4.9927018634
 20
4.9786611945
 30
0.0
 11
-0.2501318493
 21
0.728790877
 31
0.0
 40
0.569753021
 41
-1.8799443451
 42
-1.8725288025
  0
ELLIPSE
  5
429
100
AcDbEntity
  8
ALL_ASSEMBLY_MEMBERS
100
AcDbEllipse
 62
7
  6
CONTINUOUS
 10
4.9927018634
 20
4.9786611945
 30
0.0
 11
-0.2488591127
 21
0.7250825974
 31
0.0
 40
0.569753021
 41
-1.880540491
 42
-1.8730865367
  0
ELLIPSE
  5
42A
100
AcDbEntity
  8
ALL_ASSEMBLY_MEMBERS
100
AcDbEllipse
 62
7
  6
CONTINUOUS
 10
4.9927018634
 20
5.0646375462
 30
0.0
 11
-0.1826258381
 21
1.484169538
 31
0.0
 40
0.3025481177
 41
-1.7277547305
 42
-1.7240446013
  0
ELLIPSE
  5
42B
100
AcDbEntity
  8
ALL_ASSEMBLY_MEMBERS
100
AcDbEllipse
 62
7
  6
CONTINUOUS
 10
4.9927018634
 20
5.0646375462
 30
0.0
 11
-0.1816965899
 21
1.4766176932
 31
0.0
 40
0.3025481177
 41
-1.7283701194
 42
-1.7246407472
  0
ELLIPSE
  5
42C
100
AcDbEntity
  8
ALL_ASSEMBLY_MEMBERS
100
AcDbEllipse
 62
7
  6
CONTINUOUS
 10
4.9927018634
 20
4.7061422883
 30
0.0
 11
0.1826258551
 21
1.4841688429
 31
0.0
 40
0.3025482548
 41
-1.4175480146
 42
-1.4138378854
  0
ELLIPSE
  5
42D
100
AcDbEntity
  8
ALL_ASSEMBLY_MEMBERS
100
AcDbEllipse
 62
7
  6
CONTINUOUS
 10
4.9927018634
 20
4.7061422883
 30
0.0
 11
0.1816966067
 21
1.4766170017
 31
0.0
 40
0.3025482548
 41
-1.4169518687
 42
-1.4132224965
  0
ELLIPSE
  5
42E
100
AcDbEntity
  8
ALL_ASSEMBLY_MEMBERS
100
AcDbEllipse
 62
7
  6
CONTINUOUS
 10
4.9927018634
 20
4.7921185396
 30
0.0
 11
0.250131799
 21
0.7287910644
 31
0.0
 40
0.5697529161
 41
-1.269063972
 42
-1.2616484294
  0
ELLIPSE
  5
42F
100
AcDbEntity
  8
ALL_ASSEMBLY_MEMBERS
100
AcDbEllipse
 62
7
  6
CONTINUOUS
 10
4.9927018634
 20
4.7921185396
 30
0.0
 11
0.2488590627
 21
0.7250827838
 31
0.0
 40
0.5697529161
 41
-1.2685062378
 42
-1.2610522835
  0
ELLIPSE
  5
430
100
AcDbEntity
  8
ALL_ASSEMBLY_MEMBERS
100
AcDbEllipse
 62
7
  6
CONTINUOUS
 10
4.9927018634
 20
4.8368425269
 30
0.0
 11
0.4734427814
 21
0.1768432279
 31
0.0
 40
0.588594106
 41
-0.4679686539
 42
-0.4568564648
  0
ELLIPSE
  5
431
100
AcDbEntity
  8
ALL_ASSEMBLY_MEMBERS
100
AcDbEllipse
 62
7
  6
CONTINUOUS
 10
4.9927018634
 20
4.8368425269
 30
0.0
 11
0.47103378
 21
0.175943403
 31
0.0
 40
0.588594106
 41
-0.467468364
 42
-0.4562987307
  0
ELLIPSE
  5
432
100
AcDbEntity
  8
ALL_ASSEMBLY_MEMBERS
100
AcDbEllipse
 62
7
  6
CONTINUOUS
 10
4.9927018634
 20
4.8569245675
 30
0.0
 11
0.4846322902
 21
0.0448830582
 31
0.0
 40
0.2379969588
 41
-0.2883920801
 42
-0.2735943692
  0
ELLIPSE
  5
433
100
AcDbEntity
  8
ALL_ASSEMBLY_MEMBERS
100
AcDbEllipse
 62
7
  6
CONTINUOUS
 10
4.9927018634
 20
4.8569245675
 30
0.0
 11
0.4821663537
 21
0.0446546814
 31
0.0
 40
0.2379969588
 41
-0.287968094
 42
-0.2730940792
  0
ELLIPSE
  5
434
100
AcDbEntity
  8
ALL_ASSEMBLY_MEMBERS
100
AcDbEllipse
 62
7
  6
CONTINUOUS
 10
4.9927018634
 20
5.0717392877
 30
0.0
 11
-0.1770585927
 21
1.7931580129
 31
0.0
 40
0.251654861
 41
-4.6403087193
 42
-4.6351990007
  0
ELLIPSE
  5
435
100
AcDbEntity
  8
ALL_ASSEMBLY_MEMBERS
100
AcDbEllipse
 62
7
  6
CONTINUOUS
 10
4.9927018634
 20
4.8993703999
 30
0.0
 11
-0.17705862
 21
1.7931559474
 31
0.0
 40
0.2516551449
 41
1.5283236754
 42
1.5334087178
  0
ELLIPSE
  5
436
100
AcDbEntity
  8
ALL_ASSEMBLY_MEMBERS
100
AcDbEllipse
 62
7
  6
CONTINUOUS
 10
4.9927018634
 20
4.9343976872
 30
0.0
 11
0.182988122
 21
1.4265173665
 31
0.0
 40
0.3128040763
 41
-4.6596770866
 42
-4.6545660318
  0
ELLIPSE
  5
437
100
AcDbEntity
  8
ALL_ASSEMBLY_MEMBERS
100
AcDbEllipse
 62
7
  6
CONTINUOUS
 10
4.9927018634
 20
4.9455520715
 30
0.0
 11
0.4817044969
 21
0.0691775694
 31
0.0
 40
0.3415054598
 41
9.0930249837
 42
9.0981465956
  0
ELLIPSE
  5
438
100
AcDbEntity
  8
ALL_ASSEMBLY_MEMBERS
100
AcDbEllipse
 62
7
  6
CONTINUOUS
 10
4.9927018634
 20
4.9343976872
 30
0.0
 11
0.1839239755
 21
1.4338129838
 31
0.0
 40
0.3128040763
 41
-4.6597412434
 42
-4.654656201
  0
ELLIPSE
  5
439
100
AcDbEntity
  8
ALL_ASSEMBLY_MEMBERS
100
AcDbEllipse
 62
7
  6
CONTINUOUS
 10
4.9927018634
 20
4.9455520715
 30
0.0
 11
0.4841680714
 21
0.0695313633
 31
0.0
 40
0.3415054598
 41
2.804406043
 42
2.8145971741
  0
ELLIPSE
  5
43A
100
AcDbEntity
  8
ALL_ASSEMBLY_MEMBERS
100
AcDbEllipse
 62
7
  6
CONTINUOUS
 10
4.9927018634
 20
4.9217498353
 30
0.0
 11
0.2565838281
 21
0.6978641712
 31
0.0
 40
0.5851642007
 41
-4.4827527582
 42
-4.4750852699
  0
ELLIPSE
  5
43B
100
AcDbEntity
  8
ALL_ASSEMBLY_MEMBERS
100
AcDbEllipse
 62
7
  6
CONTINUOUS
 10
4.9927018634
 20
4.9217498353
 30
0.0
 11
0.2578960711
 21
0.7014332479
 31
0.0
 40
0.5851642007
 41
-4.4828429274
 42
-4.4752144714
  0
ELLIPSE
  5
43C
100
AcDbEntity
  8
ALL_ASSEMBLY_MEMBERS
100
AcDbEllipse
 62
7
  6
CONTINUOUS
 10
4.9927018634
 20
4.8851113485
 30
0.0
 11
-0.207495773
 21
0.9858241387
 31
0.0
 40
0.4443956471
 41
-1.6766755349
 42
-1.6693064443
  0
ELLIPSE
  5
43D
100
AcDbEntity
  8
ALL_ASSEMBLY_MEMBERS
100
AcDbEllipse
 62
7
  6
CONTINUOUS
 10
4.9927018634
 20
4.8851113485
 30
0.0
 11
-0.2064399799
 21
0.9808080064
 31
0.0
 40
0.4443956471
 41
-1.676740052
 42
-1.6693332706
  0
ELLIPSE
  5
43E
100
AcDbEntity
  8
ALL_ASSEMBLY_MEMBERS
100
AcDbEllipse
 62
7
  6
CONTINUOUS
 10
4.9927018634
 20
4.880948177
 30
0.0
 11
-0.2800134072
 21
0.636735321
 31
0.0
 40
0.6214444929
 41
-1.8612406191
 42
-1.8501855787
  0
ELLIPSE
  5
43F
100
AcDbEntity
  8
ALL_ASSEMBLY_MEMBERS
100
AcDbEllipse
 62
7
  6
CONTINUOUS
 10
4.9927018634
 20
4.880948177
 30
0.0
 11
-0.2785886254
 21
0.6334954443
 31
0.0
 40
0.6214444929
 41
-1.8613616941
 42
-1.8502500958
  0
ELLIPSE
  5
440
100
AcDbEntity
  8
ALL_ASSEMBLY_MEMBERS
100
AcDbEllipse
 62
7
  6
CONTINUOUS
 10
4.9927018634
 20
4.8723558697
 30
0.0
 11
0.4782981758
 21
-0.1456294577
 31
0.0
 40
0.5412725914
 41
0.4702996175
 42
0.4887317785
  0
ELLIPSE
  5
441
100
AcDbEntity
  8
ALL_ASSEMBLY_MEMBERS
100
AcDbEllipse
 62
7
  6
CONTINUOUS
 10
4.9927018634
 20
4.8723558697
 30
0.0
 11
0.475864469
 21
-0.1448884567
 31
0.0
 40
0.5412725914
 41
0.4700841696
 42
0.4886107035
  0
ELLIPSE
  5
442
100
AcDbEntity
  8
ALL_ASSEMBLY_MEMBERS
100
AcDbEllipse
 62
7
  6
CONTINUOUS
 10
4.9927018634
 20
4.864021134
 30
0.0
 11
0.4847035229
 21
-0.0351494601
 31
0.0
 40
0.1909696071
 41
0.3023654898
 42
0.3208119973
  0
ELLIPSE
  5
443
100
AcDbEntity
  8
ALL_ASSEMBLY_MEMBERS
100
AcDbEllipse
 62
7
  6
CONTINUOUS
 10
4.9927018634
 20
4.864021134
 30
0.0
 11
0.482237224
 21
-0.0349706104
 31
0.0
 40
0.1909696071
 41
0.3020554476
 42
0.3205965494
  0
ELLIPSE
  5
444
100
AcDbEntity
  8
ALL_ASSEMBLY_MEMBERS
100
AcDbEllipse
 62
7
  6
CONTINUOUS
 10
4.9927018634
 20
4.9710280824
 30
0.0
 11
0.3528491689
 21
0.4769267529
 31
0.0
 40
0.6893673732
 41
-4.1693178615
 42
-4.1590668675
  0
ELLIPSE
  5
445
100
AcDbEntity
  8
ALL_ASSEMBLY_MEMBERS
100
AcDbEllipse
 62
7
  6
CONTINUOUS
 10
4.9927018634
 20
4.9126898883
 30
0.0
 11
0.4644757768
 21
0.2078622154
 31
0.0
 40
0.6246661769
 41
2.545321506
 42
2.5504339689
  0
ELLIPSE
  5
446
100
AcDbEntity
  8
ALL_ASSEMBLY_MEMBERS
100
AcDbEllipse
 62
7
  6
CONTINUOUS
 10
4.9927018634
 20
4.9126898883
 30
0.0
 11
0.4668512386
 21
0.2089252821
 31
0.0
 40
0.6246661769
 41
2.5451923044
 42
2.5502787336
  0
ELLIPSE
  5
447
100
AcDbEntity
  8
ALL_ASSEMBLY_MEMBERS
100
AcDbEllipse
 62
7
  6
CONTINUOUS
 10
4.9927018634
 20
4.9710280824
 30
0.0
 11
0.3546537404
 21
0.4793658925
 31
0.0
 40
0.6893673732
 41
-4.1696819759
 42
-4.1594834467
  0
ELLIPSE
  5
448
100
AcDbEntity
  8
ALL_ASSEMBLY_MEMBERS
100
AcDbEllipse
 62
7
  6
CONTINUOUS
 10
4.9927018634
 20
4.8909219973
 30
0.0
 11
0.4644757768
 21
-0.2078622154
 31
0.0
 40
0.6246661769
 41
-2.5504339689
 42
-2.545321506
  0
ELLIPSE
  5
449
100
AcDbEntity
  8
ALL_ASSEMBLY_MEMBERS
100
AcDbEllipse
 62
7
  6
CONTINUOUS
 10
4.9927018634
 20
4.8909219973
 30
0.0
 11
0.4668512386
 21
-0.2089252821
 31
0.0
 40
0.6246661769
 41
-2.5502787336
 42
-2.5451923044
  0
ELLIPSE
  5
44A
100
AcDbEntity
  8
ALL_ASSEMBLY_MEMBERS
100
AcDbEllipse
 62
7
  6
CONTINUOUS
 10
4.9927018634
 20
4.8863920184
 30
0.0
 11
-0.3528490951
 21
0.4769268928
 31
0.0
 40
0.6893673371
 41
1.0737775876
 42
1.0840006492
  0
ELLIPSE
  5
44B
100
AcDbEntity
  8
ALL_ASSEMBLY_MEMBERS
100
AcDbEllipse
 62
7
  6
CONTINUOUS
 10
4.9927018634
 20
4.8863920184
 30
0.0
 11
-0.3546536662
 21
0.4793660332
 31
0.0
 40
0.6893673371
 41
1.0739067891
 42
1.0840778115
  0
ELLIPSE
  5
44C
100
AcDbEntity
  8
ALL_ASSEMBLY_MEMBERS
100
AcDbEllipse
 62
7
  6
CONTINUOUS
 10
4.9927018634
 20
5.0147141827
 30
0.0
 11
0.1991461286
 21
1.0676108832
 31
0.0
 40
0.4114301116
 41
-4.5541034629
 42
-4.5489748047
  0
ELLIPSE
  5
44D
100
AcDbEntity
  8
ALL_ASSEMBLY_MEMBERS
100
AcDbEllipse
 62
7
  6
CONTINUOUS
 10
4.9927018634
 20
4.8674502732
 30
0.0
 11
-0.1761577058
 21
1.7840313981
 31
0.0
 40
0.251655214
 41
1.5307890648
 42
1.5358999382
  0
ELLIPSE
  5
44E
100
AcDbEntity
  8
ALL_ASSEMBLY_MEMBERS
100
AcDbEllipse
 62
7
  6
CONTINUOUS
 10
4.9927018634
 20
5.0147141827
 30
0.0
 11
0.2001646188
 21
1.0730709503
 31
0.0
 40
0.4114301116
 41
-4.5545200421
 42
-4.5494176646
  0
ELLIPSE
  5
44F
100
AcDbEntity
  8
ALL_ASSEMBLY_MEMBERS
100
AcDbEllipse
 62
7
  6
CONTINUOUS
 10
4.9927018634
 20
4.8674502732
 30
0.0
 11
-0.1770586266
 21
1.7931554444
 31
0.0
 40
0.251655214
 41
1.530866227
 42
1.5359510908
  0
ELLIPSE
  5
450
100
AcDbEntity
  8
ALL_ASSEMBLY_MEMBERS
100
AcDbEllipse
 62
7
  6
CONTINUOUS
 10
4.9927018634
 20
4.8978574545
 30
0.0
 11
0.1761577091
 21
1.7840311479
 31
0.0
 40
0.2516552486
 41
1.6056927228
 42
1.6108035962
  0
ELLIPSE
  5
451
100
AcDbEntity
  8
ALL_ASSEMBLY_MEMBERS
100
AcDbEllipse
 62
7
  6
CONTINUOUS
 10
4.9927018634
 20
4.8978574545
 30
0.0
 11
0.1770586299
 21
1.7931551929
 31
0.0
 40
0.2516552486
 41
-4.677543737
 42
-4.6724588732
  0
ELLIPSE
  5
452
100
AcDbEntity
  8
ALL_ASSEMBLY_MEMBERS
100
AcDbEllipse
 62
7
  6
CONTINUOUS
 10
4.9927018634
 20
4.8816216771
 30
0.0
 11
0.2565838006
 21
0.6978642627
 31
0.0
 40
0.5851641487
 41
-4.4853083988
 42
-4.4776413078
  0
ELLIPSE
  5
453
100
AcDbEntity
  8
ALL_ASSEMBLY_MEMBERS
100
AcDbEllipse
 62
7
  6
CONTINUOUS
 10
4.9927018634
 20
4.8816216771
 30
0.0
 11
0.2578960435
 21
0.70143334
 31
0.0
 40
0.5851641487
 41
-4.485385561
 42
-4.4777574963
  0
ELLIPSE
  5
454
100
AcDbEntity
  8
ALL_ASSEMBLY_MEMBERS
100
AcDbEllipse
 62
7
  6
CONTINUOUS
 10
4.9927018634
 20
4.9067586182
 30
0.0
 11
0.4847035229
 21
0.0351494568
 31
0.0
 40
0.1909695906
 41
-0.3208119948
 42
-0.3023654873
  0
ELLIPSE
  5
455
100
AcDbEntity
  8
ALL_ASSEMBLY_MEMBERS
100
AcDbEllipse
 62
7
  6
CONTINUOUS
 10
4.9927018634
 20
4.9067586182
 30
0.0
 11
0.482237224
 21
0.0349706071
 31
0.0
 40
0.1909695906
 41
-0.3205965469
 42
-0.3020554451
  0
ELLIPSE
  5
456
100
AcDbEntity
  8
ALL_ASSEMBLY_MEMBERS
100
AcDbEllipse
 62
7
  6
CONTINUOUS
 10
4.9927018634
 20
4.8984238832
 30
0.0
 11
0.4782981788
 21
0.1456294353
 31
0.0
 40
0.541272552
 41
-0.4887317412
 42
-0.4702995801
  0
ELLIPSE
  5
457
100
AcDbEntity
  8
ALL_ASSEMBLY_MEMBERS
100
AcDbEllipse
 62
7
  6
CONTINUOUS
 10
4.9927018634
 20
4.8984238832
 30
0.0
 11
0.4758644719
 21
0.1448884344
 31
0.0
 40
0.541272552
 41
-0.4732157386
 42
-0.4700841322
  0
ELLIPSE
  5
458
100
AcDbEntity
  8
ALL_ASSEMBLY_MEMBERS
100
AcDbEllipse
 62
7
  6
CONTINUOUS
 10
4.9927018634
 20
4.8751033278
 30
0.0
 11
0.4334452897
 21
0.3081329288
 31
0.0
 40
0.6863174268
 41
-3.9217468707
 42
-3.9089651839
  0
ELLIPSE
  5
459
100
AcDbEntity
  8
ALL_ASSEMBLY_MEMBERS
100
AcDbEllipse
 62
7
  6
CONTINUOUS
 10
4.9927018634
 20
4.8751033278
 30
0.0
 11
0.4356620527
 21
0.3097088087
 31
0.0
 40
0.6863174268
 41
-3.9218630593
 42
-3.9091464651
  0
ELLIPSE
  5
45A
100
AcDbEntity
  8
ALL_ASSEMBLY_MEMBERS
100
AcDbEllipse
 62
7
  6
CONTINUOUS
 10
4.9927018634
 20
4.8253779326
 30
0.0
 11
-0.1991462019
 21
1.0676098726
 31
0.0
 40
0.41143047
 41
1.4073819844
 42
1.4125106426
  0
ELLIPSE
  5
45B
100
AcDbEntity
  8
ALL_ASSEMBLY_MEMBERS
100
AcDbEllipse
 62
7
  6
CONTINUOUS
 10
4.9927018634
 20
4.8253779326
 30
0.0
 11
-0.2001646924
 21
1.0730699345
 31
0.0
 40
0.41143047
 41
1.4078248443
 42
1.4129272218
  0
ELLIPSE
  5
45C
100
AcDbEntity
  8
ALL_ASSEMBLY_MEMBERS
100
AcDbEllipse
 62
7
  6
CONTINUOUS
 10
4.9927018634
 20
4.8649369552
 30
0.0
 11
0.482064228
 21
0.0528515221
 31
0.0
 40
0.2751159905
 41
2.797985741
 42
2.8107732586
  0
ELLIPSE
  5
45D
100
AcDbEntity
  8
ALL_ASSEMBLY_MEMBERS
100
AcDbEllipse
 62
7
  6
CONTINUOUS
 10
4.9927018634
 20
4.8649369552
 30
0.0
 11
0.4845296422
 21
0.0531218199
 31
0.0
 40
0.2751159905
 41
2.7978044598
 42
2.8105267963
  0
ELLIPSE
  5
45E
100
AcDbEntity
  8
ALL_ASSEMBLY_MEMBERS
100
AcDbEllipse
 62
7
  6
CONTINUOUS
 10
4.9927018634
 20
4.6990404896
 30
0.0
 11
0.1761576753
 21
1.7840337033
 31
0.0
 40
0.2516548955
 41
1.4930826931
 42
1.4982188066
  0
ELLIPSE
  5
45F
100
AcDbEntity
  8
ALL_ASSEMBLY_MEMBERS
100
AcDbEllipse
 62
7
  6
CONTINUOUS
 10
4.9927018634
 20
4.8690639514
 30
0.0
 11
-0.3528491689
 21
0.4769267529
 31
0.0
 40
0.6893673732
 41
1.017474214
 42
1.0277252079
  0
ELLIPSE
  5
460
100
AcDbEntity
  8
ALL_ASSEMBLY_MEMBERS
100
AcDbEllipse
 62
7
  6
CONTINUOUS
 10
4.9927018634
 20
4.8690639514
 30
0.0
 11
-0.3546537404
 21
0.4793658925
 31
0.0
 40
0.6893673732
 41
1.0178907931
 42
1.0280893223
  0
ELLIPSE
  5
461
100
AcDbEntity
  8
ALL_ASSEMBLY_MEMBERS
100
AcDbEllipse
 62
7
  6
CONTINUOUS
 10
4.9927018634
 20
4.8945399622
 30
0.0
 11
0.4817044969
 21
-0.0691775694
 31
0.0
 40
0.3415054598
 41
-2.8149612884
 42
-2.8098396765
  0
ELLIPSE
  5
462
100
AcDbEntity
  8
ALL_ASSEMBLY_MEMBERS
100
AcDbEllipse
 62
7
  6
CONTINUOUS
 10
4.9927018634
 20
4.6990404896
 30
0.0
 11
0.177058596
 21
1.7931577614
 31
0.0
 40
0.2516548955
 41
1.4936063544
 42
1.498716073
  0
ELLIPSE
  5
463
100
AcDbEntity
  8
ALL_ASSEMBLY_MEMBERS
100
AcDbEllipse
 62
7
  6
CONTINUOUS
 10
4.9927018634
 20
4.8945399622
 30
0.0
 11
0.4841680714
 21
-0.0695313633
 31
0.0
 40
0.3415054598
 41
-2.8145971741
 42
-2.804406043
  0
ELLIPSE
  5
464
100
AcDbEntity
  8
ALL_ASSEMBLY_MEMBERS
100
AcDbEllipse
 62
7
  6
CONTINUOUS
 10
4.9927018634
 20
4.7800452057
 30
0.0
 11
0.2099434851
 21
0.9468963828
 31
0.0
 40
0.4585402825
 41
-4.7084918227
 42
-4.7007924332
  0
ELLIPSE
  5
465
100
AcDbEntity
  8
ALL_ASSEMBLY_MEMBERS
100
AcDbEllipse
 62
7
  6
CONTINUOUS
 10
4.9927018634
 20
4.7800452057
 30
0.0
 11
0.2110171961
 21
0.9517390814
 31
0.0
 40
0.4585402825
 41
-4.7079945563
 42
-4.7003346858
  0
ELLIPSE
  5
466
100
AcDbEntity
  8
ALL_ASSEMBLY_MEMBERS
100
AcDbEllipse
 62
7
  6
CONTINUOUS
 10
4.9927018634
 20
4.8269495153
 30
0.0
 11
0.4334452897
 21
0.3081329288
 31
0.0
 40
0.6863174268
 41
-4.0342992866
 42
-4.0214785888
  0
ELLIPSE
  5
467
100
AcDbEntity
  8
ALL_ASSEMBLY_MEMBERS
100
AcDbEllipse
 62
7
  6
CONTINUOUS
 10
4.9927018634
 20
4.8269495153
 30
0.0
 11
0.4356620527
 21
0.3097088087
 31
0.0
 40
0.6863174268
 41
-4.0338415392
 42
-4.0210865289
  0
ELLIPSE
  5
468
100
AcDbEntity
  8
ALL_ASSEMBLY_MEMBERS
100
AcDbEllipse
 62
7
  6
CONTINUOUS
 10
4.9927018634
 20
4.8488856998
 30
0.0
 11
0.4820642285
 21
0.052851487
 31
0.0
 40
0.2751158369
 41
2.6854723729
 42
2.6982804317
  0
ELLIPSE
  5
469
100
AcDbEntity
  8
ALL_ASSEMBLY_MEMBERS
100
AcDbEllipse
 62
7
  6
CONTINUOUS
 10
4.9927018634
 20
4.8488856998
 30
0.0
 11
0.4845296427
 21
0.0531217846
 31
0.0
 40
0.2751158369
 41
2.6858644329
 42
2.6986069975
  0
ELLIPSE
  5
46A
100
AcDbEntity
  8
ALL_ASSEMBLY_MEMBERS
100
AcDbEllipse
 62
7
  6
CONTINUOUS
 10
4.9927018634
 20
4.9090719233
 30
0.0
 11
0.4817044969
 21
0.0691775694
 31
0.0
 40
0.3415054598
 41
9.0930249837
 42
9.0981465956
  0
ELLIPSE
  5
46B
100
AcDbEntity
  8
ALL_ASSEMBLY_MEMBERS
100
AcDbEllipse
 62
7
  6
CONTINUOUS
 10
4.9927018634
 20
4.9166382992
 30
0.0
 11
-0.182988171
 21
1.4265155693
 31
0.0
 40
0.3128044563
 41
1.5564159305
 42
1.5615284492
  0
ELLIPSE
  5
46C
100
AcDbEntity
  8
ALL_ASSEMBLY_MEMBERS
100
AcDbEllipse
 62
7
  6
CONTINUOUS
 10
4.9927018634
 20
4.9090719233
 30
0.0
 11
0.4841680714
 21
0.0695313633
 31
0.0
 40
0.3415054598
 41
2.804406043
 42
2.8145971741
  0
ELLIPSE
  5
46D
100
AcDbEntity
  8
ALL_ASSEMBLY_MEMBERS
100
AcDbEllipse
 62
7
  6
CONTINUOUS
 10
4.9927018634
 20
4.9166382992
 30
0.0
 11
-0.1839240248
 21
1.4338111775
 31
0.0
 40
0.3128044563
 41
1.556285014
 42
1.5613714981
  0
ELLIPSE
  5
46E
100
AcDbEntity
  8
ALL_ASSEMBLY_MEMBERS
100
AcDbEllipse
 62
7
  6
CONTINUOUS
 10
4.9927018634
 20
4.9218099299
 30
0.0
 11
0.4644757236
 21
0.2078624458
 31
0.0
 40
0.6246664002
 41
2.5913732513
 42
2.6016242452
  0
ELLIPSE
  5
46F
100
AcDbEntity
  8
ALL_ASSEMBLY_MEMBERS
100
AcDbEllipse
 62
7
  6
CONTINUOUS
 10
4.9927018634
 20
4.9218099299
 30
0.0
 11
0.4668511851
 21
0.2089255137
 31
0.0
 40
0.6246664002
 41
2.5910091369
 42
2.601207666
  0
ELLIPSE
  5
470
100
AcDbEntity
  8
ALL_ASSEMBLY_MEMBERS
100
AcDbEllipse
 62
7
  6
CONTINUOUS
 10
4.9927018634
 20
4.9703499814
 30
0.0
 11
0.2099434699
 21
0.946896522
 31
0.0
 40
0.4585402229
 41
-4.5293809328
 42
-4.5216870953
  0
ELLIPSE
  5
471
100
AcDbEntity
  8
ALL_ASSEMBLY_MEMBERS
100
AcDbEllipse
 62
7
  6
CONTINUOUS
 10
4.9927018634
 20
4.9703499814
 30
0.0
 11
0.2110171808
 21
0.9517392213
 31
0.0
 40
0.4585402229
 41
-4.529797512
 42
-4.5221431086
  0
ELLIPSE
  5
472
100
AcDbEntity
  8
ALL_ASSEMBLY_MEMBERS
100
AcDbEllipse
 62
7
  6
CONTINUOUS
 10
4.9927018634
 20
4.8872940082
 30
0.0
 11
-0.4000667381
 21
0.3847573131
 31
0.0
 40
0.7000252448
 41
0.972439552
 42
0.9801098693
  0
ELLIPSE
  5
473
100
AcDbEntity
  8
ALL_ASSEMBLY_MEMBERS
100
AcDbEllipse
 62
7
  6
CONTINUOUS
 10
4.9927018634
 20
4.7949577637
 30
0.0
 11
-0.2099434885
 21
0.9468963521
 31
0.0
 40
0.4585402957
 41
1.3800943987
 42
1.3877882363
  0
ELLIPSE
  5
474
100
AcDbEntity
  8
ALL_ASSEMBLY_MEMBERS
100
AcDbEllipse
 62
7
  6
CONTINUOUS
 10
4.9927018634
 20
4.8872940082
 30
0.0
 11
-0.4021127937
 21
0.3867250719
 31
0.0
 40
0.7000252448
 41
0.9722826009
 42
0.9799138428
  0
ELLIPSE
  5
475
100
AcDbEntity
  8
ALL_ASSEMBLY_MEMBERS
100
AcDbEllipse
 62
7
  6
CONTINUOUS
 10
4.9927018634
 20
4.7949577637
 30
0.0
 11
-0.2110171995
 21
0.9517390505
 31
0.0
 40
0.4585402957
 41
1.380550412
 42
1.3882048155
  0
ENDSEC
  0
SECTION
  2
OBJECTS
  0
DICTIONARY
  5
C
100
AcDbDictionary
280
0
281
1
  3
ACAD_GROUP
350
D
  3
ACAD_MLINESTYLE
350
17
  3
ACAD_LAYOUT
350
1A
  3
ACAD_PLOTSETTINGS
350
19
  3
ACAD_PLOTSTYLENAME
350
E
  0
DICTIONARY
  5
D
102
{ACAD_REACTORS
330
C
102
}
100
AcDbDictionary
280
0
281
1
  0
ACDBDICTIONARYWDFLT
  5
E
102
{ACAD_REACTORS
330
C
102
}
100
AcDbDictionary
281
1
  3
Normal
350
F
100
AcDbDictionaryWithDefault
340
F
  0
DICTIONARY
  5
17
102
{ACAD_REACTORS
330
C
102
}
100
AcDbDictionary
280
0
281
1
  3
Standard
350
18
  0
DICTIONARY
  5
19
102
{ACAD_REACTORS
330
C
102
}
100
AcDbDictionary
281
1
  0
DICTIONARY
  5
1A
102
{ACAD_REACTORS
330
C
102
}
100
AcDbDictionary
281
1
  3
Model
350
476
  3
Layout1
350
477
  0
ACDBPLACEHOLDER
  5
F
102
{ACAD_REACTORS
330
E
102
}
  0
MLINESTYLE
  5
18
102
{ACAD_REACTORS
330
17
102
}
100
AcDbMlineStyle
  2
STANDARD
 70
0
  3

 62
256
 51
90.0
 52
90.0
 71
2
 49
0.5
 62
256
  6
BYLAYER
 49
-0.5
 62
256
  6
BYLAYER
  0
LAYOUT
  5
476
102
{ACAD_REACTORS
330
1A
102
}
100
AcDbPlotSettings
  1

  2
none_device
  4
ANSI_A_(11.00_x_8.50_Inches)
  6

 40
0.0
 41
0.0
 42
0.0
 43
0.0
 44
279.4
 45
215.9
 46
0.0
 47
0.0
 48
0.0
 49
0.0
140
0.0
141
0.0
142
1.0
143
1.0
 70
1024
 72
0
 73
0
 74
0
  7

 75
0
147
1.0
148
0.0
149
0.0
100
AcDbLayout
  1
Model
 70
0
 71
0
 10
0.0
 20
0.0
 11
11.0
 21
8.5
 12
0.0
 22
0.0
 32
0.0
 14
0.0
 24
0.0
 34
0.0
 15
0.0
 25
0.0
 35
0.0
146
0.0
 13
0.0
 23
0.0
 33
0.0
 16
1.0
 26
0.0
 36
0.0
 17
0.0
 27
1.0
 37
0.0
 76
0
330
220
345
0
346
0
  0
LAYOUT
  5
477
102
{ACAD_REACTORS
330
1A
102
}
100
AcDbPlotSettings
  1

  2
none_device
  4
ANSI_A_(11.00_x_8.50_Inches)
  6

 40
0.0
 41
0.0
 42
0.0
 43
0.0
 44
279.4
 45
215.9
 46
0.0
 47
0.0
 48
0.0
 49
0.0
140
0.0
141
0.0
142
1.0
143
1.0
 70
0
 72
0
 73
0
 74
0
  7

 75
0
147
1.0
148
0.0
149
0.0
100
AcDbLayout
  1
Layout1
 70
0
 71
1
 10
0.0
 20
0.0
 11
11.0
 21
8.5
 12
0.0
 22
0.0
 32
0.0
 14
0.0
 24
0.0
 34
0.0
 15
0.0
 25
0.0
 35
0.0
146
0.0
 13
0.0
 23
0.0
 33
0.0
 16
1.0
 26
0.0
 36
0.0
 17
0.0
 27
1.0
 37
0.0
 76
0
330
221
345
0
346
0
  0
ENDSEC
  0
EOF
