999
DXF file: 3-915_RIGHT.dxf
999
Pro/ENGINEER 2018400 by Parametric Technology Corporation
  0
SECTION
  2
HEADER
  9
$ACADVER
  1
AC1027
  9
$DWGCODEPAGE
  3
ANSI_1252
  9
$EXTMAX
 10
11.0
 20
8.5
 30
0.0
  9
$EXTMIN
 10
0.0
 20
0.0
 30
0.0
  9
$LIMMIN
 10
0.0
 20
0.0
  9
$LIMMAX
 10
11.0
 20
8.5
  9
$VIEWCTR
 10
5.5
 20
4.25
  9
$VIEWSIZE
 40
8.5
  9
$CLAYER
  8
0
  9
$LTSCALE
 40
0.605
  9
$CELTYPE
  6
BYLAYER
  9
$DIMSCALE
 40
1.0
  9
$DIMASZ
 40
0.1
  9
$DIMEXO
 40
0.0625
  9
$DIMDLI
 40
0.418
  9
$DIMEXE
 40
0.125
  9
$DIMCEN
 40
0.099
  9
$DIMLFAC
 40
1.0
  9
$DIMBLK
  1
_FILLED
  9
$DIMALT
 70
1
  9
$DIMALTD
 70
2
  9
$DIMALTTD
 70
2
  9
$DIMALTF
 40
25.4
  9
$DIMTXT
 40
0.08
  9
$DIMTOL
 70
1
  9
$DIMLIM
 70
0
  9
$DIMTFAC
 40
1.0
  9
$DIMTP
 40
0.001
  9
$DIMTM
 40
0.001
  9
$DIMGAP
 40
0.09
  9
$DIMDSEP
 70
46
  9
$AUNITS
 70
0
  9
$PDMODE
 70
3
  9
$PDSIZE
 40
0.3125
  9
$HANDSEED
  5
2B4
  9
$TILEMODE
 70
1
  9
$MEASUREMENT
 70
0
  9
$INSUNITS
 70
1
  0
ENDSEC
  0
SECTION
  2
CLASSES
  0
CLASS
  1
ACDBDICTIONARYWDFLT
  2
AcDbDictionaryWithDefault
  3
AutoCAD 2000
 90
0
 91
1
280
0
281
0
  0
CLASS
  1
ACDBPLACEHOLDER
  2
AcDbPlaceHolder
  3
AutoCAD 2000
 90
0
 91
1
280
0
281
0
  0
CLASS
  1
LAYOUT
  2
AcDbLayout
  3
AutoCAD 2000
 90
0
 91
0
280
0
281
0
  0
ENDSEC
  0
SECTION
  2
TABLES
  0
TABLE
  2
VPORT
  5
8
100
AcDbSymbolTable
 70
2
  0
VPORT
  5
1F4
100
AcDbSymbolTableRecord
100
AcDbViewportTableRecord
  2
*ACTIVE
 70
0
 10
0.0
 20
0.0
 11
1.0
 21
1.0
 12
5.5
 22
4.25
 13
0.0
 23
0.0
 14
1.0
 24
1.0
 15
0.0
 25
0.0
 16
0.0
 26
0.0
 36
1.0
 17
0.0
 27
0.0
 37
0.0
 40
8.5
 41
1.2941176471
 42
50.0
 43
0.0
 44
0.0
 50
0.0
 51
0.0
 71
0
 72
100
 73
1
 74
1
 75
0
 76
0
 77
0
 78
0
  0
ENDTAB
  0
TABLE
  2
LTYPE
  5
5
100
AcDbSymbolTable
 70
6
  0
LTYPE
  5
14
100
AcDbSymbolTableRecord
100
AcDbLinetypeTableRecord
  2
BYBLOCK
 70
0
  3

 72
65
 73
0
 40
0.0
  0
LTYPE
  5
15
100
AcDbSymbolTableRecord
100
AcDbLinetypeTableRecord
  2
BYLAYER
 70
0
  3

 72
65
 73
0
 40
0.0
  0
LTYPE
  5
16
100
AcDbSymbolTableRecord
100
AcDbLinetypeTableRecord
  2
CONTINUOUS
 70
64
  3
Solid line
 72
65
 73
0
 40
0.0
  0
LTYPE
  5
1F5
100
AcDbSymbolTableRecord
100
AcDbLinetypeTableRecord
  2
CENTER
 70
64
  3
____ _ ____ _ ____ _ ____ _ ____ _ ____ _ ____
 72
65
 73
4
 40
0.6
 49
0.375
 74
0
 49
-0.075
 74
0
 49
0.075
 74
0
 49
-0.075
 74
0
  0
LTYPE
  5
1F6
100
AcDbSymbolTableRecord
100
AcDbLinetypeTableRecord
  2
HIDDEN
 70
64
  3
- - - - - - - - - - - - - - - - - - - -
 72
65
 73
2
 40
0.2
 49
0.1
 74
0
 49
-0.1
 74
0
  0
LTYPE
  5
1F7
100
AcDbSymbolTableRecord
100
AcDbLinetypeTableRecord
  2
PHANTOM
 70
64
  3
_____ _ _ _____ _ _ _____ _ _ _____
 72
65
 73
6
 40
0.8
 49
0.45
 74
0
 49
-0.05
 74
0
 49
0.1
 74
0
 49
-0.05
 74
0
 49
0.1
 74
0
 49
-0.05
 74
0
  0
LTYPE
  5
1F8
100
AcDbSymbolTableRecord
100
AcDbLinetypeTableRecord
  2
DOT
 70
64
  3
. . . . . . . . . . . . . . . . . . . .
 72
65
 73
2
 40
0.2
 49
0.1
 74
0
 49
-0.1
 74
0
  0
LTYPE
  5
1F9
100
AcDbSymbolTableRecord
100
AcDbLinetypeTableRecord
  2
DASHED
 70
64
  3
- - - - - - - - - - - - - - - - - - - -
 72
65
 73
2
 40
0.2
 49
0.1
 74
0
 49
-0.1
 74
0
  0
ENDTAB
  0
TABLE
  2
LAYER
  5
2
100
AcDbSymbolTable
 70
36
  0
LAYER
  5
10
100
AcDbSymbolTableRecord
100
AcDbLayerTableRecord
  2
0
 70
0
 62
7
  6
CONTINUOUS
370
-3
390
F
  0
LAYER
  5
1FA
100
AcDbSymbolTableRecord
100
AcDbLayerTableRecord
  2
DEFAULT_1
 70
0
 62
7
  6
CENTER
370
-3
390
F
  0
LAYER
  5
1FB
100
AcDbSymbolTableRecord
100
AcDbLayerTableRecord
  2
DEFAULT_2
 70
0
 62
8
  6
HIDDEN
370
-3
390
F
  0
LAYER
  5
1FC
100
AcDbSymbolTableRecord
100
AcDbLayerTableRecord
  2
DEFAULT_3
 70
0
 62
7
  6
PHANTOM
370
-3
390
F
  0
LAYER
  5
1FD
100
AcDbSymbolTableRecord
100
AcDbLayerTableRecord
  2
_  SHELL
 70
0
 62
7
  6
CONTINUOUS
370
-3
390
F
  0
LAYER
  5
1FE
100
AcDbSymbolTableRecord
100
AcDbLayerTableRecord
  2
06___PRT_ALL_SURFS
 70
0
 62
7
  6
CONTINUOUS
370
-3
390
F
  0
LAYER
  5
1FF
100
AcDbSymbolTableRecord
100
AcDbLayerTableRecord
  2
2-144_ASSY_PLANES
 70
0
 62
7
  6
CONTINUOUS
370
-3
390
F
  0
LAYER
  5
200
100
AcDbSymbolTableRecord
100
AcDbLayerTableRecord
  2
ALL_ASSEMBLY_MEMBERS
 70
0
 62
7
  6
CONTINUOUS
370
-3
390
F
  0
LAYER
  5
201
100
AcDbSymbolTableRecord
100
AcDbLayerTableRecord
  2
ALL_FEATURES
 70
0
 62
7
  6
CONTINUOUS
370
-3
390
F
  0
LAYER
  5
202
100
AcDbSymbolTableRecord
100
AcDbLayerTableRecord
  2
AXES_FEATURES
 70
0
 62
7
  6
CONTINUOUS
370
-3
390
F
  0
LAYER
  5
203
100
AcDbSymbolTableRecord
100
AcDbLayerTableRecord
  2
CHAMFER_FEATURES
 70
0
 62
7
  6
CONTINUOUS
370
-3
390
F
  0
LAYER
  5
204
100
AcDbSymbolTableRecord
100
AcDbLayerTableRecord
  2
CURVES
 70
0
 62
7
  6
CONTINUOUS
370
-3
390
F
  0
LAYER
  5
205
100
AcDbSymbolTableRecord
100
AcDbLayerTableRecord
  2
CUT_FEATURES
 70
0
 62
7
  6
CONTINUOUS
370
-3
390
F
  0
LAYER
  5
206
100
AcDbSymbolTableRecord
100
AcDbLayerTableRecord
  2
DATUM_CURVES
 70
0
 62
7
  6
CONTINUOUS
370
-3
390
F
  0
LAYER
  5
207
100
AcDbSymbolTableRecord
100
AcDbLayerTableRecord
  2
DATUM_PLANES
 70
0
 62
7
  6
CONTINUOUS
370
-3
390
F
  0
LAYER
  5
208
100
AcDbSymbolTableRecord
100
AcDbLayerTableRecord
  2
DATUM_POINTS
 70
0
 62
7
  6
CONTINUOUS
370
-3
390
F
  0
LAYER
  5
209
100
AcDbSymbolTableRecord
100
AcDbLayerTableRecord
  2
DEFAULT_COORDINATE_SYSTEM
 70
0
 62
7
  6
CONTINUOUS
370
-3
390
F
  0
LAYER
  5
20A
100
AcDbSymbolTableRecord
100
AcDbLayerTableRecord
  2
DEFAULT_DATUM_AXES
 70
0
 62
7
  6
CONTINUOUS
370
-3
390
F
  0
LAYER
  5
20B
100
AcDbSymbolTableRecord
100
AcDbLayerTableRecord
  2
DEFAULT_DATUM_CURVES
 70
0
 62
7
  6
CONTINUOUS
370
-3
390
F
  0
LAYER
  5
20C
100
AcDbSymbolTableRecord
100
AcDbLayerTableRecord
  2
DEFAULT_DATUM_PLANES
 70
0
 62
7
  6
CONTINUOUS
370
-3
390
F
  0
LAYER
  5
20D
100
AcDbSymbolTableRecord
100
AcDbLayerTableRecord
  2
DEFAULT_SURFACES
 70
0
 62
7
  6
CONTINUOUS
370
-3
390
F
  0
LAYER
  5
20E
100
AcDbSymbolTableRecord
100
AcDbLayerTableRecord
  2
DIMENSIONS
 70
0
 62
7
  6
CONTINUOUS
370
-3
390
F
  0
LAYER
  5
20F
100
AcDbSymbolTableRecord
100
AcDbLayerTableRecord
  2
HOLE_FEATURES
 70
0
 62
7
  6
CONTINUOUS
370
-3
390
F
  0
LAYER
  5
210
100
AcDbSymbolTableRecord
100
AcDbLayerTableRecord
  2
INTF_BLANK
 70
0
 62
7
  6
CONTINUOUS
370
-3
390
F
  0
LAYER
  5
211
100
AcDbSymbolTableRecord
100
AcDbLayerTableRecord
  2
NOTES
 70
0
 62
7
  6
CONTINUOUS
370
-3
390
F
  0
LAYER
  5
212
100
AcDbSymbolTableRecord
100
AcDbLayerTableRecord
  2
PART_REFERENCE_DIMENSIONS
 70
0
 62
7
  6
CONTINUOUS
370
-3
390
F
  0
LAYER
  5
213
100
AcDbSymbolTableRecord
100
AcDbLayerTableRecord
  2
PLATEDSURFAREA
 70
0
 62
7
  6
CONTINUOUS
370
-3
390
F
  0
LAYER
  5
214
100
AcDbSymbolTableRecord
100
AcDbLayerTableRecord
  2
PLATED_SURFACE_AREA
 70
0
 62
7
  6
CONTINUOUS
370
-3
390
F
  0
LAYER
  5
215
100
AcDbSymbolTableRecord
100
AcDbLayerTableRecord
  2
POINTS
 70
0
 62
7
  6
CONTINUOUS
370
-3
390
F
  0
LAYER
  5
216
100
AcDbSymbolTableRecord
100
AcDbLayerTableRecord
  2
PROTRUSION_FEATURES
 70
0
 62
7
  6
CONTINUOUS
370
-3
390
F
  0
LAYER
  5
217
100
AcDbSymbolTableRecord
100
AcDbLayerTableRecord
  2
QUILTS
 70
0
 62
7
  6
CONTINUOUS
370
-3
390
F
  0
LAYER
  5
218
100
AcDbSymbolTableRecord
100
AcDbLayerTableRecord
  2
REFERENCE_DIMENSIONS
 70
0
 62
7
  6
CONTINUOUS
370
-3
390
F
  0
LAYER
  5
219
100
AcDbSymbolTableRecord
100
AcDbLayerTableRecord
  2
ROUND_FEATURES
 70
0
 62
7
  6
CONTINUOUS
370
-3
390
F
  0
LAYER
  5
21A
100
AcDbSymbolTableRecord
100
AcDbLayerTableRecord
  2
SHELL
 70
0
 62
7
  6
CONTINUOUS
370
-3
390
F
  0
LAYER
  5
21B
100
AcDbSymbolTableRecord
100
AcDbLayerTableRecord
  2
SURFACE_FEATURES
 70
0
 62
7
  6
CONTINUOUS
370
-3
390
F
  0
LAYER
  5
21C
100
AcDbSymbolTableRecord
100
AcDbLayerTableRecord
  2
___SHELL
 70
0
 62
7
  6
CONTINUOUS
370
-3
390
F
  0
ENDTAB
  0
TABLE
  2
STYLE
  5
3
100
AcDbSymbolTable
 70
1
  0
STYLE
  5
11
100
AcDbSymbolTableRecord
100
AcDbTextStyleTableRecord
  2
STANDARD
 70
0
 40
0.0
 41
0.8
 50
0.0
 71
0
 42
0.2
  3
txt
  4

  0
STYLE
  5
21D
100
AcDbSymbolTableRecord
100
AcDbTextStyleTableRecord
  2
TEXTSTYLE_1
 70
0
 40
0.0
 41
0.8
 50
0.0
 71
0
 42
0.2
  3
gdt
  4

  0
ENDTAB
  0
TABLE
  2
VIEW
  5
6
100
AcDbSymbolTable
 70
0
  0
ENDTAB
  0
TABLE
  2
UCS
  5
7
100
AcDbSymbolTable
 70
0
  0
ENDTAB
  0
TABLE
  2
APPID
  5
9
100
AcDbSymbolTable
 70
1
  0
APPID
  5
21E
100
AcDbSymbolTableRecord
100
AcDbRegAppTableRecord
  2
ACAD
 70
0
  0
ENDTAB
  0
TABLE
  2
BLOCK_RECORD
  5
1
100
AcDbSymbolTable
 70
0
  0
BLOCK_RECORD
  5
21F
100
AcDbSymbolTableRecord
100
AcDbBlockTableRecord
  2
*Model_Space
  0
BLOCK_RECORD
  5
220
100
AcDbSymbolTableRecord
100
AcDbBlockTableRecord
  2
*Paper_Space
  0
BLOCK_RECORD
  5
221
100
AcDbSymbolTableRecord
100
AcDbBlockTableRecord
  2
_FILLED
  0
ENDTAB
  0
TABLE
  2
DIMSTYLE
  5
A
100
AcDbSymbolTable
 70
1
100
AcDbDimStyleTable
 71
0
  0
DIMSTYLE
105
222
100
AcDbSymbolTableRecord
100
AcDbDimStyleTableRecord
  2
STANDARD
 70
0
  3

  4

 40
1.0
 41
0.1
 42
0.0625
 43
0.38
 44
0.125
 45
0.0
 46
0.0
 47
0.001
 48
0.001
140
0.08
141
0.09
142
0.0
143
25.4
144
1.0
145
0.0
146
1.0
147
0.09
 71
1.0
 72
0.0
 73
1
 74
1
 75
0
 76
0
 77
0
 78
4
 79
1
170
1
171
2
172
0
173
0
174
0
175
0
176
0
177
0
178
0
270
2
179
3
271
3
272
3
273
2
274
2
275
0
280
0
281
0
282
0
283
1
284
4
285
0
286
0
287
3
288
0
340
11
278
46
341
221
342
221
343
221
344
221
  0
ENDTAB
  0
ENDSEC
  0
SECTION
  2
BLOCKS
  0
BLOCK
  5
20
100
AcDbEntity
  8
0
100
AcDbBlockBegin
  2
*Model_Space
 70
0
 10
0.0
 20
0.0
 30
0.0
  3
*Model_Space
  1

  0
ENDBLK
  5
21
100
AcDbEntity
  8
0
100
AcDbBlockEnd
  0
BLOCK
  5
1C
100
AcDbEntity
  8
0
100
AcDbBlockBegin
  2
*Paper_Space
 70
0
 10
0.0
 20
0.0
 30
0.0
  3
*Paper_Space
  1

  0
ENDBLK
  5
1D
100
AcDbEntity
  8
0
100
AcDbBlockEnd
  0
BLOCK
  5
223
100
AcDbEntity
  8
0
100
AcDbBlockBegin
  2
_FILLED
 70
64
 10
0.0
 20
0.0
  3
_FILLED
  1

  0
SOLID
  5
224
100
AcDbEntity
  8
0
  6
BYBLOCK
 62
0
100
AcDbTrace
 10
0.0
 20
0.0
 11
-1.0
 21
0.2
 12
-1.0
 22
-0.2
 13
-1.0
 23
-0.2
  0
ENDBLK
  5
225
100
AcDbEntity
  8
0
  6
BYBLOCK
 62
0
100
AcDbBlockEnd
  0
ENDSEC
  0
SECTION
  2
ENTITIES
  0
MTEXT
  5
226
100
AcDbEntity
  8
0
100
AcDbMText
 62
2
  6
CONTINUOUS
  7
STANDARD
 71
3
 72
1
 10
4.1759841609
 20
1.5740411491
 30
0.0
 11
1.0
 21
0.0
 31
0.0
 73
2
 44
0.9
  1
SCALE  .500
 40
0.08
 41
0.704
  0
LINE
  5
227
100
AcDbEntity
  8
0
100
AcDbLine
 62
7
  6
CONTINUOUS
 10
0.0
 20
0.0
 11
0.0
 21
8.5
  0
LINE
  5
228
100
AcDbEntity
  8
0
100
AcDbLine
 62
7
  6
CONTINUOUS
 10
0.0
 20
0.0
 11
11.0
 21
0.0
  0
LINE
  5
229
100
AcDbEntity
  8
0
100
AcDbLine
 62
7
  6
CONTINUOUS
 10
0.0
 20
8.5
 11
11.0
 21
8.5
  0
LINE
  5
22A
100
AcDbEntity
  8
0
100
AcDbLine
 62
7
  6
CONTINUOUS
 10
11.0
 20
0.0
 11
11.0
 21
8.5
  0
LINE
  5
22B
100
AcDbEntity
  8
ALL_ASSEMBLY_MEMBERS
100
AcDbLine
 62
7
  6
CONTINUOUS
 10
4.1878283401
 20
1.9111607143
 11
3.4528617112
 21
1.9111607143
  0
LINE
  5
22C
100
AcDbEntity
  8
ALL_ASSEMBLY_MEMBERS
100
AcDbLine
 62
7
  6
CONTINUOUS
 10
6.9838450257
 20
2.0336610495
 11
7.2338450257
 21
2.0336610495
  0
LINE
  5
22D
100
AcDbEntity
  8
ALL_ASSEMBLY_MEMBERS
100
AcDbLine
 62
7
  6
CONTINUOUS
 10
7.2338450257
 20
2.1274429316
 11
6.9838450257
 21
2.1274429316
  0
LINE
  5
22E
100
AcDbEntity
  8
ALL_ASSEMBLY_MEMBERS
100
AcDbLine
 62
7
  6
CONTINUOUS
 10
3.4528452016
 20
2.2336607143
 11
3.4528452016
 21
1.9111607143
  0
LINE
  5
22F
100
AcDbEntity
  8
ALL_ASSEMBLY_MEMBERS
100
AcDbLine
 62
7
  6
CONTINUOUS
 10
3.5020806898
 20
2.2336607143
 11
3.5020806898
 21
1.9111607143
  0
LINE
  5
230
100
AcDbEntity
  8
ALL_ASSEMBLY_MEMBERS
100
AcDbLine
 62
7
  6
CONTINUOUS
 10
4.1878448497
 20
2.2336607143
 11
3.4528452016
 21
2.2336607143
  0
LINE
  5
231
100
AcDbEntity
  8
ALL_ASSEMBLY_MEMBERS
100
AcDbLine
 62
7
  6
CONTINUOUS
 10
3.8203450257
 20
2.2336607143
 11
3.8203450257
 21
1.9111607143
  0
LINE
  5
232
100
AcDbEntity
  8
ALL_ASSEMBLY_MEMBERS
100
AcDbLine
 62
7
  6
CONTINUOUS
 10
4.9838450257
 20
2.4089011879
 11
4.3203450257
 21
2.4089011879
  0
LWPOLYLINE
  5
233
100
AcDbEntity
  8
ALL_ASSEMBLY_MEMBERS
100
AcDbPolyline
 62
7
  6
CONTINUOUS
 90
6
 70
0
 10
6.6088450257
 20
2.7336607143
 10
6.6482009664
 20
2.7336631722
 10
6.6873058423
 20
2.7336622003
 10
6.7260925011
 20
2.7336607143
 10
6.7644925894
 20
2.7336602095
 10
6.8024366638
 20
2.7336607092
  0
LINE
  5
234
100
AcDbEntity
  8
ALL_ASSEMBLY_MEMBERS
100
AcDbLine
 62
7
  6
CONTINUOUS
 10
7.2338450257
 20
2.7336607143
 11
6.9838450257
 21
2.7336607143
  0
LINE
  5
235
100
AcDbEntity
  8
ALL_ASSEMBLY_MEMBERS
100
AcDbLine
 62
7
  6
CONTINUOUS
 10
4.3203450257
 20
2.7336607143
 11
6.8398543072
 21
2.7336607143
  0
LINE
  5
236
100
AcDbEntity
  8
ALL_ASSEMBLY_MEMBERS
100
AcDbLine
 62
7
  6
CONTINUOUS
 10
6.6088450257
 20
2.2194581308
 11
6.6075259248
 21
2.2198089921
  0
LINE
  5
237
100
AcDbEntity
  8
ALL_ASSEMBLY_MEMBERS
100
AcDbLine
 62
7
  6
CONTINUOUS
 10
6.6088450257
 20
2.2194581308
 11
6.6075335914
 21
2.2198305518
  0
LINE
  5
238
100
AcDbEntity
  8
ALL_ASSEMBLY_MEMBERS
100
AcDbLine
 62
7
  6
CONTINUOUS
 10
4.1386093616
 20
2.2336607143
 11
4.1386093616
 21
1.9111607143
  0
LINE
  5
239
100
AcDbEntity
  8
ALL_ASSEMBLY_MEMBERS
100
AcDbLine
 62
7
  6
CONTINUOUS
 10
4.1878448497
 20
1.9111607143
 11
4.1878448497
 21
2.2336607143
  0
LWPOLYLINE
  5
23A
100
AcDbEntity
  8
ALL_ASSEMBLY_MEMBERS
100
AcDbPolyline
 62
7
  6
CONTINUOUS
 90
25
 70
0
 10
4.1878448497
 20
2.2336607143
 10
4.1879008775
 20
2.2415729924
 10
4.188293795
 20
2.2545424225
 10
4.1891584159
 20
2.2672172322
 10
4.1905957655
 20
2.2796250907
 10
4.1926815853
 20
2.2917363188
 10
4.1954571688
 20
2.3034802414
 10
4.1989134532
 20
2.3147286465
 10
4.2030335046
 20
2.3254427837
 10
4.2078289964
 20
2.3356714985
 10
4.2132593123
 20
2.3453455632
 10
4.219254538
 20
2.3543845319
 10
4.2258100674
 20
2.3628213851
 10
4.2328643871
 20
2.3706061169
 10
4.2403360394
 20
2.3776873964
 10
4.2482180988
 20
2.3840903811
 10
4.2564462225
 20
2.3897846454
 10
4.2649389262
 20
2.3947400618
 10
4.2736839626
 20
2.3989708146
 10
4.2826143964
 20
2.4024591583
 10
4.291655509
 20
2.4051930691
 10
4.3007954525
 20
2.4071811595
 10
4.3099861546
 20
2.4084170845
 10
4.3191390209
 20
2.4088945873
 10
4.3203450257
 20
2.4089011879
  0
LINE
  5
23B
100
AcDbEntity
  8
ALL_ASSEMBLY_MEMBERS
100
AcDbLine
 62
7
  6
CONTINUOUS
 10
6.6088450257
 20
3.2478632978
 11
6.6075335805
 21
3.2474908737
  0
LINE
  5
23C
100
AcDbEntity
  8
ALL_ASSEMBLY_MEMBERS
100
AcDbLine
 62
7
  6
CONTINUOUS
 10
6.6088450257
 20
3.2478632978
 11
6.6075259139
 21
3.2475124335
  0
LINE
  5
23D
100
AcDbEntity
  8
ALL_ASSEMBLY_MEMBERS
100
AcDbLine
 62
7
  6
CONTINUOUS
 10
4.3203450257
 20
2.4089011879
 11
4.3203450257
 21
3.0584202407
  0
LWPOLYLINE
  5
23E
100
AcDbEntity
  8
ALL_ASSEMBLY_MEMBERS
100
AcDbPolyline
 62
7
  6
CONTINUOUS
 90
31
 70
0
 10
4.3203450257
 20
3.0584202407
 10
4.2788855509
 20
3.0575061002
 10
4.2309498529
 20
3.0541478176
 10
4.1835842266
 20
3.0483557854
 10
4.1368935689
 20
3.0401698083
 10
4.0909865079
 20
3.0296349446
 10
4.0459747318
 20
3.0168028069
 10
4.0019721273
 20
3.0017327465
 10
3.9590754534
 20
2.9844849847
 10
3.9173696577
 20
2.9651189038
 10
3.876959889
 20
2.9437079663
 10
3.8379412283
 20
2.920328252
 10
3.8003826374
 20
2.8950448362
 10
3.7643772322
 20
2.8679425637
 10
3.730015549
 20
2.8391135088
 10
3.6973614756
 20
2.8086343883
 10
3.666495543
 20
2.7766023209
 10
3.6374970104
 20
2.7431240656
 10
3.6104247068
 20
2.7082929503
 10
3.5853453843
 20
2.6722209862
 10
3.5623196786
 20
2.6350253995
 10
3.5413920948
 20
2.5968099771
 10
3.5226120902
 20
2.5576996158
 10
3.5060193845
 20
2.5178181175
 10
3.4916389323
 20
2.4772688759
 10
3.4795000435
 20
2.4361819033
 10
3.469623418
 20
2.3946873406
 10
3.4620174403
 20
2.3528886517
 10
3.456690338
 20
2.3109084686
 10
3.4536450407
 20
2.2688893146
 10
3.4528452016
 20
2.2336607143
  0
LINE
  5
23F
100
AcDbEntity
  8
ALL_ASSEMBLY_MEMBERS
100
AcDbLine
 62
7
  6
CONTINUOUS
 10
4.9838450257
 20
3.0584202407
 11
4.3203450257
 21
3.0584202407
  0
LINE
  5
240
100
AcDbEntity
  8
ALL_FEATURES
100
AcDbLine
 62
7
  6
CONTINUOUS
 10
6.5575368063
 20
6.0039107143
 11
6.6104956199
 21
6.0409777114
  0
LINE
  5
241
100
AcDbEntity
  8
ALL_ASSEMBLY_MEMBERS
100
AcDbLine
 62
7
  6
CONTINUOUS
 10
7.2338450257
 20
3.3398784969
 11
6.9838450257
 21
3.3398784969
  0
LINE
  5
242
100
AcDbEntity
  8
ALL_ASSEMBLY_MEMBERS
100
AcDbLine
 62
7
  6
CONTINUOUS
 10
7.2338450257
 20
3.4336603791
 11
6.9838450257
 21
3.4336603791
  0
LINE
  5
243
100
AcDbEntity
  8
ALL_ASSEMBLY_MEMBERS
100
AcDbLine
 62
7
  6
CONTINUOUS
 10
4.9838450257
 20
2.4089011879
 11
4.9838450257
 21
3.0584202407
  0
LINE
  5
244
100
AcDbEntity
  8
ALL_FEATURES
100
AcDbLine
 62
7
  6
CONTINUOUS
 10
6.8320950257
 20
6.0542424341
 11
6.8903727907
 21
6.1126885595
  0
LINE
  5
245
100
AcDbEntity
  8
ALL_ASSEMBLY_MEMBERS
100
AcDbLine
 62
7
  6
CONTINUOUS
 10
5.6088450257
 20
2.381837894
 11
5.6088450257
 21
3.0854835346
  0
LINE
  5
246
100
AcDbEntity
  8
ALL_ASSEMBLY_MEMBERS
100
AcDbLine
 62
7
  6
CONTINUOUS
 10
5.9313450257
 20
5.6024166116
 11
5.9313450257
 21
5.8649048169
  0
LINE
  5
247
100
AcDbEntity
  8
ALL_ASSEMBLY_MEMBERS
100
AcDbLine
 62
7
  6
CONTINUOUS
 10
5.9463450257
 20
5.8649107143
 11
5.9463450257
 21
5.6024107143
  0
LWPOLYLINE
  5
248
100
AcDbEntity
  8
ALL_ASSEMBLY_MEMBERS
100
AcDbPolyline
 62
7
  6
CONTINUOUS
 90
10
 70
0
 10
5.9945209882
 20
5.8656070268
 10
5.9912793127
 20
5.8386539376
 10
5.9885568272
 20
5.8087546573
 10
5.9867404285
 20
5.7787874642
 10
5.9858304909
 20
5.7487815527
 10
5.985827127
 20
5.7187625748
 10
5.986730343
 20
5.6887563595
 10
5.9885400399
 20
5.658788538
 10
5.9912558585
 20
5.6288882529
 10
5.99452099
 20
5.6017144018
  0
LINE
  5
249
100
AcDbEntity
  8
ALL_ASSEMBLY_MEMBERS
100
AcDbLine
 62
7
  6
CONTINUOUS
 10
5.9563450257
 20
5.5774107143
 11
5.9563450257
 21
5.8899107143
  0
LINE
  5
24A
100
AcDbEntity
  8
ALL_ASSEMBLY_MEMBERS
100
AcDbLine
 62
7
  6
CONTINUOUS
 10
5.9938450257
 20
5.6073400722
 11
5.9938450257
 21
5.5336623434
  0
LINE
  5
24B
100
AcDbEntity
  8
ALL_ASSEMBLY_MEMBERS
100
AcDbLine
 62
7
  6
CONTINUOUS
 10
5.9938450257
 20
5.8599866989
 11
5.9938450257
 21
5.9336590852
  0
LINE
  5
24C
100
AcDbEntity
  8
ALL_ASSEMBLY_MEMBERS
100
AcDbLine
 62
7
  6
CONTINUOUS
 10
6.0143430551
 20
5.6043747764
 11
6.0143430551
 21
5.5843747764
  0
LINE
  5
24D
100
AcDbEntity
  8
ALL_ASSEMBLY_MEMBERS
100
AcDbLine
 62
7
  6
CONTINUOUS
 10
6.0143430551
 20
5.8629466522
 11
6.0143430551
 21
5.8829466522
  0
LINE
  5
24E
100
AcDbEntity
  8
ALL_ASSEMBLY_MEMBERS
100
AcDbLine
 62
7
  6
CONTINUOUS
 10
6.1815089055
 20
5.6043747764
 11
6.1815089055
 21
5.5843747764
  0
LINE
  5
24F
100
AcDbEntity
  8
ALL_ASSEMBLY_MEMBERS
100
AcDbLine
 62
7
  6
CONTINUOUS
 10
6.1815089055
 20
5.8629466522
 11
6.1815089055
 21
5.8829466522
  0
LINE
  5
250
100
AcDbEntity
  8
ALL_ASSEMBLY_MEMBERS
100
AcDbLine
 62
7
  6
CONTINUOUS
 10
6.2313450257
 20
5.5336607227
 11
6.2313450257
 21
5.9336607059
  0
LINE
  5
251
100
AcDbEntity
  8
ALL_ASSEMBLY_MEMBERS
100
AcDbLine
 62
7
  6
CONTINUOUS
 10
6.2338450257
 20
2.3277113063
 11
6.2338450257
 21
3.1396101223
  0
LINE
  5
252
100
AcDbEntity
  8
ALL_ASSEMBLY_MEMBERS
100
AcDbLine
 62
7
  6
CONTINUOUS
 10
6.2413450257
 20
5.8899107143
 11
6.2413450257
 21
5.5774107143
  0
LINE
  5
253
100
AcDbEntity
  8
ALL_ASSEMBLY_MEMBERS
100
AcDbLine
 62
7
  6
CONTINUOUS
 10
6.3878450257
 20
5.5774107143
 11
6.3878450257
 21
5.8899107143
  0
LINE
  5
254
100
AcDbEntity
  8
ALL_FEATURES
100
AcDbLine
 62
7
  6
CONTINUOUS
 10
6.3903450257
 20
5.53423627
 11
6.3903450257
 21
5.9330840079
  0
LINE
  5
255
100
AcDbEntity
  8
ALL_FEATURES
100
AcDbLine
 62
7
  6
CONTINUOUS
 10
6.4045454034
 20
5.5187908506
 11
6.4045454034
 21
5.948530578
  0
LINE
  5
256
100
AcDbEntity
  8
ALL_FEATURES
100
AcDbLine
 62
7
  6
CONTINUOUS
 10
6.5575368063
 20
5.4634107143
 11
6.5575368063
 21
6.0039107143
  0
LINE
  5
257
100
AcDbEntity
  8
ALL_ASSEMBLY_MEMBERS
100
AcDbLine
 62
7
  6
CONTINUOUS
 10
6.6088450258
 20
3.2453774429
 11
6.6088450257
 21
3.2478632978
  0
LINE
  5
258
100
AcDbEntity
  8
ALL_ASSEMBLY_MEMBERS
100
AcDbLine
 62
7
  6
CONTINUOUS
 10
6.6088450258
 20
2.7361465695
 11
6.6088450258
 21
2.7311748593
  0
LINE
  5
259
100
AcDbEntity
  8
ALL_ASSEMBLY_MEMBERS
100
AcDbLine
 62
7
  6
CONTINUOUS
 10
6.6088450258
 20
2.221943986
 11
6.6088450257
 21
2.2194581308
  0
LINE
  5
25A
100
AcDbEntity
  8
ALL_FEATURES
100
AcDbLine
 62
7
  6
CONTINUOUS
 10
6.6104956199
 20
5.4263437172
 11
6.6104956199
 21
6.0409777114
  0
LINE
  5
25B
100
AcDbEntity
  8
ALL_FEATURES
100
AcDbLine
 62
7
  6
CONTINUOUS
 10
6.7245950257
 20
5.4244107143
 11
6.7245950257
 21
6.0429107143
  0
LINE
  5
25C
100
AcDbEntity
  8
ALL_FEATURES
100
AcDbLine
 62
7
  6
CONTINUOUS
 10
7.0153450257
 20
5.3546302626
 11
6.8903727546
 21
5.3546302626
  0
LINE
  5
25D
100
AcDbEntity
  8
ALL_FEATURES
100
AcDbLine
 62
7
  6
CONTINUOUS
 10
7.0153450257
 20
5.3631607143
 11
7.0463450257
 21
5.3631607143
  0
LINE
  5
25E
100
AcDbEntity
  8
ALL_FEATURES
100
AcDbLine
 62
7
  6
CONTINUOUS
 10
6.8320950257
 20
5.4130789945
 11
6.8320950257
 21
6.0542424341
  0
LINE
  5
25F
100
AcDbEntity
  8
ALL_ASSEMBLY_MEMBERS
100
AcDbLine
 62
7
  6
CONTINUOUS
 10
5.9938450257
 20
5.5336607143
 11
6.2313450257
 21
5.5336607143
  0
LINE
  5
260
100
AcDbEntity
  8
ALL_FEATURES
100
AcDbLine
 62
7
  6
CONTINUOUS
 10
7.0153450257
 20
5.5441454884
 11
6.8903729977
 21
5.5441454884
  0
LINE
  5
261
100
AcDbEntity
  8
ALL_ASSEMBLY_MEMBERS
100
AcDbLine
 62
7
  6
CONTINUOUS
 10
6.2413450257
 20
5.5774107143
 11
6.3878450257
 21
5.5774107143
  0
LINE
  5
262
100
AcDbEntity
  8
ALL_ASSEMBLY_MEMBERS
100
AcDbLine
 62
7
  6
CONTINUOUS
 10
6.0143430551
 20
5.5843747764
 11
6.1815089055
 21
5.5843747764
  0
LINE
  5
263
100
AcDbEntity
  8
ALL_ASSEMBLY_MEMBERS
100
AcDbLine
 62
7
  6
CONTINUOUS
 10
5.9313450257
 20
5.6024107143
 11
5.9463450257
 21
5.6024107143
  0
LINE
  5
264
100
AcDbEntity
  8
ALL_ASSEMBLY_MEMBERS
100
AcDbLine
 62
7
  6
CONTINUOUS
 10
6.0143461249
 20
5.6043747764
 11
6.1815058433
 21
5.6043747764
  0
LINE
  5
265
100
AcDbEntity
  8
ALL_ASSEMBLY_MEMBERS
100
AcDbLine
 62
7
  6
CONTINUOUS
 10
6.2234489927
 20
5.615886165
 11
6.2030188341
 21
5.615886165
  0
LINE
  5
266
100
AcDbEntity
  8
ALL_ASSEMBLY_MEMBERS
100
AcDbLine
 62
7
  6
CONTINUOUS
 10
6.9838450257
 20
2.0336610495
 11
6.9838450257
 21
3.4336603791
  0
LINE
  5
267
100
AcDbEntity
  8
ALL_FEATURES
100
AcDbLine
 62
7
  6
CONTINUOUS
 10
7.0153450257
 20
5.3546302626
 11
7.0153450257
 21
6.112691166
  0
LINE
  5
268
100
AcDbEntity
  8
ALL_FEATURES
100
AcDbLine
 62
7
  6
CONTINUOUS
 10
7.0463450257
 20
6.1401620512
 11
7.0463450257
 21
5.3271593774
  0
LINE
  5
269
100
AcDbEntity
  8
ALL_ASSEMBLY_MEMBERS
100
AcDbLine
 62
7
  6
CONTINUOUS
 10
6.2030188173
 20
5.8514352636
 11
6.2234476982
 21
5.8514352636
  0
LINE
  5
26A
100
AcDbEntity
  8
ALL_ASSEMBLY_MEMBERS
100
AcDbLine
 62
7
  6
CONTINUOUS
 10
6.1815066539
 20
5.8629466522
 11
6.0143453226
 21
5.8629466522
  0
LINE
  5
26B
100
AcDbEntity
  8
ALL_ASSEMBLY_MEMBERS
100
AcDbLine
 62
7
  6
CONTINUOUS
 10
5.9313450257
 20
5.8649107143
 11
5.9463450257
 21
5.8649107143
  0
LINE
  5
26C
100
AcDbEntity
  8
ALL_ASSEMBLY_MEMBERS
100
AcDbLine
 62
7
  6
CONTINUOUS
 10
6.1815089055
 20
5.8829466522
 11
6.0143430551
 21
5.8829466522
  0
LINE
  5
26D
100
AcDbEntity
  8
ALL_FEATURES
100
AcDbLine
 62
7
  6
CONTINUOUS
 10
7.1403450257
 20
5.2336607143
 11
7.1403450257
 21
6.2336607143
  0
LINE
  5
26E
100
AcDbEntity
  8
ALL_ASSEMBLY_MEMBERS
100
AcDbLine
 62
7
  6
CONTINUOUS
 10
7.2338450257
 20
2.0336610495
 11
7.2338450257
 21
3.4336603791
  0
LINE
  5
26F
100
AcDbEntity
  8
ALL_FEATURES
100
AcDbLine
 62
7
  6
CONTINUOUS
 10
7.2338450257
 20
5.1436607143
 11
7.2338450257
 21
6.3236607143
  0
LINE
  5
270
100
AcDbEntity
  8
ALL_ASSEMBLY_MEMBERS
100
AcDbLine
 62
7
  6
CONTINUOUS
 10
6.2413450257
 20
5.8899107143
 11
6.3878450257
 21
5.8899107143
  0
LINE
  5
271
100
AcDbEntity
  8
ALL_FEATURES
100
AcDbLine
 62
7
  6
CONTINUOUS
 10
7.0153450257
 20
5.9231759401
 11
6.8903727546
 21
5.9231759401
  0
LINE
  5
272
100
AcDbEntity
  8
ALL_ASSEMBLY_MEMBERS
100
AcDbLine
 62
7
  6
CONTINUOUS
 10
5.9938450257
 20
5.9336607143
 11
6.2313450257
 21
5.9336607143
  0
LINE
  5
273
100
AcDbEntity
  8
ALL_FEATURES
100
AcDbLine
 62
7
  6
CONTINUOUS
 10
6.5575368063
 20
5.4634107143
 11
6.6104956199
 21
5.4263437172
  0
LINE
  5
274
100
AcDbEntity
  8
ALL_FEATURES
100
AcDbLine
 62
7
  6
CONTINUOUS
 10
7.0153450257
 20
6.1041607143
 11
7.0463450257
 21
6.1041607143
  0
LINE
  5
275
100
AcDbEntity
  8
ALL_FEATURES
100
AcDbLine
 62
7
  6
CONTINUOUS
 10
7.0153450257
 20
6.112691166
 11
6.8903727546
 21
6.112691166
  0
LINE
  5
276
100
AcDbEntity
  8
ALL_FEATURES
100
AcDbLine
 62
7
  6
CONTINUOUS
 10
6.8320950257
 20
5.4130789945
 11
6.8903727908
 21
5.3546328689
  0
ARC
  5
277
100
AcDbEntity
  8
ALL_ASSEMBLY_MEMBERS
100
AcDbCircle
 62
7
  6
CONTINUOUS
 10
6.3338807574
 20
4.2741677853
 40
1.0625
100
AcDbArc
 50
284.998271183
 51
307.7147815403
  0
ARC
  5
278
100
AcDbEntity
  8
ALL_ASSEMBLY_MEMBERS
100
AcDbCircle
 62
7
  6
CONTINUOUS
 10
6.3338807574
 20
1.1931536432
 40
1.0625
100
AcDbArc
 50
52.2852184348
 51
75.001728817
  0
ARC
  5
279
100
AcDbEntity
  8
ALL_ASSEMBLY_MEMBERS
100
AcDbCircle
 62
7
  6
CONTINUOUS
 10
5.2172894209
 20
5.7336634499
 40
0.9728462662
100
AcDbArc
 50
352.3629456647
 51
7.6367286228
  0
ARC
  5
27A
100
AcDbEntity
  8
ALL_ASSEMBLY_MEMBERS
100
AcDbCircle
 62
7
  6
CONTINUOUS
 10
6.9783410799
 20
5.733663418
 40
0.9726267569
100
AcDbArc
 50
172.3615357075
 51
187.6387862896
  0
ARC
  5
27B
100
AcDbEntity
  8
ALL_FEATURES
100
AcDbCircle
 62
7
  6
CONTINUOUS
 10
6.3783433614
 20
5.2073912632
 40
0.3125
100
AcDbArc
 50
55.0110095298
 51
85.1903004544
  0
ARC
  5
27C
100
AcDbEntity
  8
ALL_FEATURES
100
AcDbCircle
 62
7
  6
CONTINUOUS
 10
6.3783433614
 20
6.2599301653
 40
0.3125
100
AcDbArc
 50
274.8096995456
 51
304.9889904702
  0
ARC
  5
27D
100
AcDbEntity
  8
ALL_FEATURES
100
AcDbCircle
 62
7
  6
CONTINUOUS
 10
6.6689772273
 20
5.5098982748
 40
0.1019875605
100
AcDbArc
 50
235.0110095298
 51
303.0478355064
  0
ARC
  5
27E
100
AcDbEntity
  8
ALL_FEATURES
100
AcDbCircle
 62
7
  6
CONTINUOUS
 10
6.6689772273
 20
5.9574231538
 40
0.1019875605
100
AcDbArc
 50
56.9521644936
 51
124.9889904702
  0
ARC
  5
27F
100
AcDbEntity
  8
ALL_FEATURES
100
AcDbCircle
 62
7
  6
CONTINUOUS
 10
7.2338450257
 20
6.2300926587
 40
0.0935680556
100
AcDbArc
 50
90.0
 51
177.8145949287
  0
ARC
  5
280
100
AcDbEntity
  8
ALL_FEATURES
100
AcDbCircle
 62
7
  6
CONTINUOUS
 10
7.2338450257
 20
5.2372287698
 40
0.0935680556
100
AcDbArc
 50
182.1854050713
 51
270.0
  0
ARC
  5
281
100
AcDbEntity
  8
ALL_FEATURES
100
AcDbCircle
 62
7
  6
CONTINUOUS
 10
7.1398450257
 20
6.1401620512
 40
0.0935
100
AcDbArc
 50
89.6936039968
 51
180.0
  0
ARC
  5
282
100
AcDbEntity
  8
ALL_FEATURES
100
AcDbCircle
 62
7
  6
CONTINUOUS
 10
7.1398450257
 20
5.3271593774
 40
0.0935
100
AcDbArc
 50
180.0
 51
270.3063960032
  0
ARC
  5
283
100
AcDbEntity
  8
ALL_FEATURES
100
AcDbCircle
 62
7
  6
CONTINUOUS
 10
6.7713645379
 20
5.3525234475
 40
0.0857622668
100
AcDbArc
 50
44.9173576842
 51
123.0478355064
  0
ARC
  5
284
100
AcDbEntity
  8
ALL_FEATURES
100
AcDbCircle
 62
7
  6
CONTINUOUS
 10
6.7713645379
 20
6.1147979811
 40
0.0857622668
100
AcDbArc
 50
236.9521644936
 51
315.0826423158
  0
ARC
  5
285
100
AcDbEntity
  8
ALL_ASSEMBLY_MEMBERS
100
AcDbCircle
 62
7
  6
CONTINUOUS
 10
5.9563450257
 20
5.9274107143
 40
0.0375
100
AcDbArc
 50
270.0
 51
360.0
  0
ARC
  5
286
100
AcDbEntity
  8
ALL_ASSEMBLY_MEMBERS
100
AcDbCircle
 62
7
  6
CONTINUOUS
 10
5.9563450257
 20
5.5399107143
 40
0.0375
100
AcDbArc
 50
0.0
 51
90.0
  0
ARC
  5
287
100
AcDbEntity
  8
ALL_ASSEMBLY_MEMBERS
100
AcDbCircle
 62
7
  6
CONTINUOUS
 10
6.0143430551
 20
5.8629466522
 40
0.02
100
AcDbArc
 50
90.0
 51
172.3955733961
  0
ARC
  5
288
100
AcDbEntity
  8
ALL_ASSEMBLY_MEMBERS
100
AcDbCircle
 62
7
  6
CONTINUOUS
 10
6.1815089055
 20
5.8629466522
 40
0.02
100
AcDbArc
 50
7.6385372688
 51
90.0
  0
ARC
  5
289
100
AcDbEntity
  8
ALL_ASSEMBLY_MEMBERS
100
AcDbCircle
 62
7
  6
CONTINUOUS
 10
6.1815089055
 20
5.6043747764
 40
0.02
100
AcDbArc
 50
270.0
 51
352.3614627122
  0
ARC
  5
28A
100
AcDbEntity
  8
ALL_ASSEMBLY_MEMBERS
100
AcDbCircle
 62
7
  6
CONTINUOUS
 10
6.0143430551
 20
5.6043747764
 40
0.02
100
AcDbArc
 50
187.6044272673
 51
270.0
  0
ARC
  5
28B
100
AcDbEntity
  8
ALL_FEATURES
100
AcDbCircle
 62
7
  6
CONTINUOUS
 10
6.4058450257
 20
5.53423627
 40
0.0155
100
AcDbArc
 50
180.0
 51
265.1903004544
  0
ARC
  5
28C
100
AcDbEntity
  8
ALL_FEATURES
100
AcDbCircle
 62
7
  6
CONTINUOUS
 10
6.4058450257
 20
5.9330851585
 40
0.0155
100
AcDbArc
 50
94.8096995456
 51
180.0
  0
ARC
  5
28D
100
AcDbEntity
  8
ALL_ASSEMBLY_MEMBERS
100
AcDbCircle
 62
7
  6
CONTINUOUS
 10
5.9463450257
 20
5.8749107143
 40
0.01
100
AcDbArc
 50
270.0
 51
360.0
  0
ARC
  5
28E
100
AcDbEntity
  8
ALL_ASSEMBLY_MEMBERS
100
AcDbCircle
 62
7
  6
CONTINUOUS
 10
5.9463450257
 20
5.5924107143
 40
0.01
100
AcDbArc
 50
0.0
 51
90.0
  0
ARC
  5
28F
100
AcDbEntity
  8
ALL_ASSEMBLY_MEMBERS
100
AcDbCircle
 62
7
  6
CONTINUOUS
 10
6.2413450257
 20
5.8999107143
 40
0.01
100
AcDbArc
 50
180.0
 51
270.0
  0
ARC
  5
290
100
AcDbEntity
  8
ALL_ASSEMBLY_MEMBERS
100
AcDbCircle
 62
7
  6
CONTINUOUS
 10
6.2413450257
 20
5.5674107143
 40
0.01
100
AcDbArc
 50
90.0
 51
180.0
  0
SPLINE
  5
291
100
AcDbEntity
  8
ALL_ASSEMBLY_MEMBERS
100
AcDbSpline
 62
7
  6
CONTINUOUS
 70
0
 71
3
 72
9
 73
5
 74
0
 42
0.0000001
 43
0.0000001
 44
0.0000000001
 40
0.0
 40
0.0
 40
0.0
 40
0.0
 40
0.4999999912
 40
1.0
 40
1.0
 40
1.0
 40
1.0
 10
6.2013307587
 20
5.6017141417
 30
0.0
 10
6.2071948068
 20
5.6454023312
 30
0.0
 10
6.2130743547
 20
5.7336607136
 30
0.0
 10
6.2071948067
 20
5.8219190958
 30
0.0
 10
6.2013307593
 20
5.865607287
 30
0.0
  0
LINE
  5
292
100
AcDbEntity
  8
ALL_ASSEMBLY_MEMBERS
100
AcDbLine
 62
7
  6
CONTINUOUS
 10
6.1815089055
 20
5.6043747765
 11
6.2013314289
 21
5.6017163084
  0
LINE
  5
293
100
AcDbEntity
  8
ALL_ASSEMBLY_MEMBERS
100
AcDbLine
 62
7
  6
CONTINUOUS
 10
6.1815089055
 20
5.8629466521
 11
6.2013314289
 21
5.8656051201
  0
SPLINE
  5
294
100
AcDbEntity
  8
ALL_ASSEMBLY_MEMBERS
100
AcDbSpline
 62
7
  6
CONTINUOUS
 70
0
 71
3
 72
10
 73
6
 74
0
 42
0.0000001
 43
0.0000001
 44
0.0000000001
 40
0.0
 40
0.0
 40
0.0
 40
0.0
 40
0.5099298019
 40
0.7580150505
 40
1.0
 40
1.0
 40
1.0
 40
1.0
 10
6.2234489927
 20
5.615886165
 30
0.0
 10
6.2202130553
 20
5.6173922867
 30
0.0
 10
6.2153397367
 20
5.6195003933
 30
0.0
 10
6.20879467
 20
5.6219836302
 30
0.0
 10
6.2055480155
 20
5.6230936323
 30
0.0
 10
6.2039352477
 20
5.6236112004
 30
0.0
  0
SPLINE
  5
295
100
AcDbEntity
  8
ALL_ASSEMBLY_MEMBERS
100
AcDbSpline
 62
7
  6
CONTINUOUS
 70
0
 71
3
 72
16
 73
12
 74
0
 42
0.0000001
 43
0.0000001
 44
0.0000000001
 40
0.0
 40
0.0
 40
0.0
 40
0.0
 40
0.2793018132
 40
0.4138727654
 40
0.5443215033
 40
0.6698508406
 40
0.7891238723
 40
0.8458648569
 40
0.9002444937
 40
0.9517760704
 40
1.0
 40
1.0
 40
1.0
 40
1.0
 10
6.2234490003
 20
5.6158862228
 30
0.0
 10
6.2219696627
 20
5.6182480251
 30
0.0
 10
6.219726528
 20
5.6217163147
 30
0.0
 10
6.2166675627
 20
5.6262043827
 30
0.0
 10
6.2144121985
 20
5.6293826419
 30
0.0
 10
6.2121737767
 20
5.6323845746
 30
0.0
 10
6.2103017679
 20
5.6347410298
 30
0.0
 10
6.2088149639
 20
5.6364945911
 30
0.0
 10
6.2077338259
 20
5.6377053084
 30
0.0
 10
6.2066716756
 20
5.6388179975
 30
0.0
 10
6.2059539487
 20
5.6395083514
 30
0.0
 10
6.2055975333
 20
5.6398316119
 30
0.0
  0
SPLINE
  5
296
100
AcDbEntity
  8
ALL_ASSEMBLY_MEMBERS
100
AcDbSpline
 62
7
  6
CONTINUOUS
 70
0
 71
3
 72
10
 73
6
 74
0
 42
0.0000001
 43
0.0000001
 44
0.0000000001
 40
0.0
 40
0.0
 40
0.0
 40
0.0
 40
0.2666000778
 40
0.5246334621
 40
1.0
 40
1.0
 40
1.0
 40
1.0
 10
6.2313450257
 20
5.7607550958
 30
0.0
 10
6.2310838206
 20
5.7688432699
 30
0.0
 10
6.2303377574
 20
5.7847534172
 30
0.0
 10
6.2280535577
 20
5.8150239095
 30
0.0
 10
6.2254907847
 20
5.837151157
 30
0.0
 10
6.2234489912
 20
5.8514352636
 30
0.0
  0
SPLINE
  5
297
100
AcDbEntity
  8
ALL_ASSEMBLY_MEMBERS
100
AcDbSpline
 62
7
  6
CONTINUOUS
 70
0
 71
3
 72
13
 73
9
 74
0
 42
0.0000001
 43
0.0000001
 44
0.0000000001
 40
0.0
 40
0.0
 40
0.0
 40
0.0
 40
0.2852101292
 40
0.5560467177
 40
0.6814824813
 40
0.7982041533
 40
0.9048033007
 40
1.0
 40
1.0
 40
1.0
 40
1.0
 10
6.2313450257
 20
5.760755069
 30
0.0
 10
6.229275794
 20
5.7606973275
 30
0.0
 10
6.2252396639
 20
5.7606460981
 30
0.0
 10
6.2202933113
 20
5.7607392859
 30
0.0
 10
6.2165740427
 20
5.7609169136
 30
0.0
 10
6.2140486198
 20
5.7610921483
 30
0.0
 10
6.2117469061
 20
5.7613103158
 30
0.0
 10
6.2102933285
 20
5.7614927937
 30
0.0
 10
6.2096097424
 20
5.7615932749
 30
0.0
  0
SPLINE
  5
298
100
AcDbEntity
  8
ALL_ASSEMBLY_MEMBERS
100
AcDbSpline
 62
7
  6
CONTINUOUS
 70
0
 71
3
 72
16
 73
12
 74
0
 42
0.0000001
 43
0.0000001
 44
0.0000000001
 40
0.0
 40
0.0
 40
0.0
 40
0.0
 40
0.2792979464
 40
0.4138667922
 40
0.5443128807
 40
0.6698460426
 40
0.7891174749
 40
0.8458630421
 40
0.9002406486
 40
0.9517701724
 40
1.0
 40
1.0
 40
1.0
 40
1.0
 10
6.2234490097
 20
5.8514358066
 30
0.0
 10
6.2219696901
 20
5.8490739388
 30
0.0
 10
6.2197265954
 20
5.845605548
 30
0.0
 10
6.216667829
 20
5.8411172471
 30
0.0
 10
6.2144123319
 20
5.8379389487
 30
0.0
 10
6.2121739051
 20
5.8349368822
 30
0.0
 10
6.2103017213
 20
5.8325803639
 30
0.0
 10
6.2088149184
 20
5.8308266975
 30
0.0
 10
6.2077336491
 20
5.8296160224
 30
0.0
 10
6.2066713416
 20
5.8285033951
 30
0.0
 10
6.205953574
 20
5.8278129879
 30
0.0
 10
6.2055971268
 20
5.8274896533
 30
0.0
  0
SPLINE
  5
299
100
AcDbEntity
  8
ALL_ASSEMBLY_MEMBERS
100
AcDbSpline
 62
7
  6
CONTINUOUS
 70
0
 71
3
 72
10
 73
6
 74
0
 42
0.0000001
 43
0.0000001
 44
0.0000000001
 40
0.0
 40
0.0
 40
0.0
 40
0.0
 40
0.5099257667
 40
0.7580098061
 40
1.0
 40
1.0
 40
1.0
 40
1.0
 10
6.2234476982
 20
5.8514352636
 30
0.0
 10
6.2202120481
 20
5.8499287363
 30
0.0
 10
6.2153388587
 20
5.8478206031
 30
0.0
 10
6.2087938507
 20
5.8453375588
 30
0.0
 10
6.2055472356
 20
5.844227539
 30
0.0
 10
6.2039344682
 20
5.8437099446
 30
0.0
  0
LINE
  5
29A
100
AcDbEntity
  8
ALL_ASSEMBLY_MEMBERS
100
AcDbLine
 62
7
  6
CONTINUOUS
 10
6.0143430551
 20
5.6043747765
 11
5.9945191088
 21
5.6017279171
  0
SPLINE
  5
29B
100
AcDbEntity
  8
ALL_ASSEMBLY_MEMBERS
100
AcDbSpline
 62
7
  6
CONTINUOUS
 70
0
 71
3
 72
10
 73
6
 74
0
 42
0.0000001
 43
0.0000001
 44
0.0000000001
 40
0.0
 40
0.0
 40
0.0
 40
0.0
 40
0.4753663985
 40
0.7333997728
 40
1.0
 40
1.0
 40
1.0
 40
1.0
 10
6.223449
 20
5.615886165
 30
0.0
 10
6.2254907838
 20
5.6301702685
 30
0.0
 10
6.2280535601
 20
5.6522975105
 30
0.0
 10
6.2303377562
 20
5.682568003
 30
0.0
 10
6.2310838107
 20
5.6984781546
 30
0.0
 10
6.2313450257
 20
5.7065663328
 30
0.0
  0
LINE
  5
29C
100
AcDbEntity
  8
ALL_ASSEMBLY_MEMBERS
100
AcDbLine
 62
7
  6
CONTINUOUS
 10
6.0143430551
 20
5.8629466521
 11
5.9945191088
 21
5.8655935111
  0
SPLINE
  5
29D
100
AcDbEntity
  8
ALL_ASSEMBLY_MEMBERS
100
AcDbSpline
 62
7
  6
CONTINUOUS
 70
0
 71
3
 72
13
 73
9
 74
0
 42
0.0000001
 43
0.0000001
 44
0.0000000001
 40
0.0
 40
0.0
 40
0.0
 40
0.0
 40
0.2852083554
 40
0.5560440207
 40
0.6814798185
 40
0.79820193
 40
0.9048019557
 40
1.0
 40
1.0
 40
1.0
 40
1.0
 10
6.2313450257
 20
5.7065663603
 30
0.0
 10
6.2292758083
 20
5.7066241055
 30
0.0
 10
6.2252397005
 20
5.7066753424
 30
0.0
 10
6.2202933703
 20
5.7065821655
 30
0.0
 10
6.2165741068
 20
5.7064045478
 30
0.0
 10
6.2140486752
 20
5.7062293203
 30
0.0
 10
6.2117469429
 20
5.70601116
 30
0.0
 10
6.2102933494
 20
5.7058286876
 30
0.0
 10
6.2096097533
 20
5.7057282094
 30
0.0
  0
SPLINE
  5
29E
100
AcDbEntity
  8
ALL_FEATURES
100
AcDbSpline
 62
7
  6
CONTINUOUS
 70
0
 71
3
 72
29
 73
25
 74
0
 42
0.0000001
 43
0.0000001
 44
0.0000000001
 40
0.0
 40
0.0
 40
0.0
 40
0.0
 40
0.0699560956
 40
0.1378465797
 40
0.2034893091
 40
0.2667669507
 40
0.297528584
 40
0.3277204745
 40
0.3865253344
 40
0.4152847763
 40
0.4437147736
 40
0.4719164081
 40
0.5000000428
 40
0.5280836737
 40
0.5562853068
 40
0.5847153038
 40
0.6134747372
 40
0.6722795854
 40
0.7024714671
 40
0.7332330892
 40
0.7965107186
 40
0.8621534258
 40
0.9300439033
 40
1.0
 40
1.0
 40
1.0
 40
1.0
 10
6.8903727545
 20
5.5441454884
 30
0.0
 10
6.8867434909
 20
5.5405057459
 30
0.0
 10
6.8797448012
 20
5.533178489
 30
0.0
 10
6.8700011641
 20
5.5218272571
 30
0.0
 10
6.861301235
 20
5.5102620808
 30
0.0
 10
6.8550020689
 20
5.500344233
 30
0.0
 10
6.8506784431
 20
5.4923009281
 30
0.0
 10
6.8469240302
 20
5.4843399023
 30
0.0
 10
6.8439065022
 20
5.4762029412
 30
0.0
 10
6.8417524181
 20
5.4679512572
 30
0.0
 10
6.840596875
 20
5.4617788747
 30
0.0
 10
6.8398981592
 20
5.4555882352
 30
0.0
 10
6.8396629109
 20
5.4493878662
 30
0.0
 10
6.8398981545
 20
5.4431874967
 30
0.0
 10
6.8405968832
 20
5.436996859
 30
0.0
 10
6.8417524213
 20
5.4308244767
 30
0.0
 10
6.8439065025
 20
5.4225727931
 30
0.0
 10
6.8469240379
 20
5.4144358371
 30
0.0
 10
6.8506784465
 20
5.4064748121
 30
0.0
 10
6.8550020738
 20
5.3984315106
 30
0.0
 10
6.8613012383
 20
5.3885136658
 30
0.0
 10
6.8700011656
 20
5.3769484919
 30
0.0
 10
6.8797448019
 20
5.365597262
 30
0.0
 10
6.886743491
 20
5.3582700051
 30
0.0
 10
6.8903727546
 20
5.3546302626
 30
0.0
  0
SPLINE
  5
29F
100
AcDbEntity
  8
ALL_FEATURES
100
AcDbSpline
 62
7
  6
CONTINUOUS
 70
0
 71
3
 72
29
 73
25
 74
0
 42
0.0000001
 43
0.0000001
 44
0.0000000001
 40
0.0
 40
0.0
 40
0.0
 40
0.0
 40
0.0624936885
 40
0.0937443635
 40
0.1249957632
 40
0.1874916419
 40
0.2499890101
 40
0.2812407905
 40
0.312493956
 40
0.3749917521
 40
0.4374906662
 40
0.4687450353
 40
0.5000000308
 40
0.5312550272
 40
0.5625093954
 40
0.625008299
 40
0.6875060758
 40
0.7187592389
 40
0.7500110174
 40
0.8125083567
 40
0.8750042153
 40
0.9062556239
 40
0.9375063123
 40
1.0
 40
1.0
 40
1.0
 40
1.0
 10
6.8903737171
 20
5.9231759401
 30
0.0
 10
6.8866940123
 20
5.9157952698
 30
0.0
 10
6.8813667997
 20
5.9046256034
 30
0.0
 10
6.874718525
 20
5.889528331
 30
0.0
 10
6.8683957987
 20
5.8742914031
 30
0.0
 10
6.8611511384
 20
5.8549778707
 30
0.0
 10
6.8549275997
 20
5.8353081778
 30
0.0
 10
6.8506495895
 20
5.8193739523
 30
0.0
 10
6.8468693067
 20
5.8033143864
 30
0.0
 10
6.8431262601
 20
5.7830203053
 30
0.0
 10
6.840824768
 20
5.7625095218
 30
0.0
 10
6.8398962632
 20
5.7460354595
 30
0.0
 10
6.83966464
 20
5.7336608527
 30
0.0
 10
6.8398962565
 20
5.721286246
 30
0.0
 10
6.8408247375
 20
5.7048121837
 30
0.0
 10
6.8431262188
 20
5.6843014026
 30
0.0
 10
6.8468692559
 20
5.6640073245
 30
0.0
 10
6.8506495175
 20
5.6479477569
 30
0.0
 10
6.8549274913
 20
5.6320135263
 30
0.0
 10
6.8611510402
 20
5.6123438402
 30
0.0
 10
6.8683958051
 20
5.593030356
 30
0.0
 10
6.8747183655
 20
5.5777933608
 30
0.0
 10
6.8813663139
 20
5.5626959429
 30
0.0
 10
6.8866932977
 20
5.551526161
 30
0.0
 10
6.8903729977
 20
5.5441454884
 30
0.0
  0
SPLINE
  5
2A0
100
AcDbEntity
  8
ALL_FEATURES
100
AcDbSpline
 62
7
  6
CONTINUOUS
 70
0
 71
3
 72
29
 73
25
 74
0
 42
0.0000001
 43
0.0000001
 44
0.0000000001
 40
0.0
 40
0.0
 40
0.0
 40
0.0
 40
0.0699560868
 40
0.13784658
 40
0.2034893097
 40
0.2667669502
 40
0.2975285836
 40
0.3277204742
 40
0.3865253343
 40
0.4152847762
 40
0.4437147735
 40
0.4719164081
 40
0.5000000428
 40
0.5280836737
 40
0.5562853068
 40
0.5847153039
 40
0.6134747373
 40
0.6722795856
 40
0.7024714675
 40
0.7332330897
 40
0.7965107179
 40
0.8621534255
 40
0.9300439121
 40
1.0
 40
1.0
 40
1.0
 40
1.0
 10
6.8903727545
 20
6.112691166
 30
0.0
 10
6.8867434942
 20
6.1090514211
 30
0.0
 10
6.8797448052
 20
6.1017241639
 30
0.0
 10
6.8700011631
 20
6.0903729361
 30
0.0
 10
6.8613012344
 20
6.0788077586
 30
0.0
 10
6.8550020692
 20
6.0688899104
 30
0.0
 10
6.8506784433
 20
6.0608466056
 30
0.0
 10
6.8469240302
 20
6.05288558
 30
0.0
 10
6.8439065021
 20
6.0447486188
 30
0.0
 10
6.8417524181
 20
6.0364969348
 30
0.0
 10
6.840596875
 20
6.0303245523
 30
0.0
 10
6.8398981592
 20
6.0241339128
 30
0.0
 10
6.8396629109
 20
6.0179335438
 30
0.0
 10
6.8398981545
 20
6.0117331743
 30
0.0
 10
6.8405968832
 20
6.0055425366
 30
0.0
 10
6.8417524213
 20
5.9993701543
 30
0.0
 10
6.8439065024
 20
5.9911184707
 30
0.0
 10
6.8469240378
 20
5.9829815147
 30
0.0
 10
6.8506784467
 20
5.9750204897
 30
0.0
 10
6.8550020741
 20
5.9669771884
 30
0.0
 10
6.8613012376
 20
5.9570593431
 30
0.0
 10
6.8700011646
 20
5.9454941681
 30
0.0
 10
6.8797448058
 20
5.9341429423
 30
0.0
 10
6.8867434943
 20
5.9268156851
 30
0.0
 10
6.8903727546
 20
5.9231759401
 30
0.0
  0
SPLINE
  5
2A1
100
AcDbEntity
  8
ALL_ASSEMBLY_MEMBERS
100
AcDbSpline
 62
7
  6
CONTINUOUS
 70
0
 71
3
 72
14
 73
10
 74
0
 42
0.0000001
 43
0.0000001
 44
0.0000000001
 40
0.0
 40
0.0
 40
0.0
 40
0.0
 40
0.1246803269
 40
0.2501716417
 40
0.5021432992
 40
0.6277686127
 40
0.7526744533
 40
0.8767080784
 40
1.0
 40
1.0
 40
1.0
 40
1.0
 10
6.6075259248
 20
2.2198089921
 30
0.0
 10
6.5918868992
 20
2.2239799084
 30
0.0
 10
6.5607035097
 20
2.2330897879
 30
0.0
 10
6.4987211644
 20
2.2532900985
 30
0.0
 10
6.4370991835
 20
2.2749369941
 30
0.0
 10
6.3750641187
 20
2.295129369
 30
0.0
 10
6.3283703765
 20
2.3087423949
 30
0.0
 10
6.2813729377
 20
2.3200723804
 30
0.0
 10
6.2497102528
 20
2.3255975078
 30
0.0
 10
6.2338450257
 20
2.3277113063
 30
0.0
  0
SPLINE
  5
2A2
100
AcDbEntity
  8
ALL_ASSEMBLY_MEMBERS
100
AcDbSpline
 62
7
  6
CONTINUOUS
 70
0
 71
3
 72
14
 73
10
 74
0
 42
0.0000001
 43
0.0000001
 44
0.0000000001
 40
0.0
 40
0.0
 40
0.0
 40
0.0
 40
0.124680327
 40
0.250171642
 40
0.5021432994
 40
0.6277686129
 40
0.7526744534
 40
0.8767080784
 40
1.0
 40
1.0
 40
1.0
 40
1.0
 10
6.6075259139
 20
3.2475124335
 30
0.0
 10
6.5918868888
 20
3.2433415172
 30
0.0
 10
6.5607035002
 20
3.2342316377
 30
0.0
 10
6.4987211568
 20
3.2140313275
 30
0.0
 10
6.4370991777
 20
3.1923844325
 30
0.0
 10
6.3750641147
 20
3.1721920584
 30
0.0
 10
6.3283703738
 20
3.1585790329
 30
0.0
 10
6.2813729363
 20
3.1472490479
 30
0.0
 10
6.2497102523
 20
3.1417239207
 30
0.0
 10
6.2338450257
 20
3.1396101223
 30
0.0
  0
SPLINE
  5
2A3
100
AcDbEntity
  8
ALL_ASSEMBLY_MEMBERS
100
AcDbSpline
 62
7
  6
CONTINUOUS
 70
0
 71
3
 72
11
 73
7
 74
0
 42
0.0000001
 43
0.0000001
 44
0.0000000001
 40
0.0
 40
0.0
 40
0.0
 40
0.0
 40
0.2531450581
 40
0.5028827946
 40
0.7512032553
 40
1.0
 40
1.0
 40
1.0
 40
1.0
 10
6.2338450257
 20
2.3277113063
 30
0.0
 10
6.1813607312
 20
2.3347040343
 30
0.0
 10
6.076879225
 20
2.3469846193
 30
0.0
 10
5.9204003519
 20
2.3613218737
 30
0.0
 10
5.7645881032
 20
2.3725935012
 30
0.0
 10
5.6607970954
 20
2.3788384399
 30
0.0
 10
5.6088450257
 20
2.381837894
 30
0.0
  0
SPLINE
  5
2A4
100
AcDbEntity
  8
ALL_ASSEMBLY_MEMBERS
100
AcDbSpline
 62
7
  6
CONTINUOUS
 70
0
 71
3
 72
11
 73
7
 74
0
 42
0.0000001
 43
0.0000001
 44
0.0000000001
 40
0.0
 40
0.0
 40
0.0
 40
0.0
 40
0.2531450581
 40
0.5028827946
 40
0.7512032553
 40
1.0
 40
1.0
 40
1.0
 40
1.0
 10
6.2338450257
 20
3.1396101223
 30
0.0
 10
6.1813607312
 20
3.1326173943
 30
0.0
 10
6.076879225
 20
3.1203368092
 30
0.0
 10
5.9204003519
 20
3.1059995549
 30
0.0
 10
5.7645881032
 20
3.0947279273
 30
0.0
 10
5.6607970954
 20
3.0884829887
 30
0.0
 10
5.6088450257
 20
3.0854835346
 30
0.0
  0
SPLINE
  5
2A5
100
AcDbEntity
  8
ALL_ASSEMBLY_MEMBERS
100
AcDbSpline
 62
7
  6
CONTINUOUS
 70
0
 71
3
 72
10
 73
6
 74
0
 42
0.0000001
 43
0.0000001
 44
0.0000000001
 40
0.0
 40
0.0
 40
0.0
 40
0.0
 40
0.2502732893
 40
0.6252867533
 40
1.0
 40
1.0
 40
1.0
 40
1.0
 10
5.6088450257
 20
2.381837894
 30
0.0
 10
5.5567360598
 20
2.3848464065
 30
0.0
 10
5.4265739125
 20
2.3928316434
 30
0.0
 10
5.2183535611
 20
2.4046717289
 30
0.0
 10
5.0619933408
 20
2.4089011879
 30
0.0
 10
4.9838450257
 20
2.4089011879
 30
0.0
  0
SPLINE
  5
2A6
100
AcDbEntity
  8
ALL_ASSEMBLY_MEMBERS
100
AcDbSpline
 62
7
  6
CONTINUOUS
 70
0
 71
3
 72
10
 73
6
 74
0
 42
0.0000001
 43
0.0000001
 44
0.0000000001
 40
0.0
 40
0.0
 40
0.0
 40
0.0
 40
0.2502732893
 40
0.6252867533
 40
1.0
 40
1.0
 40
1.0
 40
1.0
 10
5.6088450257
 20
3.0854835346
 30
0.0
 10
5.5567360598
 20
3.082475022
 30
0.0
 10
5.4265739125
 20
3.0744897851
 30
0.0
 10
5.2183535611
 20
3.0626496997
 30
0.0
 10
5.0619933408
 20
3.0584202407
 30
0.0
 10
4.9838450257
 20
3.0584202407
 30
0.0
  0
SPLINE
  5
2A7
100
AcDbEntity
  8
ALL_ASSEMBLY_MEMBERS
100
AcDbSpline
 62
7
  6
CONTINUOUS
 70
0
 71
3
 72
22
 73
18
 74
0
 42
0.0000001
 43
0.0000001
 44
0.0000000001
 40
0.0
 40
0.0
 40
0.0
 40
0.0
 40
0.0624669016
 40
0.1250162593
 40
0.1875575814
 40
0.2500669613
 40
0.3125650217
 40
0.3750709245
 40
0.4375763264
 40
0.5000813152
 40
0.5625853062
 40
0.6250927775
 40
0.6876013075
 40
0.7501018384
 40
0.812605495
 40
0.8751398795
 40
1.0
 40
1.0
 40
1.0
 40
1.0
 10
4.3203450257
 20
2.4089011879
 30
0.0
 10
4.3145085826
 20
2.4089011879
 30
0.0
 10
4.3028210356
 20
2.4083654231
 30
0.0
 10
4.2854387349
 20
2.405961473
 30
0.0
 10
4.2683498865
 20
2.4019467783
 30
0.0
 10
4.2517197529
 20
2.3963419879
 30
0.0
 10
4.2356986375
 20
2.3891860211
 30
0.0
 10
4.2204386831
 20
2.380524957
 30
0.0
 10
4.2060821073
 20
2.3704347747
 30
0.0
 10
4.1927808009
 20
2.3589888683
 30
0.0
 10
4.180663413
 20
2.3462955083
 30
0.0
 10
4.169863876
 20
2.3324624943
 30
0.0
 10
4.1604944454
 20
2.3176233749
 30
0.0
 10
4.1526599349
 20
2.3019204102
 30
0.0
 10
4.1464543031
 20
2.2854985684
 30
0.0
 10
4.1404605325
 20
2.2629045089
 30
0.0
 10
4.1386093616
 20
2.245326716
 30
0.0
 10
4.1386093616
 20
2.2336607143
 30
0.0
  0
SPLINE
  5
2A8
100
AcDbEntity
  8
ALL_ASSEMBLY_MEMBERS
100
AcDbSpline
 62
7
  6
CONTINUOUS
 70
0
 71
3
 72
27
 73
23
 74
0
 42
0.0000001
 43
0.0000001
 44
0.0000000001
 40
0.0
 40
0.0
 40
0.0
 40
0.0
 40
0.0624783385
 40
0.1250000378
 40
0.1874973765
 40
0.2499876976
 40
0.2812446129
 40
0.3125020229
 40
0.3437589188
 40
0.3750151601
 40
0.4375076955
 40
0.4999999872
 40
0.5624922791
 40
0.6249848158
 40
0.6562410581
 40
0.6874979553
 40
0.7187553666
 40
0.750012283
 40
0.8125026068
 40
0.8749999515
 40
0.9375216585
 40
1.0
 40
1.0
 40
1.0
 40
1.0
 10
4.3203450257
 20
2.7336607143
 30
0.0
 10
4.3039935953
 20
2.7336607143
 30
0.0
 10
4.2712571593
 20
2.7320481845
 30
0.0
 10
4.2226420011
 20
2.7248435619
 30
0.0
 10
4.174963583
 20
2.7128983694
 30
0.0
 10
4.1363959473
 20
2.6990968092
 30
0.0
 10
4.1064781944
 20
2.6858328126
 30
0.0
 10
4.0845476532
 20
2.6747955511
 30
0.0
 10
4.0631856136
 20
2.6626947638
 30
0.0
 10
4.035537685
 20
2.6451844043
 30
0.0
 10
4.0026347033
 20
2.6207860298
 30
0.0
 10
3.9662252815
 20
2.5877804727
 30
0.0
 10
3.9332197229
 20
2.5513710518
 30
0.0
 10
3.9088213465
 20
2.5184680707
 30
0.0
 10
3.8913109852
 20
2.4908201422
 30
0.0
 10
3.8792101976
 20
2.4694581016
 30
0.0
 10
3.8681729345
 20
2.4475275602
 30
0.0
 10
3.8549089357
 20
2.4176098067
 30
0.0
 10
3.8411073743
 20
2.3790421688
 30
0.0
 10
3.8291621791
 20
2.3313637469
 30
0.0
 10
3.8219575566
 20
2.2827485842
 30
0.0
 10
3.8203450257
 20
2.2500121454
 30
0.0
 10
3.8203450257
 20
2.2336607143
 30
0.0
  0
SPLINE
  5
2A9
100
AcDbEntity
  8
ALL_ASSEMBLY_MEMBERS
100
AcDbSpline
 62
7
  6
CONTINUOUS
 70
0
 71
3
 72
28
 73
24
 74
0
 42
0.0000001
 43
0.0000001
 44
0.0000000001
 40
0.0
 40
0.0
 40
0.0
 40
0.0
 40
0.062481283
 40
0.0937491134
 40
0.1250114227
 40
0.1875022331
 40
0.2499940862
 40
0.2812512802
 40
0.3125082063
 40
0.3750021494
 40
0.4062583853
 40
0.4375147236
 40
0.5000088023
 40
0.5625027704
 40
0.5937590426
 40
0.6250151081
 40
0.6875092866
 40
0.7500047146
 40
0.8124968578
 40
0.8749886233
 40
0.9062512177
 40
0.9375185378
 40
1.0
 40
1.0
 40
1.0
 40
1.0
 10
4.3203450257
 20
3.0584202407
 30
0.0
 10
4.293477031
 20
3.0584202407
 30
0.0
 10
4.2531261875
 20
3.0564030189
 30
0.0
 10
4.1997685399
 20
3.0497354577
 30
0.0
 10
4.1467998584
 20
3.0404211227
 30
0.0
 10
4.0815620152
 20
3.0238696298
 30
0.0
 10
4.0182854746
 20
3.0009425492
 30
0.0
 10
3.9692208012
 20
2.9789353642
 30
0.0
 10
3.9213037351
 20
2.9545328053
 30
0.0
 10
3.8752499236
 20
2.926607499
 30
0.0
 10
3.831452754
 20
2.8954105972
 30
0.0
 10
3.7892432372
 20
2.86209338
 30
0.0
 10
3.7396258607
 20
2.8166208779
 30
0.0
 10
3.6947132714
 20
2.76649652
 30
0.0
 10
3.661861668
 20
2.7239244968
 30
0.0
 10
3.631136741
 20
2.6797933713
 30
0.0
 10
3.5968287436
 20
2.6218894351
 30
0.0
 10
3.5626494885
 20
2.548734007
 30
0.0
 10
3.5357441048
 20
2.4726038171
 30
0.0
 10
3.5195945541
 20
2.4072669096
 30
0.0
 10
3.5105230144
 20
2.3542570722
 30
0.0
 10
3.5040371876
 20
2.3008776509
 30
0.0
 10
3.5020806898
 20
2.2605287861
 30
0.0
 10
3.5020806898
 20
2.2336607143
 30
0.0
  0
SPLINE
  5
2AA
100
AcDbEntity
  8
ALL_ASSEMBLY_MEMBERS
100
AcDbSpline
 62
7
  6
CONTINUOUS
 70
0
 71
3
 72
19
 73
15
 74
0
 42
0.0000001
 43
0.0000001
 44
0.0000000001
 40
0.0
 40
0.0
 40
0.0
 40
0.0
 40
0.1232365985
 40
0.1836503394
 40
0.2434732976
 40
0.3029345748
 40
0.3622930507
 40
0.4218256639
 40
0.4817922415
 40
0.5424276259
 40
0.6039590252
 40
0.7303832601
 40
0.8622931511
 40
1.0
 40
1.0
 40
1.0
 40
1.0
 10
6.8398543072
 20
3.3398782067
 30
0.0
 10
6.851053437
 20
3.3338132097
 30
0.0
 10
6.8672636476
 20
3.3238208451
 30
0.0
 10
6.8872922097
 20
3.3085656689
 30
0.0
 10
6.90126212
 20
3.2963045257
 30
0.0
 10
6.9142335509
 20
3.2831445007
 30
0.0
 10
6.9261766302
 20
3.2690825812
 30
0.0
 10
6.9370544635
 20
3.2541162155
 30
0.0
 10
6.946842074
 20
3.2382604456
 30
0.0
 10
6.9555220013
 20
3.2215387969
 30
0.0
 10
6.9656751076
 20
3.1979185713
 30
0.0
 10
6.9754527442
 20
3.1662226616
 30
0.0
 10
6.9823779223
 20
3.1257864024
 30
0.0
 10
6.983845009
 20
3.0978924186
 30
0.0
 10
6.9838450257
 20
3.0836610211
 30
0.0
  0
SPLINE
  5
2AB
100
AcDbEntity
  8
ALL_ASSEMBLY_MEMBERS
100
AcDbSpline
 62
7
  6
CONTINUOUS
 70
0
 71
3
 72
13
 73
9
 74
0
 42
0.0000001
 43
0.0000001
 44
0.0000000001
 40
0.0
 40
0.0
 40
0.0
 40
0.0
 40
0.2599118988
 40
0.5167447607
 40
0.6425699243
 40
0.7655341079
 40
0.8849264958
 40
1.0
 40
1.0
 40
1.0
 40
1.0
 10
6.8398543072
 20
2.7336607143
 30
0.0
 10
6.862580799
 20
2.7090452118
 30
0.0
 10
6.9034804451
 20
2.6559489332
 30
0.0
 10
6.9416519245
 20
2.5819113427
 30
0.0
 10
6.9634199197
 20
2.5203987263
 30
0.0
 10
6.9751106914
 20
2.4743285602
 30
0.0
 10
6.9821888627
 20
2.4287356848
 30
0.0
 10
6.9838450052
 20
2.3984943452
 30
0.0
 10
6.9838450257
 20
2.3836614415
 30
0.0
  0
SPLINE
  5
2AC
100
AcDbEntity
  8
ALL_ASSEMBLY_MEMBERS
100
AcDbSpline
 62
7
  6
CONTINUOUS
 70
0
 71
3
 72
16
 73
12
 74
0
 42
0.0000001
 43
0.0000001
 44
0.0000000001
 40
0.0
 40
0.0
 40
0.0
 40
0.0
 40
0.1150240187
 40
0.234329402
 40
0.3572276863
 40
0.4829847037
 40
0.6107994032
 40
0.739934296
 40
0.804833127
 40
0.8698599083
 40
1.0
 40
1.0
 40
1.0
 40
1.0
 10
6.9838450257
 20
3.0836605562
 30
0.0
 10
6.983845026
 20
3.0688257282
 30
0.0
 10
6.982190461
 20
3.038585081
 30
0.0
 10
6.9751098012
 20
2.9929921462
 30
0.0
 10
6.963419901
 20
2.9469265654
 30
0.0
 10
6.9472028575
 20
2.9010900967
 30
0.0
 10
6.9265792604
 20
2.8561745972
 30
0.0
 10
6.9059000954
 20
2.8201127687
 30
0.0
 10
6.8873572012
 20
2.7923068879
 30
0.0
 10
6.8674993806
 20
2.7652657774
 30
0.0
 10
6.8512400269
 20
2.7459928073
 30
0.0
 10
6.8398543072
 20
2.7336607143
 30
0.0
  0
SPLINE
  5
2AD
100
AcDbEntity
  8
ALL_ASSEMBLY_MEMBERS
100
AcDbSpline
 62
7
  6
CONTINUOUS
 70
0
 71
3
 72
20
 73
16
 74
0
 42
0.0000001
 43
0.0000001
 44
0.0000000001
 40
0.0
 40
0.0
 40
0.0
 40
0.0
 40
0.1377118482
 40
0.2695557548
 40
0.3334139477
 40
0.3960267819
 40
0.4575574534
 40
0.5181941951
 40
0.5781551255
 40
0.6376910974
 40
0.697055447
 40
0.7565151146
 40
0.8163326438
 40
0.8767430953
 40
1.0
 40
1.0
 40
1.0
 40
1.0
 10
6.9838450257
 20
2.3836608816
 30
0.0
 10
6.9838450257
 20
2.3694278942
 30
0.0
 10
6.9823820958
 20
2.3415413203
 30
0.0
 10
6.9765440576
 20
2.3074848065
 30
0.0
 10
6.9694762849
 20
2.281721394
 30
0.0
 10
6.9630743906
 20
2.2633589406
 30
0.0
 10
6.9555293262
 20
2.2457972917
 30
0.0
 10
6.9468535789
 20
2.2290729083
 30
0.0
 10
6.9370620751
 20
2.2132177473
 30
0.0
 10
6.9261841499
 20
2.198249517
 30
0.0
 10
6.9142419533
 20
2.1841838586
 30
0.0
 10
6.9012683561
 20
2.1710241579
 30
0.0
 10
6.8872996849
 20
2.1587612375
 30
0.0
 10
6.8672702676
 20
2.1435019076
 30
0.0
 10
6.851056127
 20
2.1335096757
 30
0.0
 10
6.8398543072
 20
2.1274432219
 30
0.0
  0
SPLINE
  5
2AE
100
AcDbEntity
  8
ALL_ASSEMBLY_MEMBERS
100
AcDbSpline
 62
7
  6
CONTINUOUS
 70
0
 71
3
 72
17
 73
13
 74
0
 42
0.0000001
 43
0.0000001
 44
0.0000000001
 40
0.0
 40
0.0
 40
0.0
 40
0.0
 40
0.1247802803
 40
0.2496373345
 40
0.3120934804
 40
0.3745634113
 40
0.4995399302
 40
0.6245625322
 40
0.6870921152
 40
0.7496355746
 40
0.8747785536
 40
1.0
 40
1.0
 40
1.0
 40
1.0
 10
6.6088450256
 20
2.736146557
 30
0.0
 10
6.6085315748
 20
2.7573253263
 30
0.0
 10
6.6080847962
 20
2.7996985916
 30
0.0
 10
6.6078034299
 20
2.8526748988
 30
0.0
 10
6.607672815
 20
2.8950746636
 30
0.0
 10
6.607584336
 20
2.9374948143
 30
0.0
 10
6.6075447086
 20
2.9905355344
 30
0.0
 10
6.6075846649
 20
3.0435863793
 30
0.0
 10
6.6076724727
 20
3.0860393008
 30
0.0
 10
6.6078029016
 20
3.1285125488
 30
0.0
 10
6.6080855424
 20
3.1816270942
 30
0.0
 10
6.6085320134
 20
3.2241237849
 30
0.0
 10
6.6088450256
 20
3.2453774555
 30
0.0
  0
SPLINE
  5
2AF
100
AcDbEntity
  8
ALL_ASSEMBLY_MEMBERS
100
AcDbSpline
 62
7
  6
CONTINUOUS
 70
0
 71
3
 72
15
 73
11
 74
0
 42
0.0000001
 43
0.0000001
 44
0.0000000001
 40
0.0
 40
0.0
 40
0.0
 40
0.0
 40
0.1251859395
 40
0.2502831919
 40
0.3753295636
 40
0.5003430594
 40
0.6253285435
 40
0.7502812922
 40
0.8751840065
 40
1.0
 40
1.0
 40
1.0
 40
1.0
 10
6.6088450258
 20
2.7361465695
 30
0.0
 10
6.6091593524
 20
2.7573941945
 30
0.0
 10
6.6095994624
 20
2.7998771745
 30
0.0
 10
6.609945566
 20
2.8635874179
 30
0.0
 10
6.6101123544
 20
2.9272690938
 30
0.0
 10
6.6101627471
 20
2.9909319585
 30
0.0
 10
6.6101122998
 20
3.0545789303
 30
0.0
 10
6.6099459328
 20
3.1182069388
 30
0.0
 10
6.6095996736
 20
3.181805466
 30
0.0
 10
6.6091599619
 20
3.2241926311
 30
0.0
 10
6.6088450258
 20
3.2453774429
 30
0.0
  0
SPLINE
  5
2B0
100
AcDbEntity
  8
ALL_ASSEMBLY_MEMBERS
100
AcDbSpline
 62
7
  6
CONTINUOUS
 70
0
 71
3
 72
17
 73
13
 74
0
 42
0.0000001
 43
0.0000001
 44
0.0000000001
 40
0.0
 40
0.0
 40
0.0
 40
0.0
 40
0.125221548
 40
0.2503642754
 40
0.3129077789
 40
0.3754374469
 40
0.500460052
 40
0.6254365718
 40
0.6879065958
 40
0.7503627919
 40
0.8752196173
 40
1.0
 40
1.0
 40
1.0
 40
1.0
 10
6.6088450256
 20
2.2219439735
 30
0.0
 10
6.6085317083
 20
2.2431976569
 30
0.0
 10
6.6080851204
 20
2.2856943241
 30
0.0
 10
6.6078035019
 20
2.3388088563
 30
0.0
 10
6.6076728331
 20
2.3812820824
 30
0.0
 10
6.6075843606
 20
2.423735025
 30
0.0
 10
6.6075447084
 20
2.476785886
 30
0.0
 10
6.6075846406
 20
2.5298266217
 30
0.0
 10
6.6076724547
 20
2.5722467981
 30
0.0
 10
6.6078028289
 20
2.6146465495
 30
0.0
 10
6.6080852192
 20
2.667622839
 30
0.0
 10
6.6085318807
 20
2.7099960808
 30
0.0
 10
6.6088450256
 20
2.7311748721
 30
0.0
  0
SPLINE
  5
2B1
100
AcDbEntity
  8
ALL_ASSEMBLY_MEMBERS
100
AcDbSpline
 62
7
  6
CONTINUOUS
 70
0
 71
3
 72
15
 73
11
 74
0
 42
0.0000001
 43
0.0000001
 44
0.0000000001
 40
0.0
 40
0.0
 40
0.0
 40
0.0
 40
0.1248160125
 40
0.2497187328
 40
0.3746714363
 40
0.4996569257
 40
0.6246704192
 40
0.7497167499
 40
0.8748140418
 40
1.0
 40
1.0
 40
1.0
 40
1.0
 10
6.6088450258
 20
2.221943986
 30
0.0
 10
6.6091596705
 20
2.2431288053
 30
0.0
 10
6.6095997535
 20
2.2855159692
 30
0.0
 10
6.6099456557
 20
2.3491144962
 30
0.0
 10
6.6101123783
 20
2.4127424973
 30
0.0
 10
6.610162747
 20
2.4763894625
 30
0.0
 10
6.6101122761
 20
2.5400523202
 30
0.0
 10
6.6099458427
 20
2.6037339971
 30
0.0
 10
6.6095993832
 20
2.6674442402
 30
0.0
 10
6.6091596425
 20
2.7099272355
 30
0.0
 10
6.6088450258
 20
2.7311748593
 30
0.0
  0
ENDSEC
  0
SECTION
  2
OBJECTS
  0
DICTIONARY
  5
C
100
AcDbDictionary
280
0
281
1
  3
ACAD_GROUP
350
D
  3
ACAD_MLINESTYLE
350
17
  3
ACAD_LAYOUT
350
1A
  3
ACAD_PLOTSETTINGS
350
19
  3
ACAD_PLOTSTYLENAME
350
E
  0
DICTIONARY
  5
D
102
{ACAD_REACTORS
330
C
102
}
100
AcDbDictionary
280
0
281
1
  0
ACDBDICTIONARYWDFLT
  5
E
102
{ACAD_REACTORS
330
C
102
}
100
AcDbDictionary
281
1
  3
Normal
350
F
100
AcDbDictionaryWithDefault
340
F
  0
DICTIONARY
  5
17
102
{ACAD_REACTORS
330
C
102
}
100
AcDbDictionary
280
0
281
1
  3
Standard
350
18
  0
DICTIONARY
  5
19
102
{ACAD_REACTORS
330
C
102
}
100
AcDbDictionary
281
1
  0
DICTIONARY
  5
1A
102
{ACAD_REACTORS
330
C
102
}
100
AcDbDictionary
281
1
  3
Model
350
2B2
  3
Layout1
350
2B3
  0
ACDBPLACEHOLDER
  5
F
102
{ACAD_REACTORS
330
E
102
}
  0
MLINESTYLE
  5
18
102
{ACAD_REACTORS
330
17
102
}
100
AcDbMlineStyle
  2
STANDARD
 70
0
  3

 62
256
 51
90.0
 52
90.0
 71
2
 49
0.5
 62
256
  6
BYLAYER
 49
-0.5
 62
256
  6
BYLAYER
  0
LAYOUT
  5
2B2
102
{ACAD_REACTORS
330
1A
102
}
100
AcDbPlotSettings
  1

  2
none_device
  4
ANSI_A_(11.00_x_8.50_Inches)
  6

 40
0.0
 41
0.0
 42
0.0
 43
0.0
 44
279.4
 45
215.9
 46
0.0
 47
0.0
 48
0.0
 49
0.0
140
0.0
141
0.0
142
1.0
143
1.0
 70
1024
 72
0
 73
0
 74
0
  7

 75
0
147
1.0
148
0.0
149
0.0
100
AcDbLayout
  1
Model
 70
0
 71
0
 10
0.0
 20
0.0
 11
11.0
 21
8.5
 12
0.0
 22
0.0
 32
0.0
 14
0.0
 24
0.0
 34
0.0
 15
0.0
 25
0.0
 35
0.0
146
0.0
 13
0.0
 23
0.0
 33
0.0
 16
1.0
 26
0.0
 36
0.0
 17
0.0
 27
1.0
 37
0.0
 76
0
330
21F
345
0
346
0
  0
LAYOUT
  5
2B3
102
{ACAD_REACTORS
330
1A
102
}
100
AcDbPlotSettings
  1

  2
none_device
  4
ANSI_A_(11.00_x_8.50_Inches)
  6

 40
0.0
 41
0.0
 42
0.0
 43
0.0
 44
279.4
 45
215.9
 46
0.0
 47
0.0
 48
0.0
 49
0.0
140
0.0
141
0.0
142
1.0
143
1.0
 70
0
 72
0
 73
0
 74
0
  7

 75
0
147
1.0
148
0.0
149
0.0
100
AcDbLayout
  1
Layout1
 70
0
 71
1
 10
0.0
 20
0.0
 11
11.0
 21
8.5
 12
0.0
 22
0.0
 32
0.0
 14
0.0
 24
0.0
 34
0.0
 15
0.0
 25
0.0
 35
0.0
146
0.0
 13
0.0
 23
0.0
 33
0.0
 16
1.0
 26
0.0
 36
0.0
 17
0.0
 27
1.0
 37
0.0
 76
0
330
220
345
0
346
0
  0
ENDSEC
  0
EOF
