999
DXF file: 3-915_TOP.dxf
999
Pro/ENGINEER 2018400 by Parametric Technology Corporation
  0
SECTION
  2
HEADER
  9
$ACADVER
  1
AC1027
  9
$DWGCODEPAGE
  3
ANSI_1252
  9
$EXTMAX
 10
11.0
 20
8.5
 30
0.0
  9
$EXTMIN
 10
0.0
 20
0.0
 30
0.0
  9
$LIMMIN
 10
0.0
 20
0.0
  9
$LIMMAX
 10
11.0
 20
8.5
  9
$VIEWCTR
 10
5.5
 20
4.25
  9
$VIEWSIZE
 40
8.5
  9
$CLAYER
  8
0
  9
$LTSCALE
 40
0.605
  9
$CELTYPE
  6
BYLAYER
  9
$DIMSCALE
 40
1.0
  9
$DIMASZ
 40
0.1
  9
$DIMEXO
 40
0.0625
  9
$DIMDLI
 40
0.418
  9
$DIMEXE
 40
0.125
  9
$DIMCEN
 40
0.099
  9
$DIMLFAC
 40
1.0
  9
$DIMBLK
  1
_FILLED
  9
$DIMALT
 70
1
  9
$DIMALTD
 70
2
  9
$DIMALTTD
 70
2
  9
$DIMALTF
 40
25.4
  9
$DIMTXT
 40
0.08
  9
$DIMTOL
 70
1
  9
$DIMLIM
 70
0
  9
$DIMTFAC
 40
1.0
  9
$DIMTP
 40
0.001
  9
$DIMTM
 40
0.001
  9
$DIMGAP
 40
0.09
  9
$DIMDSEP
 70
46
  9
$AUNITS
 70
0
  9
$PDMODE
 70
3
  9
$PDSIZE
 40
0.3125
  9
$HANDSEED
  5
39D
  9
$TILEMODE
 70
1
  9
$MEASUREMENT
 70
0
  9
$INSUNITS
 70
1
  0
ENDSEC
  0
SECTION
  2
CLASSES
  0
CLASS
  1
ACDBDICTIONARYWDFLT
  2
AcDbDictionaryWithDefault
  3
AutoCAD 2000
 90
0
 91
1
280
0
281
0
  0
CLASS
  1
ACDBPLACEHOLDER
  2
AcDbPlaceHolder
  3
AutoCAD 2000
 90
0
 91
1
280
0
281
0
  0
CLASS
  1
LAYOUT
  2
AcDbLayout
  3
AutoCAD 2000
 90
0
 91
0
280
0
281
0
  0
ENDSEC
  0
SECTION
  2
TABLES
  0
TABLE
  2
VPORT
  5
8
100
AcDbSymbolTable
 70
2
  0
VPORT
  5
1F4
100
AcDbSymbolTableRecord
100
AcDbViewportTableRecord
  2
*ACTIVE
 70
0
 10
0.0
 20
0.0
 11
1.0
 21
1.0
 12
5.5
 22
4.25
 13
0.0
 23
0.0
 14
1.0
 24
1.0
 15
0.0
 25
0.0
 16
0.0
 26
0.0
 36
1.0
 17
0.0
 27
0.0
 37
0.0
 40
8.5
 41
1.2941176471
 42
50.0
 43
0.0
 44
0.0
 50
0.0
 51
0.0
 71
0
 72
100
 73
1
 74
1
 75
0
 76
0
 77
0
 78
0
  0
ENDTAB
  0
TABLE
  2
LTYPE
  5
5
100
AcDbSymbolTable
 70
6
  0
LTYPE
  5
14
100
AcDbSymbolTableRecord
100
AcDbLinetypeTableRecord
  2
BYBLOCK
 70
0
  3

 72
65
 73
0
 40
0.0
  0
LTYPE
  5
15
100
AcDbSymbolTableRecord
100
AcDbLinetypeTableRecord
  2
BYLAYER
 70
0
  3

 72
65
 73
0
 40
0.0
  0
LTYPE
  5
16
100
AcDbSymbolTableRecord
100
AcDbLinetypeTableRecord
  2
CONTINUOUS
 70
64
  3
Solid line
 72
65
 73
0
 40
0.0
  0
LTYPE
  5
1F5
100
AcDbSymbolTableRecord
100
AcDbLinetypeTableRecord
  2
CENTER
 70
64
  3
____ _ ____ _ ____ _ ____ _ ____ _ ____ _ ____
 72
65
 73
4
 40
0.6
 49
0.375
 74
0
 49
-0.075
 74
0
 49
0.075
 74
0
 49
-0.075
 74
0
  0
LTYPE
  5
1F6
100
AcDbSymbolTableRecord
100
AcDbLinetypeTableRecord
  2
HIDDEN
 70
64
  3
- - - - - - - - - - - - - - - - - - - -
 72
65
 73
2
 40
0.2
 49
0.1
 74
0
 49
-0.1
 74
0
  0
LTYPE
  5
1F7
100
AcDbSymbolTableRecord
100
AcDbLinetypeTableRecord
  2
PHANTOM
 70
64
  3
_____ _ _ _____ _ _ _____ _ _ _____
 72
65
 73
6
 40
0.8
 49
0.45
 74
0
 49
-0.05
 74
0
 49
0.1
 74
0
 49
-0.05
 74
0
 49
0.1
 74
0
 49
-0.05
 74
0
  0
LTYPE
  5
1F8
100
AcDbSymbolTableRecord
100
AcDbLinetypeTableRecord
  2
DOT
 70
64
  3
. . . . . . . . . . . . . . . . . . . .
 72
65
 73
2
 40
0.2
 49
0.1
 74
0
 49
-0.1
 74
0
  0
LTYPE
  5
1F9
100
AcDbSymbolTableRecord
100
AcDbLinetypeTableRecord
  2
DASHED
 70
64
  3
- - - - - - - - - - - - - - - - - - - -
 72
65
 73
2
 40
0.2
 49
0.1
 74
0
 49
-0.1
 74
0
  0
ENDTAB
  0
TABLE
  2
LAYER
  5
2
100
AcDbSymbolTable
 70
36
  0
LAYER
  5
10
100
AcDbSymbolTableRecord
100
AcDbLayerTableRecord
  2
0
 70
0
 62
7
  6
CONTINUOUS
370
-3
390
F
  0
LAYER
  5
1FA
100
AcDbSymbolTableRecord
100
AcDbLayerTableRecord
  2
DEFAULT_1
 70
0
 62
7
  6
CENTER
370
-3
390
F
  0
LAYER
  5
1FB
100
AcDbSymbolTableRecord
100
AcDbLayerTableRecord
  2
DEFAULT_2
 70
0
 62
8
  6
HIDDEN
370
-3
390
F
  0
LAYER
  5
1FC
100
AcDbSymbolTableRecord
100
AcDbLayerTableRecord
  2
DEFAULT_3
 70
0
 62
7
  6
PHANTOM
370
-3
390
F
  0
LAYER
  5
1FD
100
AcDbSymbolTableRecord
100
AcDbLayerTableRecord
  2
_  SHELL
 70
0
 62
7
  6
CONTINUOUS
370
-3
390
F
  0
LAYER
  5
1FE
100
AcDbSymbolTableRecord
100
AcDbLayerTableRecord
  2
06___PRT_ALL_SURFS
 70
0
 62
7
  6
CONTINUOUS
370
-3
390
F
  0
LAYER
  5
1FF
100
AcDbSymbolTableRecord
100
AcDbLayerTableRecord
  2
2-144_ASSY_PLANES
 70
0
 62
7
  6
CONTINUOUS
370
-3
390
F
  0
LAYER
  5
200
100
AcDbSymbolTableRecord
100
AcDbLayerTableRecord
  2
ALL_ASSEMBLY_MEMBERS
 70
0
 62
7
  6
CONTINUOUS
370
-3
390
F
  0
LAYER
  5
201
100
AcDbSymbolTableRecord
100
AcDbLayerTableRecord
  2
ALL_FEATURES
 70
0
 62
7
  6
CONTINUOUS
370
-3
390
F
  0
LAYER
  5
202
100
AcDbSymbolTableRecord
100
AcDbLayerTableRecord
  2
AXES_FEATURES
 70
0
 62
7
  6
CONTINUOUS
370
-3
390
F
  0
LAYER
  5
203
100
AcDbSymbolTableRecord
100
AcDbLayerTableRecord
  2
CHAMFER_FEATURES
 70
0
 62
7
  6
CONTINUOUS
370
-3
390
F
  0
LAYER
  5
204
100
AcDbSymbolTableRecord
100
AcDbLayerTableRecord
  2
CURVES
 70
0
 62
7
  6
CONTINUOUS
370
-3
390
F
  0
LAYER
  5
205
100
AcDbSymbolTableRecord
100
AcDbLayerTableRecord
  2
CUT_FEATURES
 70
0
 62
7
  6
CONTINUOUS
370
-3
390
F
  0
LAYER
  5
206
100
AcDbSymbolTableRecord
100
AcDbLayerTableRecord
  2
DATUM_CURVES
 70
0
 62
7
  6
CONTINUOUS
370
-3
390
F
  0
LAYER
  5
207
100
AcDbSymbolTableRecord
100
AcDbLayerTableRecord
  2
DATUM_PLANES
 70
0
 62
7
  6
CONTINUOUS
370
-3
390
F
  0
LAYER
  5
208
100
AcDbSymbolTableRecord
100
AcDbLayerTableRecord
  2
DATUM_POINTS
 70
0
 62
7
  6
CONTINUOUS
370
-3
390
F
  0
LAYER
  5
209
100
AcDbSymbolTableRecord
100
AcDbLayerTableRecord
  2
DEFAULT_COORDINATE_SYSTEM
 70
0
 62
7
  6
CONTINUOUS
370
-3
390
F
  0
LAYER
  5
20A
100
AcDbSymbolTableRecord
100
AcDbLayerTableRecord
  2
DEFAULT_DATUM_AXES
 70
0
 62
7
  6
CONTINUOUS
370
-3
390
F
  0
LAYER
  5
20B
100
AcDbSymbolTableRecord
100
AcDbLayerTableRecord
  2
DEFAULT_DATUM_CURVES
 70
0
 62
7
  6
CONTINUOUS
370
-3
390
F
  0
LAYER
  5
20C
100
AcDbSymbolTableRecord
100
AcDbLayerTableRecord
  2
DEFAULT_DATUM_PLANES
 70
0
 62
7
  6
CONTINUOUS
370
-3
390
F
  0
LAYER
  5
20D
100
AcDbSymbolTableRecord
100
AcDbLayerTableRecord
  2
DEFAULT_SURFACES
 70
0
 62
7
  6
CONTINUOUS
370
-3
390
F
  0
LAYER
  5
20E
100
AcDbSymbolTableRecord
100
AcDbLayerTableRecord
  2
DIMENSIONS
 70
0
 62
7
  6
CONTINUOUS
370
-3
390
F
  0
LAYER
  5
20F
100
AcDbSymbolTableRecord
100
AcDbLayerTableRecord
  2
HOLE_FEATURES
 70
0
 62
7
  6
CONTINUOUS
370
-3
390
F
  0
LAYER
  5
210
100
AcDbSymbolTableRecord
100
AcDbLayerTableRecord
  2
INTF_BLANK
 70
0
 62
7
  6
CONTINUOUS
370
-3
390
F
  0
LAYER
  5
211
100
AcDbSymbolTableRecord
100
AcDbLayerTableRecord
  2
NOTES
 70
0
 62
7
  6
CONTINUOUS
370
-3
390
F
  0
LAYER
  5
212
100
AcDbSymbolTableRecord
100
AcDbLayerTableRecord
  2
PART_REFERENCE_DIMENSIONS
 70
0
 62
7
  6
CONTINUOUS
370
-3
390
F
  0
LAYER
  5
213
100
AcDbSymbolTableRecord
100
AcDbLayerTableRecord
  2
PLATEDSURFAREA
 70
0
 62
7
  6
CONTINUOUS
370
-3
390
F
  0
LAYER
  5
214
100
AcDbSymbolTableRecord
100
AcDbLayerTableRecord
  2
PLATED_SURFACE_AREA
 70
0
 62
7
  6
CONTINUOUS
370
-3
390
F
  0
LAYER
  5
215
100
AcDbSymbolTableRecord
100
AcDbLayerTableRecord
  2
POINTS
 70
0
 62
7
  6
CONTINUOUS
370
-3
390
F
  0
LAYER
  5
216
100
AcDbSymbolTableRecord
100
AcDbLayerTableRecord
  2
PROTRUSION_FEATURES
 70
0
 62
7
  6
CONTINUOUS
370
-3
390
F
  0
LAYER
  5
217
100
AcDbSymbolTableRecord
100
AcDbLayerTableRecord
  2
QUILTS
 70
0
 62
7
  6
CONTINUOUS
370
-3
390
F
  0
LAYER
  5
218
100
AcDbSymbolTableRecord
100
AcDbLayerTableRecord
  2
REFERENCE_DIMENSIONS
 70
0
 62
7
  6
CONTINUOUS
370
-3
390
F
  0
LAYER
  5
219
100
AcDbSymbolTableRecord
100
AcDbLayerTableRecord
  2
ROUND_FEATURES
 70
0
 62
7
  6
CONTINUOUS
370
-3
390
F
  0
LAYER
  5
21A
100
AcDbSymbolTableRecord
100
AcDbLayerTableRecord
  2
SHELL
 70
0
 62
7
  6
CONTINUOUS
370
-3
390
F
  0
LAYER
  5
21B
100
AcDbSymbolTableRecord
100
AcDbLayerTableRecord
  2
SURFACE_FEATURES
 70
0
 62
7
  6
CONTINUOUS
370
-3
390
F
  0
LAYER
  5
21C
100
AcDbSymbolTableRecord
100
AcDbLayerTableRecord
  2
___SHELL
 70
0
 62
7
  6
CONTINUOUS
370
-3
390
F
  0
ENDTAB
  0
TABLE
  2
STYLE
  5
3
100
AcDbSymbolTable
 70
1
  0
STYLE
  5
11
100
AcDbSymbolTableRecord
100
AcDbTextStyleTableRecord
  2
STANDARD
 70
0
 40
0.0
 41
0.8
 50
0.0
 71
0
 42
0.2
  3
txt
  4

  0
STYLE
  5
21D
100
AcDbSymbolTableRecord
100
AcDbTextStyleTableRecord
  2
TEXTSTYLE_1
 70
0
 40
0.0
 41
0.8
 50
0.0
 71
0
 42
0.2
  3
gdt
  4

  0
ENDTAB
  0
TABLE
  2
VIEW
  5
6
100
AcDbSymbolTable
 70
0
  0
ENDTAB
  0
TABLE
  2
UCS
  5
7
100
AcDbSymbolTable
 70
0
  0
ENDTAB
  0
TABLE
  2
APPID
  5
9
100
AcDbSymbolTable
 70
1
  0
APPID
  5
21E
100
AcDbSymbolTableRecord
100
AcDbRegAppTableRecord
  2
ACAD
 70
0
  0
ENDTAB
  0
TABLE
  2
BLOCK_RECORD
  5
1
100
AcDbSymbolTable
 70
0
  0
BLOCK_RECORD
  5
21F
100
AcDbSymbolTableRecord
100
AcDbBlockTableRecord
  2
*Model_Space
  0
BLOCK_RECORD
  5
220
100
AcDbSymbolTableRecord
100
AcDbBlockTableRecord
  2
*Paper_Space
  0
BLOCK_RECORD
  5
221
100
AcDbSymbolTableRecord
100
AcDbBlockTableRecord
  2
_FILLED
  0
ENDTAB
  0
TABLE
  2
DIMSTYLE
  5
A
100
AcDbSymbolTable
 70
1
100
AcDbDimStyleTable
 71
0
  0
DIMSTYLE
105
222
100
AcDbSymbolTableRecord
100
AcDbDimStyleTableRecord
  2
STANDARD
 70
0
  3

  4

 40
1.0
 41
0.1
 42
0.0625
 43
0.38
 44
0.125
 45
0.0
 46
0.0
 47
0.001
 48
0.001
140
0.08
141
0.09
142
0.0
143
25.4
144
1.0
145
0.0
146
1.0
147
0.09
 71
1.0
 72
0.0
 73
1
 74
1
 75
0
 76
0
 77
0
 78
4
 79
1
170
1
171
2
172
0
173
0
174
0
175
0
176
0
177
0
178
0
270
2
179
3
271
3
272
3
273
2
274
2
275
0
280
0
281
0
282
0
283
1
284
4
285
0
286
0
287
3
288
0
340
11
278
46
341
221
342
221
343
221
344
221
  0
ENDTAB
  0
ENDSEC
  0
SECTION
  2
BLOCKS
  0
BLOCK
  5
20
100
AcDbEntity
  8
0
100
AcDbBlockBegin
  2
*Model_Space
 70
0
 10
0.0
 20
0.0
 30
0.0
  3
*Model_Space
  1

  0
ENDBLK
  5
21
100
AcDbEntity
  8
0
100
AcDbBlockEnd
  0
BLOCK
  5
1C
100
AcDbEntity
  8
0
100
AcDbBlockBegin
  2
*Paper_Space
 70
0
 10
0.0
 20
0.0
 30
0.0
  3
*Paper_Space
  1

  0
ENDBLK
  5
1D
100
AcDbEntity
  8
0
100
AcDbBlockEnd
  0
BLOCK
  5
223
100
AcDbEntity
  8
0
100
AcDbBlockBegin
  2
_FILLED
 70
64
 10
0.0
 20
0.0
  3
_FILLED
  1

  0
SOLID
  5
224
100
AcDbEntity
  8
0
  6
BYBLOCK
 62
0
100
AcDbTrace
 10
0.0
 20
0.0
 11
-1.0
 21
0.2
 12
-1.0
 22
-0.2
 13
-1.0
 23
-0.2
  0
ENDBLK
  5
225
100
AcDbEntity
  8
0
  6
BYBLOCK
 62
0
100
AcDbBlockEnd
  0
ENDSEC
  0
SECTION
  2
ENTITIES
  0
MTEXT
  5
226
100
AcDbEntity
  8
0
100
AcDbMText
 62
2
  6
CONTINUOUS
  7
STANDARD
 71
3
 72
1
 10
3.2459821429
 20
1.8907978315
 30
0.0
 11
1.0
 21
0.0
 31
0.0
 73
2
 44
0.9
  1
SCALE  .500
 40
0.08
 41
0.704
  0
LINE
  5
227
100
AcDbEntity
  8
0
100
AcDbLine
 62
7
  6
CONTINUOUS
 10
0.0
 20
0.0
 11
0.0
 21
8.5
  0
LINE
  5
228
100
AcDbEntity
  8
0
100
AcDbLine
 62
7
  6
CONTINUOUS
 10
0.0
 20
0.0
 11
11.0
 21
0.0
  0
LINE
  5
229
100
AcDbEntity
  8
0
100
AcDbLine
 62
7
  6
CONTINUOUS
 10
0.0
 20
8.5
 11
11.0
 21
8.5
  0
LINE
  5
22A
100
AcDbEntity
  8
0
100
AcDbLine
 62
7
  6
CONTINUOUS
 10
11.0
 20
0.0
 11
11.0
 21
8.5
  0
LINE
  5
22B
100
AcDbEntity
  8
ALL_ASSEMBLY_MEMBERS
100
AcDbLine
 62
7
  6
CONTINUOUS
 10
1.9709357089
 20
4.974389765
 11
1.9708590711
 21
4.9831935378
  0
LINE
  5
22C
100
AcDbEntity
  8
ALL_ASSEMBLY_MEMBERS
100
AcDbLine
 62
7
  6
CONTINUOUS
 10
1.9508517081
 20
4.7787789188
 11
1.9508517081
 21
4.9631890952
  0
LINE
  5
22D
100
AcDbEntity
  8
ALL_ASSEMBLY_MEMBERS
100
AcDbLine
 62
7
  6
CONTINUOUS
 10
1.9715530309
 20
4.7874082175
 11
1.9715530309
 21
4.9545619531
  0
LINE
  5
22E
100
AcDbEntity
  8
ALL_ASSEMBLY_MEMBERS
100
AcDbLine
 62
7
  6
CONTINUOUS
 10
1.9713839453
 20
4.7587815671
 11
1.9714557007
 21
4.7675891547
  0
LINE
  5
22F
100
AcDbEntity
  8
ALL_FEATURES
100
AcDbLine
 62
7
  6
CONTINUOUS
 10
3.0053517081
 20
5.8194040319
 11
3.0053517081
 21
5.7884040319
  0
LINE
  5
230
100
AcDbEntity
  8
ALL_FEATURES
100
AcDbLine
 62
7
  6
CONTINUOUS
 10
3.0476017081
 20
5.6128000886
 11
3.0476017081
 21
5.7884040319
  0
LWPOLYLINE
  5
231
100
AcDbEntity
  8
ALL_ASSEMBLY_MEMBERS
100
AcDbPolyline
 62
7
  6
CONTINUOUS
 90
18
 70
0
 10
3.1754452269
 20
5.0001112283
 10
3.1749258016
 20
4.9977530542
 10
3.1741949851
 20
4.9954315916
 10
3.1732601985
 20
4.9931804572
 10
3.1721278723
 20
4.9910177161
 10
3.1708060521
 20
4.9889608715
 10
3.1693143034
 20
4.9870384273
 10
3.1676668347
 20
4.9852636401
 10
3.1658785919
 20
4.9836480782
 10
3.1639776757
 20
4.9822103853
 10
3.1619823449
 20
4.9809557534
 10
3.1599110568
 20
4.9798877595
 10
3.157796443
 20
4.9790134319
 10
3.1556557573
 20
4.9783287226
 10
3.1535077818
 20
4.9778289869
 10
3.1513885238
 20
4.97750977
 10
3.1493197208
 20
4.9773588899
 10
3.1482580269
 20
4.9773421451
  0
LINE
  5
232
100
AcDbEntity
  8
ALL_ASSEMBLY_MEMBERS
100
AcDbLine
 62
7
  6
CONTINUOUS
 10
3.1758517081
 20
4.7680087893
 11
3.1758517081
 21
4.7669040319
  0
LINE
  5
233
100
AcDbEntity
  8
ALL_ASSEMBLY_MEMBERS
100
AcDbLine
 62
7
  6
CONTINUOUS
 10
3.1910160275
 20
4.9587381164
 11
3.1910160275
 21
4.8147183162
  0
LINE
  5
234
100
AcDbEntity
  8
ALL_ASSEMBLY_MEMBERS
100
AcDbLine
 62
7
  6
CONTINUOUS
 10
3.2142065549
 20
4.9965079989
 11
3.2142065549
 21
4.7774888679
  0
LINE
  5
235
100
AcDbEntity
  8
ALL_ASSEMBLY_MEMBERS
100
AcDbLine
 62
7
  6
CONTINUOUS
 10
3.2196017081
 20
5.1609040319
 11
3.2196017081
 21
5.0144040319
  0
LINE
  5
236
100
AcDbEntity
  8
ALL_ASSEMBLY_MEMBERS
100
AcDbLine
 62
7
  6
CONTINUOUS
 10
3.2446017081
 20
4.7194040319
 11
3.2446017081
 21
4.7044040319
  0
LINE
  5
237
100
AcDbEntity
  8
ALL_ASSEMBLY_MEMBERS
100
AcDbLine
 62
7
  6
CONTINUOUS
 10
3.1758516992
 20
5.0044040319
 11
3.1757475336
 21
5.00241106
  0
LWPOLYLINE
  5
238
100
AcDbEntity
  8
ALL_ASSEMBLY_MEMBERS
100
AcDbPolyline
 62
7
  6
CONTINUOUS
 90
18
 70
0
 10
3.1757537166
 20
5.0024817481
 10
3.1754266425
 20
5.0000060244
 10
3.1748883679
 20
4.9976142125
 10
3.1741324768
 20
4.9952616998
 10
3.1731678251
 20
4.9929851865
 10
3.17200184
 20
4.9908032311
 10
3.1706436036
 20
4.9887336826
 10
3.1691155044
 20
4.9868070123
 10
3.1674333475
 20
4.9850360546
 10
3.1656134331
 20
4.9834316118
 10
3.1636870845
 20
4.9820125285
 10
3.1616736922
 20
4.9807822971
 10
3.1595929205
 20
4.9797428919
 10
3.1574809455
 20
4.9789002891
 10
3.1553552775
 20
4.9782478189
 10
3.1532351525
 20
4.9777784174
 10
3.1511602283
 20
4.9774854098
 10
3.14915299
 20
4.9773535588
  0
LINE
  5
239
100
AcDbEntity
  8
ALL_ASSEMBLY_MEMBERS
100
AcDbLine
 62
7
  6
CONTINUOUS
 10
3.499982016
 20
5.1029040319
 11
3.4942085133
 21
5.0829040319
  0
LINE
  5
23A
100
AcDbEntity
  8
ALL_FEATURES
100
AcDbLine
 62
7
  6
CONTINUOUS
 10
3.6461017081
 20
5.3305958125
 11
3.6831687052
 21
5.3835546261
  0
LINE
  5
23B
100
AcDbEntity
  8
ALL_FEATURES
100
AcDbLine
 62
7
  6
CONTINUOUS
 10
3.6964334279
 20
5.6051540319
 11
3.7041017081
 21
5.6128002227
  0
LINE
  5
23C
100
AcDbEntity
  8
ALL_FEATURES
100
AcDbLine
 62
7
  6
CONTINUOUS
 10
3.3758517081
 20
5.7884040319
 11
3.3758517081
 21
5.6634317609
  0
LINE
  5
23D
100
AcDbEntity
  8
ALL_ASSEMBLY_MEMBERS
100
AcDbLine
 62
7
  6
CONTINUOUS
 10
3.5071017081
 20
4.7194040319
 11
3.5071017081
 21
4.7044040319
  0
LINE
  5
23E
100
AcDbEntity
  8
ALL_ASSEMBLY_MEMBERS
100
AcDbLine
 62
7
  6
CONTINUOUS
 10
3.5321017081
 20
5.1609040319
 11
3.5321017081
 21
5.0144040319
  0
LINE
  5
23F
100
AcDbEntity
  8
ALL_ASSEMBLY_MEMBERS
100
AcDbLine
 62
7
  6
CONTINUOUS
 10
3.5115290213
 20
5.0629040319
 11
3.517302524
 21
5.0829040319
  0
LINE
  5
240
100
AcDbEntity
  8
ALL_ASSEMBLY_MEMBERS
100
AcDbLine
 62
7
  6
CONTINUOUS
 10
3.5147044478
 20
5.0575926379
 11
3.5135939527
 21
5.0560221606
  0
LINE
  5
241
100
AcDbEntity
  8
ALL_ASSEMBLY_MEMBERS
100
AcDbLine
 62
7
  6
CONTINUOUS
 10
3.5135234549
 20
5.0560796816
 11
3.5135047878
 21
5.0560568032
  0
LINE
  5
242
100
AcDbEntity
  8
ALL_ASSEMBLY_MEMBERS
100
AcDbLine
 62
7
  6
CONTINUOUS
 10
3.5135238122
 20
5.0560784477
 11
3.5135048652
 21
5.0560565352
  0
LINE
  5
243
100
AcDbEntity
  8
ALL_ASSEMBLY_MEMBERS
100
AcDbLine
 62
7
  6
CONTINUOUS
 10
3.5758517081
 20
5.0044040319
 11
3.5758517081
 21
4.7669040319
  0
LINE
  5
244
100
AcDbEntity
  8
ALL_FEATURES
100
AcDbLine
 62
7
  6
CONTINUOUS
 10
3.7041017081
 20
5.7884040319
 11
3.7041017081
 21
5.6128000886
  0
LINE
  5
245
100
AcDbEntity
  8
ALL_FEATURES
100
AcDbLine
 62
7
  6
CONTINUOUS
 10
3.7463517081
 20
5.8194040319
 11
3.7463517081
 21
5.7884040319
  0
LINE
  5
246
100
AcDbEntity
  8
ALL_ASSEMBLY_MEMBERS
100
AcDbLine
 62
7
  6
CONTINUOUS
 10
3.4942085133
 20
5.0829040319
 11
3.499982016
 21
5.0629040319
  0
LINE
  5
247
100
AcDbEntity
  8
ALL_ASSEMBLY_MEMBERS
100
AcDbLine
 62
7
  6
CONTINUOUS
 10
3.517302524
 20
5.0829040319
 11
3.5115290213
 21
5.1029040319
  0
LINE
  5
248
100
AcDbEntity
  8
ALL_ASSEMBLY_MEMBERS
100
AcDbLine
 62
7
  6
CONTINUOUS
 10
5.7193517081
 20
3.0934040319
 11
4.9693517081
 21
3.0934040319
  0
LINE
  5
249
100
AcDbEntity
  8
ALL_FEATURES
100
AcDbLine
 62
7
  6
CONTINUOUS
 10
3.1056017081
 20
5.3305958125
 11
3.068534711
 21
5.3835546261
  0
LINE
  5
24A
100
AcDbEntity
  8
ALL_ASSEMBLY_MEMBERS
100
AcDbLine
 62
7
  6
CONTINUOUS
 10
3.5147044478
 20
5.1082154259
 11
3.5096139204
 21
5.1154145188
  0
LINE
  5
24B
100
AcDbEntity
  8
ALL_ASSEMBLY_MEMBERS
100
AcDbLine
 62
7
  6
CONTINUOUS
 10
4.6443517081
 20
6.0069040319
 11
4.6443520433
 21
5.6129133135
  0
LINE
  5
24C
100
AcDbEntity
  8
ALL_FEATURES
100
AcDbLine
 62
7
  6
CONTINUOUS
 10
3.0552699882
 20
5.6051540319
 11
3.0476017081
 21
5.6128002227
  0
LWPOLYLINE
  5
24D
100
AcDbEntity
  8
ALL_ASSEMBLY_MEMBERS
100
AcDbPolyline
 62
7
  6
CONTINUOUS
 90
3
 70
0
 10
4.9763889852
 20
2.6074464152
 10
4.9764687675
 20
2.604828283
 10
4.9766235598
 20
2.5993186704
  0
LINE
  5
24E
100
AcDbEntity
  8
ALL_ASSEMBLY_MEMBERS
100
AcDbLine
 62
7
  6
CONTINUOUS
 10
4.9766235598
 20
2.5993186704
 11
4.9767385677
 21
2.5947506295
  0
LINE
  5
24F
100
AcDbEntity
  8
ALL_ASSEMBLY_MEMBERS
100
AcDbLine
 62
7
  6
CONTINUOUS
 10
4.9767385677
 20
2.5947506295
 11
4.9768767339
 21
2.5885009115
  0
LINE
  5
250
100
AcDbEntity
  8
ALL_ASSEMBLY_MEMBERS
100
AcDbLine
 62
7
  6
CONTINUOUS
 10
4.9768767339
 20
2.5885009115
 11
4.9769213729
 21
2.5862514997
  0
LINE
  5
251
100
AcDbEntity
  8
ALL_ASSEMBLY_MEMBERS
100
AcDbLine
 62
7
  6
CONTINUOUS
 10
4.9693517081
 20
3.7569040319
 11
4.9693517081
 21
3.0934040319
  0
LINE
  5
252
100
AcDbEntity
  8
ALL_ASSEMBLY_MEMBERS
100
AcDbLine
 62
7
  6
CONTINUOUS
 10
4.9943517081
 20
6.0069040319
 11
4.9943517081
 21
5.7569040319
  0
LINE
  5
253
100
AcDbEntity
  8
ALL_ASSEMBLY_MEMBERS
100
AcDbLine
 62
7
  6
CONTINUOUS
 10
5.7193517081
 20
3.7569040319
 11
4.9693517081
 21
3.7569040319
  0
LINE
  5
254
100
AcDbEntity
  8
ALL_ASSEMBLY_MEMBERS
100
AcDbLine
 62
7
  6
CONTINUOUS
 10
5.1568517081
 20
3.7569040319
 11
5.1568517081
 21
3.0934040319
  0
LINE
  5
255
100
AcDbEntity
  8
ALL_ASSEMBLY_MEMBERS
100
AcDbLine
 62
7
  6
CONTINUOUS
 10
5.5318517081
 20
3.7569040319
 11
5.5318517081
 21
3.0934040319
  0
LINE
  5
256
100
AcDbEntity
  8
ALL_ASSEMBLY_MEMBERS
100
AcDbLine
 62
7
  6
CONTINUOUS
 10
5.7506017081
 20
4.3819040319
 11
4.9381017081
 21
4.3819040319
  0
LINE
  5
257
100
AcDbEntity
  8
ALL_ASSEMBLY_MEMBERS
100
AcDbLine
 62
7
  6
CONTINUOUS
 10
5.6943517081
 20
6.0069040319
 11
5.6943517081
 21
5.7569040319
  0
LINE
  5
258
100
AcDbEntity
  8
ALL_ASSEMBLY_MEMBERS
100
AcDbLine
 62
7
  6
CONTINUOUS
 10
5.7193517081
 20
3.7569040319
 11
5.7193517081
 21
3.0934040319
  0
LWPOLYLINE
  5
259
100
AcDbEntity
  8
ALL_ASSEMBLY_MEMBERS
100
AcDbPolyline
 62
7
  6
CONTINUOUS
 90
3
 70
0
 10
5.7117819854
 20
2.586248529
 10
5.7118869545
 20
2.5913494044
 10
5.7119736601
 20
2.5951182192
  0
LINE
  5
25A
100
AcDbEntity
  8
ALL_ASSEMBLY_MEMBERS
100
AcDbLine
 62
7
  6
CONTINUOUS
 10
5.7119736601
 20
2.5951182192
 11
5.7120948445
 21
2.5998809549
  0
LINE
  5
25B
100
AcDbEntity
  8
ALL_ASSEMBLY_MEMBERS
100
AcDbLine
 62
7
  6
CONTINUOUS
 10
5.7120948445
 20
2.5998809549
 11
5.7123145174
 21
2.6074491834
  0
LINE
  5
25C
100
AcDbEntity
  8
ALL_ASSEMBLY_MEMBERS
100
AcDbLine
 62
7
  6
CONTINUOUS
 10
7.5404457357
 20
4.9773421463
 11
7.5383513654
 21
4.9769146389
  0
LINE
  5
25D
100
AcDbEntity
  8
ALL_ASSEMBLY_MEMBERS
100
AcDbLine
 62
7
  6
CONTINUOUS
 10
7.5404456979
 20
4.9773421139
 11
7.5383513654
 21
4.9769146389
  0
LINE
  5
25E
100
AcDbEntity
  8
ALL_ASSEMBLY_MEMBERS
100
AcDbLine
 62
7
  6
CONTINUOUS
 10
3.1503520504
 20
4.9769145494
 11
3.1482577356
 21
4.9773421613
  0
LINE
  5
25F
100
AcDbEntity
  8
ALL_ASSEMBLY_MEMBERS
100
AcDbLine
 62
7
  6
CONTINUOUS
 10
3.1503520504
 20
4.9769145494
 11
3.1482577912
 21
4.9773421148
  0
LINE
  5
260
100
AcDbEntity
  8
ALL_ASSEMBLY_MEMBERS
100
AcDbLine
 62
7
  6
CONTINUOUS
 10
6.0443517081
 20
6.0069040319
 11
6.0443513729
 21
5.6129133135
  0
LINE
  5
261
100
AcDbEntity
  8
ALL_FEATURES
100
AcDbLine
 62
7
  6
CONTINUOUS
 10
7.6334334279
 20
5.6051540319
 11
7.6411017081
 21
5.6128002227
  0
LWPOLYLINE
  5
262
100
AcDbEntity
  8
ALL_ASSEMBLY_MEMBERS
100
AcDbPolyline
 62
7
  6
CONTINUOUS
 90
10
 70
0
 10
1.9713838906
 20
4.7587821327
 10
2.0853710975
 20
4.7619271193
 10
2.2063119716
 20
4.7654770884
 10
2.3314056276
 20
4.7693316915
 10
2.4606503459
 20
4.7734557961
 10
2.594047846
 20
4.7778043208
 10
2.7316032869
 20
4.7823213722
 10
2.8733183882
 20
4.7869391059
 10
3.0191914304
 20
4.7915767894
 10
3.1475326783
 20
4.7954965901
  0
LINE
  5
263
100
AcDbEntity
  8
ALL_ASSEMBLY_MEMBERS
100
AcDbLine
 62
7
  6
CONTINUOUS
 10
7.4441017081
 20
4.7044040319
 11
7.1816017081
 21
4.7044040319
  0
LINE
  5
264
100
AcDbEntity
  8
ALL_ASSEMBLY_MEMBERS
100
AcDbLine
 62
7
  6
CONTINUOUS
 10
3.2446017081
 20
4.7044040319
 11
3.5071017081
 21
4.7044040319
  0
LINE
  5
265
100
AcDbEntity
  8
ALL_ASSEMBLY_MEMBERS
100
AcDbLine
 62
7
  6
CONTINUOUS
 10
3.2446017081
 20
4.7194040319
 11
3.5071017081
 21
4.7194040319
  0
LINE
  5
266
100
AcDbEntity
  8
ALL_ASSEMBLY_MEMBERS
100
AcDbLine
 62
7
  6
CONTINUOUS
 10
7.1816017081
 20
4.7194040319
 11
7.4441017081
 21
4.7194040319
  0
LINE
  5
267
100
AcDbEntity
  8
ALL_ASSEMBLY_MEMBERS
100
AcDbLine
 62
7
  6
CONTINUOUS
 10
7.4691017081
 20
4.7294040319
 11
7.1566017081
 21
4.7294040319
  0
LINE
  5
268
100
AcDbEntity
  8
ALL_ASSEMBLY_MEMBERS
100
AcDbLine
 62
7
  6
CONTINUOUS
 10
3.2196017081
 20
4.7294040319
 11
3.5321017081
 21
4.7294040319
  0
LINE
  5
269
100
AcDbEntity
  8
ALL_ASSEMBLY_MEMBERS
100
AcDbLine
 62
7
  6
CONTINUOUS
 10
7.5128517081
 20
4.7669040319
 11
7.1128517081
 21
4.7669040319
  0
LINE
  5
26A
100
AcDbEntity
  8
ALL_ASSEMBLY_MEMBERS
100
AcDbLine
 62
7
  6
CONTINUOUS
 10
3.1758517081
 20
4.7669040319
 11
3.5758517081
 21
4.7669040319
  0
LINE
  5
26B
100
AcDbEntity
  8
ALL_ASSEMBLY_MEMBERS
100
AcDbLine
 62
7
  6
CONTINUOUS
 10
8.7378517081
 20
4.7874020613
 11
8.7171503853
 21
4.7874020613
  0
LINE
  5
26C
100
AcDbEntity
  8
ALL_ASSEMBLY_MEMBERS
100
AcDbLine
 62
7
  6
CONTINUOUS
 10
1.9508517081
 20
4.7874020613
 11
1.9715530309
 21
4.7874020613
  0
LWPOLYLINE
  5
26D
100
AcDbEntity
  8
ALL_ASSEMBLY_MEMBERS
100
AcDbPolyline
 62
7
  6
CONTINUOUS
 90
10
 70
0
 10
7.5411707379
 20
4.7954965901
 10
7.6695119858
 20
4.7915767894
 10
7.8153850279
 20
4.7869391059
 10
7.9571001293
 20
4.7823213722
 10
8.0946555702
 20
4.7778043208
 10
8.2280530703
 20
4.7734557961
 10
8.3572977885
 20
4.7693316915
 10
8.4823914445
 20
4.7654770884
 10
8.6033323187
 20
4.7619271193
 10
8.7173195255
 20
4.7587821327
  0
LINE
  5
26E
100
AcDbEntity
  8
ALL_ASSEMBLY_MEMBERS
100
AcDbLine
 62
7
  6
CONTINUOUS
 10
7.1739989683
 20
5.1082154259
 11
7.1779690383
 21
5.1138299526
  0
LWPOLYLINE
  5
26F
100
AcDbEntity
  8
ALL_ASSEMBLY_MEMBERS
100
AcDbPolyline
 62
7
  6
CONTINUOUS
 90
10
 70
0
 10
8.7178443825
 20
4.9831929707
 10
8.6037488907
 20
4.9830401641
 10
8.4826903621
 20
4.9826643402
 10
8.357471299
 20
4.9820923794
 10
8.2280919278
 20
4.9813594582
 10
8.0945520221
 20
4.9805108483
 10
7.9568509018
 20
4.979602791
 10
7.8149883403
 20
4.9787034083
 10
7.6689645642
 20
4.9778936366
 10
7.5404458768
 20
4.9773421105
  0
LINE
  5
270
100
AcDbEntity
  8
ALL_ASSEMBLY_MEMBERS
100
AcDbLine
 62
7
  6
CONTINUOUS
 10
8.7378517081
 20
4.9545679117
 11
8.7171503853
 21
4.9545679117
  0
LINE
  5
271
100
AcDbEntity
  8
ALL_ASSEMBLY_MEMBERS
100
AcDbLine
 62
7
  6
CONTINUOUS
 10
1.9508517081
 20
4.9545679117
 11
1.9715530309
 21
4.9545679117
  0
LINE
  5
272
100
AcDbEntity
  8
ALL_ASSEMBLY_MEMBERS
100
AcDbLine
 62
7
  6
CONTINUOUS
 10
7.5128517104
 20
5.0044040319
 11
7.1128517081
 21
5.0044040319
  0
LINE
  5
273
100
AcDbEntity
  8
ALL_ASSEMBLY_MEMBERS
100
AcDbLine
 62
7
  6
CONTINUOUS
 10
3.1758517042
 20
5.0044040319
 11
3.5758517081
 21
5.0044040319
  0
LINE
  5
274
100
AcDbEntity
  8
ALL_ASSEMBLY_MEMBERS
100
AcDbLine
 62
7
  6
CONTINUOUS
 10
5.8131017081
 20
5.0069040319
 11
4.8756017081
 21
5.0069040319
  0
LINE
  5
275
100
AcDbEntity
  8
ALL_ASSEMBLY_MEMBERS
100
AcDbLine
 62
7
  6
CONTINUOUS
 10
3.2196017081
 20
5.0144040319
 11
3.5321017081
 21
5.0144040319
  0
LINE
  5
276
100
AcDbEntity
  8
ALL_ASSEMBLY_MEMBERS
100
AcDbLine
 62
7
  6
CONTINUOUS
 10
7.1566017081
 20
5.0144040319
 11
7.4691017081
 21
5.0144040319
  0
LINE
  5
277
100
AcDbEntity
  8
ALL_ASSEMBLY_MEMBERS
100
AcDbLine
 62
7
  6
CONTINUOUS
 10
7.1891153769
 20
5.050359032
 11
7.1895102015
 21
5.050359032
  0
LINE
  5
278
100
AcDbEntity
  8
ALL_ASSEMBLY_MEMBERS
100
AcDbLine
 62
7
  6
CONTINUOUS
 10
3.499982016
 20
5.0629040319
 11
3.5115290213
 21
5.0629040319
  0
LINE
  5
279
100
AcDbEntity
  8
ALL_ASSEMBLY_MEMBERS
100
AcDbLine
 62
7
  6
CONTINUOUS
 10
7.1771743948
 20
5.0629040319
 11
7.1887214002
 21
5.0629040319
  0
LINE
  5
27A
100
AcDbEntity
  8
ALL_ASSEMBLY_MEMBERS
100
AcDbLine
 62
7
  6
CONTINUOUS
 10
3.517302524
 20
5.0829040319
 11
3.4942085133
 21
5.0829040319
  0
LINE
  5
27B
100
AcDbEntity
  8
ALL_ASSEMBLY_MEMBERS
100
AcDbLine
 62
7
  6
CONTINUOUS
 10
7.1714008921
 20
5.0829040319
 11
7.1944949029
 21
5.0829040319
  0
LINE
  5
27C
100
AcDbEntity
  8
ALL_ASSEMBLY_MEMBERS
100
AcDbLine
 62
7
  6
CONTINUOUS
 10
7.1887214002
 20
5.1029040319
 11
7.1771743948
 21
5.1029040319
  0
LINE
  5
27D
100
AcDbEntity
  8
ALL_ASSEMBLY_MEMBERS
100
AcDbLine
 62
7
  6
CONTINUOUS
 10
3.5115290213
 20
5.1029040319
 11
3.499982016
 21
5.1029040319
  0
LINE
  5
27E
100
AcDbEntity
  8
ALL_ASSEMBLY_MEMBERS
100
AcDbLine
 62
7
  6
CONTINUOUS
 10
7.4691017081
 20
5.1609040319
 11
7.1566017081
 21
5.1609040319
  0
LINE
  5
27F
100
AcDbEntity
  8
ALL_ASSEMBLY_MEMBERS
100
AcDbLine
 62
7
  6
CONTINUOUS
 10
3.2196017081
 20
5.1609040319
 11
3.5321017081
 21
5.1609040319
  0
LINE
  5
280
100
AcDbEntity
  8
ALL_FEATURES
100
AcDbLine
 62
7
  6
CONTINUOUS
 10
7.5122564989
 20
5.1634040319
 11
7.1134469172
 21
5.1634040319
  0
LINE
  5
281
100
AcDbEntity
  8
ALL_FEATURES
100
AcDbLine
 62
7
  6
CONTINUOUS
 10
3.5752564989
 20
5.1634040319
 11
3.1764469172
 21
5.1634040319
  0
LINE
  5
282
100
AcDbEntity
  8
ALL_FEATURES
100
AcDbLine
 62
7
  6
CONTINUOUS
 10
7.5277215718
 20
5.1776044099
 11
7.0979818443
 21
5.1776044099
  0
LINE
  5
283
100
AcDbEntity
  8
ALL_FEATURES
100
AcDbLine
 62
7
  6
CONTINUOUS
 10
3.5907215718
 20
5.1776044099
 11
3.1609818443
 21
5.1776044099
  0
LWPOLYLINE
  5
284
100
AcDbEntity
  8
ALL_ASSEMBLY_MEMBERS
100
AcDbPolyline
 62
7
  6
CONTINUOUS
 90
10
 70
0
 10
3.1482575393
 20
4.9773421105
 10
3.0197388519
 20
4.9778936366
 10
2.8737150758
 20
4.9787034083
 10
2.7318525143
 20
4.979602791
 10
2.594151394
 20
4.9805108483
 10
2.4606114883
 20
4.9813594582
 10
2.3312321172
 20
4.9820923794
 10
2.206013054
 20
4.9826643402
 10
2.0849545254
 20
4.9830401641
 10
1.9708590336
 20
4.9831929707
  0
LWPOLYLINE
  5
285
100
AcDbEntity
  8
ALL_ASSEMBLY_MEMBERS
100
AcDbPolyline
 62
7
  6
CONTINUOUS
 90
18
 70
0
 10
7.5404451747
 20
4.9773421595
 10
7.5393836954
 20
4.9773588899
 10
7.5373148924
 20
4.97750977
 10
7.5351956344
 20
4.9778289869
 10
7.5330476588
 20
4.9783287226
 10
7.5309069731
 20
4.9790134319
 10
7.5287923594
 20
4.9798877595
 10
7.5267210713
 20
4.9809557534
 10
7.5247257404
 20
4.9822103853
 10
7.5228248243
 20
4.9836480782
 10
7.5210365814
 20
4.9852636401
 10
7.5193891127
 20
4.9870384273
 10
7.517897364
 20
4.9889608715
 10
7.5165755439
 20
4.9910177161
 10
7.5154432176
 20
4.9931804572
 10
7.514508431
 20
4.9954315916
 10
7.5137776145
 20
4.9977530542
 10
7.5132581892
 20
5.0001112283
  0
LWPOLYLINE
  5
286
100
AcDbEntity
  8
ALL_ASSEMBLY_MEMBERS
100
AcDbPolyline
 62
7
  6
CONTINUOUS
 90
17
 70
0
 10
7.5395504261
 20
4.9773535588
 10
7.5375431878
 20
4.9774854098
 10
7.5354682636
 20
4.9777784174
 10
7.5333481387
 20
4.9782478189
 10
7.5312224706
 20
4.9789002891
 10
7.5291104956
 20
4.9797428919
 10
7.5270297239
 20
4.9807822971
 10
7.5250163316
 20
4.9820125285
 10
7.523089983
 20
4.9834316118
 10
7.5212700686
 20
4.9850360546
 10
7.5195879118
 20
4.9868070123
 10
7.5180598125
 20
4.9887336826
 10
7.5167015761
 20
4.9908032311
 10
7.5155355911
 20
4.9929851865
 10
7.5145709393
 20
4.9952616998
 10
7.5138150483
 20
4.9976142125
 10
7.5132767736
 20
5.0000060244
  0
LINE
  5
287
100
AcDbEntity
  8
ALL_FEATURES
100
AcDbLine
 62
7
  6
CONTINUOUS
 10
7.5831017081
 20
5.3305958125
 11
7.6201687052
 21
5.3835546261
  0
LINE
  5
288
100
AcDbEntity
  8
ALL_ASSEMBLY_MEMBERS
100
AcDbLine
 62
7
  6
CONTINUOUS
 10
3.1758517081
 20
4.7680087893
 11
3.1760217525
 21
4.7680556141
  0
LINE
  5
289
100
AcDbEntity
  8
ALL_ASSEMBLY_MEMBERS
100
AcDbLine
 62
7
  6
CONTINUOUS
 10
3.1758517081
 20
4.7680087893
 11
3.1773882648
 21
4.7684200763
  0
LINE
  5
28A
100
AcDbEntity
  8
ALL_ASSEMBLY_MEMBERS
100
AcDbLine
 62
7
  6
CONTINUOUS
 10
4.8301427654
 20
5.3830071702
 11
4.8295556234
 21
5.383003437
  0
LINE
  5
28B
100
AcDbEntity
  8
ALL_ASSEMBLY_MEMBERS
100
AcDbLine
 62
7
  6
CONTINUOUS
 10
5.8604575687
 20
5.3808222894
 11
5.8585593538
 21
5.3808105989
  0
LINE
  5
28C
100
AcDbEntity
  8
ALL_FEATURES
100
AcDbLine
 62
7
  6
CONTINUOUS
 10
3.1056017081
 20
5.3305958125
 11
3.6461017081
 21
5.3305958125
  0
LINE
  5
28D
100
AcDbEntity
  8
ALL_FEATURES
100
AcDbLine
 62
7
  6
CONTINUOUS
 10
7.0426017081
 20
5.3305958125
 11
7.5831017081
 21
5.3305958125
  0
LINE
  5
28E
100
AcDbEntity
  8
ALL_ASSEMBLY_MEMBERS
100
AcDbLine
 62
7
  6
CONTINUOUS
 10
5.0503471261
 20
5.381904032
 11
5.0460414989
 21
5.381904032
  0
LINE
  5
28F
100
AcDbEntity
  8
ALL_ASSEMBLY_MEMBERS
100
AcDbLine
 62
7
  6
CONTINUOUS
 10
4.7520369171
 20
5.381904032
 11
4.7506017081
 21
5.3819040319
  0
LINE
  5
290
100
AcDbEntity
  8
ALL_ASSEMBLY_MEMBERS
100
AcDbLine
 62
7
  6
CONTINUOUS
 10
5.6383562897
 20
5.381904032
 11
5.6426619171
 21
5.381904032
  0
LINE
  5
291
100
AcDbEntity
  8
ALL_ASSEMBLY_MEMBERS
100
AcDbLine
 62
7
  6
CONTINUOUS
 10
5.9366664989
 20
5.381904032
 11
5.9381017081
 21
5.3819040319
  0
LINE
  5
292
100
AcDbEntity
  8
ALL_FEATURES
100
AcDbLine
 62
7
  6
CONTINUOUS
 10
3.068534711
 20
5.3835546261
 11
3.6831687052
 21
5.3835546261
  0
LINE
  5
293
100
AcDbEntity
  8
ALL_FEATURES
100
AcDbLine
 62
7
  6
CONTINUOUS
 10
7.005534711
 20
5.3835546261
 11
7.6201687052
 21
5.3835546261
  0
LINE
  5
294
100
AcDbEntity
  8
ALL_ASSEMBLY_MEMBERS
100
AcDbLine
 62
7
  6
CONTINUOUS
 10
5.8610407086
 20
5.3829908625
 11
5.8585604827
 21
5.383004812
  0
LINE
  5
295
100
AcDbEntity
  8
ALL_ASSEMBLY_MEMBERS
100
AcDbLine
 62
7
  6
CONTINUOUS
 10
7.1771743948
 20
5.1029040319
 11
7.1714008921
 21
5.0829040319
  0
LINE
  5
296
100
AcDbEntity
  8
ALL_ASSEMBLY_MEMBERS
100
AcDbLine
 62
7
  6
CONTINUOUS
 10
7.1887214002
 20
5.0629040319
 11
7.1944949029
 21
5.0829040319
  0
LINE
  5
297
100
AcDbEntity
  8
ALL_FEATURES
100
AcDbLine
 62
7
  6
CONTINUOUS
 10
3.0666017081
 20
5.4976540319
 11
3.6851017081
 21
5.4976540319
  0
LINE
  5
298
100
AcDbEntity
  8
ALL_FEATURES
100
AcDbLine
 62
7
  6
CONTINUOUS
 10
7.0036017081
 20
5.4976540319
 11
7.6221017081
 21
5.4976540319
  0
LINE
  5
299
100
AcDbEntity
  8
ALL_FEATURES
100
AcDbLine
 62
7
  6
CONTINUOUS
 10
3.0552699882
 20
5.6051540319
 11
3.6964334279
 21
5.6051540319
  0
LINE
  5
29A
100
AcDbEntity
  8
ALL_FEATURES
100
AcDbLine
 62
7
  6
CONTINUOUS
 10
6.9922699882
 20
5.6051540319
 11
7.6334334279
 21
5.6051540319
  0
LINE
  5
29B
100
AcDbEntity
  8
ALL_FEATURES
100
AcDbLine
 62
7
  6
CONTINUOUS
 10
6.9423517081
 20
5.8194040319
 11
6.9423517081
 21
5.7884040319
  0
LINE
  5
29C
100
AcDbEntity
  8
ALL_FEATURES
100
AcDbLine
 62
7
  6
CONTINUOUS
 10
6.9846017081
 20
5.6128000886
 11
6.9846017081
 21
5.7884040319
  0
LINE
  5
29D
100
AcDbEntity
  8
ALL_ASSEMBLY_MEMBERS
100
AcDbLine
 62
7
  6
CONTINUOUS
 10
7.1128517081
 20
5.0044040319
 11
7.1128517081
 21
4.7669040319
  0
LINE
  5
29E
100
AcDbEntity
  8
ALL_ASSEMBLY_MEMBERS
100
AcDbLine
 62
7
  6
CONTINUOUS
 10
7.1566017081
 20
5.1609040319
 11
7.1566017081
 21
5.0144040319
  0
LINE
  5
29F
100
AcDbEntity
  8
ALL_ASSEMBLY_MEMBERS
100
AcDbLine
 62
7
  6
CONTINUOUS
 10
7.1816017081
 20
4.7194040319
 11
7.1816017081
 21
4.7044040319
  0
LINE
  5
2A0
100
AcDbEntity
  8
ALL_ASSEMBLY_MEMBERS
100
AcDbLine
 62
7
  6
CONTINUOUS
 10
6.0443513729
 20
5.7569040319
 11
4.6443520433
 21
5.7569040319
  0
LINE
  5
2A1
100
AcDbEntity
  8
ALL_FEATURES
100
AcDbLine
 62
7
  6
CONTINUOUS
 10
3.0053517081
 20
5.7884040319
 11
3.7463517081
 21
5.7884040319
  0
LINE
  5
2A2
100
AcDbEntity
  8
ALL_FEATURES
100
AcDbLine
 62
7
  6
CONTINUOUS
 10
6.9423517081
 20
5.7884040319
 11
7.6833517081
 21
5.7884040319
  0
LINE
  5
2A3
100
AcDbEntity
  8
ALL_FEATURES
100
AcDbLine
 62
7
  6
CONTINUOUS
 10
2.9693503712
 20
5.8194040319
 11
3.782353045
 21
5.8194040319
  0
LINE
  5
2A4
100
AcDbEntity
  8
ALL_FEATURES
100
AcDbLine
 62
7
  6
CONTINUOUS
 10
6.9063503712
 20
5.8194040319
 11
7.719353045
 21
5.8194040319
  0
LINE
  5
2A5
100
AcDbEntity
  8
ALL_FEATURES
100
AcDbLine
 62
7
  6
CONTINUOUS
 10
2.8758517081
 20
5.9134040319
 11
3.8758517081
 21
5.9134040319
  0
LINE
  5
2A6
100
AcDbEntity
  8
ALL_FEATURES
100
AcDbLine
 62
7
  6
CONTINUOUS
 10
6.8128517081
 20
5.9134040319
 11
7.8128517081
 21
5.9134040319
  0
LINE
  5
2A7
100
AcDbEntity
  8
ALL_FEATURES
100
AcDbLine
 62
7
  6
CONTINUOUS
 10
7.3128517081
 20
5.7884040319
 11
7.3128517081
 21
5.6634317609
  0
LINE
  5
2A8
100
AcDbEntity
  8
ALL_ASSEMBLY_MEMBERS
100
AcDbLine
 62
7
  6
CONTINUOUS
 10
7.4441017081
 20
4.7194040319
 11
7.4441017081
 21
4.7044040319
  0
LINE
  5
2A9
100
AcDbEntity
  8
ALL_ASSEMBLY_MEMBERS
100
AcDbLine
 62
7
  6
CONTINUOUS
 10
6.0443517081
 20
6.0069040319
 11
4.6443517081
 21
6.0069040319
  0
LINE
  5
2AA
100
AcDbEntity
  8
ALL_FEATURES
100
AcDbLine
 62
7
  6
CONTINUOUS
 10
2.7858517081
 20
6.0069040319
 11
3.9658517081
 21
6.0069040319
  0
LINE
  5
2AB
100
AcDbEntity
  8
ALL_FEATURES
100
AcDbLine
 62
7
  6
CONTINUOUS
 10
6.7228517081
 20
6.0069040319
 11
7.9028517081
 21
6.0069040319
  0
LINE
  5
2AC
100
AcDbEntity
  8
ALL_ASSEMBLY_MEMBERS
100
AcDbLine
 62
7
  6
CONTINUOUS
 10
7.1739989683
 20
5.0575926379
 11
7.1762299207
 21
5.0544375948
  0
LINE
  5
2AD
100
AcDbEntity
  8
ALL_FEATURES
100
AcDbLine
 62
7
  6
CONTINUOUS
 10
7.0426017081
 20
5.3305958125
 11
7.005534711
 21
5.3835546261
  0
LINE
  5
2AE
100
AcDbEntity
  8
ALL_ASSEMBLY_MEMBERS
100
AcDbLine
 62
7
  6
CONTINUOUS
 10
7.1714008921
 20
5.0829040319
 11
7.1771743948
 21
5.0629040319
  0
LINE
  5
2AF
100
AcDbEntity
  8
ALL_ASSEMBLY_MEMBERS
100
AcDbLine
 62
7
  6
CONTINUOUS
 10
7.1944949029
 20
5.0829040319
 11
7.1887214002
 21
5.1029040319
  0
LINE
  5
2B0
100
AcDbEntity
  8
ALL_ASSEMBLY_MEMBERS
100
AcDbLine
 62
7
  6
CONTINUOUS
 10
7.5129558826
 20
5.00241106
 11
7.5128517185
 21
5.0044040319
  0
LINE
  5
2B1
100
AcDbEntity
  8
ALL_ASSEMBLY_MEMBERS
100
AcDbLine
 62
7
  6
CONTINUOUS
 10
7.4691017081
 20
5.1609040319
 11
7.4691017081
 21
5.0144040319
  0
LINE
  5
2B2
100
AcDbEntity
  8
ALL_ASSEMBLY_MEMBERS
100
AcDbLine
 62
7
  6
CONTINUOUS
 10
7.4744968612
 20
4.7774888833
 11
7.4744968612
 21
4.9965067044
  0
LINE
  5
2B3
100
AcDbEntity
  8
ALL_ASSEMBLY_MEMBERS
100
AcDbLine
 62
7
  6
CONTINUOUS
 10
7.4976873887
 20
4.8147183269
 11
7.4976873887
 21
4.9587381063
  0
LINE
  5
2B4
100
AcDbEntity
  8
ALL_ASSEMBLY_MEMBERS
100
AcDbLine
 62
7
  6
CONTINUOUS
 10
7.5128517081
 20
4.7680087893
 11
7.5128517081
 21
4.7669040319
  0
LINE
  5
2B5
100
AcDbEntity
  8
ALL_FEATURES
100
AcDbLine
 62
7
  6
CONTINUOUS
 10
7.6411017081
 20
5.7884040319
 11
7.6411017081
 21
5.6128000886
  0
LINE
  5
2B6
100
AcDbEntity
  8
ALL_FEATURES
100
AcDbLine
 62
7
  6
CONTINUOUS
 10
7.6833517081
 20
5.8194040319
 11
7.6833517081
 21
5.7884040319
  0
LINE
  5
2B7
100
AcDbEntity
  8
ALL_FEATURES
100
AcDbLine
 62
7
  6
CONTINUOUS
 10
6.9922699882
 20
5.6051540319
 11
6.9846017081
 21
5.6128002227
  0
LINE
  5
2B8
100
AcDbEntity
  8
ALL_ASSEMBLY_MEMBERS
100
AcDbLine
 62
7
  6
CONTINUOUS
 10
7.5132767736
 20
5.0000060244
 11
7.5129496996
 21
5.0024817481
  0
LINE
  5
2B9
100
AcDbEntity
  8
ALL_ASSEMBLY_MEMBERS
100
AcDbLine
 62
7
  6
CONTINUOUS
 10
8.7172477105
 20
4.7675891531
 11
8.7173194708
 21
4.7587815671
  0
LINE
  5
2BA
100
AcDbEntity
  8
ALL_ASSEMBLY_MEMBERS
100
AcDbLine
 62
7
  6
CONTINUOUS
 10
8.7171503853
 20
4.9545618775
 11
8.7171503853
 21
4.7874081421
  0
LINE
  5
2BB
100
AcDbEntity
  8
ALL_ASSEMBLY_MEMBERS
100
AcDbLine
 62
7
  6
CONTINUOUS
 10
8.7378517081
 20
4.9631890952
 11
8.7378517081
 21
4.7787789188
  0
LINE
  5
2BC
100
AcDbEntity
  8
ALL_ASSEMBLY_MEMBERS
100
AcDbLine
 62
7
  6
CONTINUOUS
 10
8.7178443451
 20
4.9831935378
 11
8.7177677032
 21
4.9743897655
  0
ARC
  5
2BD
100
AcDbEntity
  8
ALL_ASSEMBLY_MEMBERS
100
AcDbCircle
 62
7
  6
CONTINUOUS
 10
-77.1452151797
 20
3.0953350085
 40
82.6770669103
100
AcDbArc
 50
359.8726751818
 51
359.9986618199
  0
ARC
  5
2BE
100
AcDbEntity
  8
ALL_ASSEMBLY_MEMBERS
100
AcDbCircle
 62
7
  6
CONTINUOUS
 10
3.4322250756
 20
3.8129550643
 40
0.9888656073
100
AcDbArc
 50
102.7368370785
 51
104.9340003573
  0
ARC
  5
2BF
100
AcDbEntity
  8
ALL_ASSEMBLY_MEMBERS
100
AcDbCircle
 62
7
  6
CONTINUOUS
 10
5.3443507532
 20
2.5934045312
 40
0.3675009099
100
AcDbArc
 50
300.0000900008
 51
358.8842622479
  0
ARC
  5
2C0
100
AcDbEntity
  8
ALL_ASSEMBLY_MEMBERS
100
AcDbCircle
 62
7
  6
CONTINUOUS
 10
3.4024798295
 20
6.2205842094
 40
1.268968765
100
AcDbArc
 50
258.5398028048
 51
259.3220872992
  0
ARC
  5
2C1
100
AcDbEntity
  8
ALL_ASSEMBLY_MEMBERS
100
AcDbCircle
 62
7
  6
CONTINUOUS
 10
3.4005390001
 20
5.9464654336
 40
0.968059255
100
AcDbArc
 50
256.691380291
 51
258.9024272563
  0
ARC
  5
2C2
100
AcDbEntity
  8
ALL_FEATURES
100
AcDbCircle
 62
7
  6
CONTINUOUS
 10
3.9021211591
 20
5.1514023676
 40
0.3125
100
AcDbArc
 50
145.0110095298
 51
175.1903004544
  0
ARC
  5
2C3
100
AcDbEntity
  8
ALL_FEATURES
100
AcDbCircle
 62
7
  6
CONTINUOUS
 10
2.849582257
 20
5.1514023676
 40
0.3125
100
AcDbArc
 50
4.8096995456
 51
34.9889904702
  0
ARC
  5
2C4
100
AcDbEntity
  8
ALL_ASSEMBLY_MEMBERS
100
AcDbCircle
 62
7
  6
CONTINUOUS
 10
3.3259498212
 20
5.0829352423
 40
0.2011874111
100
AcDbArc
 50
359.9911116561
 51
2.4803164085
  0
ARC
  5
2C5
100
AcDbEntity
  8
ALL_FEATURES
100
AcDbCircle
 62
7
  6
CONTINUOUS
 10
3.5996141475
 20
5.4420362335
 40
0.1019875605
100
AcDbArc
 50
325.0110095298
 51
33.0478355064
  0
ARC
  5
2C6
100
AcDbEntity
  8
ALL_FEATURES
100
AcDbCircle
 62
7
  6
CONTINUOUS
 10
3.1520892686
 20
5.4420362335
 40
0.1019875605
100
AcDbArc
 50
146.9521644936
 51
214.9889904702
  0
ARC
  5
2C7
100
AcDbEntity
  8
ALL_FEATURES
100
AcDbCircle
 62
7
  6
CONTINUOUS
 10
2.8794197636
 20
6.0069040319
 40
0.0935680556
100
AcDbArc
 50
180.0
 51
267.8145949287
  0
ARC
  5
2C8
100
AcDbEntity
  8
ALL_FEATURES
100
AcDbCircle
 62
7
  6
CONTINUOUS
 10
3.8722836525
 20
6.0069040319
 40
0.0935680556
100
AcDbArc
 50
272.1854050713
 51
360.0
  0
ARC
  5
2C9
100
AcDbEntity
  8
ALL_FEATURES
100
AcDbCircle
 62
7
  6
CONTINUOUS
 10
2.9693503712
 20
5.9129040319
 40
0.0935
100
AcDbArc
 50
179.6936039968
 51
270.0
  0
ARC
  5
2CA
100
AcDbEntity
  8
ALL_FEATURES
100
AcDbCircle
 62
7
  6
CONTINUOUS
 10
3.782353045
 20
5.9129040319
 40
0.0935
100
AcDbArc
 50
270.0
 51
0.3063960032
  0
ARC
  5
2CB
100
AcDbEntity
  8
ALL_FEATURES
100
AcDbCircle
 62
7
  6
CONTINUOUS
 10
3.7569889749
 20
5.5444235442
 40
0.0857622668
100
AcDbArc
 50
134.9173576842
 51
213.0478355064
  0
ARC
  5
2CC
100
AcDbEntity
  8
ALL_FEATURES
100
AcDbCircle
 62
7
  6
CONTINUOUS
 10
2.9947144413
 20
5.5444235442
 40
0.0857622668
100
AcDbArc
 50
326.9521644936
 51
45.0826423158
  0
ARC
  5
2CD
100
AcDbEntity
  8
ALL_ASSEMBLY_MEMBERS
100
AcDbCircle
 62
7
  6
CONTINUOUS
 10
3.444604571
 20
5.0871949064
 40
0.0810944351
100
AcDbArc
 50
356.9669452706
 51
2.9894394529
  0
ARC
  5
2CE
100
AcDbEntity
  8
ALL_ASSEMBLY_MEMBERS
100
AcDbCircle
 62
7
  6
CONTINUOUS
 10
3.553239603
 20
5.0837151846
 40
0.0678212653
100
AcDbArc
 50
162.5952565401
 51
166.1227794598
  0
ARC
  5
2CF
100
AcDbEntity
  8
ALL_ASSEMBLY_MEMBERS
100
AcDbCircle
 62
7
  6
CONTINUOUS
 10
3.4680050113
 20
5.0787189763
 40
0.0530275739
100
AcDbArc
 50
335.6134717333
 51
336.4783292421
  0
ARC
  5
2D0
100
AcDbEntity
  8
ALL_ASSEMBLY_MEMBERS
100
AcDbCircle
 62
7
  6
CONTINUOUS
 10
3.5358359812
 20
5.0919599022
 40
0.0485016371
100
AcDbArc
 50
146.949397218
 51
148.1857259327
  0
ARC
  5
2D1
100
AcDbEntity
  8
ALL_ASSEMBLY_MEMBERS
100
AcDbCircle
 62
7
  6
CONTINUOUS
 10
3.533666185
 20
5.0933882522
 40
0.0459039466
100
AcDbArc
 50
144.7402420459
 51
146.9667031967
  0
ARC
  5
2D2
100
AcDbEntity
  8
ALL_ASSEMBLY_MEMBERS
100
AcDbCircle
 62
7
  6
CONTINUOUS
 10
3.5319783479
 20
5.0945777765
 40
0.043839061
100
AcDbArc
 50
143.9321500419
 51
144.7362378871
  0
ARC
  5
2D3
100
AcDbEntity
  8
ALL_ASSEMBLY_MEMBERS
100
AcDbCircle
 62
7
  6
CONTINUOUS
 10
3.1821017081
 20
4.7294040319
 40
0.0375
100
AcDbArc
 50
0.0
 51
90.0
  0
ARC
  5
2D4
100
AcDbEntity
  8
ALL_ASSEMBLY_MEMBERS
100
AcDbCircle
 62
7
  6
CONTINUOUS
 10
3.5696017081
 20
4.7294040319
 40
0.0375
100
AcDbArc
 50
90.0
 51
180.0
  0
ARC
  5
2D5
100
AcDbEntity
  8
ALL_ASSEMBLY_MEMBERS
100
AcDbCircle
 62
7
  6
CONTINUOUS
 10
3.1483551932
 20
5.0048419416
 40
0.0274999954
100
AcDbArc
 50
269.7965413965
 51
359.0875840874
  0
ARC
  5
2D6
100
AcDbEntity
  8
ALL_ASSEMBLY_MEMBERS
100
AcDbCircle
 62
7
  6
CONTINUOUS
 10
3.1483519388
 20
4.7680088795
 40
0.0274999721
100
AcDbArc
 50
359.9998120894
 51
91.7076154102
  0
ARC
  5
2D7
100
AcDbEntity
  8
ALL_ASSEMBLY_MEMBERS
100
AcDbCircle
 62
7
  6
CONTINUOUS
 10
3.4962303089
 20
5.0951550589
 40
0.0226244745
100
AcDbArc
 50
33.1317531745
 51
35.2585488323
  0
ARC
  5
2D8
100
AcDbEntity
  8
ALL_ASSEMBLY_MEMBERS
100
AcDbCircle
 62
7
  6
CONTINUOUS
 10
3.5093533918
 20
5.0643301535
 40
0.0213473014
100
AcDbArc
 50
223.0433018995
 51
226.8752205325
  0
ARC
  5
2D9
100
AcDbEntity
  8
ALL_ASSEMBLY_MEMBERS
100
AcDbCircle
 62
7
  6
CONTINUOUS
 10
1.9708517081
 20
4.9631935077
 40
0.02
100
AcDbArc
 50
89.9790132873
 51
180.0
  0
ARC
  5
2DA
100
AcDbEntity
  8
ALL_ASSEMBLY_MEMBERS
100
AcDbCircle
 62
7
  6
CONTINUOUS
 10
1.9708517081
 20
4.7787745153
 40
0.02
100
AcDbArc
 50
180.0
 51
271.5248114949
  0
ARC
  5
2DB
100
AcDbEntity
  8
ALL_FEATURES
100
AcDbCircle
 62
7
  6
CONTINUOUS
 10
3.5752761523
 20
5.1789040319
 40
0.0155
100
AcDbArc
 50
270.0
 51
355.1903004544
  0
ARC
  5
2DC
100
AcDbEntity
  8
ALL_FEATURES
100
AcDbCircle
 62
7
  6
CONTINUOUS
 10
3.1764272638
 20
5.1789040319
 40
0.0155
100
AcDbArc
 50
184.8096995456
 51
270.0
  0
ARC
  5
2DD
100
AcDbEntity
  8
ALL_ASSEMBLY_MEMBERS
100
AcDbCircle
 62
7
  6
CONTINUOUS
 10
3.2096017081
 20
5.0144040319
 40
0.01
100
AcDbArc
 50
270.000000002
 51
360.0
  0
ARC
  5
2DE
100
AcDbEntity
  8
ALL_ASSEMBLY_MEMBERS
100
AcDbCircle
 62
7
  6
CONTINUOUS
 10
3.5421017081
 20
5.0144040319
 40
0.01
100
AcDbArc
 50
180.0
 51
269.999999998
  0
ARC
  5
2DF
100
AcDbEntity
  8
ALL_ASSEMBLY_MEMBERS
100
AcDbCircle
 62
7
  6
CONTINUOUS
 10
3.2346017081
 20
4.7194040319
 40
0.01
100
AcDbArc
 50
0.0
 51
89.9999999968
  0
ARC
  5
2E0
100
AcDbEntity
  8
ALL_ASSEMBLY_MEMBERS
100
AcDbCircle
 62
7
  6
CONTINUOUS
 10
3.5171017081
 20
4.7194040319
 40
0.01
100
AcDbArc
 50
90.0000000032
 51
180.0
  0
ARC
  5
2E1
100
AcDbEntity
  8
ALL_ASSEMBLY_MEMBERS
100
AcDbCircle
 62
7
  6
CONTINUOUS
 10
87.8339185959
 20
3.0953350085
 40
82.6770669103
100
AcDbArc
 50
180.0013381801
 51
180.1273248182
  0
ARC
  5
2E2
100
AcDbEntity
  8
ALL_ASSEMBLY_MEMBERS
100
AcDbCircle
 62
7
  6
CONTINUOUS
 10
5.3443526631
 20
2.5934045313
 40
0.36750091
100
AcDbArc
 50
181.1152745276
 51
299.9998976083
  0
ARC
  5
2E3
100
AcDbEntity
  8
ALL_ASSEMBLY_MEMBERS
100
AcDbCircle
 62
7
  6
CONTINUOUS
 10
7.2887119061
 20
6.2078658867
 40
1.2560096164
100
AcDbArc
 50
280.6738668616
 51
281.4642232374
  0
ARC
  5
2E4
100
AcDbEntity
  8
ALL_ASSEMBLY_MEMBERS
100
AcDbCircle
 62
7
  6
CONTINUOUS
 10
7.2876692301
 20
5.9487657508
 40
0.9704119701
100
AcDbArc
 50
281.1001209499
 51
283.3058070998
  0
ARC
  5
2E5
100
AcDbEntity
  8
ALL_FEATURES
100
AcDbCircle
 62
7
  6
CONTINUOUS
 10
7.8391211591
 20
5.1514023676
 40
0.3125
100
AcDbArc
 50
145.0110095298
 51
175.1903004544
  0
ARC
  5
2E6
100
AcDbEntity
  8
ALL_FEATURES
100
AcDbCircle
 62
7
  6
CONTINUOUS
 10
6.786582257
 20
5.1514023676
 40
0.3125
100
AcDbArc
 50
4.8096995456
 51
34.9889904702
  0
ARC
  5
2E7
100
AcDbEntity
  8
ALL_FEATURES
100
AcDbCircle
 62
7
  6
CONTINUOUS
 10
7.5366141475
 20
5.4420362335
 40
0.1019875605
100
AcDbArc
 50
325.0110095298
 51
33.0478355064
  0
ARC
  5
2E8
100
AcDbEntity
  8
ALL_FEATURES
100
AcDbCircle
 62
7
  6
CONTINUOUS
 10
7.0890892686
 20
5.4420362335
 40
0.1019875605
100
AcDbArc
 50
146.9521644936
 51
214.9889904702
  0
ARC
  5
2E9
100
AcDbEntity
  8
ALL_FEATURES
100
AcDbCircle
 62
7
  6
CONTINUOUS
 10
6.8164197636
 20
6.0069040319
 40
0.0935680556
100
AcDbArc
 50
180.0
 51
267.8145949287
  0
ARC
  5
2EA
100
AcDbEntity
  8
ALL_FEATURES
100
AcDbCircle
 62
7
  6
CONTINUOUS
 10
7.8092836525
 20
6.0069040319
 40
0.0935680556
100
AcDbArc
 50
272.1854050713
 51
360.0
  0
ARC
  5
2EB
100
AcDbEntity
  8
ALL_FEATURES
100
AcDbCircle
 62
7
  6
CONTINUOUS
 10
6.9063503712
 20
5.9129040319
 40
0.0935
100
AcDbArc
 50
179.6936039968
 51
270.0
  0
ARC
  5
2EC
100
AcDbEntity
  8
ALL_FEATURES
100
AcDbCircle
 62
7
  6
CONTINUOUS
 10
7.719353045
 20
5.9129040319
 40
0.0935
100
AcDbArc
 50
270.0
 51
0.3063960032
  0
ARC
  5
2ED
100
AcDbEntity
  8
ALL_FEATURES
100
AcDbCircle
 62
7
  6
CONTINUOUS
 10
7.6939889749
 20
5.5444235442
 40
0.0857622668
100
AcDbArc
 50
134.9173576842
 51
213.0478355064
  0
ARC
  5
2EE
100
AcDbEntity
  8
ALL_FEATURES
100
AcDbCircle
 62
7
  6
CONTINUOUS
 10
6.9317144413
 20
5.5444235442
 40
0.0857622668
100
AcDbArc
 50
326.9521644936
 51
45.0826423158
  0
ARC
  5
2EF
100
AcDbEntity
  8
ALL_ASSEMBLY_MEMBERS
100
AcDbCircle
 62
7
  6
CONTINUOUS
 10
7.1493540261
 20
5.0759810104
 40
0.0526119382
100
AcDbArc
 50
329.0535042613
 51
331.809665556
  0
ARC
  5
2F0
100
AcDbEntity
  8
ALL_ASSEMBLY_MEMBERS
100
AcDbCircle
 62
7
  6
CONTINUOUS
 10
7.1528271342
 20
5.0919346375
 40
0.0485491909
100
AcDbArc
 50
32.0465222264
 51
33.1391435921
  0
ARC
  5
2F1
100
AcDbEntity
  8
ALL_ASSEMBLY_MEMBERS
100
AcDbCircle
 62
7
  6
CONTINUOUS
 10
7.1539729311
 20
5.0731537487
 40
0.0471966864
100
AcDbArc
 50
324.7585879912
 51
329.1136949042
  0
ARC
  5
2F2
100
AcDbEntity
  8
ALL_ASSEMBLY_MEMBERS
100
AcDbCircle
 62
7
  6
CONTINUOUS
 10
7.1546547669
 20
5.0931291425
 40
0.046365826
100
AcDbArc
 50
33.137792026
 51
35.2483689106
  0
ARC
  5
2F3
100
AcDbEntity
  8
ALL_ASSEMBLY_MEMBERS
100
AcDbCircle
 62
7
  6
CONTINUOUS
 10
7.2160716237
 20
5.0738834597
 40
0.0457892084
100
AcDbArc
 50
197.3798489399
 51
198.9472339009
  0
ARC
  5
2F4
100
AcDbEntity
  8
ALL_ASSEMBLY_MEMBERS
100
AcDbCircle
 62
7
  6
CONTINUOUS
 10
7.2114901197
 20
5.0722620812
 40
0.040929508
100
AcDbArc
 50
198.8829419003
 51
202.5693643091
  0
ARC
  5
2F5
100
AcDbEntity
  8
ALL_ASSEMBLY_MEMBERS
100
AcDbCircle
 62
7
  6
CONTINUOUS
 10
7.5066017081
 20
4.7294040319
 40
0.0375
100
AcDbArc
 50
90.0
 51
180.0
  0
ARC
  5
2F6
100
AcDbEntity
  8
ALL_ASSEMBLY_MEMBERS
100
AcDbCircle
 62
7
  6
CONTINUOUS
 10
7.1191017081
 20
4.7294040319
 40
0.0375
100
AcDbArc
 50
0.0
 51
90.0
  0
ARC
  5
2F7
100
AcDbEntity
  8
ALL_ASSEMBLY_MEMBERS
100
AcDbCircle
 62
7
  6
CONTINUOUS
 10
7.2060680823
 20
5.0699732651
 40
0.035044278
100
AcDbArc
 50
202.5161603774
 51
206.6079617053
  0
ARC
  5
2F8
100
AcDbEntity
  8
ALL_ASSEMBLY_MEMBERS
100
AcDbCircle
 62
7
  6
CONTINUOUS
 10
7.5403482229
 20
5.0048419416
 40
0.0274999954
100
AcDbArc
 50
180.9124159126
 51
270.2034586035
  0
ARC
  5
2F9
100
AcDbEntity
  8
ALL_ASSEMBLY_MEMBERS
100
AcDbCircle
 62
7
  6
CONTINUOUS
 10
7.5403514773
 20
4.7680088795
 40
0.0274999721
100
AcDbArc
 50
88.2923845898
 51
180.0001879106
  0
ARC
  5
2FA
100
AcDbEntity
  8
ALL_ASSEMBLY_MEMBERS
100
AcDbCircle
 62
7
  6
CONTINUOUS
 10
8.7178517081
 20
4.9631935077
 40
0.02
100
AcDbArc
 50
0.0
 51
90.0209867127
  0
ARC
  5
2FB
100
AcDbEntity
  8
ALL_ASSEMBLY_MEMBERS
100
AcDbCircle
 62
7
  6
CONTINUOUS
 10
8.7178517081
 20
4.7787745153
 40
0.02
100
AcDbArc
 50
268.4751885051
 51
360.0
  0
ARC
  5
2FC
100
AcDbEntity
  8
ALL_FEATURES
100
AcDbCircle
 62
7
  6
CONTINUOUS
 10
7.5122761523
 20
5.1789040319
 40
0.0155
100
AcDbArc
 50
270.0
 51
355.1903004544
  0
ARC
  5
2FD
100
AcDbEntity
  8
ALL_FEATURES
100
AcDbCircle
 62
7
  6
CONTINUOUS
 10
7.1134272638
 20
5.1789040319
 40
0.0155
100
AcDbArc
 50
184.8096995456
 51
270.0
  0
ARC
  5
2FE
100
AcDbEntity
  8
ALL_ASSEMBLY_MEMBERS
100
AcDbCircle
 62
7
  6
CONTINUOUS
 10
7.1839628126
 20
5.1043418065
 40
0.0148228365
100
AcDbArc
 50
77.5930057384
 51
93.5962482016
  0
ARC
  5
2FF
100
AcDbEntity
  8
ALL_ASSEMBLY_MEMBERS
100
AcDbCircle
 62
7
  6
CONTINUOUS
 10
7.1868440691
 20
5.0611449417
 40
0.0115669673
100
AcDbArc
 50
309.4040646097
 51
313.6989158793
  0
ARC
  5
300
100
AcDbEntity
  8
ALL_ASSEMBLY_MEMBERS
100
AcDbCircle
 62
7
  6
CONTINUOUS
 10
7.1834059893
 20
5.0591910277
 40
0.0105218023
100
AcDbArc
 50
302.8678611462
 51
304.6359984173
  0
ARC
  5
301
100
AcDbEntity
  8
ALL_ASSEMBLY_MEMBERS
100
AcDbCircle
 62
7
  6
CONTINUOUS
 10
7.4791017081
 20
5.0144040319
 40
0.01
100
AcDbArc
 50
180.0
 51
269.999999998
  0
ARC
  5
302
100
AcDbEntity
  8
ALL_ASSEMBLY_MEMBERS
100
AcDbCircle
 62
7
  6
CONTINUOUS
 10
7.1466017081
 20
5.0144040319
 40
0.01
100
AcDbArc
 50
270.000000002
 51
360.0
  0
ARC
  5
303
100
AcDbEntity
  8
ALL_ASSEMBLY_MEMBERS
100
AcDbCircle
 62
7
  6
CONTINUOUS
 10
7.4541017081
 20
4.7194040319
 40
0.01
100
AcDbArc
 50
90.0000000032
 51
180.0
  0
ARC
  5
304
100
AcDbEntity
  8
ALL_ASSEMBLY_MEMBERS
100
AcDbCircle
 62
7
  6
CONTINUOUS
 10
7.1716017081
 20
4.7194040319
 40
0.01
100
AcDbArc
 50
0.0
 51
89.9999999968
  0
ARC
  5
305
100
AcDbEntity
  8
ALL_ASSEMBLY_MEMBERS
100
AcDbCircle
 62
7
  6
CONTINUOUS
 10
7.182949288
 20
5.10611869
 40
0.007785342
100
AcDbArc
 50
90.0102333136
 51
95.9856797066
  0
LINE
  5
306
100
AcDbEntity
  8
ALL_ASSEMBLY_MEMBERS
100
AcDbLine
 62
7
  6
CONTINUOUS
 10
3.4899564737
 20
5.0577348726
 11
3.4921710479
 21
5.0546438069
  0
LINE
  5
307
100
AcDbEntity
  8
ALL_ASSEMBLY_MEMBERS
100
AcDbLine
 62
7
  6
CONTINUOUS
 10
3.4921710479
 20
5.0546438069
 11
3.493713156
 21
5.0529725046
  0
SPLINE
  5
308
100
AcDbEntity
  8
ALL_ASSEMBLY_MEMBERS
100
AcDbSpline
 62
7
  6
CONTINUOUS
 70
0
 71
3
 72
31
 73
27
 74
0
 42
0.0000001
 43
0.0000001
 44
0.0000000001
 40
0.0
 40
0.0
 40
0.0
 40
0.0
 40
0.0675955829
 40
0.10024958
 40
0.1321770178
 40
0.1939957714
 40
0.224005946
 40
0.2534853555
 40
0.2824996787
 40
0.3111200373
 40
0.3394227325
 40
0.3674890891
 40
0.3954043373
 40
0.4232559848
 40
0.4511330541
 40
0.4791249752
 40
0.5357720679
 40
0.5938953658
 40
0.6540892188
 40
0.7168536445
 40
0.7493376196
 40
0.7826030619
 40
0.8166839109
 40
0.8516073216
 40
0.9240367482
 40
1.0
 40
1.0
 40
1.0
 40
1.0
 10
3.493713156
 20
5.0529725046
 30
0.0
 10
3.4940937195
 20
5.0526026452
 30
0.0
 10
3.4946808733
 20
5.0520765455
 30
0.0
 10
3.4955002838
 20
5.0514393071
 30
0.0
 10
3.4963123247
 20
5.0508684225
 30
0.0
 10
3.497148588
 20
5.0503695646
 30
0.0
 10
3.4980047237
 20
5.0499514243
 30
0.0
 10
3.4986459303
 20
5.0496826888
 30
0.0
 10
3.4992916784
 20
5.0494561511
 30
0.0
 10
3.4999412409
 20
5.0492721564
 30
0.0
 10
3.5005938587
 20
5.0491310716
 30
0.0
 10
3.5012487611
 20
5.0490332282
 30
0.0
 10
3.5019051433
 20
5.0489787489
 30
0.0
 10
3.5025622036
 20
5.0489677615
 30
0.0
 10
3.5032191736
 20
5.0490004096
 30
0.0
 10
3.5040971361
 20
5.0491025673
 30
0.0
 10
3.5051955858
 20
5.0493418876
 30
0.0
 10
3.5064932489
 20
5.049802536
 30
0.0
 10
3.5077698661
 20
5.0504350824
 30
0.0
 10
3.5087991486
 20
5.0510952014
 30
0.0
 10
3.5096055978
 20
5.0517020156
 30
0.0
 10
3.5102087166
 20
5.0522030143
 30
0.0
 10
3.5108023112
 20
5.0527440645
 30
0.0
 10
3.5115895981
 20
5.0535275128
 30
0.0
 10
3.5125447395
 20
5.0546062376
 30
0.0
 10
3.5132496357
 20
5.0555352203
 30
0.0
 10
3.5135939523
 20
5.0560221607
 30
0.0
  0
SPLINE
  5
309
100
AcDbEntity
  8
ALL_ASSEMBLY_MEMBERS
100
AcDbSpline
 62
7
  6
CONTINUOUS
 70
0
 71
3
 72
21
 73
17
 74
0
 42
0.0000001
 43
0.0000001
 44
0.0000000001
 40
0.0
 40
0.0
 40
0.0
 40
0.0
 40
0.0697308383
 40
0.1393243434
 40
0.2771865865
 40
0.4120853488
 40
0.4780180745
 40
0.5427142836
 40
0.6060179606
 40
0.6677893778
 40
0.7278972869
 40
0.7862254717
 40
0.8426740382
 40
0.8971565679
 40
0.9496121506
 40
1.0
 40
1.0
 40
1.0
 40
1.0
 10
3.5212555186
 20
5.0829040319
 30
0.0
 10
3.5212555186
 20
5.0822876383
 30
0.0
 10
3.5212370936
 20
5.0810559758
 30
0.0
 10
3.5211273759
 20
5.0786079283
 30
0.0
 10
3.5208558429
 20
5.0755918638
 30
0.0
 10
3.5204027221
 20
5.0726302134
 30
0.0
 10
3.5199332478
 20
5.0703300966
 30
0.0
 10
3.5195334673
 20
5.0686627091
 30
0.0
 10
3.5190846133
 20
5.0670459922
 30
0.0
 10
3.5185884762
 20
5.0654856296
 30
0.0
 10
3.5180466994
 20
5.0639871703
 30
0.0
 10
3.5174611796
 20
5.0625559262
 30
0.0
 10
3.5168341371
 20
5.0611969089
 30
0.0
 10
3.5161675543
 20
5.0599149987
 30
0.0
 10
3.5154639573
 20
5.0587147205
 30
0.0
 10
3.514961611
 20
5.0579563112
 30
0.0
 10
3.5147044465
 20
5.0575926416
 30
0.0
  0
SPLINE
  5
30A
100
AcDbEntity
  8
ALL_ASSEMBLY_MEMBERS
100
AcDbSpline
 62
7
  6
CONTINUOUS
 70
0
 71
3
 72
21
 73
17
 74
0
 42
0.0000001
 43
0.0000001
 44
0.0000000001
 40
0.0
 40
0.0
 40
0.0
 40
0.0
 40
0.0512381848
 40
0.1044250032
 40
0.1595137161
 40
0.2164352173
 40
0.2751033436
 40
0.3354211718
 40
0.3972751437
 40
0.460542547
 40
0.5250911937
 40
0.5907747068
 40
0.7249257436
 40
0.8617983556
 40
0.9308381316
 40
1.0
 40
1.0
 40
1.0
 40
1.0
 10
3.5151764045
 20
5.1075208306
 30
0.0
 10
3.5154162581
 20
5.107153639
 30
0.0
 10
3.5158844429
 20
5.1063916348
 30
0.0
 10
3.5165401831
 20
5.1051934289
 30
0.0
 10
3.5171604483
 20
5.1039221291
 30
0.0
 10
3.5177432852
 20
5.1025819808
 30
0.0
 10
3.5182868713
 20
5.1011773664
 30
0.0
 10
3.5187892578
 20
5.0997128197
 30
0.0
 10
3.5192489669
 20
5.0981931712
 30
0.0
 10
3.5196644459
 20
5.0966233718
 30
0.0
 10
3.5200342345
 20
5.0950085464
 30
0.0
 10
3.5204679844
 20
5.0927871024
 30
0.0
 10
3.5208864604
 20
5.0899335568
 30
0.0
 10
3.5211372529
 20
5.0870317491
 30
0.0
 10
3.5212385191
 20
5.0846790989
 30
0.0
 10
3.5212555186
 20
5.0834960429
 30
0.0
 10
3.5212555186
 20
5.0829040319
 30
0.0
  0
SPLINE
  5
30B
100
AcDbEntity
  8
ALL_ASSEMBLY_MEMBERS
100
AcDbSpline
 62
7
  6
CONTINUOUS
 70
0
 71
3
 72
41
 73
37
 74
0
 42
0.0000001
 43
0.0000001
 44
0.0000000001
 40
0.0
 40
0.0
 40
0.0
 40
0.0
 40
0.0435772512
 40
0.087032409
 40
0.1301794658
 40
0.1728637099
 40
0.2149494797
 40
0.2563016289
 40
0.2967851582
 40
0.3362721018
 40
0.3746484794
 40
0.4118091565
 40
0.4476645394
 40
0.4821379769
 40
0.5151720746
 40
0.5467305404
 40
0.5767995781
 40
0.6053961315
 40
0.6325657955
 40
0.6456445495
 40
0.658401932
 40
0.6830127929
 40
0.7065750712
 40
0.7293011481
 40
0.7514436909
 40
0.773287342
 40
0.7951336257
 40
0.8172838908
 40
0.8400223739
 40
0.8636010599
 40
0.888231643
 40
0.9009998568
 40
0.9140899692
 40
0.9412836486
 40
0.9699053259
 40
1.0
 40
1.0
 40
1.0
 40
1.0
 10
3.4902555186
 20
5.0829040319
 30
0.0
 10
3.4902555186
 20
5.083609291
 30
0.0
 10
3.4902796232
 20
5.0850179505
 30
0.0
 10
3.4903875513
 20
5.0871224176
 30
0.0
 10
3.4905670348
 20
5.0892075241
 30
0.0
 10
3.4908171433
 20
5.0912630236
 30
0.0
 10
3.4911366858
 20
5.0932794946
 30
0.0
 10
3.4915242222
 20
5.0952477436
 30
0.0
 10
3.4919778084
 20
5.0971586603
 30
0.0
 10
3.4924955924
 20
5.0990032566
 30
0.0
 10
3.4930748851
 20
5.1007730213
 30
0.0
 10
3.4937132596
 20
5.102459707
 30
0.0
 10
3.494407566
 20
5.1040555705
 30
0.0
 10
3.4951547264
 20
5.1055532053
 30
0.0
 10
3.4959513327
 20
5.1069456806
 30
0.0
 10
3.4967936421
 20
5.108226649
 30
0.0
 10
3.4976781119
 20
5.1093900798
 30
0.0
 10
3.4986004602
 20
5.1104307242
 30
0.0
 10
3.4994076691
 20
5.1112010464
 30
0.0
 10
3.5000685265
 20
5.1117484967
 30
0.0
 10
3.5007220356
 20
5.1122383189
 30
0.0
 10
3.5015553667
 20
5.1127693141
 30
0.0
 10
3.5025883784
 20
5.1132747212
 30
0.0
 10
3.5036377644
 20
5.1136378802
 30
0.0
 10
3.5046983993
 20
5.113856163
 30
0.0
 10
3.5057647284
 20
5.113928423
 30
0.0
 10
3.5068310065
 20
5.1138536301
 30
0.0
 10
3.5078914946
 20
5.1136328376
 30
0.0
 10
3.5089406388
 20
5.1132671953
 30
0.0
 10
3.5099733284
 20
5.1127593606
 30
0.0
 10
3.5108063093
 20
5.112226414
 30
0.0
 10
3.5114595167
 20
5.1117350611
 30
0.0
 10
3.5121200517
 20
5.1111860546
 30
0.0
 10
3.5129268024
 20
5.1104138249
 30
0.0
 10
3.5138484992
 20
5.1093710643
 30
0.0
 10
3.5144232367
 20
5.1086130956
 30
0.0
 10
3.5147044465
 20
5.1082154222
 30
0.0
  0
LINE
  5
30C
100
AcDbEntity
  8
ALL_ASSEMBLY_MEMBERS
100
AcDbLine
 62
7
  6
CONTINUOUS
 10
3.5147044465
 20
5.0575926416
 11
3.5135238122
 21
5.0560784477
  0
SPLINE
  5
30D
100
AcDbEntity
  8
ALL_ASSEMBLY_MEMBERS
100
AcDbSpline
 62
7
  6
CONTINUOUS
 70
0
 71
3
 72
38
 73
34
 74
0
 42
0.0000001
 43
0.0000001
 44
0.0000000001
 40
0.0
 40
0.0
 40
0.0
 40
0.0
 40
0.0280967383
 40
0.0548485182
 40
0.0803434138
 40
0.1047028387
 40
0.1280895771
 40
0.150703182
 40
0.1727786017
 40
0.1945777887
 40
0.2163771291
 40
0.2384529994
 40
0.2610673305
 40
0.2844550332
 40
0.3088156226
 40
0.3343118378
 40
0.3475283274
 40
0.3610713219
 40
0.3891695716
 40
0.4186649977
 40
0.4495816122
 40
0.4819180829
 40
0.5156484259
 40
0.5507303861
 40
0.5871011582
 40
0.624685842
 40
0.6633961402
 40
0.7031326507
 40
0.7437874541
 40
0.82735435
 40
0.9131230974
 40
0.9565069902
 40
1.0
 40
1.0
 40
1.0
 40
1.0
 10
3.5135048652
 20
5.0560565352
 30
0.0
 10
3.5132191275
 20
5.0557266117
 30
0.0
 10
3.5126375795
 20
5.0551025213
 30
0.0
 10
3.511713307
 20
5.0542616205
 30
0.0
 10
3.5107627457
 20
5.0535426845
 30
0.0
 10
3.5097895379
 20
5.0529493737
 30
0.0
 10
3.5087978277
 20
5.0524843629
 30
0.0
 10
3.507791762
 20
5.0521502022
 30
0.0
 10
3.5067758554
 20
5.0519489832
 30
0.0
 10
3.5057549579
 20
5.0518816611
 30
0.0
 10
3.5047340634
 20
5.0519491308
 30
0.0
 10
3.5037181645
 20
5.0521504964
 30
0.0
 10
3.5027121138
 20
5.0524848012
 30
0.0
 10
3.5017204157
 20
5.0529499581
 30
0.0
 10
3.5007472538
 20
5.0535433926
 30
0.0
 10
3.4999645992
 20
5.0541354591
 30
0.0
 10
3.4993514189
 20
5.0546676914
 30
0.0
 10
3.498732461
 20
5.0552537724
 30
0.0
 10
3.4979783333
 20
5.0560632123
 30
0.0
 10
3.497117913
 20
5.0571370653
 30
0.0
 10
3.4962946665
 20
5.0583207059
 30
0.0
 10
3.4955120977
 20
5.0596090816
 30
0.0
 10
3.494773259
 20
5.0609966682
 30
0.0
 10
3.4940815136
 20
5.062477698
 30
0.0
 10
3.4934395089
 20
5.0640457768
 30
0.0
 10
3.4928501498
 20
5.0656943187
 30
0.0
 10
3.4923158673
 20
5.0674162895
 30
0.0
 10
3.491838876
 20
5.0692043887
 30
0.0
 10
3.4912771341
 20
5.0716891487
 30
0.0
 10
3.4907344278
 20
5.0749086938
 30
0.0
 10
3.4904092772
 20
5.0781996959
 30
0.0
 10
3.4902776427
 20
5.0808787328
 30
0.0
 10
3.4902555186
 20
5.0822284066
 30
0.0
 10
3.4902555186
 20
5.0829040319
 30
0.0
  0
SPLINE
  5
30E
100
AcDbEntity
  8
ALL_ASSEMBLY_MEMBERS
100
AcDbSpline
 62
7
  6
CONTINUOUS
 70
0
 71
3
 72
11
 73
7
 74
0
 42
0.0000001
 43
0.0000001
 44
0.0000000001
 40
0.0
 40
0.0
 40
0.0
 40
0.0
 40
0.2435219719
 40
0.4908629285
 40
0.7427899528
 40
1.0
 40
1.0
 40
1.0
 40
1.0
 10
3.4966620689
 20
5.0506673394
 30
0.0
 10
3.4964020622
 20
5.0507309443
 30
0.0
 10
3.4958824347
 20
5.0508781595
 30
0.0
 10
3.4951137439
 20
5.0511551375
 30
0.0
 10
3.4943516922
 20
5.0514892864
 30
0.0
 10
3.4938544164
 20
5.0517469562
 30
0.0
 10
3.4936074844
 20
5.0518846322
 30
0.0
  0
LINE
  5
30F
100
AcDbEntity
  8
ALL_ASSEMBLY_MEMBERS
100
AcDbLine
 62
7
  6
CONTINUOUS
 10
3.4936074844
 20
5.0518846322
 11
3.492140406
 21
5.0528218115
  0
SPLINE
  5
310
100
AcDbEntity
  8
ALL_ASSEMBLY_MEMBERS
100
AcDbSpline
 62
7
  6
CONTINUOUS
 70
0
 71
3
 72
21
 73
17
 74
0
 42
0.0000001
 43
0.0000001
 44
0.0000000001
 40
0.0
 40
0.0
 40
0.0
 40
0.0
 40
0.0697308383
 40
0.1393243434
 40
0.2771865865
 40
0.4120853488
 40
0.4780180745
 40
0.5427142836
 40
0.6060179606
 40
0.6677893778
 40
0.7278972869
 40
0.7862254717
 40
0.8426740382
 40
0.8971565679
 40
0.9496121506
 40
1.0
 40
1.0
 40
1.0
 40
1.0
 10
7.1674478975
 20
5.0829040319
 30
0.0
 10
7.1674478975
 20
5.0835204254
 30
0.0
 10
7.1674663226
 20
5.084752088
 30
0.0
 10
7.1675760402
 20
5.0872001354
 30
0.0
 10
7.1678475732
 20
5.0902162
 30
0.0
 10
7.1683006941
 20
5.0931778503
 30
0.0
 10
7.1687701684
 20
5.0954779671
 30
0.0
 10
7.1691699489
 20
5.0971453546
 30
0.0
 10
7.1696188029
 20
5.0987620716
 30
0.0
 10
7.1701149399
 20
5.1003224342
 30
0.0
 10
7.1706567168
 20
5.1018208935
 30
0.0
 10
7.1712422366
 20
5.1032521376
 30
0.0
 10
7.171869279
 20
5.1046111548
 30
0.0
 10
7.1725358618
 20
5.1058930651
 30
0.0
 10
7.1732394588
 20
5.1070933433
 30
0.0
 10
7.1737418051
 20
5.1078517525
 30
0.0
 10
7.1739989696
 20
5.1082154222
 30
0.0
  0
LINE
  5
311
100
AcDbEntity
  8
ALL_ASSEMBLY_MEMBERS
100
AcDbLine
 62
7
  6
CONTINUOUS
 10
7.1739989696
 20
5.0575926416
 11
7.1723838094
 21
5.0602192635
  0
SPLINE
  5
312
100
AcDbEntity
  8
ALL_ASSEMBLY_MEMBERS
100
AcDbSpline
 62
7
  6
CONTINUOUS
 70
0
 71
3
 72
15
 73
11
 74
0
 42
0.0000001
 43
0.0000001
 44
0.0000000001
 40
0.0
 40
0.0
 40
0.0
 40
0.0
 40
0.1120921143
 40
0.2283780086
 40
0.3486470159
 40
0.4726573678
 40
0.600123635
 40
0.7307356775
 40
0.8641520134
 40
1.0
 40
1.0
 40
1.0
 40
1.0
 10
7.1723838094
 20
5.0602192635
 30
0.0
 10
7.1721396457
 20
5.0606740546
 30
0.0
 10
7.1716670899
 20
5.0616142067
 30
0.0
 10
7.1710168781
 20
5.0630827947
 30
0.0
 10
7.1704142717
 20
5.064630592
 30
0.0
 10
7.1698619222
 20
5.066251456
 30
0.0
 10
7.1693618026
 20
5.0679388884
 30
0.0
 10
7.168916047
 20
5.0696862017
 30
0.0
 10
7.1685264424
 20
5.0714863469
 30
0.0
 10
7.1683068464
 20
5.0727070165
 30
0.0
 10
7.1682065215
 20
5.0733245051
 30
0.0
  0
SPLINE
  5
313
100
AcDbEntity
  8
ALL_ASSEMBLY_MEMBERS
100
AcDbSpline
 62
7
  6
CONTINUOUS
 70
0
 71
3
 72
11
 73
7
 74
0
 42
0.0000001
 43
0.0000001
 44
0.0000000001
 40
0.0
 40
0.0
 40
0.0
 40
0.0
 40
0.2459354179
 40
0.4953660283
 40
0.747181397
 40
1.0
 40
1.0
 40
1.0
 40
1.0
 10
7.1682065215
 20
5.0733245051
 30
0.0
 10
7.1680800596
 20
5.0741028643
 30
0.0
 10
7.1678587483
 20
5.0756762545
 30
0.0
 10
7.1676220991
 20
5.0780609224
 30
0.0
 10
7.1674797063
 20
5.0804751652
 30
0.0
 10
7.1674478975
 20
5.0820933961
 30
0.0
 10
7.1674478975
 20
5.0829040319
 30
0.0
  0
SPLINE
  5
314
100
AcDbEntity
  8
ALL_ASSEMBLY_MEMBERS
100
AcDbSpline
 62
7
  6
CONTINUOUS
 70
0
 71
3
 72
24
 73
20
 74
0
 42
0.0000001
 43
0.0000001
 44
0.0000000001
 40
0.0
 40
0.0
 40
0.0
 40
0.0
 40
0.0781693173
 40
0.1529937796
 40
0.2245571843
 40
0.292989255
 40
0.3584816656
 40
0.390210634
 40
0.4213056288
 40
0.4817491955
 40
0.5402238236
 40
0.597189495
 40
0.6531657713
 40
0.7087160733
 40
0.7644255879
 40
0.8208775192
 40
0.8786268011
 40
0.9381855809
 40
1.0
 40
1.0
 40
1.0
 40
1.0
 10
7.1762299265
 20
5.0544376123
 30
0.0
 10
7.1764579561
 20
5.0541151137
 30
0.0
 10
7.1769216746
 20
5.053495954
 30
0.0
 10
7.1776564485
 20
5.0526304057
 30
0.0
 10
7.1784129964
 20
5.0518508227
 30
0.0
 10
7.1791892222
 20
5.051159791
 30
0.0
 10
7.1798576414
 20
5.0506542244
 30
0.0
 10
7.1803995655
 20
5.050297937
 30
0.0
 10
7.1809351576
 20
5.0499796688
 30
0.0
 10
7.1816135731
 20
5.0496386748
 30
0.0
 10
7.1824455961
 20
5.0493218201
 30
0.0
 10
7.1832853716
 20
5.0491025546
 30
0.0
 10
7.1841300912
 20
5.0489822131
 30
0.0
 10
7.1849767894
 20
5.0489613058
 30
0.0
 10
7.185822459
 20
5.0490404004
 30
0.0
 10
7.1866640331
 20
5.0492193549
 30
0.0
 10
7.1874986368
 20
5.0494975469
 30
0.0
 10
7.1883232618
 20
5.0498743057
 30
0.0
 10
7.188853861
 20
5.0501840179
 30
0.0
 10
7.1891162071
 20
5.0503535091
 30
0.0
  0
SPLINE
  5
315
100
AcDbEntity
  8
ALL_ASSEMBLY_MEMBERS
100
AcDbSpline
 62
7
  6
CONTINUOUS
 70
0
 71
3
 72
15
 73
11
 74
0
 42
0.0000001
 43
0.0000001
 44
0.0000000001
 40
0.0
 40
0.0
 40
0.0
 40
0.0
 40
0.1006428617
 40
0.2076929173
 40
0.3216744901
 40
0.442878316
 40
0.5714189859
 40
0.7072720442
 40
0.850274985
 40
1.0
 40
1.0
 40
1.0
 40
1.0
 10
7.1893861693
 20
5.0505339051
 30
0.0
 10
7.1897551913
 20
5.0507887332
 30
0.0
 10
7.1904843745
 20
5.0513625586
 30
0.0
 10
7.1915105255
 20
5.0523665903
 30
0.0
 10
7.1924950023
 20
5.0535339794
 30
0.0
 10
7.1934321011
 20
5.0548584435
 30
0.0
 10
7.1943161213
 20
5.0563334966
 30
0.0
 10
7.195141774
 20
5.0579516361
 30
0.0
 10
7.1959033493
 20
5.0597041009
 30
0.0
 10
7.1963552668
 20
5.0609284872
 30
0.0
 10
7.196570177
 20
5.0615600904
 30
0.0
  0
SPLINE
  5
316
100
AcDbEntity
  8
ALL_ASSEMBLY_MEMBERS
100
AcDbSpline
 62
7
  6
CONTINUOUS
 70
0
 71
3
 72
11
 73
7
 74
0
 42
0.0000001
 43
0.0000001
 44
0.0000000001
 40
0.0
 40
0.0
 40
0.0
 40
0.0
 40
0.252818603
 40
0.5046339717
 40
0.7540645821
 40
1.0
 40
1.0
 40
1.0
 40
1.0
 10
7.1984478975
 20
5.0829040319
 30
0.0
 10
7.1984478975
 20
5.0820933961
 30
0.0
 10
7.1984160887
 20
5.0804751652
 30
0.0
 10
7.1982736959
 20
5.0780609224
 30
0.0
 10
7.1980370467
 20
5.0756762545
 30
0.0
 10
7.1978157354
 20
5.0741028643
 30
0.0
 10
7.1976892735
 20
5.0733245051
 30
0.0
  0
SPLINE
  5
317
100
AcDbEntity
  8
ALL_ASSEMBLY_MEMBERS
100
AcDbSpline
 62
7
  6
CONTINUOUS
 70
0
 71
3
 72
36
 73
32
 74
0
 42
0.0000001
 43
0.0000001
 44
0.0000000001
 40
0.0
 40
0.0
 40
0.0
 40
0.0
 40
0.0883659062
 40
0.1738167203
 40
0.2152577632
 40
0.2557454775
 40
0.2952155776
 40
0.3336128646
 40
0.3708876993
 40
0.4069979218
 40
0.4419140732
 40
0.4756151735
 40
0.5080911802
 40
0.539348623
 40
0.5982682604
 40
0.6260532115
 40
0.6528033939
 40
0.6786130939
 40
0.7036006779
 40
0.7279040429
 40
0.7516809524
 40
0.7751070287
 40
0.7983686425
 40
0.8216585045
 40
0.8451680487
 40
0.8690809976
 40
0.8935685577
 40
0.9187825232
 40
0.9448552781
 40
0.9718985881
 40
1.0
 40
1.0
 40
1.0
 40
1.0
 10
7.1976892735
 20
5.0733245051
 30
0.0
 10
7.1975233918
 20
5.0723035209
 30
0.0
 10
7.1971409577
 20
5.0703038474
 30
0.0
 10
7.1965200082
 20
5.0678600527
 30
0.0
 10
7.1959449246
 20
5.065986748
 30
0.0
 10
7.1954820557
 20
5.0646428946
 30
0.0
 10
7.1949844001
 20
5.0633496219
 30
0.0
 10
7.1944534553
 20
5.0621104408
 30
0.0
 10
7.1938906767
 20
5.0609287709
 30
0.0
 10
7.1932974801
 20
5.0598079403
 30
0.0
 10
7.1926756209
 20
5.058750961
 30
0.0
 10
7.1920268077
 20
5.0577607675
 30
0.0
 10
7.1913525876
 20
5.0568400792
 30
0.0
 10
7.1904406304
 20
5.0557306207
 30
0.0
 10
7.1894693538
 20
5.0547424503
 30
0.0
 10
7.1884408467
 20
5.0539006271
 30
0.0
 10
7.1876687944
 20
5.0533617735
 30
0.0
 10
7.1868831087
 20
5.0529049577
 30
0.0
 10
7.1860860021
 20
5.0525313637
 30
0.0
 10
7.1852796423
 20
5.052242222
 30
0.0
 10
7.1844662704
 20
5.0520387077
 30
0.0
 10
7.1836483406
 20
5.0519213067
 30
0.0
 10
7.1828282658
 20
5.0518905098
 30
0.0
 10
7.1820085627
 20
5.0519466282
 30
0.0
 10
7.181191713
 20
5.0520891874
 30
0.0
 10
7.1803801346
 20
5.0523177482
 30
0.0
 10
7.1795762538
 20
5.0526316639
 30
0.0
 10
7.1787822509
 20
5.0530296464
 30
0.0
 10
7.1780003105
 20
5.0535105386
 30
0.0
 10
7.1772326738
 20
5.0540729542
 30
0.0
 10
7.1767414506
 20
5.0544927298
 30
0.0
 10
7.1764987735
 20
5.0547147908
 30
0.0
  0
SPLINE
  5
318
100
AcDbEntity
  8
ALL_ASSEMBLY_MEMBERS
100
AcDbSpline
 62
7
  6
CONTINUOUS
 70
0
 71
3
 72
10
 73
6
 74
0
 42
0.0000001
 43
0.0000001
 44
0.0000000001
 40
0.0
 40
0.0
 40
0.0
 40
0.0
 40
0.482662079
 40
0.7369502828
 40
1.0
 40
1.0
 40
1.0
 40
1.0
 10
7.1764987735
 20
5.0547147908
 30
0.0
 10
7.1760455972
 20
5.0551294684
 30
0.0
 10
7.1753932041
 20
5.0558070264
 30
0.0
 10
7.1745848183
 20
5.0567902977
 30
0.0
 10
7.1741922578
 20
5.0573193028
 30
0.0
 10
7.1739989696
 20
5.0575926416
 30
0.0
  0
SPLINE
  5
319
100
AcDbEntity
  8
ALL_ASSEMBLY_MEMBERS
100
AcDbSpline
 62
7
  6
CONTINUOUS
 70
0
 71
3
 72
15
 73
11
 74
0
 42
0.0000001
 43
0.0000001
 44
0.0000000001
 40
0.0
 40
0.0
 40
0.0
 40
0.0
 40
0.1121665338
 40
0.2292643196
 40
0.3507151327
 40
0.4759214496
 40
0.6041974547
 40
0.7348077954
 40
0.8670170328
 40
1.0
 40
1.0
 40
1.0
 40
1.0
 10
7.196570177
 20
5.0615600904
 30
0.0
 10
7.1968957506
 20
5.0623096118
 30
0.0
 10
7.1975097425
 20
5.0638643651
 30
0.0
 10
7.1983046519
 20
5.0662940518
 30
0.0
 10
7.1989882575
 20
5.0688558005
 30
0.0
 10
7.1995551727
 20
5.0715290347
 30
0.0
 10
7.2000008209
 20
5.0742926767
 30
0.0
 10
7.2003217603
 20
5.0771248691
 30
0.0
 10
7.2005152949
 20
5.0800028853
 30
0.0
 10
7.2005584067
 20
5.0819351974
 30
0.0
 10
7.2005584067
 20
5.0829040319
 30
0.0
  0
SPLINE
  5
31A
100
AcDbEntity
  8
ALL_ASSEMBLY_MEMBERS
100
AcDbSpline
 62
7
  6
CONTINUOUS
 70
0
 71
3
 72
12
 73
8
 74
0
 42
0.0000001
 43
0.0000001
 44
0.0000000001
 40
0.0
 40
0.0
 40
0.0
 40
0.0
 40
0.265078517
 40
0.394029641
 40
0.5204689132
 40
0.7655544429
 40
1.0
 40
1.0
 40
1.0
 40
1.0
 10
7.2014795661
 20
5.0991811485
 30
0.0
 10
7.2010179275
 20
5.0999943432
 30
0.0
 10
7.2002917614
 20
5.1011813391
 30
0.0
 10
7.1992472824
 20
5.1026917379
 30
0.0
 10
7.1981869455
 20
5.1041038386
 30
0.0
 10
7.1967993187
 20
5.1057333686
 30
0.0
 10
7.1955860636
 20
5.106916783
 30
0.0
 10
7.1949640536
 20
5.107461836
 30
0.0
  0
SPLINE
  5
31B
100
AcDbEntity
  8
ALL_ASSEMBLY_MEMBERS
100
AcDbSpline
 62
7
  6
CONTINUOUS
 70
0
 71
3
 72
18
 73
14
 74
0
 42
0.0000001
 43
0.0000001
 44
0.0000000001
 40
0.0
 40
0.0
 40
0.0
 40
0.0
 40
0.136454386
 40
0.2717543332
 40
0.4047383481
 40
0.5343241107
 40
0.6594861088
 40
0.7201250916
 40
0.7793211774
 40
0.8369835643
 40
0.8930359242
 40
0.9474020501
 40
1.0
 40
1.0
 40
1.0
 40
1.0
 10
7.2005584067
 20
5.0829040319
 30
0.0
 10
7.2005584067
 20
5.0840616404
 30
0.0
 10
7.2004969919
 20
5.0863675456
 30
0.0
 10
7.2002213704
 20
5.0897916631
 30
0.0
 10
7.199765405
 20
5.0931378777
 30
0.0
 10
7.1991344314
 20
5.0963679823
 30
0.0
 10
7.1984616844
 20
5.0989596698
 30
0.0
 10
7.1978392841
 20
5.1009430804
 30
0.0
 10
7.1973387725
 20
5.102363608
 30
0.0
 10
7.1968010552
 20
5.1037287481
 30
0.0
 10
7.1962276216
 20
5.1050346906
 30
0.0
 10
7.1956201546
 20
5.1062775047
 30
0.0
 10
7.1951864651
 20
5.1070750028
 30
0.0
 10
7.1949640536
 20
5.107461836
 30
0.0
  0
SPLINE
  5
31C
100
AcDbEntity
  8
ALL_ASSEMBLY_MEMBERS
100
AcDbSpline
 62
7
  6
CONTINUOUS
 70
0
 71
3
 72
14
 73
10
 74
0
 42
0.0000001
 43
0.0000001
 44
0.0000000001
 40
0.0
 40
0.0
 40
0.0
 40
0.0
 40
0.1418216731
 40
0.2784938949
 40
0.5366596529
 40
0.6586647875
 40
0.7762863728
 40
0.8899057234
 40
1.0
 40
1.0
 40
1.0
 40
1.0
 10
7.1739989696
 20
5.1082154222
 30
0.0
 10
7.1742092462
 20
5.1085127851
 30
0.0
 10
7.1746368483
 20
5.1090866024
 30
0.0
 10
7.1755194882
 20
5.1101455
 30
0.0
 10
7.1764570674
 20
5.1110910391
 30
0.0
 10
7.1774475022
 20
5.1119006922
 30
0.0
 10
7.1781909698
 20
5.1124220766
 30
0.0
 10
7.1789470857
 20
5.1128673219
 30
0.0
 10
7.1794658046
 20
5.1131162799
 30
0.0
 10
7.1797259973
 20
5.1132268783
 30
0.0
  0
LINE
  5
31D
100
AcDbEntity
  8
ALL_ASSEMBLY_MEMBERS
100
AcDbLine
 62
7
  6
CONTINUOUS
 10
7.1797259973
 20
5.1132268783
 11
7.1821374334
 21
5.1138615862
  0
SPLINE
  5
31E
100
AcDbEntity
  8
ALL_ASSEMBLY_MEMBERS
100
AcDbSpline
 62
7
  6
CONTINUOUS
 70
0
 71
3
 72
32
 73
28
 74
0
 42
0.0000001
 43
0.0000001
 44
0.0000000001
 40
0.0
 40
0.0
 40
0.0
 40
0.0
 40
0.0202860603
 40
0.040717733
 40
0.0614358214
 40
0.0825735989
 40
0.104251914
 40
0.1265774551
 40
0.1496434788
 40
0.1735269164
 40
0.223951588
 40
0.2506012714
 40
0.2782326727
 40
0.3068569452
 40
0.3364756321
 40
0.3670785829
 40
0.3986489743
 40
0.4311638834
 40
0.4645910881
 40
0.5340193879
 40
0.5699416144
 40
0.6065983569
 40
0.6818863591
 40
0.7594036527
 40
0.8386317495
 40
0.9190435147
 40
1.0
 40
1.0
 40
1.0
 40
1.0
 10
7.1829478975
 20
5.1139040319
 30
0.0
 10
7.1832017191
 20
5.1139040319
 30
0.0
 10
7.183711533
 20
5.1138788711
 30
0.0
 10
7.1844730599
 20
5.113766101
 30
0.0
 10
7.1852307294
 20
5.1135786306
 30
0.0
 10
7.1859824735
 20
5.1133168254
 30
0.0
 10
7.1867264939
 20
5.1129815785
 30
0.0
 10
7.1874610329
 20
5.1125738873
 30
0.0
 10
7.1881843059
 20
5.1120946521
 30
0.0
 10
7.1891486599
 20
5.1113486338
 30
0.0
 10
7.1900653205
 20
5.1104735761
 30
0.0
 10
7.1909314426
 20
5.1094901082
 30
0.0
 10
7.1915738625
 20
5.1086749618
 30
0.0
 10
7.1921953798
 20
5.1077979815
 30
0.0
 10
7.1927945283
 20
5.1068611425
 30
0.0
 10
7.1933699918
 20
5.1058667927
 30
0.0
 10
7.1939203843
 20
5.1048172875
 30
0.0
 10
7.1944442979
 20
5.1037150718
 30
0.0
 10
7.1951144459
 20
5.1021591836
 30
0.0
 10
7.1957161265
 20
5.1005286973
 30
0.0
 10
7.1962519512
 20
5.098834402
 30
0.0
 10
7.196755751
 20
5.0970539105
 30
0.0
 10
7.1972993599
 20
5.0947450713
 30
0.0
 10
7.1978090111
 20
5.0918855721
 30
0.0
 10
7.1981765849
 20
5.088939749
 30
0.0
 10
7.1983983872
 20
5.0859363802
 30
0.0
 10
7.1984478975
 20
5.0839169691
 30
0.0
 10
7.1984478975
 20
5.0829040319
 30
0.0
  0
SPLINE
  5
31F
100
AcDbEntity
  8
ALL_ASSEMBLY_MEMBERS
100
AcDbSpline
 62
7
  6
CONTINUOUS
 70
0
 71
3
 72
36
 73
32
 74
0
 42
0.0000001
 43
0.0000001
 44
0.0000000001
 40
0.0
 40
0.0
 40
0.0
 40
0.0
 40
0.0288780075
 40
0.0587517632
 40
0.0895609277
 40
0.1212476963
 40
0.1537539027
 40
0.1870108015
 40
0.2554320693
 40
0.325804985
 40
0.3614831106
 40
0.3973471649
 40
0.4332906874
 40
0.4692054175
 40
0.5049824351
 40
0.540513217
 40
0.5756894061
 40
0.6104049617
 40
0.6780310965
 40
0.7107544008
 40
0.7426231639
 40
0.7735525311
 40
0.8034627135
 40
0.8322833297
 40
0.8599531003
 40
0.8864208594
 40
0.9116501496
 40
0.935616755
 40
0.9583167889
 40
0.979764586
 40
1.0
 40
1.0
 40
1.0
 40
1.0
 10
7.1949640536
 20
5.107461836
 30
0.0
 10
7.1952756122
 20
5.1070008124
 30
0.0
 10
7.1958829072
 20
5.1060446835
 30
0.0
 10
7.1967320962
 20
5.1045416349
 30
0.0
 10
7.1975320601
 20
5.1029510078
 30
0.0
 10
7.198279972
 20
5.1012796155
 30
0.0
 10
7.1989735057
 20
5.0995341113
 30
0.0
 10
7.1998307562
 20
5.0970942508
 30
0.0
 10
7.2007477858
 20
5.0939051201
 30
0.0
 10
7.2014481182
 20
5.0906143371
 30
0.0
 10
7.2018842173
 20
5.0879144842
 30
0.0
 10
7.2021478271
 20
5.0858598897
 30
0.0
 10
7.202345835
 20
5.0837933925
 30
0.0
 10
7.2024781736
 20
5.0817233324
 30
0.0
 10
7.2025446574
 20
5.0796580695
 30
0.0
 10
7.202545767
 20
5.0776059775
 30
0.0
 10
7.2024819203
 20
5.0755752949
 30
0.0
 10
7.2023128136
 20
5.072930654
 30
0.0
 10
7.2020192118
 20
5.0703423664
 30
0.0
 10
7.2015977317
 20
5.0678294177
 30
0.0
 10
7.2012266592
 20
5.066026222
 30
0.0
 10
7.2007994569
 20
5.0642912601
 30
0.0
 10
7.2003182612
 20
5.0626315065
 30
0.0
 10
7.1997856104
 20
5.0610536456
 30
0.0
 10
7.1992042588
 20
5.0595639869
 30
0.0
 10
7.1985769272
 20
5.0581685582
 30
0.0
 10
7.1979068806
 20
5.0568728504
 30
0.0
 10
7.1971970714
 20
5.0556821451
 30
0.0
 10
7.1964509924
 20
5.0546010545
 30
0.0
 10
7.1956720231
 20
5.0536340564
 30
0.0
 10
7.1951173283
 20
5.0530515046
 30
0.0
 10
7.1948353251
 20
5.0527822532
 30
0.0
  0
SPLINE
  5
320
100
AcDbEntity
  8
ALL_ASSEMBLY_MEMBERS
100
AcDbSpline
 62
7
  6
CONTINUOUS
 70
0
 71
3
 72
14
 73
10
 74
0
 42
0.0000001
 43
0.0000001
 44
0.0000000001
 40
0.0
 40
0.0
 40
0.0
 40
0.0
 40
0.2712316089
 40
0.4000310819
 40
0.524953426
 40
0.6466518197
 40
0.7658576727
 40
0.8833610333
 40
1.0
 40
1.0
 40
1.0
 40
1.0
 10
7.1941866103
 20
5.0522072786
 30
0.0
 10
7.1938279823
 20
5.0519134289
 30
0.0
 10
7.1932694582
 20
5.0515133513
 30
0.0
 10
7.1924827275
 20
5.0510801644
 30
0.0
 10
7.1918961504
 20
5.0508178575
 30
0.0
 10
7.1913043483
 20
5.0506132759
 30
0.0
 10
7.1907085416
 20
5.0504667383
 30
0.0
 10
7.190110097
 20
5.0503786259
 30
0.0
 10
7.1897095827
 20
5.0503590467
 30
0.0
 10
7.1895102017
 20
5.0503590583
 30
0.0
  0
SPLINE
  5
321
100
AcDbEntity
  8
ALL_FEATURES
100
AcDbSpline
 62
7
  6
CONTINUOUS
 70
0
 71
3
 72
25
 73
21
 74
0
 42
0.0000001
 43
0.0000001
 44
0.0000000001
 40
0.0
 40
0.0
 40
0.0
 40
0.0
 40
0.0635253978
 40
0.1267547334
 40
0.1896640856
 40
0.2522470013
 40
0.3145182375
 40
0.3765167444
 40
0.407438486
 40
0.4383204987
 40
0.5000000481
 40
0.5616795889
 40
0.5925616021
 40
0.6234833358
 40
0.6854818246
 40
0.7477530398
 40
0.8103359414
 40
0.873245272
 40
0.9364746008
 40
1.0
 40
1.0
 40
1.0
 40
1.0
 10
3.3758517081
 20
5.6634317607
 30
0.0
 10
3.3822288624
 20
5.6597605149
 30
0.0
 10
3.3950935427
 20
5.6526742451
 30
0.0
 10
3.4147915398
 20
5.6429276843
 30
0.0
 10
3.4348595271
 20
5.6342314431
 30
0.0
 10
3.4553003851
 20
5.6267597909
 30
0.0
 10
3.4760929346
 20
5.6206870634
 30
0.0
 10
3.493694612
 20
5.6169388399
 30
0.0
 10
3.5078791053
 20
5.6148044251
 30
0.0
 10
3.5221037214
 20
5.6132696029
 30
0.0
 10
3.539976724
 20
5.6124874433
 30
0.0
 10
3.557849726
 20
5.6132696094
 30
0.0
 10
3.5720743405
 20
5.6148044289
 30
0.0
 10
3.5862588314
 20
5.6169388397
 30
0.0
 10
3.6038605016
 20
5.6206870716
 30
0.0
 10
3.6246530459
 20
5.6267597943
 30
0.0
 10
3.6450938968
 20
5.634231447
 30
0.0
 10
3.6651618797
 20
5.6429276857
 30
0.0
 10
3.6848598736
 20
5.652674246
 30
0.0
 10
3.6977245536
 20
5.659760515
 30
0.0
 10
3.7041017081
 20
5.6634317609
 30
0.0
  0
SPLINE
  5
322
100
AcDbEntity
  8
ALL_FEATURES
100
AcDbSpline
 62
7
  6
CONTINUOUS
 70
0
 71
3
 72
25
 73
21
 74
0
 42
0.0000001
 43
0.0000001
 44
0.0000000001
 40
0.0
 40
0.0
 40
0.0
 40
0.0
 40
0.0635253989
 40
0.1267547338
 40
0.189664086
 40
0.2522470015
 40
0.3145182378
 40
0.3765167447
 40
0.4074384862
 40
0.4383204989
 40
0.5000000483
 40
0.5616795891
 40
0.5925616023
 40
0.623483336
 40
0.6854818247
 40
0.7477530399
 40
0.8103359415
 40
0.873245272
 40
0.9364746008
 40
1.0
 40
1.0
 40
1.0
 40
1.0
 10
3.0476017081
 20
5.6634317607
 30
0.0
 10
3.05397886
 20
5.6597605104
 30
0.0
 10
3.0668435403
 20
5.6526742401
 30
0.0
 10
3.0865415407
 20
5.6429276861
 30
0.0
 10
3.1066095273
 20
5.6342314438
 30
0.0
 10
3.1270503849
 20
5.6267597904
 30
0.0
 10
3.1478429346
 20
5.6206870635
 30
0.0
 10
3.1654446121
 20
5.61693884
 30
0.0
 10
3.1796291053
 20
5.6148044251
 30
0.0
 10
3.1938537214
 20
5.6132696028
 30
0.0
 10
3.211726724
 20
5.6124874433
 30
0.0
 10
3.229599726
 20
5.6132696094
 30
0.0
 10
3.2438243405
 20
5.6148044289
 30
0.0
 10
3.2580088314
 20
5.6169388397
 30
0.0
 10
3.2756105016
 20
5.6206870716
 30
0.0
 10
3.2964030459
 20
5.6267597943
 30
0.0
 10
3.3168438968
 20
5.634231447
 30
0.0
 10
3.3369118797
 20
5.6429276857
 30
0.0
 10
3.3566098736
 20
5.652674246
 30
0.0
 10
3.3694745536
 20
5.659760515
 30
0.0
 10
3.3758517081
 20
5.6634317609
 30
0.0
  0
SPLINE
  5
323
100
AcDbEntity
  8
ALL_FEATURES
100
AcDbSpline
 62
7
  6
CONTINUOUS
 70
0
 71
3
 72
25
 73
21
 74
0
 42
0.0000001
 43
0.0000001
 44
0.0000000001
 40
0.0
 40
0.0
 40
0.0
 40
0.0
 40
0.0635253978
 40
0.1267547334
 40
0.1896640856
 40
0.2522470013
 40
0.3145182375
 40
0.3765167444
 40
0.407438486
 40
0.4383204987
 40
0.5000000481
 40
0.5616795889
 40
0.5925616021
 40
0.6234833358
 40
0.6854818246
 40
0.7477530398
 40
0.8103359414
 40
0.873245272
 40
0.9364746008
 40
1.0
 40
1.0
 40
1.0
 40
1.0
 10
7.3128517081
 20
5.6634317607
 30
0.0
 10
7.3192288624
 20
5.6597605149
 30
0.0
 10
7.3320935427
 20
5.6526742451
 30
0.0
 10
7.3517915398
 20
5.6429276843
 30
0.0
 10
7.3718595271
 20
5.6342314431
 30
0.0
 10
7.3923003851
 20
5.6267597909
 30
0.0
 10
7.4130929346
 20
5.6206870634
 30
0.0
 10
7.430694612
 20
5.6169388399
 30
0.0
 10
7.4448791053
 20
5.6148044251
 30
0.0
 10
7.4591037214
 20
5.6132696029
 30
0.0
 10
7.476976724
 20
5.6124874433
 30
0.0
 10
7.494849726
 20
5.6132696094
 30
0.0
 10
7.5090743405
 20
5.6148044289
 30
0.0
 10
7.5232588314
 20
5.6169388397
 30
0.0
 10
7.5408605016
 20
5.6206870716
 30
0.0
 10
7.5616530459
 20
5.6267597943
 30
0.0
 10
7.5820938968
 20
5.634231447
 30
0.0
 10
7.6021618797
 20
5.6429276857
 30
0.0
 10
7.6218598736
 20
5.652674246
 30
0.0
 10
7.6347245536
 20
5.659760515
 30
0.0
 10
7.6411017081
 20
5.6634317609
 30
0.0
  0
SPLINE
  5
324
100
AcDbEntity
  8
ALL_FEATURES
100
AcDbSpline
 62
7
  6
CONTINUOUS
 70
0
 71
3
 72
25
 73
21
 74
0
 42
0.0000001
 43
0.0000001
 44
0.0000000001
 40
0.0
 40
0.0
 40
0.0
 40
0.0
 40
0.0635253989
 40
0.1267547338
 40
0.189664086
 40
0.2522470015
 40
0.3145182378
 40
0.3765167447
 40
0.4074384862
 40
0.4383204989
 40
0.5000000483
 40
0.5616795891
 40
0.5925616023
 40
0.623483336
 40
0.6854818247
 40
0.7477530399
 40
0.8103359415
 40
0.873245272
 40
0.9364746008
 40
1.0
 40
1.0
 40
1.0
 40
1.0
 10
6.9846017081
 20
5.6634317607
 30
0.0
 10
6.99097886
 20
5.6597605104
 30
0.0
 10
7.0038435403
 20
5.6526742401
 30
0.0
 10
7.0235415407
 20
5.6429276861
 30
0.0
 10
7.0436095273
 20
5.6342314438
 30
0.0
 10
7.0640503849
 20
5.6267597904
 30
0.0
 10
7.0848429346
 20
5.6206870635
 30
0.0
 10
7.1024446121
 20
5.61693884
 30
0.0
 10
7.1166291053
 20
5.6148044251
 30
0.0
 10
7.1308537214
 20
5.6132696028
 30
0.0
 10
7.148726724
 20
5.6124874433
 30
0.0
 10
7.166599726
 20
5.6132696094
 30
0.0
 10
7.1808243405
 20
5.6148044289
 30
0.0
 10
7.1950088314
 20
5.6169388397
 30
0.0
 10
7.2126105016
 20
5.6206870716
 30
0.0
 10
7.2334030459
 20
5.6267597943
 30
0.0
 10
7.2538438968
 20
5.634231447
 30
0.0
 10
7.2739118797
 20
5.6429276857
 30
0.0
 10
7.2936098736
 20
5.652674246
 30
0.0
 10
7.3064745536
 20
5.659760515
 30
0.0
 10
7.3128517081
 20
5.6634317609
 30
0.0
  0
SPLINE
  5
325
100
AcDbEntity
  8
ALL_ASSEMBLY_MEMBERS
100
AcDbSpline
 62
7
  6
CONTINUOUS
 70
0
 71
3
 72
11
 73
7
 74
0
 42
0.0000001
 43
0.0000001
 44
0.0000000001
 40
0.0
 40
0.0
 40
0.0
 40
0.0
 40
0.256892837
 40
0.5114128163
 40
0.7601004297
 40
1.0
 40
1.0
 40
1.0
 40
1.0
 10
7.2033701374
 20
5.0829040319
 30
0.0
 10
7.2033701374
 20
5.0854106703
 30
0.0
 10
7.2031074433
 20
5.0904045071
 30
0.0
 10
7.2019525327
 20
5.0977440058
 30
0.0
 10
7.2000721136
 20
5.1047603758
 30
0.0
 10
7.1983468266
 20
5.1092170212
 30
0.0
 10
7.1973757581
 20
5.1113469257
 30
0.0
  0
SPLINE
  5
326
100
AcDbEntity
  8
ALL_ASSEMBLY_MEMBERS
100
AcDbSpline
 62
7
  6
CONTINUOUS
 70
0
 71
3
 72
9
 73
5
 74
0
 42
0.0000001
 43
0.0000001
 44
0.0000000001
 40
0.0
 40
0.0
 40
0.0
 40
0.0
 40
0.2564087861
 40
1.0
 40
1.0
 40
1.0
 40
1.0
 10
7.1973757581
 20
5.1113469257
 30
0.0
 10
7.1971203631
 20
5.1119070994
 30
0.0
 10
7.1960906977
 20
5.1140761922
 30
0.0
 10
7.1949256593
 20
5.1161819065
 30
0.0
 10
7.1939782799
 20
5.1176952109
 30
0.0
  0
SPLINE
  5
327
100
AcDbEntity
  8
ALL_ASSEMBLY_MEMBERS
100
AcDbSpline
 62
7
  6
CONTINUOUS
 70
0
 71
3
 72
11
 73
7
 74
0
 42
0.0000001
 43
0.0000001
 44
0.0000000001
 40
0.0
 40
0.0
 40
0.0
 40
0.0
 40
0.2314916821
 40
0.471192174
 40
0.7258718476
 40
1.0
 40
1.0
 40
1.0
 40
1.0
 10
7.1819043371
 20
5.1253590213
 30
0.0
 10
7.1826807955
 20
5.1253589981
 30
0.0
 10
7.1842663581
 20
5.1251830517
 30
0.0
 10
7.1865887795
 20
5.124399637
 30
0.0
 10
7.1888402836
 20
5.1231170609
 30
0.0
 10
7.1902220582
 20
5.1219922375
 30
0.0
 10
7.1908937062
 20
5.1213642967
 30
0.0
  0
SPLINE
  5
328
100
AcDbEntity
  8
ALL_ASSEMBLY_MEMBERS
100
AcDbSpline
 62
7
  6
CONTINUOUS
 70
0
 71
3
 72
13
 73
9
 74
0
 42
0.0000001
 43
0.0000001
 44
0.0000000001
 40
0.0
 40
0.0
 40
0.0
 40
0.0
 40
0.2365451695
 40
0.3595200218
 40
0.4848773609
 40
0.6121484016
 40
0.7408447792
 40
1.0
 40
1.0
 40
1.0
 40
1.0
 10
7.1957253023
 20
5.0511270211
 30
0.0
 10
7.1969553245
 20
5.0534194206
 30
0.0
 10
7.1985823851
 20
5.0570393811
 30
0.0
 10
7.2003107496
 20
5.0620862903
 30
0.0
 10
7.2014087462
 20
5.0660714963
 30
0.0
 10
7.2022776276
 20
5.0701771021
 30
0.0
 10
7.2031146978
 20
5.0757825808
 30
0.0
 10
7.2033701374
 20
5.0800538166
 30
0.0
 10
7.2033701374
 20
5.0829040319
 30
0.0
  0
LINE
  5
329
100
AcDbEntity
  8
ALL_ASSEMBLY_MEMBERS
100
AcDbLine
 62
7
  6
CONTINUOUS
 10
7.1944682303
 20
5.0489257537
 11
7.1933979595
 21
5.0478345816
  0
SPLINE
  5
32A
100
AcDbEntity
  8
ALL_ASSEMBLY_MEMBERS
100
AcDbSpline
 62
7
  6
CONTINUOUS
 70
0
 71
3
 72
20
 73
16
 74
0
 42
0.0000001
 43
0.0000001
 44
0.0000000001
 40
0.0
 40
0.0
 40
0.0
 40
0.0
 40
0.1285524996
 40
0.1883064915
 40
0.2456435222
 40
0.3012092731
 40
0.355735804
 40
0.4100209948
 40
0.4648929782
 40
0.5211420246
 40
0.5794835704
 40
0.7046587412
 40
0.7725556177
 40
0.84431897
 40
1.0
 40
1.0
 40
1.0
 40
1.0
 10
7.1933979595
 20
5.0478345816
 30
0.0
 10
7.1927281178
 20
5.0472098999
 30
0.0
 10
7.1916645202
 20
5.0463726007
 30
0.0
 10
7.1901243539
 20
5.0455344566
 30
0.0
 10
7.1889774848
 20
5.0450802661
 30
0.0
 10
7.1878173372
 20
5.0447877836
 30
0.0
 10
7.1866494234
 20
5.0446590383
 30
0.0
 10
7.1854798467
 20
5.0446960615
 30
0.0
 10
7.1843152295
 20
5.0448997386
 30
0.0
 10
7.1831616096
 20
5.0452680097
 30
0.0
 10
7.181610068
 20
5.0459921623
 30
0.0
 10
7.1801370282
 20
5.0470404499
 30
0.0
 10
7.1787680804
 20
5.0483410347
 30
0.0
 10
7.1773721564
 20
5.0499187953
 30
0.0
 10
7.176447988
 20
5.0512588301
 30
0.0
 10
7.1758741724
 20
5.052208085
 30
0.0
  0
LINE
  5
32B
100
AcDbEntity
  8
ALL_ASSEMBLY_MEMBERS
100
AcDbLine
 62
7
  6
CONTINUOUS
 10
7.1758741724
 20
5.052208085
 11
7.1747352734
 21
5.0542775171
  0
LINE
  5
32C
100
AcDbEntity
  8
ALL_ASSEMBLY_MEMBERS
100
AcDbLine
 62
7
  6
CONTINUOUS
 10
7.1908937062
 20
5.1213642967
 11
7.1934782798
 21
5.1184774856
  0
SPLINE
  5
32D
100
AcDbEntity
  8
ALL_ASSEMBLY_MEMBERS
100
AcDbSpline
 62
7
  6
CONTINUOUS
 70
0
 71
3
 72
17
 73
13
 74
0
 42
0.0000001
 43
0.0000001
 44
0.0000000001
 40
0.0
 40
0.0
 40
0.0
 40
0.0
 40
0.125297122
 40
0.1881630557
 40
0.250975931
 40
0.3762723327
 40
0.5014154883
 40
0.6263436684
 40
0.7510261752
 40
0.8134107623
 40
0.8757873947
 40
1.0
 40
1.0
 40
1.0
 40
1.0
 10
7.5110077494
 20
5.0044040319
 30
0.0
 10
7.5110145929
 20
5.0026090542
 30
0.0
 10
7.5112914872
 20
4.9999053969
 30
0.0
 10
7.512168593
 20
4.9964144335
 30
0.0
 10
7.5133828929
 20
4.9930247798
 30
0.0
 10
7.5155085702
 20
4.9890375395
 30
0.0
 10
7.5189341929
 20
4.9848488861
 30
0.0
 10
7.5230973661
 20
4.9814058666
 30
0.0
 10
7.5270604541
 20
4.9792721292
 30
0.0
 10
7.5304270032
 20
4.9780580006
 30
0.0
 10
7.5338896311
 20
4.9771854956
 30
0.0
 10
7.5365719105
 20
4.9769154229
 30
0.0
 10
7.5383513644
 20
4.9769149139
 30
0.0
  0
SPLINE
  5
32E
100
AcDbEntity
  8
ALL_ASSEMBLY_MEMBERS
100
AcDbSpline
 62
7
  6
CONTINUOUS
 70
0
 71
3
 72
16
 73
12
 74
0
 42
0.0000001
 43
0.0000001
 44
0.0000000001
 40
0.0
 40
0.0
 40
0.0
 40
0.0
 40
0.156443482
 40
0.3052685804
 40
0.4447666547
 40
0.5741750288
 40
0.6933497007
 40
0.8028674439
 40
0.9041794572
 40
0.95259715
 40
1.0
 40
1.0
 40
1.0
 40
1.0
 10
7.1626787306
 20
5.100902121
 30
0.0
 10
7.1631582726
 20
5.102555444
 30
0.0
 10
7.1642172856
 20
5.105747693
 30
0.0
 10
7.1661467509
 20
5.1102523619
 30
0.0
 10
7.1683611745
 20
5.1142898371
 30
0.0
 10
7.1708246719
 20
5.1177906841
 30
0.0
 10
7.1735077237
 20
5.120695253
 30
0.0
 10
7.1763713427
 20
5.1229559612
 30
0.0
 10
7.1789228555
 20
5.1242806149
 30
0.0
 10
7.1809898774
 20
5.1249510269
 30
0.0
 10
7.18202624
 20
5.1251603791
 30
0.0
 10
7.1825427927
 20
5.1252328293
 30
0.0
  0
LINE
  5
32F
100
AcDbEntity
  8
ALL_ASSEMBLY_MEMBERS
100
AcDbLine
 62
7
  6
CONTINUOUS
 10
7.5220481283
 20
4.7997557371
 11
7.541170951
 21
4.7954966165
  0
SPLINE
  5
330
100
AcDbEntity
  8
ALL_ASSEMBLY_MEMBERS
100
AcDbSpline
 62
7
  6
CONTINUOUS
 70
0
 71
3
 72
18
 73
14
 74
0
 42
0.0000001
 43
0.0000001
 44
0.0000000001
 40
0.0
 40
0.0
 40
0.0
 40
0.0
 40
0.163728737
 40
0.3177773084
 40
0.4600981165
 40
0.5898186976
 40
0.6499458886
 40
0.7069889177
 40
0.8123885409
 40
0.8615037379
 40
0.9087656016
 40
0.9547204483
 40
1.0
 40
1.0
 40
1.0
 40
1.0
 10
7.1626787306
 20
5.100902121
 30
0.0
 10
7.1630921929
 20
5.1026687672
 30
0.0
 10
7.1640322622
 20
5.1060675846
 30
0.0
 10
7.1658292553
 20
5.1108474083
 30
0.0
 10
7.1679471938
 20
5.1150781283
 30
0.0
 10
7.1699935477
 20
5.1181532759
 30
0.0
 10
7.1717651148
 20
5.1202423708
 30
0.0
 10
7.1735130986
 20
5.121984655
 30
0.0
 10
7.1753999664
 20
5.1234103738
 30
0.0
 10
7.1773970774
 20
5.12442667
 30
0.0
 10
7.1788851462
 20
5.1249631938
 30
0.0
 10
7.1803900879
 20
5.1252869866
 30
0.0
 10
7.1814025651
 20
5.1253590363
 30
0.0
 10
7.1819043371
 20
5.1253590213
 30
0.0
  0
SPLINE
  5
331
100
AcDbEntity
  8
ALL_ASSEMBLY_MEMBERS
100
AcDbSpline
 62
7
  6
CONTINUOUS
 70
0
 71
3
 72
15
 73
11
 74
0
 42
0.0000001
 43
0.0000001
 44
0.0000000001
 40
0.0
 40
0.0
 40
0.0
 40
0.0
 40
0.1048578078
 40
0.2129072137
 40
0.3262500766
 40
0.4462683821
 40
0.5737000081
 40
0.708779124
 40
0.8512002929
 40
1.0
 40
1.0
 40
1.0
 40
1.0
 10
7.1830330477
 20
5.1191354544
 30
0.0
 10
7.1820352066
 20
5.1190722688
 30
0.0
 10
7.1800172704
 20
5.1187358688
 30
0.0
 10
7.1770867785
 20
5.117644361
 30
0.0
 10
7.1742637383
 20
5.1159947849
 30
0.0
 10
7.1715757375
 20
5.1138303124
 30
0.0
 10
7.1690468046
 20
5.1111898675
 30
0.0
 10
7.1666962233
 20
5.1081180842
 30
0.0
 10
7.1645451323
 20
5.1046628678
 30
0.0
 10
7.1632781236
 20
5.1021881296
 30
0.0
 10
7.1626787306
 20
5.100902121
 30
0.0
  0
SPLINE
  5
332
100
AcDbEntity
  8
ALL_ASSEMBLY_MEMBERS
100
AcDbSpline
 62
7
  6
CONTINUOUS
 70
0
 71
3
 72
35
 73
31
 74
0
 42
0.0000001
 43
0.0000001
 44
0.0000000001
 40
0.0
 40
0.0
 40
0.0
 40
0.0
 40
0.2264596151
 40
0.329930249
 40
0.4265943571
 40
0.5162367969
 40
0.5986955454
 40
0.673824638
 40
0.7414776753
 40
0.8015128999
 40
0.8538149872
 40
0.8770327695
 40
0.8982772398
 40
0.9175350334
 40
0.9347927756
 40
0.9500380803
 40
0.9632645951
 40
0.9744682279
 40
0.9836448894
 40
0.9874718276
 40
0.990790489
 40
0.993600362
 40
0.9959009351
 40
0.9976916967
 40
0.9983957384
 40
0.9989721353
 40
0.9994208235
 40
0.9997417392
 40
0.9999348187
 40
1.0
 40
1.0
 40
1.0
 40
1.0
 10
7.4744968612
 20
4.7774876253
 30
0.0
 10
7.4774060486
 20
4.7768300669
 30
0.0
 10
7.4816401508
 20
4.7758528446
 30
0.0
 10
7.4871062115
 20
4.7745531689
 30
0.0
 10
7.4908156441
 20
4.7736554879
 30
0.0
 10
7.4942530186
 20
4.7728102613
 30
0.0
 10
7.4974122692
 20
4.7720218545
 30
0.0
 10
7.5002882173
 20
4.7712943841
 30
0.0
 10
7.5028759546
 20
4.7706318737
 30
0.0
 10
7.505171001
 20
4.7700383268
 30
0.0
 10
7.5068984502
 20
4.769587441
 30
0.0
 10
7.50813106
 20
4.7692636431
 30
0.0
 10
7.5089425453
 20
4.7690496691
 30
0.0
 10
7.509677969
 20
4.7688551054
 30
0.0
 10
7.510336888
 20
4.7686802935
 30
0.0
 10
7.5109189538
 20
4.76852557
 30
0.0
 10
7.5114238993
 20
4.7683911011
 30
0.0
 10
7.5118515561
 20
4.768276999
 30
0.0
 10
7.5121595607
 20
4.7681946619
 30
0.0
 10
7.5123672175
 20
4.7681390606
 30
0.0
 10
7.5124938638
 20
4.7681051114
 30
0.0
 10
7.5126010877
 20
4.7680763418
 30
0.0
 10
7.5126888592
 20
4.768052744
 30
0.0
 10
7.5127498626
 20
4.7680363585
 30
0.0
 10
7.5127888939
 20
4.7680257919
 30
0.0
 10
7.5128109311
 20
4.768019942
 30
0.0
 10
7.5128279141
 20
4.7680150992
 30
0.0
 10
7.5128404465
 20
4.7680122734
 30
0.0
 10
7.5128472872
 20
4.768009405
 30
0.0
 10
7.5128511082
 20
4.7680094034
 30
0.0
 10
7.5128517081
 20
4.7680087893
 30
0.0
  0
SPLINE
  5
333
100
AcDbEntity
  8
ALL_ASSEMBLY_MEMBERS
100
AcDbSpline
 62
7
  6
CONTINUOUS
 70
0
 71
3
 72
32
 73
28
 74
0
 42
0.0000001
 43
0.0000001
 44
0.0000000001
 40
0.0
 40
0.0
 40
0.0
 40
0.0
 40
0.0851006932
 40
0.1691939736
 40
0.2509509252
 40
0.3292814824
 40
0.4032220348
 40
0.4718118792
 40
0.5038543512
 40
0.5342790549
 40
0.5630267671
 40
0.5900851526
 40
0.6155019743
 40
0.6393853981
 40
0.6619332804
 40
0.6834616243
 40
0.7043937881
 40
0.7252118716
 40
0.7464311059
 40
0.76853266
 40
0.7918739217
 40
0.8167076096
 40
0.8431923144
 40
0.871376348
 40
0.9012337608
 40
0.9326925982
 40
1.0
 40
1.0
 40
1.0
 40
1.0
 10
7.1615661863
 20
5.0829040319
 30
0.0
 10
7.1615661863
 20
5.0808404134
 30
0.0
 10
7.1616268792
 20
5.07673731
 30
0.0
 10
7.1619079222
 20
5.070657422
 30
0.0
 10
7.1623867583
 20
5.0647542309
 30
0.0
 10
7.1630853185
 20
5.0591202178
 30
0.0
 10
7.1640247975
 20
5.0538447086
 30
0.0
 10
7.1650549724
 20
5.0497330972
 30
0.0
 10
7.1660497047
 20
5.0467133499
 30
0.0
 10
7.1668592941
 20
5.0446534718
 30
0.0
 10
7.1677525133
 20
5.0427608217
 30
0.0
 10
7.1687329538
 20
5.0410497494
 30
0.0
 10
7.1698041654
 20
5.039535393
 30
0.0
 10
7.170966233
 20
5.0382315805
 30
0.0
 10
7.1722193273
 20
5.0371526478
 30
0.0
 10
7.1735638681
 20
5.036316285
 30
0.0
 10
7.1749928483
 20
5.035736025
 30
0.0
 10
7.1764949723
 20
5.03541929
 30
0.0
 10
7.1780576493
 20
5.0353743804
 30
0.0
 10
7.1796650548
 20
5.0356013734
 30
0.0
 10
7.1813035393
 20
5.0360896114
 30
0.0
 10
7.1829599421
 20
5.0368316531
 30
0.0
 10
7.1846201975
 20
5.0378187184
 30
0.0
 10
7.186272713
 20
5.0390360957
 30
0.0
 10
7.187905077
 20
5.0404700655
 30
0.0
 10
7.1900858445
 20
5.042703044
 30
0.0
 10
7.1915774202
 20
5.0445875779
 30
0.0
 10
7.1925197889
 20
5.0459201856
 30
0.0
  0
SPLINE
  5
334
100
AcDbEntity
  8
ALL_ASSEMBLY_MEMBERS
100
AcDbSpline
 62
7
  6
CONTINUOUS
 70
0
 71
3
 72
9
 73
5
 74
0
 42
0.0000001
 43
0.0000001
 44
0.0000000001
 40
0.0
 40
0.0
 40
0.0
 40
0.0
 40
0.4762128285
 40
1.0
 40
1.0
 40
1.0
 40
1.0
 10
7.1817489996
 20
5.0459752688
 30
0.0
 10
7.1810513328
 20
5.046871446
 30
0.0
 10
7.1797249769
 20
5.0488627799
 30
0.0
 10
7.1786386695
 20
5.0509911761
 30
0.0
 10
7.1781237722
 20
5.0521293093
 30
0.0
  0
SPLINE
  5
335
100
AcDbEntity
  8
ALL_ASSEMBLY_MEMBERS
100
AcDbSpline
 62
7
  6
CONTINUOUS
 70
0
 71
3
 72
14
 73
10
 74
0
 42
0.0000001
 43
0.0000001
 44
0.0000000001
 40
0.0
 40
0.0
 40
0.0
 40
0.0
 40
0.2198973051
 40
0.4564869608
 40
0.5822665236
 40
0.6473645815
 40
0.7141020369
 40
0.8532016232
 40
1.0
 40
1.0
 40
1.0
 40
1.0
 10
7.4744963342
 20
4.9965080159
 30
0.0
 10
7.4766062076
 20
4.9946942584
 30
0.0
 10
7.4810973219
 20
4.9910569002
 30
0.0
 10
7.4870846905
 20
4.9867556626
 30
0.0
 10
7.4916300066
 20
4.9838219142
 30
0.0
 10
7.4944208884
 20
4.9821375129
 30
0.0
 10
7.4973943708
 20
4.9804310408
 30
0.0
 10
7.501350184
 20
4.9783623925
 30
0.0
 10
7.5046619344
 20
4.976896479
 30
0.0
 10
7.5063914007
 20
4.9762190436
 30
0.0
  0
SPLINE
  5
336
100
AcDbEntity
  8
ALL_ASSEMBLY_MEMBERS
100
AcDbSpline
 62
7
  6
CONTINUOUS
 70
0
 71
3
 72
15
 73
11
 74
0
 42
0.0000001
 43
0.0000001
 44
0.0000000001
 40
0.0
 40
0.0
 40
0.0
 40
0.0
 40
0.2408283807
 40
0.363687073
 40
0.4880761826
 40
0.6139853454
 40
0.6775126556
 40
0.7414129747
 40
0.8702780029
 40
1.0
 40
1.0
 40
1.0
 40
1.0
 10
7.4744968612
 20
4.9965067044
 30
0.0
 10
7.4756530767
 20
4.9930986041
 30
0.0
 10
7.4776304884
 20
4.9880259782
 30
0.0
 10
7.4807374308
 20
4.9814248855
 30
0.0
 10
7.4833693757
 20
4.9765055384
 30
0.0
 10
7.4858196136
 20
4.9725028186
 30
0.0
 10
7.4879586323
 20
4.9693782856
 30
0.0
 10
7.4902398154
 20
4.9663007107
 30
0.0
 10
7.49336118
 20
4.9626197943
 30
0.0
 10
7.4961820846
 20
4.9599595747
 30
0.0
 10
7.4976873887
 20
4.9587381063
 30
0.0
  0
SPLINE
  5
337
100
AcDbEntity
  8
ALL_ASSEMBLY_MEMBERS
100
AcDbSpline
 62
7
  6
CONTINUOUS
 70
0
 71
3
 72
9
 73
5
 74
0
 42
0.0000001
 43
0.0000001
 44
0.0000000001
 40
0.0
 40
0.0
 40
0.0
 40
0.0
 40
0.4999957103
 40
1.0
 40
1.0
 40
1.0
 40
1.0
 10
7.5063912628
 20
4.9762187425
 30
0.0
 10
7.5087592325
 20
4.9752911839
 30
0.0
 10
7.5136990308
 20
4.9739258901
 30
0.0
 10
7.5188053105
 20
4.9735383837
 30
0.0
 10
7.5213480115
 20
4.9735887761
 30
0.0
  0
SPLINE
  5
338
100
AcDbEntity
  8
ALL_ASSEMBLY_MEMBERS
100
AcDbSpline
 62
7
  6
CONTINUOUS
 70
0
 71
3
 72
9
 73
5
 74
0
 42
0.0000001
 43
0.0000001
 44
0.0000000001
 40
0.0
 40
0.0
 40
0.0
 40
0.0
 40
0.4999933132
 40
1.0
 40
1.0
 40
1.0
 40
1.0
 10
7.4976873887
 20
4.9587381063
 30
0.0
 10
7.5012675179
 20
4.9570598513
 30
0.0
 10
7.5088297181
 20
4.9545059669
 30
0.0
 10
7.5167615106
 20
4.9536552985
 30
0.0
 10
7.5207155841
 20
4.9536574352
 30
0.0
  0
SPLINE
  5
339
100
AcDbEntity
  8
ALL_ASSEMBLY_MEMBERS
100
AcDbSpline
 62
7
  6
CONTINUOUS
 70
0
 71
3
 72
15
 73
11
 74
0
 42
0.0000001
 43
0.0000001
 44
0.0000000001
 40
0.0
 40
0.0
 40
0.0
 40
0.0
 40
0.0263797833
 40
0.0591688645
 40
0.142945477
 40
0.2490817522
 40
0.3746459565
 40
0.5164222025
 40
0.6707459328
 40
1.0
 40
1.0
 40
1.0
 40
1.0
 10
7.5063912628
 20
4.9762187425
 30
0.0
 10
7.5063016871
 20
4.9760721993
 30
0.0
 10
7.5061066939
 20
4.9757398985
 30
0.0
 10
7.5056512325
 20
4.9749282537
 30
0.0
 10
7.5049681722
 20
4.9736491219
 30
0.0
 10
7.5040271164
 20
4.9718233662
 30
0.0
 10
7.5029353415
 20
4.9696505926
 30
0.0
 10
7.501721887
 20
4.9671879594
 30
0.0
 10
7.4999458041
 20
4.9635242267
 30
0.0
 10
7.4985965
 20
4.9606794753
 30
0.0
 10
7.4976873897
 20
4.9587381063
 30
0.0
  0
SPLINE
  5
33A
100
AcDbEntity
  8
ALL_ASSEMBLY_MEMBERS
100
AcDbSpline
 62
7
  6
CONTINUOUS
 70
0
 71
3
 72
13
 73
9
 74
0
 42
0.0000001
 43
0.0000001
 44
0.0000000001
 40
0.0
 40
0.0
 40
0.0
 40
0.0
 40
0.2499999941
 40
0.3749999977
 40
0.4999999961
 40
0.6249999932
 40
0.749999999
 40
1.0
 40
1.0
 40
1.0
 40
1.0
 10
7.5207155841
 20
4.9536574352
 30
0.0
 10
7.6204185058
 20
4.9537111947
 30
0.0
 10
7.76997284
 20
4.9538737625
 30
0.0
 10
7.9693785528
 20
4.954126058
 30
0.0
 10
8.1189328524
 20
4.9543062121
 30
0.0
 10
8.2684871851
 20
4.9544587055
 30
0.0
 10
8.4678930173
 20
4.9545967028
 30
0.0
 10
8.6174474573
 20
4.9546085839
 30
0.0
 10
8.7171503853
 20
4.9545618775
 30
0.0
  0
SPLINE
  5
33B
100
AcDbEntity
  8
ALL_ASSEMBLY_MEMBERS
100
AcDbSpline
 62
7
  6
CONTINUOUS
 70
0
 71
3
 72
21
 73
17
 74
0
 42
0.0000001
 43
0.0000001
 44
0.0000000001
 40
0.0
 40
0.0
 40
0.0
 40
0.0
 40
0.0051936572
 40
0.0124671173
 40
0.0218305065
 40
0.0332745392
 40
0.0623337046
 40
0.0994645507
 40
0.1443382005
 40
0.1965611452
 40
0.2557288526
 40
0.3213252347
 40
0.4693930089
 40
0.6357397964
 40
0.8148376171
 40
1.0
 40
1.0
 40
1.0
 40
1.0
 10
7.5213480114
 20
4.9735886527
 30
0.0
 10
7.5213346048
 20
4.9735568094
 30
0.0
 10
7.5213106536
 20
4.973477076
 30
0.0
 10
7.5212796584
 20
4.9733352184
 30
0.0
 10
7.5212486033
 20
4.9731509261
 30
0.0
 10
7.5212036105
 20
4.972822243
 30
0.0
 10
7.521151016
 20
4.9723083438
 30
0.0
 10
7.5210931705
 20
4.9715717506
 30
0.0
 10
7.5210377086
 20
4.9706805015
 30
0.0
 10
7.5209851079
 20
4.9696422836
 30
0.0
 10
7.5209360568
 20
4.9684659004
 30
0.0
 10
7.5208734065
 20
4.9666519789
 30
0.0
 10
7.5208090609
 20
4.9641247551
 30
0.0
 10
7.5207542643
 20
4.9608421305
 30
0.0
 10
7.520721456
 20
4.957312435
 30
0.0
 10
7.520714919
 20
4.9548892127
 30
0.0
 10
7.5207155842
 20
4.9536574352
 30
0.0
  0
SPLINE
  5
33C
100
AcDbEntity
  8
ALL_ASSEMBLY_MEMBERS
100
AcDbSpline
 62
7
  6
CONTINUOUS
 70
0
 71
3
 72
13
 73
9
 74
0
 42
0.0000001
 43
0.0000001
 44
0.0000000001
 40
0.0
 40
0.0
 40
0.0
 40
0.0
 40
0.2499984554
 40
0.374996295
 40
0.4999942941
 40
0.6249931093
 40
0.749993373
 40
1.0
 40
1.0
 40
1.0
 40
1.0
 10
7.5213480114
 20
4.9735886527
 30
0.0
 10
7.6210490502
 20
4.9736374809
 30
0.0
 10
7.7706000121
 20
4.9737854503
 30
0.0
 10
7.9700009421
 20
4.9740092388
 30
0.0
 10
8.1195512285
 20
4.9741661944
 30
0.0
 10
8.2691025067
 20
4.9742982571
 30
0.0
 10
8.4685080802
 20
4.9744188766
 30
0.0
 10
8.618063351
 20
4.9744305442
 30
0.0
 10
8.7177676524
 20
4.9743899522
 30
0.0
  0
SPLINE
  5
33D
100
AcDbEntity
  8
ALL_ASSEMBLY_MEMBERS
100
AcDbSpline
 62
7
  6
CONTINUOUS
 70
0
 71
3
 72
23
 73
19
 74
0
 42
0.0000001
 43
0.0000001
 44
0.0000000001
 40
0.0
 40
0.0
 40
0.0
 40
0.0
 40
0.0073973775
 40
0.0166178593
 40
0.0277364133
 40
0.0407727404
 40
0.0725693343
 40
0.1118601808
 40
0.1583100339
 40
0.2115133999
 40
0.2710669913
 40
0.336491733
 40
0.4072358552
 40
0.4827403762
 40
0.6456239494
 40
0.7317341597
 40
0.8200592617
 40
1.0
 40
1.0
 40
1.0
 40
1.0
 10
8.7177676519
 20
4.9743899655
 30
0.0
 10
8.7177480705
 20
4.9743451166
 30
0.0
 10
8.7177152997
 20
4.9742395948
 30
0.0
 10
8.7176802755
 20
4.9740593846
 30
0.0
 10
8.7176519412
 20
4.9738402991
 30
0.0
 10
8.7176179556
 20
4.9734716903
 30
0.0
 10
8.7175830463
 20
4.972916211
 30
0.0
 10
8.7175313257
 20
4.9721403893
 30
0.0
 10
8.717472862
 20
4.9712230566
 30
0.0
 10
8.7174152064
 20
4.9701713826
 30
0.0
 10
8.7173667644
 20
4.9689935843
 30
0.0
 10
8.717327682
 20
4.9676993626
 30
0.0
 10
8.7172928966
 20
4.9662994705
 30
0.0
 10
8.7172447392
 20
4.9642549832
 30
0.0
 10
8.7171967384
 20
4.9621087722
 30
0.0
 10
8.7171727097
 20
4.9598773329
 30
0.0
 10
8.7171687471
 20
4.9575329743
 30
0.0
 10
8.7171675511
 20
4.9557581831
 30
0.0
 10
8.7171503853
 20
4.9545679117
 30
0.0
  0
SPLINE
  5
33E
100
AcDbEntity
  8
ALL_ASSEMBLY_MEMBERS
100
AcDbSpline
 62
7
  6
CONTINUOUS
 70
0
 71
3
 72
15
 73
11
 74
0
 42
0.0000001
 43
0.0000001
 44
0.0000000001
 40
0.0
 40
0.0
 40
0.0
 40
0.0
 40
0.2405534159
 40
0.3633621984
 40
0.4877505818
 40
0.6137030163
 40
0.6772652526
 40
0.7412082958
 40
0.8701703736
 40
1.0
 40
1.0
 40
1.0
 40
1.0
 10
7.4744968612
 20
4.7774888833
 30
0.0
 10
7.4756575018
 20
4.7808518475
 30
0.0
 10
7.477642437
 20
4.7858560797
 30
0.0
 10
7.4807569769
 20
4.7923647593
 30
0.0
 10
7.4833940723
 20
4.7972157002
 30
0.0
 10
7.4858464961
 20
4.801161428
 30
0.0
 10
7.4879857094
 20
4.8042404467
 30
0.0
 10
7.4902656443
 20
4.8072727506
 30
0.0
 10
7.4933811191
 20
4.81089784
 30
0.0
 10
7.4961902699
 20
4.8135160907
 30
0.0
 10
7.4976873887
 20
4.8147183269
 30
0.0
  0
SPLINE
  5
33F
100
AcDbEntity
  8
ALL_ASSEMBLY_MEMBERS
100
AcDbSpline
 62
7
  6
CONTINUOUS
 70
0
 71
3
 72
14
 73
10
 74
0
 42
0.0000001
 43
0.0000001
 44
0.0000000001
 40
0.0
 40
0.0
 40
0.0
 40
0.0
 40
0.2193261673
 40
0.4558284056
 40
0.5817104429
 40
0.6468881546
 40
0.7137187944
 40
0.8530188371
 40
1.0
 40
1.0
 40
1.0
 40
1.0
 10
7.4744963502
 20
4.777487632
 30
0.0
 10
7.4766000693
 20
4.7792560422
 30
0.0
 10
7.4810817156
 20
4.7828026818
 30
0.0
 10
7.4870536388
 20
4.7869903614
 30
0.0
 10
7.4915869564
 20
4.7898477785
 30
0.0
 10
7.4943708647
 20
4.7914890637
 30
0.0
 10
7.4973362534
 20
4.7931520803
 30
0.0
 10
7.501277486
 20
4.7951677505
 30
0.0
 10
7.5045721691
 20
4.7965967894
 30
0.0
 10
7.5062912425
 20
4.7972576929
 30
0.0
  0
SPLINE
  5
340
100
AcDbEntity
  8
ALL_ASSEMBLY_MEMBERS
100
AcDbSpline
 62
7
  6
CONTINUOUS
 70
0
 71
3
 72
9
 73
5
 74
0
 42
0.0000001
 43
0.0000001
 44
0.0000000001
 40
0.0
 40
0.0
 40
0.0
 40
0.0
 40
0.4999968506
 40
1.0
 40
1.0
 40
1.0
 40
1.0
 10
7.4976873887
 20
4.8147183269
 30
0.0
 10
7.5014546302
 20
4.8164662153
 30
0.0
 10
7.5094317045
 20
4.8190720066
 30
0.0
 10
7.5177870342
 20
4.8197896928
 30
0.0
 10
7.5219385663
 20
4.8196781638
 30
0.0
  0
SPLINE
  5
341
100
AcDbEntity
  8
ALL_ASSEMBLY_MEMBERS
100
AcDbSpline
 62
7
  6
CONTINUOUS
 70
0
 71
3
 72
9
 73
5
 74
0
 42
0.0000001
 43
0.0000001
 44
0.0000000001
 40
0.0
 40
0.0
 40
0.0
 40
0.0
 40
0.5000449705
 40
1.0
 40
1.0
 40
1.0
 40
1.0
 10
7.5062911881
 20
4.797257813
 30
0.0
 10
7.5087864207
 20
4.7982170544
 30
0.0
 10
7.5140000645
 20
4.799589383
 30
0.0
 10
7.5193781737
 20
4.7998786243
 30
0.0
 10
7.5220481066
 20
4.7997552644
 30
0.0
  0
SPLINE
  5
342
100
AcDbEntity
  8
ALL_ASSEMBLY_MEMBERS
100
AcDbSpline
 62
7
  6
CONTINUOUS
 70
0
 71
3
 72
15
 73
11
 74
0
 42
0.0000001
 43
0.0000001
 44
0.0000000001
 40
0.0
 40
0.0
 40
0.0
 40
0.0
 40
0.3276642625
 40
0.4814127611
 40
0.622874715
 40
0.7484544052
 40
0.8549881978
 40
0.9395840876
 40
0.9729435042
 40
1.0
 40
1.0
 40
1.0
 40
1.0
 10
7.4976873941
 20
4.8147183269
 30
0.0
 10
7.4985816477
 20
4.8127890039
 30
0.0
 10
7.499909436
 20
4.8099608038
 30
0.0
 10
7.5016581735
 20
4.8063162456
 30
0.0
 10
7.5028552186
 20
4.8038616922
 30
0.0
 10
7.5039347064
 20
4.8016907819
 30
0.0
 10
7.5048683973
 20
4.7998596657
 30
0.0
 10
7.5055486431
 20
4.7985711843
 30
0.0
 10
7.5060045885
 20
4.7977478748
 30
0.0
 10
7.5062008078
 20
4.7974083595
 30
0.0
 10
7.5062911881
 20
4.797257813
 30
0.0
  0
SPLINE
  5
343
100
AcDbEntity
  8
ALL_ASSEMBLY_MEMBERS
100
AcDbSpline
 62
7
  6
CONTINUOUS
 70
0
 71
3
 72
13
 73
9
 74
0
 42
0.0000001
 43
0.0000001
 44
0.0000000001
 40
0.0
 40
0.0
 40
0.0
 40
0.0
 40
0.2499984543
 40
0.3749963012
 40
0.4999943082
 40
0.624993129
 40
0.7499933932
 40
1.0
 40
1.0
 40
1.0
 40
1.0
 10
7.5220481167
 20
4.7997556231
 30
0.0
 10
7.6216479454
 20
4.7970928046
 30
0.0
 10
7.771045146
 20
4.7930242916
 30
0.0
 10
7.970240375
 20
4.7875733608
 30
0.0
 10
8.1196366757
 20
4.7834960531
 30
0.0
 10
8.2690346156
 20
4.7794435369
 30
0.0
 10
8.468237171
 20
4.7740953309
 30
0.0
 10
8.6176422326
 20
4.7701626243
 30
0.0
 10
8.7172476554
 20
4.7675889681
 30
0.0
  0
SPLINE
  5
344
100
AcDbEntity
  8
ALL_ASSEMBLY_MEMBERS
100
AcDbSpline
 62
7
  6
CONTINUOUS
 70
0
 71
3
 72
21
 73
17
 74
0
 42
0.0000001
 43
0.0000001
 44
0.0000000001
 40
0.0
 40
0.0
 40
0.0
 40
0.0
 40
0.1852041651
 40
0.3643181945
 40
0.5306631126
 40
0.6787179223
 40
0.7443057572
 40
0.8034646323
 40
0.8556791732
 40
0.9005454256
 40
0.937670449
 40
0.9667258437
 40
0.978168848
 40
0.987531819
 40
0.9948054937
 40
1.0
 40
1.0
 40
1.0
 40
1.0
 10
7.5219385664
 20
4.8196781638
 30
0.0
 10
7.5219056469
 20
4.8184476861
 30
0.0
 10
7.5218487188
 20
4.8160269762
 30
0.0
 10
7.521789045
 20
4.8125005194
 30
0.0
 10
7.5217577974
 20
4.8092206087
 30
0.0
 10
7.5217558655
 20
4.8066950563
 30
0.0
 10
7.5217709204
 20
4.8048819932
 30
0.0
 10
7.5217890915
 20
4.8037059867
 30
0.0
 10
7.521814425
 20
4.8026678699
 30
0.0
 10
7.5218464645
 20
4.8017764406
 30
0.0
 10
7.5218849347
 20
4.801039378
 30
0.0
 10
7.5219239941
 20
4.8005248224
 30
0.0
 10
7.5219603136
 20
4.8001954113
 30
0.0
 10
7.5219864982
 20
4.8000105469
 30
0.0
 10
7.5220137348
 20
4.7998680518
 30
0.0
 10
7.5220355641
 20
4.7997877844
 30
0.0
 10
7.5220481167
 20
4.7997556231
 30
0.0
  0
SPLINE
  5
345
100
AcDbEntity
  8
ALL_ASSEMBLY_MEMBERS
100
AcDbSpline
 62
7
  6
CONTINUOUS
 70
0
 71
3
 72
13
 73
9
 74
0
 42
0.0000001
 43
0.0000001
 44
0.0000000001
 40
0.0
 40
0.0
 40
0.0
 40
0.0
 40
0.2499999957
 40
0.3750000011
 40
0.5000000013
 40
0.6249999994
 40
0.7500000048
 40
1.0
 40
1.0
 40
1.0
 40
1.0
 10
7.5219385663
 20
4.8196781638
 30
0.0
 10
7.6215401339
 20
4.8170103617
 30
0.0
 10
7.7709402993
 20
4.8129271763
 30
0.0
 10
7.970139529
 20
4.8074476614
 30
0.0
 10
8.1195392045
 20
4.803347097
 30
0.0
 10
8.268939636
 20
4.7992741188
 30
0.0
 10
8.4681419718
 20
4.7939085859
 30
0.0
 10
8.617546183
 20
4.7899756911
 30
0.0
 10
8.7171503853
 20
4.7874081421
 30
0.0
  0
SPLINE
  5
346
100
AcDbEntity
  8
ALL_ASSEMBLY_MEMBERS
100
AcDbSpline
 62
7
  6
CONTINUOUS
 70
0
 71
3
 72
23
 73
19
 74
0
 42
0.0000001
 43
0.0000001
 44
0.0000000001
 40
0.0
 40
0.0
 40
0.0
 40
0.0
 40
0.1799813552
 40
0.2683165233
 40
0.3544321425
 40
0.5173153373
 40
0.5928148942
 40
0.6635518808
 40
0.7289681868
 40
0.7885130682
 40
0.8417084186
 40
0.8881510861
 40
0.9274354132
 40
0.9592264971
 40
0.9722607414
 40
0.9833780115
 40
0.9925987953
 40
1.0
 40
1.0
 40
1.0
 40
1.0
 10
8.7171503853
 20
4.7874020613
 30
0.0
 10
8.7171350058
 20
4.786212593
 30
0.0
 10
8.7170896006
 20
4.7844396966
 30
0.0
 10
8.7170331575
 20
4.7820977986
 30
0.0
 10
8.7169994857
 20
4.7798684404
 30
0.0
 10
8.7169915077
 20
4.7777236852
 30
0.0
 10
8.7169858331
 20
4.7756806036
 30
0.0
 10
8.7169836149
 20
4.7742817062
 30
0.0
 10
8.7169884821
 20
4.7729882559
 30
0.0
 10
8.7170059606
 20
4.7718108418
 30
0.0
 10
8.7170361703
 20
4.7707591494
 30
0.0
 10
8.7170707177
 20
4.7698415959
 30
0.0
 10
8.7171020562
 20
4.7690655269
 30
0.0
 10
8.7171221078
 20
4.7685099194
 30
0.0
 10
8.7171462233
 20
4.7681409337
 30
0.0
 10
8.7171687298
 20
4.7679213963
 30
0.0
 10
8.7171990438
 20
4.7677404844
 30
0.0
 10
8.7172291612
 20
4.7676342418
 30
0.0
 10
8.7172476545
 20
4.7675889548
 30
0.0
  0
SPLINE
  5
347
100
AcDbEntity
  8
ALL_ASSEMBLY_MEMBERS
100
AcDbSpline
 62
7
  6
CONTINUOUS
 70
0
 71
3
 72
18
 73
14
 74
0
 42
0.0000001
 43
0.0000001
 44
0.0000000001
 40
0.0
 40
0.0
 40
0.0
 40
0.0
 40
0.1241895367
 40
0.186659162
 40
0.2490754184
 40
0.3736687229
 40
0.4984928226
 40
0.5610767469
 40
0.6236878411
 40
0.6863389101
 40
0.7490644327
 40
0.8746450578
 40
1.0
 40
1.0
 40
1.0
 40
1.0
 10
8.7378517081
 20
4.7874020613
 30
0.0
 10
8.7378517081
 20
4.7860838594
 30
0.0
 10
8.7376473957
 20
4.7840955378
 30
0.0
 10
8.7369898586
 20
4.7815315887
 30
0.0
 10
8.7360736685
 20
4.7790425804
 30
0.0
 10
8.7344633811
 20
4.7761234742
 30
0.0
 10
8.7322998158
 20
4.7735850976
 30
0.0
 10
8.7302953344
 20
4.7718403796
 30
0.0
 10
8.7286653223
 20
4.7706860245
 30
0.0
 10
8.7269265092
 20
4.7697003257
 30
0.0
 10
8.7244873756
 20
4.7686203585
 30
0.0
 10
8.7212554549
 20
4.7677322119
 30
0.0
 10
8.7185774698
 20
4.7675440852
 30
0.0
 10
8.7172476545
 20
4.7675889548
 30
0.0
  0
LINE
  5
348
100
AcDbEntity
  8
ALL_ASSEMBLY_MEMBERS
100
AcDbLine
 62
7
  6
CONTINUOUS
 10
7.1925197889
 20
5.119887878
 11
7.190276948
 21
5.1227830735
  0
LINE
  5
349
100
AcDbEntity
  8
ALL_ASSEMBLY_MEMBERS
100
AcDbLine
 62
7
  6
CONTINUOUS
 10
7.190276948
 20
5.1227830735
 11
7.188381069
 21
5.1248359445
  0
SPLINE
  5
34A
100
AcDbEntity
  8
ALL_ASSEMBLY_MEMBERS
100
AcDbSpline
 62
7
  6
CONTINUOUS
 70
0
 71
3
 72
9
 73
5
 74
0
 42
0.0000001
 43
0.0000001
 44
0.0000000001
 40
0.0
 40
0.0
 40
0.0
 40
0.0
 40
0.5162848163
 40
1.0
 40
1.0
 40
1.0
 40
1.0
 10
7.188381069
 20
5.1248359445
 30
0.0
 10
7.1877835035
 20
5.1254299182
 30
0.0
 10
7.1865782097
 20
5.1265336174
 30
0.0
 10
7.1852714566
 20
5.127516974
 30
0.0
 10
7.1846141383
 20
5.127954102
 30
0.0
  0
SPLINE
  5
34B
100
AcDbEntity
  8
ALL_ASSEMBLY_MEMBERS
100
AcDbSpline
 62
7
  6
CONTINUOUS
 70
0
 71
3
 72
28
 73
24
 74
0
 42
0.0000001
 43
0.0000001
 44
0.0000000001
 40
0.0
 40
0.0
 40
0.0
 40
0.0
 40
0.0519087088
 40
0.0758686888
 40
0.0986643086
 40
0.1205052976
 40
0.1416700112
 40
0.1625129877
 40
0.1834033418
 40
0.2046918489
 40
0.226698399
 40
0.2496931038
 40
0.2738709684
 40
0.3261883402
 40
0.384184553
 40
0.447759052
 40
0.5164790878
 40
0.5526011133
 40
0.5897838932
 40
0.6669725704
 40
0.7473706189
 40
0.8302651056
 40
1.0
 40
1.0
 40
1.0
 40
1.0
 10
7.1846141383
 20
5.127954102
 30
0.0
 10
7.1837296014
 20
5.1285423343
 30
0.0
 10
7.1823625457
 20
5.12930481
 30
0.0
 10
7.1804591926
 20
5.1299893365
 30
0.0
 10
7.17908767
 20
5.1303056549
 30
0.0
 10
7.177742866
 20
5.1304336913
 30
0.0
 10
7.1764330634
 20
5.1303677578
 30
0.0
 10
7.1751670168
 20
5.1301098002
 30
0.0
 10
7.1739516805
 20
5.12966425
 30
0.0
 10
7.1727933139
 20
5.1290356212
 30
0.0
 10
7.1716977989
 20
5.1282290651
 30
0.0
 10
7.1706662543
 20
5.1272549528
 30
0.0
 10
7.1693417891
 20
5.1257043842
 30
0.0
 10
7.1678634927
 20
5.1233664259
 30
0.0
 10
7.1663902108
 20
5.120119197
 30
0.0
 10
7.1651487524
 20
5.1164227284
 30
0.0
 10
7.1643081141
 20
5.1130774833
 30
0.0
 10
7.1637258285
 20
5.1102297143
 30
0.0
 10
7.1631904679
 20
5.1071965232
 30
0.0
 10
7.1626395938
 20
5.1032475776
 30
0.0
 10
7.1621501829
 20
5.0983496853
 30
0.0
 10
7.1616934918
 20
5.0915490477
 30
0.0
 10
7.1615661863
 20
5.086377528
 30
0.0
 10
7.1615661863
 20
5.0829040319
 30
0.0
  0
SPLINE
  5
34C
100
AcDbEntity
  8
ALL_ASSEMBLY_MEMBERS
100
AcDbSpline
 62
7
  6
CONTINUOUS
 70
0
 71
3
 72
18
 73
14
 74
0
 42
0.0000001
 43
0.0000001
 44
0.0000000001
 40
0.0
 40
0.0
 40
0.0
 40
0.0
 40
0.1242073456
 40
0.1866734917
 40
0.2490882163
 40
0.3736860846
 40
0.4985092069
 40
0.5610883415
 40
0.6236947894
 40
0.686341079
 40
0.7490615053
 40
0.8746371802
 40
1.0
 40
1.0
 40
1.0
 40
1.0
 10
8.7378517081
 20
4.9545679117
 30
0.0
 10
8.7378517081
 20
4.9558648455
 30
0.0
 10
8.7376541036
 20
4.9578207523
 30
0.0
 10
8.7370174383
 20
4.9603455962
 30
0.0
 10
8.7361302033
 20
4.9627990702
 30
0.0
 10
8.7345699795
 20
4.9656828603
 30
0.0
 10
8.7324708174
 20
4.9682035367
 30
0.0
 10
8.7305229645
 20
4.9699467241
 30
0.0
 10
8.7289373515
 20
4.9711066744
 30
0.0
 10
8.727243804
 20
4.9721051611
 30
0.0
 10
8.7248647601
 20
4.9732118164
 30
0.0
 10
8.7217051401
 20
4.9741517414
 30
0.0
 10
8.7190766104
 20
4.9744002509
 30
0.0
 10
8.7177676519
 20
4.9743899655
 30
0.0
  0
SPLINE
  5
34D
100
AcDbEntity
  8
ALL_ASSEMBLY_MEMBERS
100
AcDbSpline
 62
7
  6
CONTINUOUS
 70
0
 71
3
 72
11
 73
7
 74
0
 42
0.0000001
 43
0.0000001
 44
0.0000000001
 40
0.0
 40
0.0
 40
0.0
 40
0.0
 40
0.2550681759
 40
0.508498396
 40
0.7575611613
 40
1.0
 40
1.0
 40
1.0
 40
1.0
 10
3.4853332788
 20
5.0829040319
 30
0.0
 10
3.4853332788
 20
5.0807164535
 30
0.0
 10
3.4855341486
 20
5.0763529095
 30
0.0
 10
3.4864170189
 20
5.0699072073
 30
0.0
 10
3.4878652778
 20
5.0636756743
 30
0.0
 10
3.4891979897
 20
5.0596687359
 30
0.0
 10
3.4899503242
 20
5.0577303526
 30
0.0
  0
SPLINE
  5
34E
100
AcDbEntity
  8
ALL_ASSEMBLY_MEMBERS
100
AcDbSpline
 62
7
  6
CONTINUOUS
 70
0
 71
3
 72
9
 73
5
 74
0
 42
0.0000001
 43
0.0000001
 44
0.0000000001
 40
0.0
 40
0.0
 40
0.0
 40
0.0
 40
0.5158919965
 40
1.0
 40
1.0
 40
1.0
 40
1.0
 10
3.4899503242
 20
5.0577303526
 30
0.0
 10
3.4907827729
 20
5.0555855554
 30
0.0
 10
3.4926228321
 20
5.051511777
 30
0.0
 10
3.4949371012
 20
5.0476829034
 30
0.0
 10
3.4961836272
 20
5.0459201857
 30
0.0
  0
SPLINE
  5
34F
100
AcDbEntity
  8
ALL_ASSEMBLY_MEMBERS
100
AcDbSpline
 62
7
  6
CONTINUOUS
 70
0
 71
3
 72
26
 73
22
 74
0
 42
0.0000001
 43
0.0000001
 44
0.0000000001
 40
0.0
 40
0.0
 40
0.0
 40
0.0
 40
0.0843496129
 40
0.1678193348
 40
0.2493286296
 40
0.3280342945
 40
0.4032207824
 40
0.4742633558
 40
0.5406591832
 40
0.6021434744
 40
0.6587223821
 40
0.7107802796
 40
0.7353831063
 40
0.7592043851
 40
0.7824268652
 40
0.8052565937
 40
0.8279167672
 40
0.850642677
 40
0.8971389905
 40
0.9465021489
 40
1.0
 40
1.0
 40
1.0
 40
1.0
 10
3.5255854068
 20
5.0829040296
 30
0.0
 10
3.5254995644
 20
5.0812830296
 30
0.0
 10
3.5252310882
 20
5.0780622581
 30
0.0
 10
3.5245405938
 20
5.0733109283
 30
0.0
 10
3.5235655244
 20
5.0687201975
 30
0.0
 10
3.5223190553
 20
5.0643607472
 30
0.0
 10
3.5208142482
 20
5.0602970352
 30
0.0
 10
3.5190712246
 20
5.0565887733
 30
0.0
 10
3.5171095149
 20
5.0532933306
 30
0.0
 10
3.5149542564
 20
5.0504611516
 30
0.0
 10
3.5126310334
 20
5.0481384511
 30
0.0
 10
3.5105368072
 20
5.0466330039
 30
0.0
 10
3.5088162209
 20
5.0457439782
 30
0.0
 10
3.5075295832
 20
5.0452408504
 30
0.0
 10
3.5062281763
 20
5.0448912913
 30
0.0
 10
3.504917171
 20
5.0446968969
 30
0.0
 10
3.5036016821
 20
5.0446593824
 30
0.0
 10
3.5018371776
 20
5.0448213652
 30
0.0
 10
3.499617095
 20
5.0454382113
 30
0.0
 10
3.4970636476
 20
5.0467980485
 30
0.0
 10
3.4955122471
 20
5.0480459164
 30
0.0
 10
3.4947606008
 20
5.048749469
 30
0.0
  0
SPLINE
  5
350
100
AcDbEntity
  8
ALL_ASSEMBLY_MEMBERS
100
AcDbSpline
 62
7
  6
CONTINUOUS
 70
0
 71
3
 72
9
 73
5
 74
0
 42
0.0000001
 43
0.0000001
 44
0.0000000001
 40
0.0
 40
0.0
 40
0.0
 40
0.0
 40
0.2436290677
 40
1.0
 40
1.0
 40
1.0
 40
1.0
 10
3.4946211628
 20
5.1175283896
 30
0.0
 10
3.4943211311
 20
5.117044861
 30
0.0
 10
3.4931238865
 20
5.1150390209
 30
0.0
 10
3.4920603857
 20
5.1129540885
 30
0.0
 10
3.4913275075
 20
5.1113465957
 30
0.0
  0
SPLINE
  5
351
100
AcDbEntity
  8
ALL_ASSEMBLY_MEMBERS
100
AcDbSpline
 62
7
  6
CONTINUOUS
 70
0
 71
3
 72
9
 73
5
 74
0
 42
0.0000001
 43
0.0000001
 44
0.0000000001
 40
0.0
 40
0.0
 40
0.0
 40
0.0
 40
0.2454978485
 40
1.0
 40
1.0
 40
1.0
 40
1.0
 10
3.4913275075
 20
5.1113465957
 30
0.0
 10
3.4910605274
 20
5.1107610023
 30
0.0
 10
3.4900114781
 20
5.1083582755
 30
0.0
 10
3.4891153143
 20
5.1058892105
 30
0.0
 10
3.4885234958
 20
5.1040018673
 30
0.0
  0
SPLINE
  5
352
100
AcDbEntity
  8
ALL_ASSEMBLY_MEMBERS
100
AcDbSpline
 62
7
  6
CONTINUOUS
 70
0
 71
3
 72
10
 73
6
 74
0
 42
0.0000001
 43
0.0000001
 44
0.0000000001
 40
0.0
 40
0.0
 40
0.0
 40
0.0
 40
0.2469709382
 40
0.4967949163
 40
1.0
 40
1.0
 40
1.0
 40
1.0
 10
3.4873979106
 20
5.0999815786
 30
0.0
 10
3.4870572437
 20
5.0986040449
 30
0.0
 10
3.4864572172
 20
5.0958109927
 30
0.0
 10
3.4855960695
 20
5.0901279722
 30
0.0
 10
3.4853332788
 20
5.0857953206
 30
0.0
 10
3.4853332788
 20
5.0829040319
 30
0.0
  0
LINE
  5
353
100
AcDbEntity
  8
ALL_ASSEMBLY_MEMBERS
100
AcDbLine
 62
7
  6
CONTINUOUS
 10
3.4960895117
 20
5.1195592052
 11
3.4978338673
 21
5.1213862946
  0
SPLINE
  5
354
100
AcDbEntity
  8
ALL_ASSEMBLY_MEMBERS
100
AcDbSpline
 62
7
  6
CONTINUOUS
 70
0
 71
3
 72
11
 73
7
 74
0
 42
0.0000001
 43
0.0000001
 44
0.0000000001
 40
0.0
 40
0.0
 40
0.0
 40
0.0
 40
0.2744283378
 40
0.5288439739
 40
0.7684295132
 40
1.0
 40
1.0
 40
1.0
 40
1.0
 10
3.4978338673
 20
5.1213862946
 30
0.0
 10
3.4985049812
 20
5.1220119297
 30
0.0
 10
3.499883013
 20
5.1231325866
 30
0.0
 10
3.502130088
 20
5.1244056112
 30
0.0
 10
3.5044445666
 20
5.1251837958
 30
0.0
 10
3.5060248631
 20
5.1253590444
 30
0.0
 10
3.506799079
 20
5.1253590213
 30
0.0
  0
SPLINE
  5
355
100
AcDbEntity
  8
ALL_ASSEMBLY_MEMBERS
100
AcDbSpline
 62
7
  6
CONTINUOUS
 70
0
 71
3
 72
15
 73
11
 74
0
 42
0.0000001
 43
0.0000001
 44
0.0000000001
 40
0.0
 40
0.0
 40
0.0
 40
0.0
 40
0.0969739796
 40
0.203072828
 40
0.3180366294
 40
0.4413791708
 40
0.5723787195
 40
0.7099698552
 40
0.8529450645
 40
1.0
 40
1.0
 40
1.0
 40
1.0
 10
3.5157884481
 20
5.1213642967
 30
0.0
 10
3.516482711
 20
5.1205957406
 30
0.0
 10
3.5178182758
 20
5.1188776468
 30
0.0
 10
3.5195783838
 20
5.1159655496
 30
0.0
 10
3.5211574519
 20
5.1126373047
 30
0.0
 10
3.5225338131
 20
5.1089363596
 30
0.0
 10
3.5236861556
 20
5.104908262
 30
0.0
 10
3.5245980747
 20
5.1006048734
 30
0.0
 10
3.5252521985
 20
5.0960819361
 30
0.0
 10
3.525506425
 20
5.0929925583
 30
0.0
 10
3.5255886498
 20
5.0914241346
 30
0.0
  0
SPLINE
  5
356
100
AcDbEntity
  8
ALL_ASSEMBLY_MEMBERS
100
AcDbSpline
 62
7
  6
CONTINUOUS
 70
0
 71
3
 72
23
 73
19
 74
0
 42
0.0000001
 43
0.0000001
 44
0.0000000001
 40
0.0
 40
0.0
 40
0.0
 40
0.0
 40
0.1799407383
 40
0.2682658403
 40
0.3543760506
 40
0.5172596238
 40
0.5927641449
 40
0.663508267
 40
0.7289330087
 40
0.7884866002
 40
0.8416899661
 40
0.8881398192
 40
0.9274306657
 40
0.9592272596
 40
0.9722635867
 40
0.9833821407
 40
0.9926026225
 40
1.0
 40
1.0
 40
1.0
 40
1.0
 10
1.9715530309
 20
4.9545679117
 30
0.0
 10
1.9715358651
 20
4.9557581831
 30
0.0
 10
1.971534669
 20
4.9575329743
 30
0.0
 10
1.9715307065
 20
4.9598773329
 30
0.0
 10
1.9715066777
 20
4.9621087722
 30
0.0
 10
1.971458677
 20
4.9642549832
 30
0.0
 10
1.9714105195
 20
4.9662994705
 30
0.0
 10
1.9713757342
 20
4.9676993626
 30
0.0
 10
1.9713366517
 20
4.9689935843
 30
0.0
 10
1.9712882098
 20
4.9701713826
 30
0.0
 10
1.9712305541
 20
4.9712230566
 30
0.0
 10
1.9711720905
 20
4.9721403893
 30
0.0
 10
1.9711203698
 20
4.972916211
 30
0.0
 10
1.9710854606
 20
4.9734716903
 30
0.0
 10
1.971051475
 20
4.9738402991
 30
0.0
 10
1.9710231406
 20
4.9740593846
 30
0.0
 10
1.9709881164
 20
4.9742395948
 30
0.0
 10
1.9709553456
 20
4.9743451166
 30
0.0
 10
1.9709357642
 20
4.9743899655
 30
0.0
  0
SPLINE
  5
357
100
AcDbEntity
  8
ALL_ASSEMBLY_MEMBERS
100
AcDbSpline
 62
7
  6
CONTINUOUS
 70
0
 71
3
 72
13
 73
9
 74
0
 42
0.0000001
 43
0.0000001
 44
0.0000000001
 40
0.0
 40
0.0
 40
0.0
 40
0.0
 40
0.2193254409
 40
0.4558281184
 40
0.581710737
 40
0.7137126888
 40
0.8530185676
 40
1.0
 40
1.0
 40
1.0
 40
1.0
 10
3.214207055
 20
4.7774876294
 30
0.0
 10
3.2121034905
 20
4.7792561753
 30
0.0
 10
3.207621657
 20
4.7828024617
 30
0.0
 10
3.2016499595
 20
4.7869905417
 30
0.0
 10
3.1964079346
 20
4.7902938022
 30
0.0
 10
3.1920943299
 20
4.7927797208
 30
0.0
 10
3.187426087
 20
4.7951679061
 30
0.0
 10
3.1841312328
 20
4.7965967828
 30
0.0
 10
3.1824121849
 20
4.7972577208
 30
0.0
  0
SPLINE
  5
358
100
AcDbEntity
  8
ALL_ASSEMBLY_MEMBERS
100
AcDbSpline
 62
7
  6
CONTINUOUS
 70
0
 71
3
 72
15
 73
11
 74
0
 42
0.0000001
 43
0.0000001
 44
0.0000000001
 40
0.0
 40
0.0
 40
0.0
 40
0.0
 40
0.2405508233
 40
0.3633585218
 40
0.487746922
 40
0.6136988022
 40
0.6772613571
 40
0.7412044501
 40
0.8701697216
 40
1.0
 40
1.0
 40
1.0
 40
1.0
 10
3.2142065549
 20
4.7774888679
 30
0.0
 10
3.2130458532
 20
4.7808517707
 30
0.0
 10
3.2110610319
 20
4.7858559844
 30
0.0
 10
3.2079465319
 20
4.7923646255
 30
0.0
 10
3.2053094425
 20
4.7972155463
 30
0.0
 10
3.2028569244
 20
4.8011612073
 30
0.0
 10
3.2007178388
 20
4.8042403107
 30
0.0
 10
3.1984378926
 20
4.8072726742
 30
0.0
 10
3.1953223197
 20
4.8108977635
 30
0.0
 10
3.1925131015
 20
4.8135160087
 30
0.0
 10
3.1910160275
 20
4.8147183162
 30
0.0
  0
SPLINE
  5
359
100
AcDbEntity
  8
ALL_ASSEMBLY_MEMBERS
100
AcDbSpline
 62
7
  6
CONTINUOUS
 70
0
 71
3
 72
9
 73
5
 74
0
 42
0.0000001
 43
0.0000001
 44
0.0000000001
 40
0.0
 40
0.0
 40
0.0
 40
0.0
 40
0.5000304023
 40
1.0
 40
1.0
 40
1.0
 40
1.0
 10
3.1824122534
 20
4.7972578722
 30
0.0
 10
3.1799171067
 20
4.7982171307
 30
0.0
 10
3.1747034078
 20
4.7995893477
 30
0.0
 10
3.1693253222
 20
4.7998785776
 30
0.0
 10
3.166655301
 20
4.7997553576
 30
0.0
  0
SPLINE
  5
35A
100
AcDbEntity
  8
ALL_ASSEMBLY_MEMBERS
100
AcDbSpline
 62
7
  6
CONTINUOUS
 70
0
 71
3
 72
9
 73
5
 74
0
 42
0.0000001
 43
0.0000001
 44
0.0000000001
 40
0.0
 40
0.0
 40
0.0
 40
0.0
 40
0.4999869471
 40
1.0
 40
1.0
 40
1.0
 40
1.0
 10
3.1910160275
 20
4.8147183162
 30
0.0
 10
3.1872489116
 20
4.8164662532
 30
0.0
 10
3.1792716394
 20
4.8190715134
 30
0.0
 10
3.1709164595
 20
4.8197892767
 30
0.0
 10
3.1667648453
 20
4.8196781634
 30
0.0
  0
SPLINE
  5
35B
100
AcDbEntity
  8
ALL_ASSEMBLY_MEMBERS
100
AcDbSpline
 62
7
  6
CONTINUOUS
 70
0
 71
3
 72
15
 73
11
 74
0
 42
0.0000001
 43
0.0000001
 44
0.0000000001
 40
0.0
 40
0.0
 40
0.0
 40
0.0
 40
0.0270563994
 40
0.0604157322
 40
0.145011491
 40
0.2515451986
 40
0.3771248457
 40
0.5185867981
 40
0.6723353502
 40
1.0
 40
1.0
 40
1.0
 40
1.0
 10
3.1824122534
 20
4.7972578722
 30
0.0
 10
3.1825026328
 20
4.7974084176
 30
0.0
 10
3.1826988504
 20
4.7977479309
 30
0.0
 10
3.1831547925
 20
4.7985712358
 30
0.0
 10
3.1838350345
 20
4.7998597108
 30
0.0
 10
3.1847687214
 20
4.8016908185
 30
0.0
 10
3.1858482056
 20
4.8038617193
 30
0.0
 10
3.1870452476
 20
4.8063162628
 30
0.0
 10
3.1887939824
 20
4.8099608084
 30
0.0
 10
3.1901217696
 20
4.8127889992
 30
0.0
 10
3.191016023
 20
4.8147183162
 30
0.0
  0
SPLINE
  5
35C
100
AcDbEntity
  8
ALL_ASSEMBLY_MEMBERS
100
AcDbSpline
 62
7
  6
CONTINUOUS
 70
0
 71
3
 72
13
 73
9
 74
0
 42
0.0000001
 43
0.0000001
 44
0.0000000001
 40
0.0
 40
0.0
 40
0.0
 40
0.0
 40
0.2499999957
 40
0.3750000012
 40
0.5000000013
 40
0.6249999994
 40
0.7500000048
 40
1.0
 40
1.0
 40
1.0
 40
1.0
 10
3.1667648453
 20
4.8196781634
 30
0.0
 10
3.0671632787
 20
4.8170103439
 30
0.0
 10
2.9177631137
 20
4.8129271746
 30
0.0
 10
2.718563885
 20
4.8074476638
 30
0.0
 10
2.5691642106
 20
4.8033470908
 30
0.0
 10
2.4197637798
 20
4.7992741124
 30
0.0
 10
2.2205614441
 20
4.7939086172
 30
0.0
 10
2.0711572326
 20
4.7899757664
 30
0.0
 10
1.9715530309
 20
4.7874082175
 30
0.0
  0
SPLINE
  5
35D
100
AcDbEntity
  8
ALL_ASSEMBLY_MEMBERS
100
AcDbSpline
 62
7
  6
CONTINUOUS
 70
0
 71
3
 72
21
 73
17
 74
0
 42
0.0000001
 43
0.0000001
 44
0.0000000001
 40
0.0
 40
0.0
 40
0.0
 40
0.0
 40
0.0051945017
 40
0.012468172
 40
0.0218311389
 40
0.0332741393
 40
0.0623295277
 40
0.0994545463
 40
0.1443207956
 40
0.1965353349
 40
0.2556942098
 40
0.321282046
 40
0.4693368612
 40
0.6356817878
 40
0.8147958266
 40
1.0
 40
1.0
 40
1.0
 40
1.0
 10
3.1666552938
 20
4.7997556201
 30
0.0
 10
3.1666678465
 20
4.7997877814
 30
0.0
 10
3.1666896757
 20
4.7998680487
 30
0.0
 10
3.1667169124
 20
4.8000105437
 30
0.0
 10
3.166743097
 20
4.8001954081
 30
0.0
 10
3.1667794166
 20
4.8005248192
 30
0.0
 10
3.1668184761
 20
4.8010393747
 30
0.0
 10
3.1668569464
 20
4.8017764374
 30
0.0
 10
3.1668889859
 20
4.8026678667
 30
0.0
 10
3.1669143195
 20
4.8037059836
 30
0.0
 10
3.1669324907
 20
4.8048819902
 30
0.0
 10
3.1669475457
 20
4.8066950536
 30
0.0
 10
3.1669456138
 20
4.8092206064
 30
0.0
 10
3.1669143663
 20
4.8125005177
 30
0.0
 10
3.1668546927
 20
4.8160269752
 30
0.0
 10
3.1667977646
 20
4.8184476854
 30
0.0
 10
3.1667648452
 20
4.8196781634
 30
0.0
  0
SPLINE
  5
35E
100
AcDbEntity
  8
ALL_ASSEMBLY_MEMBERS
100
AcDbSpline
 62
7
  6
CONTINUOUS
 70
0
 71
3
 72
13
 73
9
 74
0
 42
0.0000001
 43
0.0000001
 44
0.0000000001
 40
0.0
 40
0.0
 40
0.0
 40
0.0
 40
0.2499984543
 40
0.3749963011
 40
0.4999943082
 40
0.6249931289
 40
0.7499933932
 40
1.0
 40
1.0
 40
1.0
 40
1.0
 10
3.1666552938
 20
4.7997556201
 30
0.0
 10
3.0670554659
 20
4.7970927924
 30
0.0
 10
2.9176582658
 20
4.7930242874
 30
0.0
 10
2.7184630375
 20
4.7875733637
 30
0.0
 10
2.5690667375
 20
4.7834960573
 30
0.0
 10
2.4196687983
 20
4.7794435403
 30
0.0
 10
2.220466244
 20
4.7740953317
 30
0.0
 10
2.071061183
 20
4.7701626236
 30
0.0
 10
1.9714557607
 20
4.7675889681
 30
0.0
  0
SPLINE
  5
35F
100
AcDbEntity
  8
ALL_ASSEMBLY_MEMBERS
100
AcDbSpline
 62
7
  6
CONTINUOUS
 70
0
 71
3
 72
23
 73
19
 74
0
 42
0.0000001
 43
0.0000001
 44
0.0000000001
 40
0.0
 40
0.0
 40
0.0
 40
0.0
 40
0.0074012047
 40
0.0166219885
 40
0.0277392585
 40
0.0407735029
 40
0.0725645868
 40
0.1118489139
 40
0.1582915814
 40
0.2114869318
 40
0.2710318132
 40
0.3364481192
 40
0.4071851058
 40
0.4826846627
 40
0.6455678575
 40
0.7316834767
 40
0.8200186448
 40
1.0
 40
1.0
 40
1.0
 40
1.0
 10
1.9714557616
 20
4.7675889548
 30
0.0
 10
1.971474255
 20
4.7676342418
 30
0.0
 10
1.9715043723
 20
4.7677404844
 30
0.0
 10
1.9715346864
 20
4.7679213963
 30
0.0
 10
1.9715571929
 20
4.7681409337
 30
0.0
 10
1.9715813084
 20
4.7685099194
 30
0.0
 10
1.9716013599
 20
4.7690655269
 30
0.0
 10
1.9716326985
 20
4.7698415959
 30
0.0
 10
1.9716672458
 20
4.7707591494
 30
0.0
 10
1.9716974556
 20
4.7718108418
 30
0.0
 10
1.9717149341
 20
4.7729882559
 30
0.0
 10
1.9717198012
 20
4.7742817062
 30
0.0
 10
1.971717583
 20
4.7756806036
 30
0.0
 10
1.9717119085
 20
4.7777236852
 30
0.0
 10
1.9717039304
 20
4.7798684404
 30
0.0
 10
1.9716702587
 20
4.7820977986
 30
0.0
 10
1.9716138155
 20
4.7844396967
 30
0.0
 10
1.9715684103
 20
4.786212593
 30
0.0
 10
1.9715530309
 20
4.7874020613
 30
0.0
  0
SPLINE
  5
360
100
AcDbEntity
  8
ALL_ASSEMBLY_MEMBERS
100
AcDbSpline
 62
7
  6
CONTINUOUS
 70
0
 71
3
 72
17
 73
13
 74
0
 42
0.0000001
 43
0.0000001
 44
0.0000000001
 40
0.0
 40
0.0
 40
0.0
 40
0.0
 40
0.1252971164
 40
0.1881630462
 40
0.2509759194
 40
0.376272323
 40
0.5014154837
 40
0.6263436674
 40
0.7510261774
 40
0.8134107657
 40
0.8757873986
 40
1.0
 40
1.0
 40
1.0
 40
1.0
 10
3.1776956718
 20
5.0044040319
 30
0.0
 10
3.1776888329
 20
5.0026090435
 30
0.0
 10
3.1774119459
 20
4.9999053695
 30
0.0
 10
3.1765348497
 20
4.9964143815
 30
0.0
 10
3.1753205589
 20
4.9930247017
 30
0.0
 10
3.173194892
 20
4.9890374254
 30
0.0
 10
3.1697692769
 20
4.9848487238
 30
0.0
 10
3.1656061043
 20
4.9814056528
 30
0.0
 10
3.1616430095
 20
4.9792718711
 30
0.0
 10
3.1582764498
 20
4.978057708
 30
0.0
 10
3.1548138082
 20
4.9771851695
 30
0.0
 10
3.152131515
 20
4.976915073
 30
0.0
 10
3.1503520504
 20
4.9769145494
 30
0.0
  0
SPLINE
  5
361
100
AcDbEntity
  8
ALL_ASSEMBLY_MEMBERS
100
AcDbSpline
 62
7
  6
CONTINUOUS
 70
0
 71
3
 72
15
 73
11
 74
0
 42
0.0000001
 43
0.0000001
 44
0.0000000001
 40
0.0
 40
0.0
 40
0.0
 40
0.0
 40
0.1449609804
 40
0.2863435741
 40
0.4229982744
 40
0.5538738727
 40
0.6779092094
 40
0.7941024338
 40
0.9016584394
 40
1.0
 40
1.0
 40
1.0
 40
1.0
 10
3.5269487494
 20
5.0916418625
 30
0.0
 10
3.5268781026
 20
5.0932486161
 30
0.0
 10
3.5266977361
 20
5.0964208543
 30
0.0
 10
3.5262970554
 20
5.1010975068
 30
0.0
 10
3.5257567193
 20
5.1056030315
 30
0.0
 10
3.525066065
 20
5.1098935433
 30
0.0
 10
3.5242117293
 20
5.1139233018
 30
0.0
 10
3.5231770211
 20
5.1176440253
 30
0.0
 10
3.5219472861
 20
5.1210037126
 30
0.0
 10
3.5209414876
 20
5.1230623182
 30
0.0
 10
3.5203930462
 20
5.1240055344
 30
0.0
  0
SPLINE
  5
362
100
AcDbEntity
  8
ALL_ASSEMBLY_MEMBERS
100
AcDbSpline
 62
7
  6
CONTINUOUS
 70
0
 71
3
 72
18
 73
14
 74
0
 42
0.0000001
 43
0.0000001
 44
0.0000000001
 40
0.0
 40
0.0
 40
0.0
 40
0.0
 40
0.1392913503
 40
0.2666932197
 40
0.3267167855
 40
0.3848537051
 40
0.4416966439
 40
0.497896391
 40
0.5541506777
 40
0.6111823387
 40
0.7300523913
 40
0.8588506789
 40
1.0
 40
1.0
 40
1.0
 40
1.0
 10
3.5203930462
 20
5.1240055344
 30
0.0
 10
3.5199410797
 20
5.124782832
 30
0.0
 10
3.5189848894
 20
5.1262217798
 30
0.0
 10
3.51754351
 20
5.1277788463
 30
0.0
 10
3.5162984898
 20
5.1287645851
 30
0.0
 10
3.5153374152
 20
5.1293632671
 30
0.0
 10
3.514333383
 20
5.1298313777
 30
0.0
 10
3.5132901194
 20
5.1301664934
 30
0.0
 10
3.5122112671
 20
5.1303658277
 30
0.0
 10
3.5107112757
 20
5.1304486379
 30
0.0
 10
3.5087427002
 20
5.1301827485
 30
0.0
 10
3.5063676807
 20
5.1293282427
 30
0.0
 10
3.5048478882
 20
5.1284585962
 30
0.0
 10
3.5040891989
 20
5.1279540495
 30
0.0
  0
SPLINE
  5
363
100
AcDbEntity
  8
ALL_ASSEMBLY_MEMBERS
100
AcDbSpline
 62
7
  6
CONTINUOUS
 70
0
 71
3
 72
11
 73
7
 74
0
 42
0.0000001
 43
0.0000001
 44
0.0000000001
 40
0.0
 40
0.0
 40
0.0
 40
0.0
 40
0.2273496599
 40
0.4704266663
 40
0.7283462247
 40
1.0
 40
1.0
 40
1.0
 40
1.0
 10
3.5040891989
 20
5.1279540495
 30
0.0
 10
3.5034116168
 20
5.127503441
 30
0.0
 10
3.5020649365
 20
5.1264862769
 30
0.0
 10
3.5001471931
 20
5.1247154227
 30
0.0
 10
3.4982825873
 20
5.1226690336
 30
0.0
 10
3.4971147951
 20
5.1211736404
 30
0.0
 10
3.4965423419
 20
5.1203877116
 30
0.0
  0
LINE
  5
364
100
AcDbEntity
  8
ALL_ASSEMBLY_MEMBERS
100
AcDbLine
 62
7
  6
CONTINUOUS
 10
3.5055081946
 20
5.125281324
 11
3.5078998593
 21
5.1246200899
  0
SPLINE
  5
365
100
AcDbEntity
  8
ALL_ASSEMBLY_MEMBERS
100
AcDbSpline
 62
7
  6
CONTINUOUS
 70
0
 71
3
 72
11
 73
7
 74
0
 42
0.0000001
 43
0.0000001
 44
0.0000000001
 40
0.0
 40
0.0
 40
0.0
 40
0.0
 40
0.2166818164
 40
0.4533806522
 40
0.7138747419
 40
1.0
 40
1.0
 40
1.0
 40
1.0
 10
3.5078998593
 20
5.1246200899
 30
0.0
 10
3.5086113679
 20
5.1243200941
 30
0.0
 10
3.5100312954
 20
5.1235221445
 30
0.0
 10
3.5119911904
 20
5.1218830219
 30
0.0
 10
3.5138398384
 20
5.1197794405
 30
0.0
 10
3.514932902
 20
5.1181610868
 30
0.0
 10
3.5154601055
 20
5.117288325
 30
0.0
  0
SPLINE
  5
366
100
AcDbEntity
  8
ALL_ASSEMBLY_MEMBERS
100
AcDbSpline
 62
7
  6
CONTINUOUS
 70
0
 71
3
 72
21
 73
17
 74
0
 42
0.0000001
 43
0.0000001
 44
0.0000000001
 40
0.0
 40
0.0
 40
0.0
 40
0.0
 40
0.0485602011
 40
0.1006841871
 40
0.1561580302
 40
0.2147051609
 40
0.2759834802
 40
0.3395855049
 40
0.4050816428
 40
0.4720033471
 40
0.6081168272
 40
0.743993479
 40
0.8106410295
 40
0.8758010089
 40
0.9390440694
 40
1.0
 40
1.0
 40
1.0
 40
1.0
 10
3.5154601055
 20
5.117288325
 30
0.0
 10
3.5159754985
 20
5.1164351151
 30
0.0
 10
3.5169562545
 20
5.1146120868
 30
0.0
 10
3.5182347468
 20
5.1116693755
 30
0.0
 10
3.5193623233
 20
5.1084477545
 30
0.0
 10
3.5203244919
 20
5.1049779474
 30
0.0
 10
3.5211098233
 20
5.1012933876
 30
0.0
 10
3.521710054
 20
5.0974299728
 30
0.0
 10
3.5221152481
 20
5.0934248429
 30
0.0
 10
3.5223906691
 20
5.0879176169
 30
0.0
 10
3.5222187027
 20
5.0809510802
 30
0.0
 10
3.5213684221
 20
5.0740393534
 30
0.0
 10
3.5202720912
 20
5.0686528103
 30
0.0
 10
3.5192611296
 20
5.0647764666
 30
0.0
 10
3.5180623198
 20
5.0610766935
 30
0.0
 10
3.517125869
 20
5.0587031527
 30
0.0
 10
3.5166264813
 20
5.0575558891
 30
0.0
  0
SPLINE
  5
367
100
AcDbEntity
  8
ALL_ASSEMBLY_MEMBERS
100
AcDbSpline
 62
7
  6
CONTINUOUS
 70
0
 71
3
 72
11
 73
7
 74
0
 42
0.0000001
 43
0.0000001
 44
0.0000000001
 40
0.0
 40
0.0
 40
0.0
 40
0.0
 40
0.2710920963
 40
0.5284863703
 40
0.7715362775
 40
1.0
 40
1.0
 40
1.0
 40
1.0
 10
3.5163015058
 20
5.0568244057
 30
0.0
 10
3.5158115308
 20
5.0557437614
 30
0.0
 10
3.5147839498
 20
5.0536687078
 30
0.0
 10
3.5130529161
 20
5.050764878
 30
0.0
 10
3.511186171
 20
5.0481725039
 30
0.0
 10
3.5098176064
 20
5.0466216045
 30
0.0
 10
3.5091135171
 20
5.0459115537
 30
0.0
  0
SPLINE
  5
368
100
AcDbEntity
  8
ALL_ASSEMBLY_MEMBERS
100
AcDbSpline
 62
7
  6
CONTINUOUS
 70
0
 71
3
 72
11
 73
7
 74
0
 42
0.0000001
 43
0.0000001
 44
0.0000000001
 40
0.0
 40
0.0
 40
0.0
 40
0.0
 40
0.2314916821
 40
0.471192174
 40
0.7258718476
 40
1.0
 40
1.0
 40
1.0
 40
1.0
 10
3.506799079
 20
5.1253590213
 30
0.0
 10
3.5075755374
 20
5.1253589981
 30
0.0
 10
3.5091611
 20
5.1251830517
 30
0.0
 10
3.5114835214
 20
5.124399637
 30
0.0
 10
3.5137350255
 20
5.1231170609
 30
0.0
 10
3.5151168001
 20
5.1219922375
 30
0.0
 10
3.5157884481
 20
5.1213642967
 30
0.0
  0
SPLINE
  5
369
100
AcDbEntity
  8
ALL_ASSEMBLY_MEMBERS
100
AcDbSpline
 62
7
  6
CONTINUOUS
 70
0
 71
3
 72
10
 73
6
 74
0
 42
0.0000001
 43
0.0000001
 44
0.0000000001
 40
0.0
 40
0.0
 40
0.0
 40
0.0
 40
0.2337561388
 40
0.4757382338
 40
1.0
 40
1.0
 40
1.0
 40
1.0
 10
3.4986063859
 20
5.1191539246
 30
0.0
 10
3.4983292069
 20
5.1191351498
 30
0.0
 10
3.4977673383
 20
5.1190476721
 30
0.0
 10
3.4966341954
 20
5.1186768421
 30
0.0
 10
3.4958418293
 20
5.1181998055
 30
0.0
 10
3.4953453321
 20
5.1178233596
 30
0.0
  0
LINE
  5
36A
100
AcDbEntity
  8
ALL_ASSEMBLY_MEMBERS
100
AcDbLine
 62
7
  6
CONTINUOUS
 10
3.4953453321
 20
5.1178233596
 11
3.4942735195
 21
5.116876854
  0
SPLINE
  5
36B
100
AcDbEntity
  8
ALL_ASSEMBLY_MEMBERS
100
AcDbSpline
 62
7
  6
CONTINUOUS
 70
0
 71
3
 72
32
 73
28
 74
0
 42
0.0000001
 43
0.0000001
 44
0.0000000001
 40
0.0
 40
0.0
 40
0.0
 40
0.0
 40
0.0673074137
 40
0.0987662461
 40
0.1286236471
 40
0.1568076668
 40
0.1832923589
 40
0.2081260378
 40
0.2314672907
 40
0.2535688332
 40
0.2747880614
 40
0.295606151
 40
0.3165383202
 40
0.3380666679
 40
0.3606145586
 40
0.3844979911
 40
0.4099148179
 40
0.4369732049
 40
0.4657209174
 40
0.4961456216
 40
0.5281880958
 40
0.5967779535
 40
0.6707185179
 40
0.7490490741
 40
0.8308060214
 40
0.9148993033
 40
1.0
 40
1.0
 40
1.0
 40
1.0
 10
3.4961836272
 20
5.0459201857
 30
0.0
 10
3.4971259962
 20
5.0445875778
 30
0.0
 10
3.4986175721
 20
5.0427030439
 30
0.0
 10
3.5007983392
 20
5.0404700652
 30
0.0
 10
3.5024307026
 20
5.0390360958
 30
0.0
 10
3.5040832174
 20
5.0378187192
 30
0.0
 10
3.5057434721
 20
5.0368316543
 30
0.0
 10
3.5073998739
 20
5.0360896123
 30
0.0
 10
3.5090383574
 20
5.0356013733
 30
0.0
 10
3.5106457623
 20
5.0353743799
 30
0.0
 10
3.5122084389
 20
5.0354192906
 30
0.0
 10
3.5137105633
 20
5.035736024
 30
0.0
 10
3.5151395446
 20
5.0363162825
 30
0.0
 10
3.5164840856
 20
5.0371526458
 30
0.0
 10
3.5177371805
 20
5.0382315786
 30
0.0
 10
3.518899249
 20
5.039535391
 30
0.0
 10
3.5199704613
 20
5.0410497474
 30
0.0
 10
3.520950902
 20
5.0427608198
 30
0.0
 10
3.5218441214
 20
5.0446534698
 30
0.0
 10
3.5226537108
 20
5.046713348
 30
0.0
 10
3.5236484433
 20
5.0497330957
 30
0.0
 10
3.5246786184
 20
5.0538447077
 30
0.0
 10
3.5256180976
 20
5.0591202174
 30
0.0
 10
3.5263166579
 20
5.0647542308
 30
0.0
 10
3.526795494
 20
5.0706574217
 30
0.0
 10
3.5270765369
 20
5.0767373098
 30
0.0
 10
3.5271372298
 20
5.0808404133
 30
0.0
 10
3.5271372298
 20
5.0829040319
 30
0.0
  0
LINE
  5
36C
100
AcDbEntity
  8
ALL_ASSEMBLY_MEMBERS
100
AcDbLine
 62
7
  6
CONTINUOUS
 10
3.147532465
 20
4.7954966197
 11
3.1666552804
 21
4.7997557359
  0
SPLINE
  5
36D
100
AcDbEntity
  8
ALL_ASSEMBLY_MEMBERS
100
AcDbSpline
 62
7
  6
CONTINUOUS
 70
0
 71
3
 72
18
 73
14
 74
0
 42
0.0000001
 43
0.0000001
 44
0.0000000001
 40
0.0
 40
0.0
 40
0.0
 40
0.0
 40
0.1241895318
 40
0.1866591557
 40
0.249075411
 40
0.3736687143
 40
0.4984928144
 40
0.5610767395
 40
0.6236878347
 40
0.6863389049
 40
0.7490644288
 40
0.8746450559
 40
1.0
 40
1.0
 40
1.0
 40
1.0
 10
1.9508517081
 20
4.7874020613
 30
0.0
 10
1.9508517081
 20
4.7860838594
 30
0.0
 10
1.9510560205
 20
4.784095538
 30
0.0
 10
1.9517135576
 20
4.781531589
 30
0.0
 10
1.9526297476
 20
4.7790425807
 30
0.0
 10
1.954240035
 20
4.7761234746
 30
0.0
 10
1.9564036004
 20
4.773585098
 30
0.0
 10
1.9584080818
 20
4.77184038
 30
0.0
 10
1.9600380938
 20
4.7706860249
 30
0.0
 10
1.961776907
 20
4.769700326
 30
0.0
 10
1.9642160405
 20
4.7686203588
 30
0.0
 10
1.9674479612
 20
4.7677322121
 30
0.0
 10
1.9701259463
 20
4.7675440852
 30
0.0
 10
1.9714557616
 20
4.7675889548
 30
0.0
  0
SPLINE
  5
36E
100
AcDbEntity
  8
ALL_ASSEMBLY_MEMBERS
100
AcDbSpline
 62
7
  6
CONTINUOUS
 70
0
 71
3
 72
18
 73
14
 74
0
 42
0.0000001
 43
0.0000001
 44
0.0000000001
 40
0.0
 40
0.0
 40
0.0
 40
0.0
 40
0.1242073447
 40
0.1866734905
 40
0.2490882149
 40
0.373686083
 40
0.4985092054
 40
0.5610883401
 40
0.6236947881
 40
0.6863410779
 40
0.7490615045
 40
0.8746371798
 40
1.0
 40
1.0
 40
1.0
 40
1.0
 10
1.9508517081
 20
4.9545679117
 30
0.0
 10
1.9508517081
 20
4.9558648455
 30
0.0
 10
1.9510493125
 20
4.9578207523
 30
0.0
 10
1.9516859778
 20
4.9603455961
 30
0.0
 10
1.9525732129
 20
4.9627990701
 30
0.0
 10
1.9541334367
 20
4.9656828603
 30
0.0
 10
1.9562325987
 20
4.9682035367
 30
0.0
 10
1.9581804517
 20
4.9699467241
 30
0.0
 10
1.9597660647
 20
4.9711066743
 30
0.0
 10
1.9614596121
 20
4.9721051611
 30
0.0
 10
1.963838656
 20
4.9732118163
 30
0.0
 10
1.9669982761
 20
4.9741517414
 30
0.0
 10
1.9696268058
 20
4.9744002509
 30
0.0
 10
1.9709357642
 20
4.9743899655
 30
0.0
  0
SPLINE
  5
36F
100
AcDbEntity
  8
ALL_ASSEMBLY_MEMBERS
100
AcDbSpline
 62
7
  6
CONTINUOUS
 70
0
 71
3
 72
15
 73
11
 74
0
 42
0.0000001
 43
0.0000001
 44
0.0000000001
 40
0.0
 40
0.0
 40
0.0
 40
0.0
 40
0.2408363224
 40
0.3636973501
 40
0.4880861385
 40
0.6139961926
 40
0.6775225476
 40
0.7414225025
 40
0.8702798058
 40
1.0
 40
1.0
 40
1.0
 40
1.0
 10
3.2142065549
 20
4.9965079989
 30
0.0
 10
3.2130505728
 20
4.9930995929
 30
0.0
 10
3.2110732096
 20
4.9880266124
 30
0.0
 10
3.2079661653
 20
4.9814251861
 30
0.0
 10
3.2053341041
 20
4.9765056914
 30
0.0
 10
3.2028840241
 20
4.9725027251
 30
0.0
 10
3.2007446591
 20
4.9693783127
 30
0.0
 10
3.1984634517
 20
4.9663008018
 30
0.0
 10
3.1953422365
 20
4.962619798
 30
0.0
 10
3.1925214232
 20
4.959959511
 30
0.0
 10
3.1910160275
 20
4.9587381164
 30
0.0
  0
SPLINE
  5
370
100
AcDbEntity
  8
ALL_ASSEMBLY_MEMBERS
100
AcDbSpline
 62
7
  6
CONTINUOUS
 70
0
 71
3
 72
14
 73
10
 74
0
 42
0.0000001
 43
0.0000001
 44
0.0000000001
 40
0.0
 40
0.0
 40
0.0
 40
0.0
 40
0.2199037694
 40
0.45649686
 40
0.5822776207
 40
0.6473767917
 40
0.7141139391
 40
0.8532024431
 40
1.0
 40
1.0
 40
1.0
 40
1.0
 10
3.2142066348
 20
4.9965080065
 30
0.0
 10
3.2120967201
 20
4.9946942116
 30
0.0
 10
3.2076057687
 20
4.9910565379
 30
0.0
 10
3.2016182609
 20
4.9867553672
 30
0.0
 10
3.197072994
 20
4.983821499
 30
0.0
 10
3.1942820076
 20
4.9821372802
 30
0.0
 10
3.1913086392
 20
4.9804309374
 30
0.0
 10
3.1873530077
 20
4.9783623738
 30
0.0
 10
3.1840414535
 20
4.9768964639
 30
0.0
 10
3.1823119965
 20
4.9762190814
 30
0.0
  0
SPLINE
  5
371
100
AcDbEntity
  8
ALL_ASSEMBLY_MEMBERS
100
AcDbSpline
 62
7
  6
CONTINUOUS
 70
0
 71
3
 72
9
 73
5
 74
0
 42
0.0000001
 43
0.0000001
 44
0.0000000001
 40
0.0
 40
0.0
 40
0.0
 40
0.0
 40
0.4999938225
 40
1.0
 40
1.0
 40
1.0
 40
1.0
 10
3.1910160275
 20
4.9587381164
 30
0.0
 10
3.1874358627
 20
4.9570599196
 30
0.0
 10
3.1798737289
 20
4.9545060015
 30
0.0
 10
3.171941898
 20
4.9536549683
 30
0.0
 10
3.1679878253
 20
4.9536574356
 30
0.0
  0
SPLINE
  5
372
100
AcDbEntity
  8
ALL_ASSEMBLY_MEMBERS
100
AcDbSpline
 62
7
  6
CONTINUOUS
 70
0
 71
3
 72
9
 73
5
 74
0
 42
0.0000001
 43
0.0000001
 44
0.0000000001
 40
0.0
 40
0.0
 40
0.0
 40
0.0
 40
0.4999947093
 40
1.0
 40
1.0
 40
1.0
 40
1.0
 10
3.1823121355
 20
4.9762187778
 30
0.0
 10
3.1799441608
 20
4.9752912465
 30
0.0
 10
3.1750043997
 20
4.9739258771
 30
0.0
 10
3.1698981006
 20
4.9735383175
 30
0.0
 10
3.167355397
 20
4.9735888163
 30
0.0
  0
SPLINE
  5
373
100
AcDbEntity
  8
ALL_ASSEMBLY_MEMBERS
100
AcDbSpline
 62
7
  6
CONTINUOUS
 70
0
 71
3
 72
15
 73
11
 74
0
 42
0.0000001
 43
0.0000001
 44
0.0000000001
 40
0.0
 40
0.0
 40
0.0
 40
0.0
 40
0.3292538881
 40
0.4835775849
 40
0.6253538208
 40
0.750918036
 40
0.8570543482
 40
0.9408310297
 40
0.9736201589
 40
1.0
 40
1.0
 40
1.0
 40
1.0
 10
3.1910160262
 20
4.9587381164
 30
0.0
 10
3.1901069149
 20
4.9606794873
 30
0.0
 10
3.1887576089
 20
4.9635242417
 30
0.0
 10
3.1869815234
 20
4.9671879786
 30
0.0
 10
3.1857680666
 20
4.9696506152
 30
0.0
 10
3.1846762894
 20
4.9718233922
 30
0.0
 10
3.1837352312
 20
4.9736491511
 30
0.0
 10
3.1830521689
 20
4.9749282856
 30
0.0
 10
3.1825967057
 20
4.9757399323
 30
0.0
 10
3.1824017116
 20
4.9760722341
 30
0.0
 10
3.1823121355
 20
4.9762187778
 30
0.0
  0
SPLINE
  5
374
100
AcDbEntity
  8
ALL_ASSEMBLY_MEMBERS
100
AcDbSpline
 62
7
  6
CONTINUOUS
 70
0
 71
3
 72
13
 73
9
 74
0
 42
0.0000001
 43
0.0000001
 44
0.0000000001
 40
0.0
 40
0.0
 40
0.0
 40
0.0
 40
0.2499984554
 40
0.3749962949
 40
0.4999942941
 40
0.6249931093
 40
0.749993373
 40
1.0
 40
1.0
 40
1.0
 40
1.0
 10
3.167355397
 20
4.9735886503
 30
0.0
 10
3.0676543588
 20
4.9736374692
 30
0.0
 10
2.9181033979
 20
4.9737854464
 30
0.0
 10
2.7187024692
 20
4.9740092418
 30
0.0
 10
2.5691521838
 20
4.9741661986
 30
0.0
 10
2.4196009065
 20
4.9742982606
 30
0.0
 10
2.2201953343
 20
4.9744188775
 30
0.0
 10
2.0706400645
 20
4.9744305435
 30
0.0
 10
1.9709357637
 20
4.9743899521
 30
0.0
  0
SPLINE
  5
375
100
AcDbEntity
  8
ALL_ASSEMBLY_MEMBERS
100
AcDbSpline
 62
7
  6
CONTINUOUS
 70
0
 71
3
 72
21
 73
17
 74
0
 42
0.0000001
 43
0.0000001
 44
0.0000000001
 40
0.0
 40
0.0
 40
0.0
 40
0.0
 40
0.1851624019
 40
0.3642602366
 40
0.5306070324
 40
0.6786748093
 40
0.7442711906
 40
0.8034388956
 40
0.8556618366
 40
0.9005354812
 40
0.9376663209
 40
0.9667254786
 40
0.978169507
 40
0.9875328919
 40
0.9948063473
 40
1.0
 40
1.0
 40
1.0
 40
1.0
 10
3.1679878252
 20
4.9536574356
 30
0.0
 10
3.1679884903
 20
4.954889213
 30
0.0
 10
3.1679819532
 20
4.9573124353
 30
0.0
 10
3.1679491448
 20
4.9608421306
 30
0.0
 10
3.1678943481
 20
4.9641247549
 30
0.0
 10
3.1678300024
 20
4.9666519783
 30
0.0
 10
3.167767352
 20
4.9684658997
 30
0.0
 10
3.1677183008
 20
4.9696422826
 30
0.0
 10
3.1676657
 20
4.9706805003
 30
0.0
 10
3.1676102381
 20
4.9715717491
 30
0.0
 10
3.1675523925
 20
4.9723083421
 30
0.0
 10
3.167499798
 20
4.9728222411
 30
0.0
 10
3.1674548052
 20
4.9731509241
 30
0.0
 10
3.16742375
 20
4.9733352162
 30
0.0
 10
3.1673927547
 20
4.9734770738
 30
0.0
 10
3.1673688036
 20
4.9735568071
 30
0.0
 10
3.167355397
 20
4.9735886503
 30
0.0
  0
SPLINE
  5
376
100
AcDbEntity
  8
ALL_ASSEMBLY_MEMBERS
100
AcDbSpline
 62
7
  6
CONTINUOUS
 70
0
 71
3
 72
13
 73
9
 74
0
 42
0.0000001
 43
0.0000001
 44
0.0000000001
 40
0.0
 40
0.0
 40
0.0
 40
0.0
 40
0.2499999941
 40
0.3749999977
 40
0.4999999961
 40
0.6249999932
 40
0.749999999
 40
1.0
 40
1.0
 40
1.0
 40
1.0
 10
3.1679878253
 20
4.9536574356
 30
0.0
 10
3.0682849042
 20
4.9537111776
 30
0.0
 10
2.9187305708
 20
4.9538737611
 30
0.0
 10
2.7193248591
 20
4.9541260604
 30
0.0
 10
2.5697705604
 20
4.9543062057
 30
0.0
 10
2.4202162285
 20
4.9544586991
 30
0.0
 10
2.2208103974
 20
4.9545967343
 30
0.0
 10
2.0712559583
 20
4.9546086594
 30
0.0
 10
1.9715530309
 20
4.9545619531
 30
0.0
  0
SPLINE
  5
377
100
AcDbEntity
  8
ALL_ASSEMBLY_MEMBERS
100
AcDbSpline
 62
7
  6
CONTINUOUS
 70
0
 71
3
 72
15
 73
11
 74
0
 42
0.0000001
 43
0.0000001
 44
0.0000000001
 40
0.0
 40
0.0
 40
0.0
 40
0.0
 40
0.1246082417
 40
0.2503936291
 40
0.3768527553
 40
0.5033663471
 40
0.6293140225
 40
0.7541887495
 40
0.8777185728
 40
1.0
 40
1.0
 40
1.0
 40
1.0
 10
5.9381017081
 20
5.3819040319
 30
0.0
 10
5.9332852093
 20
5.3661795798
 30
0.0
 10
5.9227515137
 20
5.3348425251
 30
0.0
 10
5.9052581951
 20
5.2882798268
 30
0.0
 10
5.8868682693
 20
5.2417970528
 30
0.0
 10
5.8684631662
 20
5.1952976691
 30
0.0
 10
5.8509236633
 20
5.1486832644
 30
0.0
 10
5.8351333037
 20
5.1018510328
 30
0.0
 10
5.8219831038
 20
5.0546996742
 30
0.0
 10
5.8155556814
 20
5.0228548582
 30
0.0
 10
5.8131017081
 20
5.0069040319
 30
0.0
  0
SPLINE
  5
378
100
AcDbEntity
  8
ALL_ASSEMBLY_MEMBERS
100
AcDbSpline
 62
7
  6
CONTINUOUS
 70
0
 71
3
 72
15
 73
11
 74
0
 42
0.0000001
 43
0.0000001
 44
0.0000000001
 40
0.0
 40
0.0
 40
0.0
 40
0.0
 40
0.1246082417
 40
0.2503936291
 40
0.3768527553
 40
0.5033663471
 40
0.6293140225
 40
0.7541887495
 40
0.8777185728
 40
1.0
 40
1.0
 40
1.0
 40
1.0
 10
4.7506017081
 20
5.3819040319
 30
0.0
 10
4.7554182069
 20
5.3661795798
 30
0.0
 10
4.7659519025
 20
5.3348425251
 30
0.0
 10
4.783445221
 20
5.2882798268
 30
0.0
 10
4.8018351468
 20
5.2417970528
 30
0.0
 10
4.82024025
 20
5.1952976691
 30
0.0
 10
4.8377797528
 20
5.1486832644
 30
0.0
 10
4.8535701125
 20
5.1018510328
 30
0.0
 10
4.8667203123
 20
5.0546996742
 30
0.0
 10
4.8731477348
 20
5.0228548582
 30
0.0
 10
4.8756017081
 20
5.0069040319
 30
0.0
  0
SPLINE
  5
379
100
AcDbEntity
  8
ALL_ASSEMBLY_MEMBERS
100
AcDbSpline
 62
7
  6
CONTINUOUS
 70
0
 71
3
 72
11
 73
7
 74
0
 42
0.0000001
 43
0.0000001
 44
0.0000000001
 40
0.0
 40
0.0
 40
0.0
 40
0.0
 40
0.2533945098
 40
0.5031580534
 40
0.7513745212
 40
1.0
 40
1.0
 40
1.0
 40
1.0
 10
5.8131017081
 20
5.0069040319
 30
0.0
 10
5.8050320422
 20
4.9544512038
 30
0.0
 10
5.7908547637
 20
4.8500067445
 30
0.0
 10
5.774295221
 20
4.6934996753
 30
0.0
 10
5.7612777147
 20
4.5376677511
 30
0.0
 10
5.7540654284
 20
4.433859837
 30
0.0
 10
5.7506017081
 20
4.3819040319
 30
0.0
  0
SPLINE
  5
37A
100
AcDbEntity
  8
ALL_ASSEMBLY_MEMBERS
100
AcDbSpline
 62
7
  6
CONTINUOUS
 70
0
 71
3
 72
11
 73
7
 74
0
 42
0.0000001
 43
0.0000001
 44
0.0000000001
 40
0.0
 40
0.0
 40
0.0
 40
0.0
 40
0.2533945098
 40
0.5031580534
 40
0.7513745212
 40
1.0
 40
1.0
 40
1.0
 40
1.0
 10
4.8756017081
 20
5.0069040319
 30
0.0
 10
4.8836713739
 20
4.9544512038
 30
0.0
 10
4.8978486524
 20
4.8500067445
 30
0.0
 10
4.9144081952
 20
4.6934996753
 30
0.0
 10
4.9274257014
 20
4.5376677511
 30
0.0
 10
4.9346379877
 20
4.433859837
 30
0.0
 10
4.9381017081
 20
4.3819040319
 30
0.0
  0
SPLINE
  5
37B
100
AcDbEntity
  8
ALL_ASSEMBLY_MEMBERS
100
AcDbSpline
 62
7
  6
CONTINUOUS
 70
0
 71
3
 72
11
 73
7
 74
0
 42
0.0000001
 43
0.0000001
 44
0.0000000001
 40
0.0
 40
0.0
 40
0.0
 40
0.0
 40
0.2503260878
 40
0.5004235954
 40
0.7502703597
 40
1.0
 40
1.0
 40
1.0
 40
1.0
 10
5.7506017081
 20
4.3819040319
 30
0.0
 10
5.7471276551
 20
4.3297932369
 30
0.0
 10
5.7397499074
 20
4.2256491158
 30
0.0
 10
5.7293342006
 20
4.0694617244
 30
0.0
 10
5.7215212956
 20
3.9132389535
 30
0.0
 10
5.7193517081
 20
3.8090060612
 30
0.0
 10
5.7193517081
 20
3.7569040319
 30
0.0
  0
SPLINE
  5
37C
100
AcDbEntity
  8
ALL_ASSEMBLY_MEMBERS
100
AcDbSpline
 62
7
  6
CONTINUOUS
 70
0
 71
3
 72
11
 73
7
 74
0
 42
0.0000001
 43
0.0000001
 44
0.0000000001
 40
0.0
 40
0.0
 40
0.0
 40
0.0
 40
0.2503260878
 40
0.5004235954
 40
0.7502703597
 40
1.0
 40
1.0
 40
1.0
 40
1.0
 10
4.9381017081
 20
4.3819040319
 30
0.0
 10
4.9415757611
 20
4.3297932369
 30
0.0
 10
4.9489535087
 20
4.2256491158
 30
0.0
 10
4.9593692155
 20
4.0694617244
 30
0.0
 10
4.9671821205
 20
3.9132389535
 30
0.0
 10
4.9693517081
 20
3.8090060612
 30
0.0
 10
4.9693517081
 20
3.7569040319
 30
0.0
  0
SPLINE
  5
37D
100
AcDbEntity
  8
ALL_ASSEMBLY_MEMBERS
100
AcDbSpline
 62
7
  6
CONTINUOUS
 70
0
 71
3
 72
15
 73
11
 74
0
 42
0.0000001
 43
0.0000001
 44
0.0000000001
 40
0.0
 40
0.0
 40
0.0
 40
0.0
 40
0.170661003
 40
0.3366004574
 40
0.4932071603
 40
0.6361542659
 40
0.7614787828
 40
0.8657110063
 40
0.9459607323
 40
1.0
 40
1.0
 40
1.0
 40
1.0
 10
5.7193517081
 20
3.0934040319
 30
0.0
 10
5.7193517081
 20
3.0657557164
 30
0.0
 10
5.7191880365
 20
3.0112239242
 30
0.0
 10
5.7185526375
 20
2.931323076
 30
0.0
 10
5.7176328629
 20
2.8559152078
 30
0.0
 10
5.7165341873
 20
2.7870904703
 30
0.0
 10
5.7153620367
 20
2.7267534268
 30
0.0
 10
5.7142224198
 20
2.6765753889
 30
0.0
 10
5.7132207885
 20
2.6379461515
 30
0.0
 10
5.7125879156
 20
2.6161995227
 30
0.0
 10
5.7123144818
 20
2.607449042
 30
0.0
  0
SPLINE
  5
37E
100
AcDbEntity
  8
ALL_ASSEMBLY_MEMBERS
100
AcDbSpline
 62
7
  6
CONTINUOUS
 70
0
 71
3
 72
15
 73
11
 74
0
 42
0.0000001
 43
0.0000001
 44
0.0000000001
 40
0.0
 40
0.0
 40
0.0
 40
0.0
 40
0.1706630148
 40
0.3366042559
 40
0.4932123148
 40
0.6361601514
 40
0.7614846165
 40
0.8657158838
 40
0.9459636735
 40
1.0
 40
1.0
 40
1.0
 40
1.0
 10
4.9693517081
 20
3.0934040319
 30
0.0
 10
4.9693517081
 20
3.0657552329
 30
0.0
 10
4.9695153853
 20
3.0112225145
 30
0.0
 10
4.9701508042
 20
2.9313203761
 30
0.0
 10
4.9710706049
 20
2.8559114508
 30
0.0
 10
4.9721693072
 20
2.7870859917
 30
0.0
 10
4.9733414794
 20
2.7267486495
 30
0.0
 10
4.9744811074
 20
2.6765708029
 30
0.0
 10
4.9754827338
 20
2.6379422904
 30
0.0
 10
4.9761155961
 20
2.6161963279
 30
0.0
 10
4.9763890208
 20
2.6074462737
 30
0.0
  0
SPLINE
  5
37F
100
AcDbEntity
  8
ALL_ASSEMBLY_MEMBERS
100
AcDbSpline
 62
7
  6
CONTINUOUS
 70
0
 71
3
 72
9
 73
5
 74
0
 42
0.0000001
 43
0.0000001
 44
0.0000000001
 40
0.0
 40
0.0
 40
0.0
 40
0.0
 40
0.4999922199
 40
1.0
 40
1.0
 40
1.0
 40
1.0
 10
4.7506017081
 20
5.3819040319
 30
0.0
 10
4.7380508393
 20
5.4224739739
 30
0.0
 10
4.707470882
 20
5.5020145119
 30
0.0
 10
4.666868982
 20
5.5769057556
 30
0.0
 10
4.6443520433
 20
5.6129133135
 30
0.0
  0
SPLINE
  5
380
100
AcDbEntity
  8
ALL_ASSEMBLY_MEMBERS
100
AcDbSpline
 62
7
  6
CONTINUOUS
 70
0
 71
3
 72
9
 73
5
 74
0
 42
0.0000001
 43
0.0000001
 44
0.0000000001
 40
0.0
 40
0.0
 40
0.0
 40
0.0
 40
0.4999922197
 40
1.0
 40
1.0
 40
1.0
 40
1.0
 10
5.9381017081
 20
5.3819040319
 30
0.0
 10
5.9506525768
 20
5.4224739738
 30
0.0
 10
5.9812325342
 20
5.5020145119
 30
0.0
 10
6.0218344342
 20
5.5769057556
 30
0.0
 10
6.0443513729
 20
5.6129133135
 30
0.0
  0
SPLINE
  5
381
100
AcDbEntity
  8
ALL_ASSEMBLY_MEMBERS
100
AcDbSpline
 62
7
  6
CONTINUOUS
 70
0
 71
3
 72
11
 73
7
 74
0
 42
0.0000001
 43
0.0000001
 44
0.0000000001
 40
0.0
 40
0.0
 40
0.0
 40
0.0
 40
0.2526417621
 40
0.5023277779
 40
0.7508580524
 40
1.0
 40
1.0
 40
1.0
 40
1.0
 10
5.5787267081
 20
5.0069040319
 30
0.0
 10
5.5746845327
 20
4.9543557521
 30
0.0
 10
5.5675912188
 20
4.849799808
 30
0.0
 10
5.5593179617
 20
4.6933782059
 30
0.0
 10
5.5528124535
 20
4.5376056569
 30
0.0
 10
5.5492081939
 20
4.4338486054
 30
0.0
 10
5.5474767081
 20
4.3819040319
 30
0.0
  0
SPLINE
  5
382
100
AcDbEntity
  8
ALL_ASSEMBLY_MEMBERS
100
AcDbSpline
 62
7
  6
CONTINUOUS
 70
0
 71
3
 72
11
 73
7
 74
0
 42
0.0000001
 43
0.0000001
 44
0.0000000001
 40
0.0
 40
0.0
 40
0.0
 40
0.0
 40
0.2526417621
 40
0.5023277779
 40
0.7508580524
 40
1.0
 40
1.0
 40
1.0
 40
1.0
 10
5.1099767081
 20
5.0069040319
 30
0.0
 10
5.1140188834
 20
4.9543557521
 30
0.0
 10
5.1211121973
 20
4.849799808
 30
0.0
 10
5.1293854545
 20
4.6933782059
 30
0.0
 10
5.1358909626
 20
4.5376056569
 30
0.0
 10
5.1394952223
 20
4.4338486054
 30
0.0
 10
5.1412267081
 20
4.3819040319
 30
0.0
  0
SPLINE
  5
383
100
AcDbEntity
  8
ALL_ASSEMBLY_MEMBERS
100
AcDbSpline
 62
7
  6
CONTINUOUS
 70
0
 71
3
 72
9
 73
5
 74
0
 42
0.0000001
 43
0.0000001
 44
0.0000000001
 40
0.0
 40
0.0
 40
0.0
 40
0.0
 40
0.5001379753
 40
1.0
 40
1.0
 40
1.0
 40
1.0
 10
5.5474767081
 20
4.3819040319
 30
0.0
 10
5.5440042505
 20
4.2777303032
 30
0.0
 10
5.536190796
 20
4.069476569
 30
0.0
 10
5.5318517081
 20
3.8610781092
 30
0.0
 10
5.5318517081
 20
3.7569040319
 30
0.0
  0
SPLINE
  5
384
100
AcDbEntity
  8
ALL_ASSEMBLY_MEMBERS
100
AcDbSpline
 62
7
  6
CONTINUOUS
 70
0
 71
3
 72
9
 73
5
 74
0
 42
0.0000001
 43
0.0000001
 44
0.0000000001
 40
0.0
 40
0.0
 40
0.0
 40
0.0
 40
0.5001379753
 40
1.0
 40
1.0
 40
1.0
 40
1.0
 10
5.1412267081
 20
4.3819040319
 30
0.0
 10
5.1446991657
 20
4.2777303032
 30
0.0
 10
5.1525126202
 20
4.069476569
 30
0.0
 10
5.1568517081
 20
3.8610781092
 30
0.0
 10
5.1568517081
 20
3.7569040319
 30
0.0
  0
SPLINE
  5
385
100
AcDbEntity
  8
ALL_ASSEMBLY_MEMBERS
100
AcDbSpline
 62
7
  6
CONTINUOUS
 70
0
 71
3
 72
17
 73
13
 74
0
 42
0.0000001
 43
0.0000001
 44
0.0000000001
 40
0.0
 40
0.0
 40
0.0
 40
0.0
 40
0.1249996347
 40
0.2499996566
 40
0.312499721
 40
0.3749998036
 40
0.4999999912
 40
0.6250001777
 40
0.6875002648
 40
0.7500003324
 40
0.8750003639
 40
1.0
 40
1.0
 40
1.0
 40
1.0
 10
5.6383563042
 20
5.3819040318
 30
0.0
 10
5.6138576234
 20
5.3815906441
 30
0.0
 10
5.5648578588
 20
5.3811439629
 30
0.0
 10
5.5036065856
 20
5.3808624719
 30
0.0
 10
5.4546052066
 20
5.3807318302
 30
0.0
 10
5.4056037024
 20
5.3806433545
 30
0.0
 10
5.3443517129
 20
5.3806037147
 30
0.0
 10
5.2830997233
 20
5.3806436589
 30
0.0
 10
5.2340982167
 20
5.3807314699
 30
0.0
 10
5.1850968333
 20
5.3808618712
 30
0.0
 10
5.1238455615
 20
5.3811443854
 30
0.0
 10
5.0748457964
 20
5.3815909497
 30
0.0
 10
5.0503471114
 20
5.3819040318
 30
0.0
  0
SPLINE
  5
386
100
AcDbEntity
  8
ALL_ASSEMBLY_MEMBERS
100
AcDbSpline
 62
7
  6
CONTINUOUS
 70
0
 71
3
 72
15
 73
11
 74
0
 42
0.0000001
 43
0.0000001
 44
0.0000000001
 40
0.0
 40
0.0
 40
0.0
 40
0.0
 40
0.1249997138
 40
0.2499998158
 40
0.3749998716
 40
0.4999999928
 40
0.62500011
 40
0.7500001682
 40
0.8750002868
 40
1.0
 40
1.0
 40
1.0
 40
1.0
 10
5.6383562897
 20
5.381904032
 30
0.0
 10
5.6138576065
 20
5.3822185212
 30
0.0
 10
5.5648577428
 20
5.3826586158
 30
0.0
 10
5.4913562405
 20
5.3830046174
 30
0.0
 10
5.4178540477
 20
5.3831713726
 30
0.0
 10
5.3443517125
 20
5.3832217533
 30
0.0
 10
5.2708493773
 20
5.3831712942
 30
0.0
 10
5.1973471801
 20
5.3830048943
 30
0.0
 10
5.123845677
 20
5.3826585362
 30
0.0
 10
5.0748458055
 20
5.3822188119
 30
0.0
 10
5.0503471261
 20
5.381904032
 30
0.0
  0
SPLINE
  5
387
100
AcDbEntity
  8
ALL_ASSEMBLY_MEMBERS
100
AcDbSpline
 62
7
  6
CONTINUOUS
 70
0
 71
3
 72
9
 73
5
 74
0
 42
0.0000001
 43
0.0000001
 44
0.0000000001
 40
0.0
 40
0.0
 40
0.0
 40
0.0
 40
0.5005059225
 40
1.0
 40
1.0
 40
1.0
 40
1.0
 10
5.9366665061
 20
5.3819040318
 30
0.0
 10
5.9239548534
 20
5.3815807352
 30
0.0
 10
5.8985523496
 20
5.3811257311
 30
0.0
 10
5.8731473745
 20
5.3809020466
 30
0.0
 10
5.8604575687
 20
5.3808222894
 30
0.0
  0
SPLINE
  5
388
100
AcDbEntity
  8
ALL_ASSEMBLY_MEMBERS
100
AcDbSpline
 62
7
  6
CONTINUOUS
 70
0
 71
3
 72
13
 73
9
 74
0
 42
0.0000001
 43
0.0000001
 44
0.0000000001
 40
0.0
 40
0.0
 40
0.0
 40
0.0
 40
0.1254112253
 40
0.2507083334
 40
0.5009939877
 40
0.625975445
 40
0.7508182922
 40
1.0
 40
1.0
 40
1.0
 40
1.0
 10
5.8585593538
 20
5.3808105989
 30
0.0
 10
5.8495338188
 20
5.3807561412
 30
0.0
 10
5.8314907799
 20
5.3806767371
 30
0.0
 10
5.795434892
 20
5.380599768
 30
0.0
 10
5.7594097875
 20
5.3806305366
 30
0.0
 10
5.7234176668
 20
5.3807759634
 30
0.0
 10
5.6875058735
 20
5.3810392469
 30
0.0
 10
5.6605893012
 20
5.3814430907
 30
0.0
 10
5.6426619097
 20
5.3819040318
 30
0.0
  0
SPLINE
  5
389
100
AcDbEntity
  8
ALL_ASSEMBLY_MEMBERS
100
AcDbSpline
 62
7
  6
CONTINUOUS
 70
0
 71
3
 72
9
 73
5
 74
0
 42
0.0000001
 43
0.0000001
 44
0.0000000001
 40
0.0
 40
0.0
 40
0.0
 40
0.0
 40
0.4994883933
 40
1.0
 40
1.0
 40
1.0
 40
1.0
 10
5.9366664989
 20
5.381904032
 30
0.0
 10
5.9240778615
 20
5.3822291693
 30
0.0
 10
5.8988695861
 20
5.3826771904
 30
0.0
 10
5.8736590728
 20
5.3829070525
 30
0.0
 10
5.8610407193
 20
5.3829909126
 30
0.0
  0
SPLINE
  5
38A
100
AcDbEntity
  8
ALL_ASSEMBLY_MEMBERS
100
AcDbSpline
 62
7
  6
CONTINUOUS
 70
0
 71
3
 72
12
 73
8
 74
0
 42
0.0000001
 43
0.0000001
 44
0.0000000001
 40
0.0
 40
0.0
 40
0.0
 40
0.0
 40
0.2494912617
 40
0.4992429288
 40
0.7493037276
 40
0.8745342877
 40
1.0
 40
1.0
 40
1.0
 40
1.0
 10
5.8585609901
 20
5.3830069802
 30
0.0
 10
5.8406055921
 20
5.3831203772
 30
0.0
 10
5.804675313
 20
5.3832327801
 30
0.0
 10
5.7507482875
 20
5.3831852886
 30
0.0
 10
5.7057645159
 20
5.3829409284
 30
0.0
 10
5.6697278916
 20
5.3824944737
 30
0.0
 10
5.6516886742
 20
5.3821346239
 30
0.0
 10
5.6426619171
 20
5.381904032
 30
0.0
  0
SPLINE
  5
38B
100
AcDbEntity
  8
ALL_ASSEMBLY_MEMBERS
100
AcDbSpline
 62
7
  6
CONTINUOUS
 70
0
 71
3
 72
13
 73
9
 74
0
 42
0.0000001
 43
0.0000001
 44
0.0000000001
 40
0.0
 40
0.0
 40
0.0
 40
0.0
 40
0.2491819847
 40
0.3740253321
 40
0.4990063101
 40
0.7492920159
 40
0.8745892365
 40
1.0
 40
1.0
 40
1.0
 40
1.0
 10
5.0460415061
 20
5.3819040318
 30
0.0
 10
5.0281142777
 20
5.3814426422
 30
0.0
 10
5.0011978935
 20
5.3810390432
 30
0.0
 10
4.9652864178
 20
5.3807767318
 30
0.0
 10
4.9292946415
 20
5.3806300301
 30
0.0
 10
4.8932699008
 20
5.3805996565
 30
0.0
 10
4.8572143812
 20
5.3806769896
 30
0.0
 10
4.8391715362
 20
5.3807556197
 30
0.0
 10
4.8301461209
 20
5.3808101049
 30
0.0
  0
SPLINE
  5
38C
100
AcDbEntity
  8
ALL_ASSEMBLY_MEMBERS
100
AcDbSpline
 62
7
  6
CONTINUOUS
 70
0
 71
3
 72
9
 73
5
 74
0
 42
0.0000001
 43
0.0000001
 44
0.0000000001
 40
0.0
 40
0.0
 40
0.0
 40
0.0
 40
0.4994829261
 40
1.0
 40
1.0
 40
1.0
 40
1.0
 10
4.8301461209
 20
5.3808101049
 30
0.0
 10
4.8171401964
 20
5.38088862
 30
0.0
 10
4.7911017594
 20
5.3811115166
 30
0.0
 10
4.7650657947
 20
5.3815729883
 30
0.0
 10
4.7520369098
 20
5.3819040318
 30
0.0
  0
SPLINE
  5
38D
100
AcDbEntity
  8
ALL_ASSEMBLY_MEMBERS
100
AcDbSpline
 62
7
  6
CONTINUOUS
 70
0
 71
3
 72
12
 73
8
 74
0
 42
0.0000001
 43
0.0000001
 44
0.0000000001
 40
0.0
 40
0.0
 40
0.0
 40
0.0
 40
0.1254655181
 40
0.2506962183
 40
0.5007569688
 40
0.7505087244
 40
1.0
 40
1.0
 40
1.0
 40
1.0
 10
5.0460414989
 20
5.381904032
 30
0.0
 10
5.0370147646
 20
5.3821344116
 30
0.0
 10
5.0189755821
 20
5.382494288
 30
0.0
 10
4.9829390249
 20
5.3829410481
 30
0.0
 10
4.9379553098
 20
5.3831852381
 30
0.0
 10
4.8840283665
 20
5.3832329101
 30
0.0
 10
4.8480981356
 20
5.3831206382
 30
0.0
 10
4.8301427654
 20
5.3830071702
 30
0.0
  0
SPLINE
  5
38E
100
AcDbEntity
  8
ALL_ASSEMBLY_MEMBERS
100
AcDbSpline
 62
7
  6
CONTINUOUS
 70
0
 71
3
 72
9
 73
5
 74
0
 42
0.0000001
 43
0.0000001
 44
0.0000000001
 40
0.0
 40
0.0
 40
0.0
 40
0.0
 40
0.5005175995
 40
1.0
 40
1.0
 40
1.0
 40
1.0
 10
4.8295556234
 20
5.383003437
 30
0.0
 10
4.8166212863
 20
5.3829206956
 30
0.0
 10
4.7907797652
 20
5.382691373
 30
0.0
 10
4.7649404556
 20
5.3822376125
 30
0.0
 10
4.7520369171
 20
5.381904032
 30
0.0
  0
SPLINE
  5
38F
100
AcDbEntity
  8
ALL_ASSEMBLY_MEMBERS
100
AcDbSpline
 62
7
  6
CONTINUOUS
 70
0
 71
3
 72
12
 73
8
 74
0
 42
0.0000001
 43
0.0000001
 44
0.0000000001
 40
0.0
 40
0.0
 40
0.0
 40
0.0
 40
0.2495869832
 40
0.4994048298
 40
0.7493735101
 40
0.8745247246
 40
1.0
 40
1.0
 40
1.0
 40
1.0
 10
5.6412267081
 20
5.3819040319
 30
0.0
 10
5.6364363411
 20
5.3506257533
 30
0.0
 10
5.6250471305
 20
5.2883219398
 30
0.0
 10
5.6061625971
 20
5.1952208167
 30
0.0
 10
5.5918830023
 20
5.1172624931
 30
0.0
 10
5.5831302073
 20
5.0543916919
 30
0.0
 10
5.5799467905
 20
5.0227651035
 30
0.0
 10
5.5787267081
 20
5.0069040319
 30
0.0
  0
SPLINE
  5
390
100
AcDbEntity
  8
ALL_ASSEMBLY_MEMBERS
100
AcDbSpline
 62
7
  6
CONTINUOUS
 70
0
 71
3
 72
15
 73
11
 74
0
 42
0.0000001
 43
0.0000001
 44
0.0000000001
 40
0.0
 40
0.0
 40
0.0
 40
0.0
 40
0.2067378982
 40
0.3993070031
 40
0.5722291762
 40
0.7206515784
 40
0.8404502992
 40
0.9283456573
 40
0.9819847703
 40
1.0
 40
1.0
 40
1.0
 40
1.0
 10
5.531647587
 20
2.911607098
 30
0.0
 10
5.5315525695
 20
2.8677457779
 30
0.0
 10
5.5313093864
 20
2.7830292951
 30
0.0
 10
5.5308088025
 20
2.6616264065
 30
0.0
 10
5.5302353128
 20
2.5525961879
 30
0.0
 10
5.5296427824
 20
2.4590052767
 30
0.0
 10
5.5290868547
 20
2.3834537878
 30
0.0
 10
5.5286202687
 20
2.3280114078
 30
0.0
 10
5.5283034902
 20
2.294162884
 30
0.0
 10
5.5281433317
 20
2.2789615732
 30
0.0
 10
5.5281017081
 20
2.275139696
 30
0.0
  0
SPLINE
  5
391
100
AcDbEntity
  8
ALL_ASSEMBLY_MEMBERS
100
AcDbSpline
 62
7
  6
CONTINUOUS
 70
0
 71
3
 72
15
 73
11
 74
0
 42
0.0000001
 43
0.0000001
 44
0.0000000001
 40
0.0
 40
0.0
 40
0.0
 40
0.0
 40
0.2067378982
 40
0.3993070031
 40
0.5722291762
 40
0.7206515784
 40
0.8404502992
 40
0.9283456573
 40
0.9819847703
 40
1.0
 40
1.0
 40
1.0
 40
1.0
 10
5.1570558291
 20
2.911607098
 30
0.0
 10
5.1571508466
 20
2.8677457779
 30
0.0
 10
5.1573940297
 20
2.7830292951
 30
0.0
 10
5.1578946137
 20
2.6616264065
 30
0.0
 10
5.1584681033
 20
2.5525961879
 30
0.0
 10
5.1590606337
 20
2.4590052767
 30
0.0
 10
5.1596165614
 20
2.3834537878
 30
0.0
 10
5.1600831475
 20
2.3280114078
 30
0.0
 10
5.160399926
 20
2.294162884
 30
0.0
 10
5.1605600845
 20
2.2789615732
 30
0.0
 10
5.1606017081
 20
2.275139696
 30
0.0
  0
SPLINE
  5
392
100
AcDbEntity
  8
ALL_ASSEMBLY_MEMBERS
100
AcDbSpline
 62
7
  6
CONTINUOUS
 70
0
 71
3
 72
11
 73
7
 74
0
 42
0.0000001
 43
0.0000001
 44
0.0000000001
 40
0.0
 40
0.0
 40
0.0
 40
0.0
 40
0.2575626437
 40
0.5105934824
 40
0.7582902576
 40
1.0
 40
1.0
 40
1.0
 40
1.0
 10
5.6412267081
 20
5.3819040319
 30
0.0
 10
5.644340319
 20
5.4020331588
 30
0.0
 10
5.6512240986
 20
5.4418311561
 30
0.0
 10
5.6635897211
 20
5.500522758
 30
0.0
 10
5.6778329338
 20
5.5574959578
 30
0.0
 10
5.6886472434
 20
5.5946694651
 30
0.0
 10
5.6943515405
 20
5.6129133135
 30
0.0
  0
SPLINE
  5
393
100
AcDbEntity
  8
ALL_ASSEMBLY_MEMBERS
100
AcDbSpline
 62
7
  6
CONTINUOUS
 70
0
 71
3
 72
11
 73
7
 74
0
 42
0.0000001
 43
0.0000001
 44
0.0000000001
 40
0.0
 40
0.0
 40
0.0
 40
0.0
 40
0.2417097421
 40
0.4894065172
 40
0.7424373561
 40
1.0
 40
1.0
 40
1.0
 40
1.0
 10
4.9943518757
 20
5.6129133135
 30
0.0
 10
5.0000561727
 20
5.5946694651
 30
0.0
 10
5.0108704824
 20
5.5574959578
 30
0.0
 10
5.025113695
 20
5.5005227581
 30
0.0
 10
5.0374793175
 20
5.4418311562
 30
0.0
 10
5.0443630971
 20
5.4020331588
 30
0.0
 10
5.0474767081
 20
5.3819040319
 30
0.0
  0
SPLINE
  5
394
100
AcDbEntity
  8
ALL_ASSEMBLY_MEMBERS
100
AcDbSpline
 62
7
  6
CONTINUOUS
 70
0
 71
3
 72
12
 73
8
 74
0
 42
0.0000001
 43
0.0000001
 44
0.0000000001
 40
0.0
 40
0.0
 40
0.0
 40
0.0
 40
0.2495869832
 40
0.4994048298
 40
0.7493735101
 40
0.8745247246
 40
1.0
 40
1.0
 40
1.0
 40
1.0
 10
5.0474767081
 20
5.3819040319
 30
0.0
 10
5.0522670751
 20
5.3506257533
 30
0.0
 10
5.0636562857
 20
5.2883219398
 30
0.0
 10
5.0825408191
 20
5.1952208167
 30
0.0
 10
5.0968204138
 20
5.1172624931
 30
0.0
 10
5.1055732089
 20
5.0543916919
 30
0.0
 10
5.1087566256
 20
5.0227651035
 30
0.0
 10
5.1099767081
 20
5.0069040319
 30
0.0
  0
SPLINE
  5
395
100
AcDbEntity
  8
ALL_ASSEMBLY_MEMBERS
100
AcDbSpline
 62
7
  6
CONTINUOUS
 70
0
 71
3
 72
23
 73
19
 74
0
 42
0.0000001
 43
0.0000001
 44
0.0000000001
 40
0.0
 40
0.0
 40
0.0
 40
0.0
 40
0.0622073012
 40
0.1208766345
 40
0.1765322075
 40
0.2298974282
 40
0.2818830221
 40
0.3334848398
 40
0.3857438771
 40
0.439641505
 40
0.4960409954
 40
0.5556455161
 40
0.6189863535
 40
0.6864333188
 40
0.7582139266
 40
0.8344379586
 40
0.9150733331
 40
1.0
 40
1.0
 40
1.0
 40
1.0
 10
5.9505691949
 20
5.7569040319
 30
0.0
 10
5.9546382299
 20
5.756904032
 30
0.0
 10
5.9625518274
 20
5.7565471827
 30
0.0
 10
5.9739919198
 20
5.7548171378
 30
0.0
 10
5.9845958938
 20
5.7519018302
 30
0.0
 10
5.9943289549
 20
5.7477950963
 30
0.0
 10
6.0031671452
 20
5.7425024513
 30
0.0
 10
6.0110892549
 20
5.7360301931
 30
0.0
 10
6.0180908007
 20
5.7284042262
 30
0.0
 10
6.0241786562
 20
5.7196504652
 30
0.0
 10
6.029372301
 20
5.7097978064
 30
0.0
 10
6.0337135897
 20
5.6988790012
 30
0.0
 10
6.0372388697
 20
5.6869193035
 30
0.0
 10
6.0399972021
 20
5.6739483545
 30
0.0
 10
6.0420423265
 20
5.6599966468
 30
0.0
 10
6.0434235459
 20
5.645099255
 30
0.0
 10
6.0442006268
 20
5.6292990423
 30
0.0
 10
6.0443513729
 20
5.6184684423
 30
0.0
 10
6.0443513729
 20
5.6129133135
 30
0.0
  0
SPLINE
  5
396
100
AcDbEntity
  8
ALL_ASSEMBLY_MEMBERS
100
AcDbSpline
 62
7
  6
CONTINUOUS
 70
0
 71
3
 72
15
 73
11
 74
0
 42
0.0000001
 43
0.0000001
 44
0.0000000001
 40
0.0
 40
0.0
 40
0.0
 40
0.0
 40
0.1293344228
 40
0.2580291702
 40
0.3855100424
 40
0.5114088397
 40
0.6355793551
 40
0.7581362359
 40
0.8794477088
 40
1.0
 40
1.0
 40
1.0
 40
1.0
 10
5.3443517139
 20
5.7569040319
 30
0.0
 10
5.3611293958
 20
5.7569040317
 30
0.0
 10
5.3946229297
 20
5.7553484235
 30
0.0
 10
5.444213062
 20
5.7483535142
 30
0.0
 10
5.4924767839
 20
5.7367279248
 30
0.0
 10
5.5387912332
 20
5.7205406729
 30
0.0
 10
5.5826032395
 20
5.6999055625
 30
0.0
 10
5.6234494143
 20
5.6750043522
 30
0.0
 10
5.6609659692
 20
5.6460938357
 30
0.0
 10
5.6836526828
 20
5.6243192374
 30
0.0
 10
5.6943515405
 20
5.6129133135
 30
0.0
  0
SPLINE
  5
397
100
AcDbEntity
  8
ALL_ASSEMBLY_MEMBERS
100
AcDbSpline
 62
7
  6
CONTINUOUS
 70
0
 71
3
 72
20
 73
16
 74
0
 42
0.0000001
 43
0.0000001
 44
0.0000000001
 40
0.0
 40
0.0
 40
0.0
 40
0.0
 40
0.1534126034
 40
0.3013802289
 40
0.3728487345
 40
0.4423981419
 40
0.5750224991
 40
0.6377928616
 40
0.6979755678
 40
0.755443546
 40
0.8101103686
 40
0.8619071431
 40
0.9107996134
 40
0.9568089061
 40
1.0
 40
1.0
 40
1.0
 40
1.0
 10
5.6943515405
 20
5.6129133135
 30
0.0
 10
5.7048739852
 20
5.6241311657
 30
0.0
 10
5.7263602429
 20
5.6454207063
 30
0.0
 10
5.7548446058
 20
5.6696861864
 30
0.0
 10
5.7779837405
 20
5.6871338564
 30
0.0
 10
5.8005352564
 20
5.7027655446
 30
0.0
 10
5.8232771009
 20
5.7165653799
 30
0.0
 10
5.8460380809
 20
5.7283494219
 30
0.0
 10
5.8624808291
 20
5.7359052691
 30
0.0
 10
5.8785276325
 20
5.7423257692
 30
0.0
 10
5.8941023947
 20
5.7476010142
 30
0.0
 10
5.9091329447
 20
5.751722062
 30
0.0
 10
5.9235517577
 20
5.7546810101
 30
0.0
 10
5.9372924722
 20
5.7564744982
 30
0.0
 10
5.946238749
 20
5.7569040231
 30
0.0
 10
5.9505689265
 20
5.7569040319
 30
0.0
  0
SPLINE
  5
398
100
AcDbEntity
  8
ALL_ASSEMBLY_MEMBERS
100
AcDbSpline
 62
7
  6
CONTINUOUS
 70
0
 71
3
 72
23
 73
19
 74
0
 42
0.0000001
 43
0.0000001
 44
0.0000000001
 40
0.0
 40
0.0
 40
0.0
 40
0.0
 40
0.084900419
 40
0.1655284185
 40
0.241766455
 40
0.3135667412
 40
0.3810186824
 40
0.4443593111
 40
0.5039608051
 40
0.5603590415
 40
0.614255389
 40
0.6665109236
 40
0.71811608
 40
0.7700990563
 40
0.8234719033
 40
0.8791476285
 40
0.9378133706
 40
1.0
 40
1.0
 40
1.0
 40
1.0
 10
4.6443520433
 20
5.6129133135
 30
0.0
 10
4.6443520433
 20
5.6184666958
 30
0.0
 10
4.6445029879
 20
5.6292950406
 30
0.0
 10
4.6452805185
 20
5.6450938542
 30
0.0
 10
4.6466609009
 20
5.6599929362
 30
0.0
 10
4.6487051848
 20
5.6739473137
 30
0.0
 10
4.6514664866
 20
5.6869192154
 30
0.0
 10
4.6549904348
 20
5.6988791567
 30
0.0
 10
4.6593289951
 20
5.7097989417
 30
0.0
 10
4.6645283371
 20
5.7196481525
 30
0.0
 10
4.670613832
 20
5.7284024856
 30
0.0
 10
4.6776121045
 20
5.7360316416
 30
0.0
 10
4.6855362695
 20
5.7425011205
 30
0.0
 10
4.6943738052
 20
5.7477954794
 30
0.0
 10
4.7041087534
 20
5.7519023383
 30
0.0
 10
4.714714701
 20
5.7548159706
 30
0.0
 10
4.7261542385
 20
5.7565469523
 30
0.0
 10
4.7340662314
 20
5.7569040222
 30
0.0
 10
4.7381338925
 20
5.7569040319
 30
0.0
  0
SPLINE
  5
399
100
AcDbEntity
  8
ALL_ASSEMBLY_MEMBERS
100
AcDbSpline
 62
7
  6
CONTINUOUS
 70
0
 71
3
 72
20
 73
16
 74
0
 42
0.0000001
 43
0.0000001
 44
0.0000000001
 40
0.0
 40
0.0
 40
0.0
 40
0.0
 40
0.0431889091
 40
0.0891921363
 40
0.1380760145
 40
0.1898615158
 40
0.2445158408
 40
0.3019762744
 40
0.3621582478
 40
0.4249264955
 40
0.5575529567
 40
0.6271096422
 40
0.6985883467
 40
0.8465783225
 40
1.0
 40
1.0
 40
1.0
 40
1.0
 10
4.7381342108
 20
5.7569040319
 30
0.0
 10
4.7424641728
 20
5.756904032
 30
0.0
 10
4.7514096319
 20
5.7564746905
 30
0.0
 10
4.76514872
 20
5.7546816937
 30
0.0
 10
4.7795650354
 20
5.7517234584
 30
0.0
 10
4.7945925632
 20
5.7476036391
 30
0.0
 10
4.8101645529
 20
5.7423299559
 30
0.0
 10
4.8262095746
 20
5.7359105607
 30
0.0
 10
4.8426516023
 20
5.7283556418
 30
0.0
 10
4.8654134864
 20
5.7165734443
 30
0.0
 10
4.8881558914
 20
5.7027730107
 30
0.0
 10
4.9107095961
 20
5.6871410337
 30
0.0
 10
4.9338525891
 20
5.66969177
 30
0.0
 10
4.9623395141
 20
5.6454228075
 30
0.0
 10
4.9838287999
 20
5.6241318384
 30
0.0
 10
4.9943518757
 20
5.6129133135
 30
0.0
  0
SPLINE
  5
39A
100
AcDbEntity
  8
ALL_ASSEMBLY_MEMBERS
100
AcDbSpline
 62
7
  6
CONTINUOUS
 70
0
 71
3
 72
17
 73
13
 74
0
 42
0.0000001
 43
0.0000001
 44
0.0000000001
 40
0.0
 40
0.0
 40
0.0
 40
0.0
 40
0.1205309259
 40
0.1810869786
 40
0.2418913206
 40
0.3030031613
 40
0.3644822992
 40
0.4886456298
 40
0.6145354785
 40
0.7419966404
 40
0.8706879
 40
1.0
 40
1.0
 40
1.0
 40
1.0
 10
4.9943518757
 20
5.6129133135
 30
0.0
 10
5.0050497267
 20
5.6243181642
 30
0.0
 10
5.0220436833
 20
5.6406243687
 30
0.0
 10
5.0463757588
 20
5.6604592341
 30
0.0
 10
5.0655231751
 20
5.6744011022
 30
0.0
 10
5.0854991101
 20
5.6873478115
 30
0.0
 10
5.1132773999
 20
5.7032852183
 30
0.0
 10
5.1499154743
 20
5.7205428703
 30
0.0
 10
5.1962277284
 20
5.7367273689
 30
0.0
 10
5.2444917345
 20
5.7483542094
 30
0.0
 10
5.2940801591
 20
5.7553476611
 30
0.0
 10
5.3275730928
 20
5.7569039564
 30
0.0
 10
5.3443492738
 20
5.7569040319
 30
0.0
  0
ENDSEC
  0
SECTION
  2
OBJECTS
  0
DICTIONARY
  5
C
100
AcDbDictionary
280
0
281
1
  3
ACAD_GROUP
350
D
  3
ACAD_MLINESTYLE
350
17
  3
ACAD_LAYOUT
350
1A
  3
ACAD_PLOTSETTINGS
350
19
  3
ACAD_PLOTSTYLENAME
350
E
  0
DICTIONARY
  5
D
102
{ACAD_REACTORS
330
C
102
}
100
AcDbDictionary
280
0
281
1
  0
ACDBDICTIONARYWDFLT
  5
E
102
{ACAD_REACTORS
330
C
102
}
100
AcDbDictionary
281
1
  3
Normal
350
F
100
AcDbDictionaryWithDefault
340
F
  0
DICTIONARY
  5
17
102
{ACAD_REACTORS
330
C
102
}
100
AcDbDictionary
280
0
281
1
  3
Standard
350
18
  0
DICTIONARY
  5
19
102
{ACAD_REACTORS
330
C
102
}
100
AcDbDictionary
281
1
  0
DICTIONARY
  5
1A
102
{ACAD_REACTORS
330
C
102
}
100
AcDbDictionary
281
1
  3
Model
350
39B
  3
Layout1
350
39C
  0
ACDBPLACEHOLDER
  5
F
102
{ACAD_REACTORS
330
E
102
}
  0
MLINESTYLE
  5
18
102
{ACAD_REACTORS
330
17
102
}
100
AcDbMlineStyle
  2
STANDARD
 70
0
  3

 62
256
 51
90.0
 52
90.0
 71
2
 49
0.5
 62
256
  6
BYLAYER
 49
-0.5
 62
256
  6
BYLAYER
  0
LAYOUT
  5
39B
102
{ACAD_REACTORS
330
1A
102
}
100
AcDbPlotSettings
  1

  2
none_device
  4
ANSI_A_(11.00_x_8.50_Inches)
  6

 40
0.0
 41
0.0
 42
0.0
 43
0.0
 44
279.4
 45
215.9
 46
0.0
 47
0.0
 48
0.0
 49
0.0
140
0.0
141
0.0
142
1.0
143
1.0
 70
1024
 72
0
 73
0
 74
0
  7

 75
0
147
1.0
148
0.0
149
0.0
100
AcDbLayout
  1
Model
 70
0
 71
0
 10
0.0
 20
0.0
 11
11.0
 21
8.5
 12
0.0
 22
0.0
 32
0.0
 14
0.0
 24
0.0
 34
0.0
 15
0.0
 25
0.0
 35
0.0
146
0.0
 13
0.0
 23
0.0
 33
0.0
 16
1.0
 26
0.0
 36
0.0
 17
0.0
 27
1.0
 37
0.0
 76
0
330
21F
345
0
346
0
  0
LAYOUT
  5
39C
102
{ACAD_REACTORS
330
1A
102
}
100
AcDbPlotSettings
  1

  2
none_device
  4
ANSI_A_(11.00_x_8.50_Inches)
  6

 40
0.0
 41
0.0
 42
0.0
 43
0.0
 44
279.4
 45
215.9
 46
0.0
 47
0.0
 48
0.0
 49
0.0
140
0.0
141
0.0
142
1.0
143
1.0
 70
0
 72
0
 73
0
 74
0
  7

 75
0
147
1.0
148
0.0
149
0.0
100
AcDbLayout
  1
Layout1
 70
0
 71
1
 10
0.0
 20
0.0
 11
11.0
 21
8.5
 12
0.0
 22
0.0
 32
0.0
 14
0.0
 24
0.0
 34
0.0
 15
0.0
 25
0.0
 35
0.0
146
0.0
 13
0.0
 23
0.0
 33
0.0
 16
1.0
 26
0.0
 36
0.0
 17
0.0
 27
1.0
 37
0.0
 76
0
330
220
345
0
346
0
  0
ENDSEC
  0
EOF
