999
DXF file: E:\BT Custom\CADOUTPUT\_FRONT.dxf
999
Pro/ENGINEER 2018400 by Parametric Technology Corporation
  0
SECTION
  2
HEADER
  9
$ACADVER
  1
AC1018
  9
$DWGCODEPAGE
  3
ANSI_1252
  9
$EXTMAX
 10
22.0
 20
17.0
 30
0.0
  9
$EXTMIN
 10
0.0
 20
0.0
 30
0.0
  9
$LIMMIN
 10
0.0
 20
0.0
  9
$LIMMAX
 10
22.0
 20
17.0
  9
$VIEWCTR
 10
11.0
 20
8.5
  9
$VIEWSIZE
 40
17.0
  9
$CLAYER
  8
0
  9
$LTSCALE
 40
1.21
  9
$CELTYPE
  6
BYLAYER
  9
$DIMSCALE
 40
1.0
  9
$DIMASZ
 40
0.1
  9
$DIMEXO
 40
0.0625
  9
$DIMDLI
 40
0.836
  9
$DIMEXE
 40
0.125
  9
$DIMCEN
 40
0.198
  9
$DIMLFAC
 40
1.0
  9
$DIMBLK
  1
_FILLED
  9
$DIMALT
 70
1
  9
$DIMALTD
 70
2
  9
$DIMALTTD
 70
2
  9
$DIMALTF
 40
25.4
  9
$DIMTXT
 40
0.08
  9
$DIMTOL
 70
1
  9
$DIMLIM
 70
0
  9
$DIMTFAC
 40
1.0
  9
$DIMTP
 40
0.001
  9
$DIMTM
 40
0.001
  9
$DIMGAP
 40
0.09
  9
$DIMDSEP
 70
46
  9
$AUNITS
 70
0
  9
$PDMODE
 70
3
  9
$PDSIZE
 40
0.06
  9
$HANDSEED
  5
33B
  9
$TILEMODE
 70
1
  9
$MEASUREMENT
 70
0
  9
$INSUNITS
 70
1
  0
ENDSEC
  0
SECTION
  2
CLASSES
  0
CLASS
  1
ACDBDICTIONARYWDFLT
  2
AcDbDictionaryWithDefault
  3
AutoCAD 2000
 90
0
 91
1
280
0
281
0
  0
CLASS
  1
ACDBPLACEHOLDER
  2
AcDbPlaceHolder
  3
AutoCAD 2000
 90
0
 91
1
280
0
281
0
  0
CLASS
  1
LAYOUT
  2
AcDbLayout
  3
AutoCAD 2000
 90
0
 91
0
280
0
281
0
  0
ENDSEC
  0
SECTION
  2
TABLES
  0
TABLE
  2
VPORT
  5
8
100
AcDbSymbolTable
 70
2
  0
VPORT
  5
1F4
100
AcDbSymbolTableRecord
100
AcDbViewportTableRecord
  2
*ACTIVE
 70
0
 10
0.0
 20
0.0
 11
1.0
 21
1.0
 12
11.0
 22
8.5
 13
0.0
 23
0.0
 14
1.0
 24
1.0
 15
0.0
 25
0.0
 16
0.0
 26
0.0
 36
1.0
 17
0.0
 27
0.0
 37
0.0
 40
17.0
 41
1.2941176471
 42
50.0
 43
0.0
 44
0.0
 50
0.0
 51
0.0
 71
0
 72
100
 73
1
 74
1
 75
0
 76
0
 77
0
 78
0
  0
ENDTAB
  0
TABLE
  2
LTYPE
  5
5
100
AcDbSymbolTable
 70
6
  0
LTYPE
  5
14
100
AcDbSymbolTableRecord
100
AcDbLinetypeTableRecord
  2
BYBLOCK
 70
0
  3

 72
65
 73
0
 40
0.0
  0
LTYPE
  5
15
100
AcDbSymbolTableRecord
100
AcDbLinetypeTableRecord
  2
BYLAYER
 70
0
  3

 72
65
 73
0
 40
0.0
  0
LTYPE
  5
16
100
AcDbSymbolTableRecord
100
AcDbLinetypeTableRecord
  2
CONTINUOUS
 70
64
  3
Solid line
 72
65
 73
0
 40
0.0
  0
LTYPE
  5
1F5
100
AcDbSymbolTableRecord
100
AcDbLinetypeTableRecord
  2
CENTER
 70
64
  3
____ _ ____ _ ____ _ ____ _ ____ _ ____ _ ____
 72
65
 73
4
 40
0.6
 49
0.375
 74
0
 49
-0.075
 74
0
 49
0.075
 74
0
 49
-0.075
 74
0
  0
LTYPE
  5
1F6
100
AcDbSymbolTableRecord
100
AcDbLinetypeTableRecord
  2
HIDDEN
 70
64
  3
- - - - - - - - - - - - - - - - - - - -
 72
65
 73
2
 40
0.2
 49
0.1
 74
0
 49
-0.1
 74
0
  0
LTYPE
  5
1F7
100
AcDbSymbolTableRecord
100
AcDbLinetypeTableRecord
  2
PHANTOM
 70
64
  3
_____ _ _ _____ _ _ _____ _ _ _____
 72
65
 73
6
 40
0.8
 49
0.45
 74
0
 49
-0.05
 74
0
 49
0.1
 74
0
 49
-0.05
 74
0
 49
0.1
 74
0
 49
-0.05
 74
0
  0
LTYPE
  5
1F8
100
AcDbSymbolTableRecord
100
AcDbLinetypeTableRecord
  2
DOT
 70
64
  3
. . . . . . . . . . . . . . . . . . . .
 72
65
 73
2
 40
0.2
 49
0.1
 74
0
 49
-0.1
 74
0
  0
LTYPE
  5
1F9
100
AcDbSymbolTableRecord
100
AcDbLinetypeTableRecord
  2
DASHED
 70
64
  3
- - - - - - - - - - - - - - - - - - - -
 72
65
 73
2
 40
0.2
 49
0.1
 74
0
 49
-0.1
 74
0
  0
ENDTAB
  0
TABLE
  2
LAYER
  5
2
100
AcDbSymbolTable
 70
36
  0
LAYER
  5
10
100
AcDbSymbolTableRecord
100
AcDbLayerTableRecord
  2
0
 70
0
 62
7
  6
CONTINUOUS
370
-3
390
F
  0
LAYER
  5
1FA
100
AcDbSymbolTableRecord
100
AcDbLayerTableRecord
  2
DEFAULT_1
 70
0
 62
7
  6
CENTER
370
-3
390
F
  0
LAYER
  5
1FB
100
AcDbSymbolTableRecord
100
AcDbLayerTableRecord
  2
DEFAULT_2
 70
0
 62
8
  6
HIDDEN
370
-3
390
F
  0
LAYER
  5
1FC
100
AcDbSymbolTableRecord
100
AcDbLayerTableRecord
  2
DEFAULT_3
 70
0
 62
7
  6
PHANTOM
370
-3
390
F
  0
LAYER
  5
1FD
100
AcDbSymbolTableRecord
100
AcDbLayerTableRecord
  2
ALL_FEATURES
 70
0
 62
7
  6
CONTINUOUS
370
-3
390
F
  0
LAYER
  5
1FE
100
AcDbSymbolTableRecord
100
AcDbLayerTableRecord
  2
AXES_FEATURES
 70
0
 62
7
  6
CONTINUOUS
370
-3
390
F
  0
LAYER
  5
1FF
100
AcDbSymbolTableRecord
100
AcDbLayerTableRecord
  2
DIMENSIONS
 70
0
 62
7
  6
CONTINUOUS
370
-3
390
F
  0
ENDTAB
  0
TABLE
  2
STYLE
  5
3
100
AcDbSymbolTable
 70
1
  0
STYLE
  5
11
100
AcDbSymbolTableRecord
100
AcDbTextStyleTableRecord
  2
STANDARD
 70
0
 40
0.0
 41
0.8
 50
0.0
 71
0
 42
0.2
  3
txt
  4

  0
STYLE
  5
200
100
AcDbSymbolTableRecord
100
AcDbTextStyleTableRecord
  2
TEXTSTYLE_1
 70
0
 40
0.0
 41
0.8
 50
0.0
 71
0
 42
0.2
  3
gdt
  4

  0
ENDTAB
  0
TABLE
  2
VIEW
  5
6
100
AcDbSymbolTable
 70
0
  0
ENDTAB
  0
TABLE
  2
UCS
  5
7
100
AcDbSymbolTable
 70
0
  0
ENDTAB
  0
TABLE
  2
APPID
  5
9
100
AcDbSymbolTable
 70
1
  0
APPID
  5
201
100
AcDbSymbolTableRecord
100
AcDbRegAppTableRecord
  2
ACAD
 70
0
  0
ENDTAB
  0
TABLE
  2
BLOCK_RECORD
  5
1
100
AcDbSymbolTable
 70
0
  0
BLOCK_RECORD
  5
202
100
AcDbSymbolTableRecord
100
AcDbBlockTableRecord
  2
*Model_Space
  0
BLOCK_RECORD
  5
203
100
AcDbSymbolTableRecord
100
AcDbBlockTableRecord
  2
*Paper_Space
  0
BLOCK_RECORD
  5
204
100
AcDbSymbolTableRecord
100
AcDbBlockTableRecord
  2
_FILLED
  0
ENDTAB
  0
TABLE
  2
DIMSTYLE
  5
A
100
AcDbSymbolTable
 70
1
100
AcDbDimStyleTable
 71
0
  0
DIMSTYLE
105
205
100
AcDbSymbolTableRecord
100
AcDbDimStyleTableRecord
  2
STANDARD
 70
0
  3

  4

 40
1.0
 41
0.1
 42
0.0625
 43
0.38
 44
0.125
 45
0.0
 46
0.0
 47
0.001
 48
0.001
140
0.08
141
0.09
142
0.0
143
25.4
144
1.0
145
0.0
146
1.0
147
0.09
 71
1.0
 72
0.0
 73
1
 74
1
 75
0
 76
0
 77
0
 78
4
 79
1
170
1
171
2
172
0
173
0
174
0
175
0
176
0
177
0
178
0
270
2
179
3
271
3
272
3
273
2
274
2
275
0
280
0
281
0
282
0
283
1
284
4
285
0
286
0
287
3
288
0
340
11
278
46
341
204
342
204
343
204
344
204
  0
ENDTAB
  0
ENDSEC
  0
SECTION
  2
BLOCKS
  0
BLOCK
  5
20
100
AcDbEntity
  8
0
100
AcDbBlockBegin
  2
*Model_Space
 70
0
 10
0.0
 20
0.0
 30
0.0
  3
*Model_Space
  1

  0
ENDBLK
  5
21
100
AcDbEntity
  8
0
100
AcDbBlockEnd
  0
BLOCK
  5
1C
100
AcDbEntity
  8
0
100
AcDbBlockBegin
  2
*Paper_Space
 70
0
 10
0.0
 20
0.0
 30
0.0
  3
*Paper_Space
  1

  0
ENDBLK
  5
1D
100
AcDbEntity
  8
0
100
AcDbBlockEnd
  0
BLOCK
  5
206
100
AcDbEntity
  8
0
100
AcDbBlockBegin
  2
_FILLED
 70
64
 10
0.0
 20
0.0
  3
_FILLED
  1

  0
SOLID
  5
207
100
AcDbEntity
  8
0
  6
BYBLOCK
 62
0
100
AcDbTrace
 10
0.0
 20
0.0
 11
-1.0
 21
0.2
 12
-1.0
 22
-0.2
 13
-1.0
 23
-0.2
  0
ENDBLK
  5
208
100
AcDbEntity
  8
0
  6
BYBLOCK
 62
0
100
AcDbBlockEnd
  0
ENDSEC
  0
SECTION
  2
ENTITIES
  0
LINE
  5
209
100
AcDbEntity
  8
0
100
AcDbLine
 62
9
  6
CONTINUOUS
 10
4.1287567966
 20
8.4774823261
 11
4.1289003502
 21
8.4598642759
  0
LINE
  5
20A
100
AcDbEntity
  8
0
100
AcDbLine
 62
7
  6
CONTINUOUS
 10
4.0876927857
 20
8.0686511243
 11
4.0876923427
 21
8.4374921704
  0
LINE
  5
20B
100
AcDbEntity
  8
0
100
AcDbLine
 62
9
  6
CONTINUOUS
 10
4.1290949877
 20
8.0859124296
 11
4.1290948971
 21
8.4202312037
  0
LINE
  5
20C
100
AcDbEntity
  8
0
100
AcDbLine
 62
9
  6
CONTINUOUS
 10
4.1278603866
 20
8.0462614938
 11
4.1277070064
 21
8.0286511045
  0
LINE
  5
20D
100
AcDbEntity
  8
0
100
AcDbLine
 62
7
  6
CONTINUOUS
 10
6.5366327506
 20
7.9961367125
 11
6.5376923219
 21
7.986233751
  0
LINE
  5
20E
100
AcDbEntity
  8
0
100
AcDbLine
 62
7
  6
CONTINUOUS
 10
6.1796320909
 20
6.6681772944
 11
6.1796314393
 21
6.418233751
  0
LINE
  5
20F
100
AcDbEntity
  8
0
100
AcDbLine
 62
7
  6
CONTINUOUS
 10
6.1966923427
 20
6.418233751
 11
6.1966923427
 21
6.356233751
  0
LINE
  5
210
100
AcDbEntity
  8
0
100
AcDbLine
 62
7
  6
CONTINUOUS
 10
6.5312744673
 20
8.0111542816
 11
6.5366327506
 21
7.9961367125
  0
LINE
  5
211
100
AcDbEntity
  8
0
100
AcDbLine
 62
7
  6
CONTINUOUS
 10
6.5376923427
 20
8.461233751
 11
6.5376923427
 21
8.4590242361
  0
LINE
  5
212
100
AcDbEntity
  8
0
100
AcDbLine
 62
7
  6
CONTINUOUS
 10
6.5586611396
 20
6.6681789697
 11
6.558661891
 21
6.418233751
  0
LINE
  5
213
100
AcDbEntity
  8
0
100
AcDbLine
 62
9
  6
CONTINUOUS
 10
6.5680209816
 20
8.3656051609
 11
6.5680209816
 21
8.0775656022
  0
LINE
  5
214
100
AcDbEntity
  8
0
100
AcDbLine
 62
9
  6
CONTINUOUS
 10
6.6144024231
 20
8.0020264867
 11
6.6144024231
 21
8.4400658931
  0
LINE
  5
215
100
AcDbEntity
  8
0
100
AcDbLine
 62
7
  6
CONTINUOUS
 10
6.6251923427
 20
7.966233751
 11
6.6251923427
 21
7.673233751
  0
LINE
  5
216
100
AcDbEntity
  8
0
100
AcDbLine
 62
7
  6
CONTINUOUS
 10
6.6751923427
 20
8.586233751
 11
6.6751923427
 21
8.556233751
  0
LINE
  5
217
100
AcDbEntity
  8
0
100
AcDbLine
 62
7
  6
CONTINUOUS
 10
6.7376923427
 20
7.673233751
 11
6.7376923427
 21
7.668233751
  0
LINE
  5
218
100
AcDbEntity
  8
0
100
AcDbLine
 62
7
  6
CONTINUOUS
 10
7.5788557824
 20
6.784733751
 11
7.6957488268
 21
6.6681774297
  0
LINE
  5
219
100
AcDbEntity
  8
0
100
AcDbLine
 62
7
  6
CONTINUOUS
 10
6.5225168705
 20
8.0232994494
 11
6.5313063662
 21
8.0110941386
  0
LINE
  5
21A
100
AcDbEntity
  8
0
100
AcDbLine
 62
7
  6
CONTINUOUS
 10
7.1376923427
 20
7.673233751
 11
7.1376923427
 21
7.668233751
  0
LINE
  5
21B
100
AcDbEntity
  8
0
100
AcDbLine
 62
7
  6
CONTINUOUS
 10
7.2001923427
 20
8.586233751
 11
7.2001923427
 21
8.556233751
  0
LINE
  5
21C
100
AcDbEntity
  8
0
100
AcDbLine
 62
7
  6
CONTINUOUS
 10
7.2501923427
 20
7.966233751
 11
7.2501923427
 21
7.673233751
  0
LINE
  5
21D
100
AcDbEntity
  8
0
100
AcDbLine
 62
7
  6
CONTINUOUS
 10
7.3167216946
 20
6.6681789698
 11
7.3167227945
 21
6.418233751
  0
LINE
  5
21E
100
AcDbEntity
  8
0
100
AcDbLine
 62
7
  6
CONTINUOUS
 10
7.3376923427
 20
8.461233751
 11
7.3376923427
 21
7.986233751
  0
LINE
  5
21F
100
AcDbEntity
  8
0
100
AcDbLine
 62
7
  6
CONTINUOUS
 10
6.5115720537
 20
8.0321699031
 11
6.522566181
 21
8.0232476456
  0
LINE
  5
220
100
AcDbEntity
  8
0
100
AcDbLine
 62
7
  6
CONTINUOUS
 10
7.4781923427
 20
7.3338501898
 11
7.5523263369
 21
7.2279325625
  0
LINE
  5
221
100
AcDbEntity
  8
0
100
AcDbLine
 62
7
  6
CONTINUOUS
 10
7.6786923427
 20
6.418233751
 11
7.6786923427
 21
6.356233751
  0
LINE
  5
222
100
AcDbEntity
  8
0
100
AcDbLine
 62
7
  6
CONTINUOUS
 10
7.6957524105
 20
6.6681785097
 11
7.6957532462
 21
6.418233751
  0
LINE
  5
223
100
AcDbEntity
  8
0
100
AcDbLine
 62
7
  6
CONTINUOUS
 10
5.7576923427
 20
5.981233751
 11
8.1176923427
 21
5.981233751
  0
LINE
  5
224
100
AcDbEntity
  8
0
100
AcDbLine
 62
7
  6
CONTINUOUS
 10
9.4426923427
 20
5.981233751
 11
12.4326923427
 21
5.981233751
  0
LINE
  5
225
100
AcDbEntity
  8
0
100
AcDbLine
 62
7
  6
CONTINUOUS
 10
13.7576923427
 20
5.981233751
 11
16.1176923427
 21
5.981233751
  0
LINE
  5
226
100
AcDbEntity
  8
0
100
AcDbLine
 62
7
  6
CONTINUOUS
 10
5.9376923427
 20
6.168233751
 11
7.9376923427
 21
6.168233751
  0
LINE
  5
227
100
AcDbEntity
  8
0
100
AcDbLine
 62
7
  6
CONTINUOUS
 10
13.9376923427
 20
6.168233751
 11
15.9376923427
 21
6.168233751
  0
LINE
  5
228
100
AcDbEntity
  8
0
100
AcDbLine
 62
7
  6
CONTINUOUS
 10
6.4994500057
 20
8.0377450374
 11
6.5116271512
 21
8.0321358886
  0
LINE
  5
229
100
AcDbEntity
  8
0
100
AcDbLine
 62
7
  6
CONTINUOUS
 10
6.3971923427
 20
7.3338501898
 11
6.3230583485
 21
7.2279325625
  0
LINE
  5
22A
100
AcDbEntity
  8
0
100
AcDbLine
 62
7
  6
CONTINUOUS
 10
10.5616735866
 20
12.5235064271
 11
10.5616820998
 21
12.523515096
  0
LINE
  5
22B
100
AcDbEntity
  8
0
100
AcDbLine
 62
7
  6
CONTINUOUS
 10
15.7506950166
 20
6.356233751
 11
14.1246896689
 21
6.356233751
  0
LINE
  5
22C
100
AcDbEntity
  8
0
100
AcDbLine
 62
7
  6
CONTINUOUS
 10
7.7506950166
 20
6.356233751
 11
6.1246896689
 21
6.356233751
  0
LINE
  5
22D
100
AcDbEntity
  8
0
100
AcDbLine
 62
7
  6
CONTINUOUS
 10
6.1796314393
 20
6.418233751
 11
7.6957532462
 21
6.418233751
  0
LINE
  5
22E
100
AcDbEntity
  8
0
100
AcDbLine
 62
7
  6
CONTINUOUS
 10
14.1796314393
 20
6.418233751
 11
15.6957532462
 21
6.418233751
  0
LINE
  5
22F
100
AcDbEntity
  8
0
100
AcDbLine
 62
7
  6
CONTINUOUS
 10
12.4326923427
 20
6.6211772378
 11
11.6851923427
 21
6.6211772378
  0
LINE
  5
230
100
AcDbEntity
  8
0
100
AcDbLine
 62
9
  6
CONTINUOUS
 10
11.6851923427
 20
6.6211772378
 11
10.1901923427
 21
6.6211772378
  0
LINE
  5
231
100
AcDbEntity
  8
0
100
AcDbLine
 62
7
  6
CONTINUOUS
 10
10.1901923427
 20
6.6211772378
 11
9.4426923427
 21
6.6211772378
  0
LINE
  5
232
100
AcDbEntity
  8
0
100
AcDbLine
 62
9
  6
CONTINUOUS
 10
15.5788557824
 20
6.784733751
 11
14.2965289031
 21
6.784733751
  0
LINE
  5
233
100
AcDbEntity
  8
0
100
AcDbLine
 62
9
  6
CONTINUOUS
 10
7.5788557824
 20
6.784733751
 11
6.2965289031
 21
6.784733751
  0
LINE
  5
234
100
AcDbEntity
  8
0
100
AcDbLine
 62
7
  6
CONTINUOUS
 10
15.3758704421
 20
8.0377244704
 11
15.388364947
 21
8.0401879023
  0
LINE
  5
235
100
AcDbEntity
  8
0
100
AcDbLine
 62
9
  6
CONTINUOUS
 10
6.3191923427
 20
6.999733751
 11
7.5561923427
 21
6.999733751
  0
LINE
  5
236
100
AcDbEntity
  8
0
100
AcDbLine
 62
9
  6
CONTINUOUS
 10
14.3191923427
 20
6.999733751
 11
15.5561923427
 21
6.999733751
  0
LINE
  5
237
100
AcDbEntity
  8
0
100
AcDbLine
 62
9
  6
CONTINUOUS
 10
6.3230583485
 20
7.2279325625
 11
7.5523263369
 21
7.2279325625
  0
LINE
  5
238
100
AcDbEntity
  8
0
100
AcDbLine
 62
9
  6
CONTINUOUS
 10
14.3230583485
 20
7.2279325625
 11
15.5523263369
 21
7.2279325625
  0
LINE
  5
239
100
AcDbEntity
  8
0
100
AcDbLine
 62
7
  6
CONTINUOUS
 10
6.4870197383
 20
8.0401879023
 11
6.4995142437
 21
8.0377244703
  0
LINE
  5
23A
100
AcDbEntity
  8
0
100
AcDbLine
 62
7
  6
CONTINUOUS
 10
9.4426923427
 20
6.6211772378
 11
9.4426923427
 21
5.981233751
  0
LWPOLYLINE
  5
23B
100
AcDbEntity
  8
0
100
AcDbPolyline
 62
7
  6
CONTINUOUS
 90
6
 70
0
 10
10.5616735866
 20
12.5235064271
 10
10.4881725396
 20
12.3872072056
 10
10.4107905094
 20
12.2377299789
 10
10.3431039353
 20
12.0928042172
 10
10.2866195784
 20
11.9574994212
 10
10.247599911
 20
11.8559993152
  0
LINE
  5
23C
100
AcDbEntity
  8
0
100
AcDbLine
 62
7
  6
CONTINUOUS
 10
6.2965289031
 20
6.784733751
 11
6.179634882
 21
6.6681764558
  0
LINE
  5
23D
100
AcDbEntity
  8
0
100
AcDbLine
 62
9
  6
CONTINUOUS
 10
15.4781923427
 20
7.3338501898
 11
14.3971923427
 21
7.3338501898
  0
LINE
  5
23E
100
AcDbEntity
  8
0
100
AcDbLine
 62
9
  6
CONTINUOUS
 10
7.4781923427
 20
7.3338501898
 11
6.3971923427
 21
7.3338501898
  0
LINE
  5
23F
100
AcDbEntity
  8
0
100
AcDbLine
 62
9
  6
CONTINUOUS
 10
15.3674320703
 20
7.6398329937
 11
14.5079526152
 21
7.6398329937
  0
LINE
  5
240
100
AcDbEntity
  8
0
100
AcDbLine
 62
9
  6
CONTINUOUS
 10
7.3674320703
 20
7.6398329937
 11
6.5079526152
 21
7.6398329937
  0
LINE
  5
241
100
AcDbEntity
  8
0
100
AcDbLine
 62
7
  6
CONTINUOUS
 10
15.3365412312
 20
7.668233751
 11
14.5388434542
 21
7.668233751
  0
LINE
  5
242
100
AcDbEntity
  8
0
100
AcDbLine
 62
7
  6
CONTINUOUS
 10
7.3365412312
 20
7.668233751
 11
6.5388434542
 21
7.668233751
  0
LINE
  5
243
100
AcDbEntity
  8
0
100
AcDbLine
 62
7
  6
CONTINUOUS
 10
6.6251923427
 20
7.673233751
 11
7.2501923427
 21
7.673233751
  0
LINE
  5
244
100
AcDbEntity
  8
0
100
AcDbLine
 62
7
  6
CONTINUOUS
 10
14.6251923427
 20
7.673233751
 11
15.2501923427
 21
7.673233751
  0
LINE
  5
245
100
AcDbEntity
  8
0
100
AcDbLine
 62
7
  6
CONTINUOUS
 10
15.3882893157
 20
8.0401819144
 11
15.3928802486
 21
8.040357524
  0
LWPOLYLINE
  5
246
100
AcDbEntity
  8
0
100
AcDbPolyline
 62
7
  6
CONTINUOUS
 90
4
 70
0
 10
17.7466279335
 20
8.4774775482
 10
17.0278541502
 20
8.4564183242
 10
16.2255297953
 20
8.430377444
 10
15.3943308267
 20
8.4040486472
  0
LWPOLYLINE
  5
247
100
AcDbEntity
  8
0
100
AcDbPolyline
 62
7
  6
CONTINUOUS
 90
4
 70
0
 10
4.1277070057
 20
8.0286558733
 10
4.8471835709
 20
8.0308504858
 10
5.6503556344
 20
8.0358405692
 10
6.482504113
 20
8.0403575941
  0
LINE
  5
248
100
AcDbEntity
  8
0
100
AcDbLine
 62
9
  6
CONTINUOUS
 10
15.2501923427
 20
7.966233751
 11
14.6252380081
 21
7.966233751
  0
LINE
  5
249
100
AcDbEntity
  8
0
100
AcDbLine
 62
9
  6
CONTINUOUS
 10
7.2501923427
 20
7.966233751
 11
6.6252380081
 21
7.966233751
  0
LINE
  5
24A
100
AcDbEntity
  8
0
100
AcDbLine
 62
7
  6
CONTINUOUS
 10
6.5376922329
 20
7.986233751
 11
7.3376923427
 21
7.986233751
  0
LINE
  5
24B
100
AcDbEntity
  8
0
100
AcDbLine
 62
7
  6
CONTINUOUS
 10
14.5376923427
 20
7.986233751
 11
15.3376924517
 21
7.986233751
  0
LINE
  5
24C
100
AcDbEntity
  8
0
100
AcDbLine
 62
9
  6
CONTINUOUS
 10
4.1290949424
 20
8.0859059913
 11
4.0876923427
 21
8.0859059913
  0
LINE
  5
24D
100
AcDbEntity
  8
0
100
AcDbLine
 62
9
  6
CONTINUOUS
 10
17.7462897436
 20
8.0859059913
 11
17.7876923427
 21
8.0859059913
  0
LWPOLYLINE
  5
24E
100
AcDbEntity
  8
0
100
AcDbPolyline
 62
7
  6
CONTINUOUS
 90
4
 70
0
 10
15.3928805724
 20
8.0403575941
 10
16.2250290562
 20
8.0358405691
 10
17.028201117
 20
8.0308504858
 10
17.7476776797
 20
8.0286558733
  0
LWPOLYLINE
  5
24F
100
AcDbEntity
  8
0
100
AcDbPolyline
 62
7
  6
CONTINUOUS
 90
4
 70
0
 10
6.4810538588
 20
8.4040486472
 10
5.6498548902
 20
8.430377444
 10
4.8475305353
 20
8.4564183242
 10
4.128756752
 20
8.4774775482
  0
LINE
  5
250
100
AcDbEntity
  8
0
100
AcDbLine
 62
7
  6
CONTINUOUS
 10
6.4825046129
 20
8.040357495
 11
6.48709537
 21
8.0401819144
  0
LINE
  5
251
100
AcDbEntity
  8
0
100
AcDbLine
 62
7
  6
CONTINUOUS
 10
10.2055767173
 20
10.76803162
 11
10.205192343
 21
10.753033751
  0
LINE
  5
252
100
AcDbEntity
  8
0
100
AcDbLine
 62
9
  6
CONTINUOUS
 10
4.1290949424
 20
8.4202376921
 11
4.0876923427
 21
8.4202376921
  0
LINE
  5
253
100
AcDbEntity
  8
0
100
AcDbLine
 62
9
  6
CONTINUOUS
 10
17.7462897436
 20
8.4202376921
 11
17.7876923427
 21
8.4202376921
  0
LINE
  5
254
100
AcDbEntity
  8
0
100
AcDbLine
 62
7
  6
CONTINUOUS
 10
15.3376923427
 20
8.461233751
 11
14.5376923427
 21
8.461233751
  0
LINE
  5
255
100
AcDbEntity
  8
0
100
AcDbLine
 62
7
  6
CONTINUOUS
 10
7.3376923427
 20
8.461233751
 11
6.5376923427
 21
8.461233751
  0
LINE
  5
256
100
AcDbEntity
  8
0
100
AcDbLine
 62
9
  6
CONTINUOUS
 10
10.5626923427
 20
8.5360369093
 11
11.3126923427
 21
8.5360369093
  0
LINE
  5
257
100
AcDbEntity
  8
0
100
AcDbLine
 62
7
  6
CONTINUOUS
 10
15.2501923427
 20
8.536233751
 11
14.6251923427
 21
8.536233751
  0
LINE
  5
258
100
AcDbEntity
  8
0
100
AcDbLine
 62
7
  6
CONTINUOUS
 10
7.2501923427
 20
8.536233751
 11
6.6251923427
 21
8.536233751
  0
LINE
  5
259
100
AcDbEntity
  8
0
100
AcDbLine
 62
9
  6
CONTINUOUS
 10
6.6752520757
 20
8.556233751
 11
7.2001923427
 21
8.556233751
  0
LINE
  5
25A
100
AcDbEntity
  8
0
100
AcDbLine
 62
9
  6
CONTINUOUS
 10
14.6752520757
 20
8.556233751
 11
15.2001923427
 21
8.556233751
  0
LINE
  5
25B
100
AcDbEntity
  8
0
100
AcDbLine
 62
7
  6
CONTINUOUS
 10
15.2001923427
 20
8.586233751
 11
14.6751923427
 21
8.586233751
  0
LINE
  5
25C
100
AcDbEntity
  8
0
100
AcDbLine
 62
7
  6
CONTINUOUS
 10
7.2001923427
 20
8.586233751
 11
6.6751923427
 21
8.586233751
  0
LINE
  5
25D
100
AcDbEntity
  8
0
100
AcDbLine
 62
7
  6
CONTINUOUS
 10
10.5626921539
 20
10.6443322028
 11
10.5626923427
 21
8.5360369093
  0
LINE
  5
25E
100
AcDbEntity
  8
0
100
AcDbLine
 62
9
  6
CONTINUOUS
 10
10.9376923423
 20
10.8802310412
 11
10.9376923427
 21
12.5541425349
  0
LINE
  5
25F
100
AcDbEntity
  8
0
100
AcDbLine
 62
9
  6
CONTINUOUS
 10
10.5521150013
 20
10.8611827456
 11
10.5539489161
 21
11.1900243649
  0
LINE
  5
260
100
AcDbEntity
  8
0
100
AcDbLine
 62
9
  6
CONTINUOUS
 10
11.3232701822
 20
10.861182692
 11
11.3214353955
 21
11.190024324
  0
LINE
  5
261
100
AcDbEntity
  8
0
100
AcDbLine
 62
7
  6
CONTINUOUS
 10
11.3126923427
 20
8.5360369093
 11
11.312692473
 21
10.6443322012
  0
LINE
  5
262
100
AcDbEntity
  8
0
100
AcDbLine
 62
7
  6
CONTINUOUS
 10
11.6698082309
 20
10.7680213726
 11
11.6701923425
 21
10.753033751
  0
LINE
  5
263
100
AcDbEntity
  8
0
100
AcDbLine
 62
7
  6
CONTINUOUS
 10
11.7459827196
 20
10.026233751
 11
11.6646362763
 21
10.026233751
  0
LINE
  5
264
100
AcDbEntity
  8
0
100
AcDbLine
 62
7
  6
CONTINUOUS
 10
10.2107650112
 20
10.026233751
 11
10.1294019659
 21
10.026233751
  0
LINE
  5
265
100
AcDbEntity
  8
0
100
AcDbLine
 62
7
  6
CONTINUOUS
 10
12.4326923427
 20
6.6211772378
 11
12.4326923427
 21
5.981233751
  0
LINE
  5
266
100
AcDbEntity
  8
0
100
AcDbLine
 62
7
  6
CONTINUOUS
 10
15.5788557824
 20
6.784733751
 11
15.6957488268
 21
6.6681774297
  0
LWPOLYLINE
  5
267
100
AcDbEntity
  8
0
100
AcDbPolyline
 62
7
  6
CONTINUOUS
 90
6
 70
0
 10
11.6277819657
 20
11.8560068353
 10
11.5878223059
 20
11.9594187154
 10
11.5310602312
 20
12.0946273215
 10
11.463967305
 20
12.239843792
 10
11.3877567763
 20
12.3898236125
 10
11.3137105402
 20
12.5235074491
  0
LINE
  5
268
100
AcDbEntity
  8
0
100
AcDbLine
 62
7
  6
CONTINUOUS
 10
15.3637575348
 20
8.032135889
 11
15.3759346797
 21
8.0377450374
  0
LINE
  5
269
100
AcDbEntity
  8
0
100
AcDbLine
 62
7
  6
CONTINUOUS
 10
11.3137105402
 20
12.5235074491
 11
11.3137024565
 21
12.5235151133
  0
LINE
  5
26A
100
AcDbEntity
  8
0
100
AcDbLine
 62
7
  6
CONTINUOUS
 10
15.4781923427
 20
7.3338501898
 11
15.5523263369
 21
7.2279325625
  0
LINE
  5
26B
100
AcDbEntity
  8
0
100
AcDbLine
 62
7
  6
CONTINUOUS
 10
14.1796320909
 20
6.6681772944
 11
14.1796314393
 21
6.418233751
  0
LINE
  5
26C
100
AcDbEntity
  8
0
100
AcDbLine
 62
7
  6
CONTINUOUS
 10
14.1966923427
 20
6.418233751
 11
14.1966923427
 21
6.356233751
  0
LINE
  5
26D
100
AcDbEntity
  8
0
100
AcDbLine
 62
7
  6
CONTINUOUS
 10
14.5376923427
 20
8.461233751
 11
14.5376923427
 21
7.986233751
  0
LWPOLYLINE
  5
26E
100
AcDbEntity
  8
0
100
AcDbPolyline
 62
7
  6
CONTINUOUS
 90
4
 70
0
 10
10.9376923427
 20
12.5541425367
 10
10.8271101584
 20
12.5508835044
 10
10.6868012281
 20
12.5389209541
 10
10.5616820998
 20
12.523515096
  0
LWPOLYLINE
  5
26F
100
AcDbEntity
  8
0
100
AcDbPolyline
 62
7
  6
CONTINUOUS
 90
4
 70
0
 10
11.3137024565
 20
12.5235151133
 10
11.1868012917
 20
12.5403477415
 10
11.0464770664
 20
12.5514428787
 10
10.9376923427
 20
12.5541425349
  0
LINE
  5
270
100
AcDbEntity
  8
0
100
AcDbLine
 62
7
  6
CONTINUOUS
 10
14.5586611396
 20
6.6681789697
 11
14.558661891
 21
6.418233751
  0
LINE
  5
271
100
AcDbEntity
  8
0
100
AcDbLine
 62
7
  6
CONTINUOUS
 10
14.6251923427
 20
7.966233751
 11
14.6251923427
 21
7.673233751
  0
LINE
  5
272
100
AcDbEntity
  8
0
100
AcDbLine
 62
7
  6
CONTINUOUS
 10
14.6751923427
 20
8.586233751
 11
14.6751923427
 21
8.556233751
  0
LINE
  5
273
100
AcDbEntity
  8
0
100
AcDbLine
 62
7
  6
CONTINUOUS
 10
14.7376923427
 20
7.673233751
 11
14.7376923427
 21
7.668233751
  0
LINE
  5
274
100
AcDbEntity
  8
0
100
AcDbLine
 62
7
  6
CONTINUOUS
 10
14.3971923427
 20
7.3338501898
 11
14.3230583485
 21
7.2279325625
  0
LINE
  5
275
100
AcDbEntity
  8
0
100
AcDbLine
 62
7
  6
CONTINUOUS
 10
15.352818505
 20
8.0232476462
 11
15.3638126317
 21
8.0321699031
  0
LINE
  5
276
100
AcDbEntity
  8
0
100
AcDbLine
 62
7
  6
CONTINUOUS
 10
15.1376923427
 20
7.673233751
 11
15.1376923427
 21
7.668233751
  0
LINE
  5
277
100
AcDbEntity
  8
0
100
AcDbLine
 62
7
  6
CONTINUOUS
 10
15.2001923427
 20
8.586233751
 11
15.2001923427
 21
8.556233751
  0
LINE
  5
278
100
AcDbEntity
  8
0
100
AcDbLine
 62
7
  6
CONTINUOUS
 10
15.2501923427
 20
7.966233751
 11
15.2501923427
 21
7.673233751
  0
LINE
  5
279
100
AcDbEntity
  8
0
100
AcDbLine
 62
9
  6
CONTINUOUS
 10
15.2609824653
 20
8.4400659215
 11
15.2609824653
 21
8.0020258391
  0
LINE
  5
27A
100
AcDbEntity
  8
0
100
AcDbLine
 62
9
  6
CONTINUOUS
 10
15.3073637039
 20
8.077565582
 11
15.3073637039
 21
8.3656051823
  0
LINE
  5
27B
100
AcDbEntity
  8
0
100
AcDbLine
 62
7
  6
CONTINUOUS
 10
15.3167216946
 20
6.6681789698
 11
15.3167227945
 21
6.418233751
  0
LINE
  5
27C
100
AcDbEntity
  8
0
100
AcDbLine
 62
7
  6
CONTINUOUS
 10
15.3376923427
 20
8.461233751
 11
15.3376923427
 21
8.4590242361
  0
LINE
  5
27D
100
AcDbEntity
  8
0
100
AcDbLine
 62
7
  6
CONTINUOUS
 10
15.3376923604
 20
7.986233751
 11
15.338742786
 21
7.996090855
  0
LINE
  5
27E
100
AcDbEntity
  8
0
100
AcDbLine
 62
7
  6
CONTINUOUS
 10
15.338742786
 20
7.996090855
 11
15.3441102182
 21
8.0111542816
  0
LINE
  5
27F
100
AcDbEntity
  8
0
100
AcDbLine
 62
7
  6
CONTINUOUS
 10
15.3440783197
 20
8.0110941394
 11
15.352867815
 21
8.0232994493
  0
LINE
  5
280
100
AcDbEntity
  8
0
100
AcDbLine
 62
7
  6
CONTINUOUS
 10
14.2965289031
 20
6.784733751
 11
14.179634882
 21
6.6681764558
  0
LINE
  5
281
100
AcDbEntity
  8
0
100
AcDbLine
 62
7
  6
CONTINUOUS
 10
15.6786923427
 20
6.418233751
 11
15.6786923427
 21
6.356233751
  0
LINE
  5
282
100
AcDbEntity
  8
0
100
AcDbLine
 62
7
  6
CONTINUOUS
 10
15.6957524105
 20
6.6681785097
 11
15.6957532462
 21
6.418233751
  0
LINE
  5
283
100
AcDbEntity
  8
0
100
AcDbLine
 62
9
  6
CONTINUOUS
 10
17.7476776791
 20
8.0286511045
 11
17.7475243018
 21
8.0462614976
  0
LINE
  5
284
100
AcDbEntity
  8
0
100
AcDbLine
 62
9
  6
CONTINUOUS
 10
17.7462897895
 20
8.4202311235
 11
17.7462896978
 21
8.0859123491
  0
LINE
  5
285
100
AcDbEntity
  8
0
100
AcDbLine
 62
7
  6
CONTINUOUS
 10
17.7876923427
 20
8.0686554488
 11
17.787691911
 21
8.4374964589
  0
LINE
  5
286
100
AcDbEntity
  8
0
100
AcDbLine
 62
9
  6
CONTINUOUS
 10
17.7464842888
 20
8.4598642734
 11
17.7466278889
 21
8.4774823261
  0
ARC
  5
287
100
AcDbEntity
  8
0
100
AcDbCircle
 62
9
  6
CONTINUOUS
 10
6.9879367294
 20
5.5689792756
 40
2.5225346421
100
AcDbArc
 50
100.674231151
 51
101.4613532275
  0
ARC
  5
288
100
AcDbEntity
  8
0
100
AcDbCircle
 62
9
  6
CONTINUOUS
 10
6.9880523896
 20
6.0974320358
 40
1.940899817
100
AcDbArc
 50
101.0995160575
 51
103.3051216163
  0
ARC
  5
289
100
AcDbEntity
  8
0
100
AcDbCircle
 62
7
  6
CONTINUOUS
 10
7.9902312448
 20
7.6922370795
 40
0.625
100
AcDbArc
 50
184.8096995456
 51
214.9889904701
  0
ARC
  5
28A
100
AcDbEntity
  8
0
100
AcDbCircle
 62
7
  6
CONTINUOUS
 10
5.8851534407
 20
7.6922370795
 40
0.625
100
AcDbArc
 50
325.0110095299
 51
355.1903004544
  0
ARC
  5
28B
100
AcDbEntity
  8
0
100
AcDbCircle
 62
7
  6
CONTINUOUS
 10
7.3852172217
 20
7.1109693478
 40
0.2039751211
100
AcDbArc
 50
326.9521644937
 51
34.9889904703
  0
ARC
  5
28C
100
AcDbEntity
  8
0
100
AcDbCircle
 62
7
  6
CONTINUOUS
 10
6.4901674638
 20
7.1109693478
 40
0.2039751211
100
AcDbArc
 50
145.0110095297
 51
213.0478355063
  0
ARC
  5
28D
100
AcDbEntity
  8
0
100
AcDbCircle
 62
7
  6
CONTINUOUS
 10
5.9446922968
 20
5.9813648112
 40
0.187
100
AcDbArc
 50
92.1452489224
 51
180.0401561489
  0
ARC
  5
28E
100
AcDbEntity
  8
0
100
AcDbCircle
 62
7
  6
CONTINUOUS
 10
7.9306923887
 20
5.9813648112
 40
0.187
100
AcDbArc
 50
359.9598438511
 51
87.8547510776
  0
ARC
  5
28F
100
AcDbEntity
  8
0
100
AcDbCircle
 62
7
  6
CONTINUOUS
 10
7.7506950166
 20
6.169233751
 40
0.187
100
AcDbArc
 50
359.6936039968
 51
90.0
  0
ARC
  5
290
100
AcDbEntity
  8
0
100
AcDbCircle
 62
7
  6
CONTINUOUS
 10
6.1246896689
 20
6.169233751
 40
0.187
100
AcDbArc
 50
90.0
 51
180.3063960032
  0
ARC
  5
291
100
AcDbEntity
  8
0
100
AcDbCircle
 62
7
  6
CONTINUOUS
 10
6.1754178091
 20
6.9061947264
 40
0.1715245336
100
AcDbArc
 50
314.9173576842
 51
33.0478355064
  0
ARC
  5
292
100
AcDbEntity
  8
0
100
AcDbCircle
 62
7
  6
CONTINUOUS
 10
7.6999668764
 20
6.9061947264
 40
0.1715245336
100
AcDbArc
 50
146.9521644936
 51
225.0826423158
  0
ARC
  5
293
100
AcDbEntity
  8
0
100
AcDbCircle
 62
7
  6
CONTINUOUS
 10
6.4819375646
 20
7.9848813834
 40
0.055882763
100
AcDbArc
 50
32.8895758629
 51
39.6118920858
  0
ARC
  5
294
100
AcDbEntity
  8
0
100
AcDbCircle
 62
7
  6
CONTINUOUS
 10
6.4822490512
 20
7.9846020613
 40
0.0558633365
100
AcDbArc
 50
50.7557126383
 51
56.2072493737
  0
ARC
  5
295
100
AcDbEntity
  8
0
100
AcDbCircle
 62
7
  6
CONTINUOUS
 10
6.4820071525
 20
7.9848923129
 40
0.0558184011
100
AcDbArc
 50
23.209379662
 51
32.9189430621
  0
ARC
  5
296
100
AcDbEntity
  8
0
100
AcDbCircle
 62
7
  6
CONTINUOUS
 10
6.4826292529
 20
7.9849161755
 40
0.0554435159
100
AcDbArc
 50
72.5294859327
 51
85.9966913392
  0
ARC
  5
297
100
AcDbEntity
  8
0
100
AcDbCircle
 62
7
  6
CONTINUOUS
 10
6.4822937693
 20
7.9852975016
 40
0.0554064708
100
AcDbArc
 50
0.9682209686
 51
15.2348125983
  0
ARC
  5
298
100
AcDbEntity
  8
0
100
AcDbCircle
 62
7
  6
CONTINUOUS
 10
6.4826918011
 20
7.9859694108
 40
0.0543884849
100
AcDbArc
 50
85.9849610071
 51
90.1977167262
  0
ARC
  5
299
100
AcDbEntity
  8
0
100
AcDbCircle
 62
7
  6
CONTINUOUS
 10
6.4837571517
 20
7.985722994
 40
0.0538827133
100
AcDbArc
 50
15.2071674632
 51
23.1309119549
  0
ARC
  5
29A
100
AcDbEntity
  8
0
100
AcDbCircle
 62
7
  6
CONTINUOUS
 10
6.4837928415
 20
7.9864658213
 40
0.0534432943
100
AcDbArc
 50
39.5714465094
 51
50.7734345364
  0
ARC
  5
29B
100
AcDbEntity
  8
0
100
AcDbCircle
 62
7
  6
CONTINUOUS
 10
7.3365412312
 20
7.637233751
 40
0.031
100
AcDbArc
 50
4.8096995456
 51
90.0
  0
ARC
  5
29C
100
AcDbEntity
  8
0
100
AcDbCircle
 62
7
  6
CONTINUOUS
 10
6.5388434542
 20
7.637233751
 40
0.031
100
AcDbArc
 50
90.0
 51
175.1903004544
  0
ARC
  5
29D
100
AcDbEntity
  8
0
100
AcDbCircle
 62
7
  6
CONTINUOUS
 10
7.2701923427
 20
7.966233751
 40
0.02
100
AcDbArc
 50
90.0
 51
180.0
  0
ARC
  5
29E
100
AcDbEntity
  8
0
100
AcDbCircle
 62
7
  6
CONTINUOUS
 10
6.6051923427
 20
7.966233751
 40
0.02
100
AcDbArc
 50
0.0
 51
90.0
  0
ARC
  5
29F
100
AcDbEntity
  8
0
100
AcDbCircle
 62
7
  6
CONTINUOUS
 10
-1.187434427
 20
10.5466185342
 40
11.3288457343
100
AcDbArc
 50
353.4323787374
 51
353.9641242395
  0
ARC
  5
2A0
100
AcDbEntity
  8
0
100
AcDbCircle
 62
7
  6
CONTINUOUS
 10
-1.1287265034
 20
10.5411170366
 40
11.2698848057
100
AcDbArc
 50
353.9605542349
 51
357.3814547128
  0
ARC
  5
2A1
100
AcDbEntity
  8
0
100
AcDbCircle
 62
9
  6
CONTINUOUS
 10
7.0665799484
 20
10.4358923962
 40
2.0464095221
100
AcDbArc
 50
255.3111604521
 51
257.2344888313
  0
ARC
  5
2A2
100
AcDbEntity
  8
0
100
AcDbCircle
 62
9
  6
CONTINUOUS
 10
6.9482377277
 20
9.9846996083
 40
1.5799534795
100
AcDbArc
 50
255.123060929
 51
255.3135436813
  0
ARC
  5
2A3
100
AcDbEntity
  8
0
100
AcDbCircle
 62
7
  6
CONTINUOUS
 10
7.3251923427
 20
8.536233751
 40
0.075
100
AcDbArc
 50
180.0
 51
270.0
  0
ARC
  5
2A4
100
AcDbEntity
  8
0
100
AcDbCircle
 62
7
  6
CONTINUOUS
 10
6.5501923427
 20
8.536233751
 40
0.075
100
AcDbArc
 50
270.0
 51
360.0
  0
ARC
  5
2A5
100
AcDbEntity
  8
0
100
AcDbCircle
 62
7
  6
CONTINUOUS
 10
6.4826661615
 20
8.4590515148
 40
0.0550276506
100
AcDbArc
 50
268.3209657091
 51
359.9714075884
  0
ARC
  5
2A6
100
AcDbEntity
  8
0
100
AcDbCircle
 62
7
  6
CONTINUOUS
 10
4.127692808
 20
8.0686511243
 40
0.0400000223
100
AcDbArc
 50
180.0
 51
270.0203376946
  0
ARC
  5
2A7
100
AcDbEntity
  8
0
100
AcDbCircle
 62
7
  6
CONTINUOUS
 10
4.1276927956
 20
8.4374964589
 40
0.040000021
100
AcDbArc
 50
88.4757517821
 51
180.0
  0
ARC
  5
2A8
100
AcDbEntity
  8
0
100
AcDbCircle
 62
9
  6
CONTINUOUS
 10
4.1272132066
 20
8.4202055652
 40
0.0395212867
100
AcDbArc
 50
161.6324873588
 51
179.9554317728
  0
ARC
  5
2A9
100
AcDbEntity
  8
0
100
AcDbCircle
 62
9
  6
CONTINUOUS
 10
4.1272056232
 20
8.0859365238
 40
0.0395132913
100
AcDbArc
 50
180.042490246
 51
198.0398653815
  0
ARC
  5
2AA
100
AcDbEntity
  8
0
100
AcDbCircle
 62
7
  6
CONTINUOUS
 10
6.6551923427
 20
8.556233751
 40
0.02
100
AcDbArc
 50
270.0
 51
360.0
  0
ARC
  5
2AB
100
AcDbEntity
  8
0
100
AcDbCircle
 62
7
  6
CONTINUOUS
 10
7.2201923427
 20
8.556233751
 40
0.02
100
AcDbArc
 50
180.0
 51
270.0
  0
ARC
  5
2AC
100
AcDbEntity
  8
0
100
AcDbCircle
 62
9
  6
CONTINUOUS
 10
14.8865242779
 20
5.5641916976
 40
2.52741014
100
AcDbArc
 50
78.5397081033
 51
79.3253337699
  0
ARC
  5
2AD
100
AcDbEntity
  8
0
100
AcDbCircle
 62
9
  6
CONTINUOUS
 10
14.8873451203
 20
6.0974910113
 40
1.9408394412
100
AcDbArc
 50
76.6948447279
 51
78.900512465
  0
ARC
  5
2AE
100
AcDbEntity
  8
0
100
AcDbCircle
 62
7
  6
CONTINUOUS
 10
15.9902312448
 20
7.6922370795
 40
0.625
100
AcDbArc
 50
184.8096995456
 51
214.9889904701
  0
ARC
  5
2AF
100
AcDbEntity
  8
0
100
AcDbCircle
 62
7
  6
CONTINUOUS
 10
13.8851534407
 20
7.6922370795
 40
0.625
100
AcDbArc
 50
325.0110095299
 51
355.1903004544
  0
ARC
  5
2B0
100
AcDbEntity
  8
0
100
AcDbCircle
 62
7
  6
CONTINUOUS
 10
15.3852172217
 20
7.1109693478
 40
0.2039751211
100
AcDbArc
 50
326.9521644937
 51
34.9889904703
  0
ARC
  5
2B1
100
AcDbEntity
  8
0
100
AcDbCircle
 62
7
  6
CONTINUOUS
 10
14.4901674638
 20
7.1109693478
 40
0.2039751211
100
AcDbArc
 50
145.0110095297
 51
213.0478355063
  0
ARC
  5
2B2
100
AcDbEntity
  8
0
100
AcDbCircle
 62
7
  6
CONTINUOUS
 10
13.9446922968
 20
5.9813648112
 40
0.187
100
AcDbArc
 50
92.1452489224
 51
180.0401561489
  0
ARC
  5
2B3
100
AcDbEntity
  8
0
100
AcDbCircle
 62
7
  6
CONTINUOUS
 10
15.9306923887
 20
5.9813648112
 40
0.187
100
AcDbArc
 50
359.9598438511
 51
87.8547510776
  0
ARC
  5
2B4
100
AcDbEntity
  8
0
100
AcDbCircle
 62
7
  6
CONTINUOUS
 10
15.7506950166
 20
6.169233751
 40
0.187
100
AcDbArc
 50
359.6936039968
 51
90.0
  0
ARC
  5
2B5
100
AcDbEntity
  8
0
100
AcDbCircle
 62
7
  6
CONTINUOUS
 10
14.1246896689
 20
6.169233751
 40
0.187
100
AcDbArc
 50
90.0
 51
180.3063960032
  0
ARC
  5
2B6
100
AcDbEntity
  8
0
100
AcDbCircle
 62
7
  6
CONTINUOUS
 10
14.1754178091
 20
6.9061947264
 40
0.1715245336
100
AcDbArc
 50
314.9173576842
 51
33.0478355064
  0
ARC
  5
2B7
100
AcDbEntity
  8
0
100
AcDbCircle
 62
7
  6
CONTINUOUS
 10
15.6999668764
 20
6.9061947264
 40
0.1715245336
100
AcDbArc
 50
146.9521644936
 51
225.0826423158
  0
ARC
  5
2B8
100
AcDbEntity
  8
0
100
AcDbCircle
 62
7
  6
CONTINUOUS
 10
15.3934471209
 20
7.9848813833
 40
0.0558827631
100
AcDbArc
 50
140.3881079451
 51
147.110424145
  0
ARC
  5
2B9
100
AcDbEntity
  8
0
100
AcDbCircle
 62
7
  6
CONTINUOUS
 10
15.3931356343
 20
7.9846020613
 40
0.0558633364
100
AcDbArc
 50
123.7927506604
 51
129.2442873531
  0
ARC
  5
2BA
100
AcDbEntity
  8
0
100
AcDbCircle
 62
7
  6
CONTINUOUS
 10
15.393377533
 20
7.9848923129
 40
0.0558184011
100
AcDbArc
 50
147.0810569459
 51
156.7906203635
  0
ARC
  5
2BB
100
AcDbEntity
  8
0
100
AcDbCircle
 62
7
  6
CONTINUOUS
 10
15.3927554327
 20
7.9849161753
 40
0.0554435162
100
AcDbArc
 50
94.004096025
 51
107.4705138876
  0
ARC
  5
2BC
100
AcDbEntity
  8
0
100
AcDbCircle
 62
7
  6
CONTINUOUS
 10
15.3930909162
 20
7.9852975016
 40
0.0554064708
100
AcDbArc
 50
164.7651874077
 51
179.0317790304
  0
ARC
  5
2BD
100
AcDbEntity
  8
0
100
AcDbCircle
 62
7
  6
CONTINUOUS
 10
15.3926928858
 20
7.9859692931
 40
0.0543886026
100
AcDbArc
 50
89.8022850536
 51
94.0158342421
  0
ARC
  5
2BE
100
AcDbEntity
  8
0
100
AcDbCircle
 62
7
  6
CONTINUOUS
 10
15.3916275338
 20
7.985722994
 40
0.0538827133
100
AcDbArc
 50
156.8690880724
 51
164.7928325427
  0
ARC
  5
2BF
100
AcDbEntity
  8
0
100
AcDbCircle
 62
7
  6
CONTINUOUS
 10
15.391591844
 20
7.9864658213
 40
0.0534432943
100
AcDbArc
 50
129.2265654565
 51
140.4285535234
  0
ARC
  5
2C0
100
AcDbEntity
  8
0
100
AcDbCircle
 62
7
  6
CONTINUOUS
 10
15.3365412312
 20
7.637233751
 40
0.031
100
AcDbArc
 50
4.8096995456
 51
90.0
  0
ARC
  5
2C1
100
AcDbEntity
  8
0
100
AcDbCircle
 62
7
  6
CONTINUOUS
 10
14.5388434542
 20
7.637233751
 40
0.031
100
AcDbArc
 50
90.0
 51
175.1903004544
  0
ARC
  5
2C2
100
AcDbEntity
  8
0
100
AcDbCircle
 62
7
  6
CONTINUOUS
 10
14.6051923427
 20
7.966233751
 40
0.02
100
AcDbArc
 50
0.0
 51
90.0
  0
ARC
  5
2C3
100
AcDbEntity
  8
0
100
AcDbCircle
 62
7
  6
CONTINUOUS
 10
15.2701923427
 20
7.966233751
 40
0.02
100
AcDbArc
 50
90.0
 51
180.0
  0
ARC
  5
2C4
100
AcDbEntity
  8
0
100
AcDbCircle
 62
7
  6
CONTINUOUS
 10
23.0629639243
 20
10.5465791279
 40
11.3289759822
100
AcDbArc
 50
186.0356426509
 51
186.5684494762
  0
ARC
  5
2C5
100
AcDbEntity
  8
0
100
AcDbCircle
 62
7
  6
CONTINUOUS
 10
23.0205717608
 20
10.5423127016
 40
11.2863702117
100
AcDbArc
 50
182.6208068732
 51
186.0367322691
  0
ARC
  5
2C6
100
AcDbEntity
  8
0
100
AcDbCircle
 62
9
  6
CONTINUOUS
 10
14.8194126802
 20
10.3922982083
 40
2.0015474914
100
AcDbArc
 50
282.7451041016
 51
284.7115470203
  0
ARC
  5
2C7
100
AcDbEntity
  8
0
100
AcDbCircle
 62
9
  6
CONTINUOUS
 10
14.9492503634
 20
9.9009434599
 40
1.4933300257
100
AcDbArc
 50
284.6808447296
 51
284.8824019609
  0
ARC
  5
2C8
100
AcDbEntity
  8
0
100
AcDbCircle
 62
7
  6
CONTINUOUS
 10
14.5501923427
 20
8.536233751
 40
0.075
100
AcDbArc
 50
270.0
 51
360.0
  0
ARC
  5
2C9
100
AcDbEntity
  8
0
100
AcDbCircle
 62
7
  6
CONTINUOUS
 10
15.3251923427
 20
8.536233751
 40
0.075
100
AcDbArc
 50
180.0
 51
270.0
  0
ARC
  5
2CA
100
AcDbEntity
  8
0
100
AcDbCircle
 62
7
  6
CONTINUOUS
 10
15.3927185239
 20
8.4590515148
 40
0.0550276505
100
AcDbArc
 50
180.0286268422
 51
271.6790343242
  0
ARC
  5
2CB
100
AcDbEntity
  8
0
100
AcDbCircle
 62
7
  6
CONTINUOUS
 10
17.7476918775
 20
8.0686511243
 40
0.0400000223
100
AcDbArc
 50
269.9796623054
 51
360.0
  0
ARC
  5
2CC
100
AcDbEntity
  8
0
100
AcDbCircle
 62
7
  6
CONTINUOUS
 10
17.7476918899
 20
8.4374964589
 40
0.040000021
100
AcDbArc
 50
0.0
 51
91.5242482179
  0
ARC
  5
2CD
100
AcDbEntity
  8
0
100
AcDbCircle
 62
9
  6
CONTINUOUS
 10
17.7481726992
 20
8.4202057772
 40
0.0395196551
100
AcDbArc
 50
0.0438933
 51
18.317446115
  0
ARC
  5
2CE
100
AcDbEntity
  8
0
100
AcDbCircle
 62
9
  6
CONTINUOUS
 10
17.7481781405
 20
8.0859365744
 40
0.0395146381
100
AcDbArc
 50
341.9267701783
 51
359.9580261383
  0
ARC
  5
2CF
100
AcDbEntity
  8
0
100
AcDbCircle
 62
7
  6
CONTINUOUS
 10
15.2201923427
 20
8.556233751
 40
0.02
100
AcDbArc
 50
180.0
 51
270.0
  0
ARC
  5
2D0
100
AcDbEntity
  8
0
100
AcDbCircle
 62
7
  6
CONTINUOUS
 10
14.6551923427
 20
8.556233751
 40
0.02
100
AcDbArc
 50
270.0
 51
360.0
  0
ARC
  5
2D1
100
AcDbEntity
  8
0
100
AcDbCircle
 62
7
  6
CONTINUOUS
 10
237.0656508949
 20
61.8797870635
 40
231.3216131971
100
AcDbArc
 50
193.1243709409
 51
193.2930997469
  0
SPLINE
  5
2D2
100
AcDbEntity
  8
0
100
AcDbSpline
 62
7
  6
CONTINUOUS
 70
0
 71
3
 72
9
 73
5
 74
0
 42
0.0000001
 43
0.0000001
 44
0.0000000001
 40
0.0
 40
0.0
 40
0.0
 40
0.0
 40
0.4939152283
 40
1.0
 40
1.0
 40
1.0
 40
1.0
 10
6.4992742254
 20
8.0378021694
 30
0.0
 10
6.5017286963
 20
8.037027417
 30
0.0
 10
6.5065898191
 20
8.0350951218
 30
0.0
 10
6.5111281142
 20
8.032494549
 30
0.0
 10
6.5133197065
 20
8.0310275579
 30
0.0
  0
SPLINE
  5
2D3
100
AcDbEntity
  8
0
100
AcDbSpline
 62
9
  6
CONTINUOUS
 70
0
 71
3
 72
13
 73
9
 74
0
 42
0.0000001
 43
0.0000001
 44
0.0000000001
 40
0.0
 40
0.0
 40
0.0
 40
0.0
 40
0.1362697067
 40
0.270487312
 40
0.4012451088
 40
0.5283498641
 40
0.7716147472
 40
1.0
 40
1.0
 40
1.0
 40
1.0
 10
6.5506129084
 20
8.0426039622
 30
0.0
 10
6.5538235766
 20
8.0413457758
 30
0.0
 10
6.5600986026
 20
8.0385935147
 30
0.0
 10
6.5691225631
 20
8.0339285081
 30
0.0
 10
6.5777022274
 20
8.0289380891
 30
0.0
 10
6.5883882335
 20
8.0221051408
 30
0.0
 10
6.600743939
 20
8.0133159902
 30
0.0
 10
6.6100242337
 20
8.0057974471
 30
0.0
 10
6.6144029898
 20
8.0020253915
 30
0.0
  0
SPLINE
  5
2D4
100
AcDbEntity
  8
0
100
AcDbSpline
 62
9
  6
CONTINUOUS
 70
0
 71
3
 72
9
 73
5
 74
0
 42
0.0000001
 43
0.0000001
 44
0.0000000001
 40
0.0
 40
0.0
 40
0.0
 40
0.0
 40
0.5010815205
 40
1.0
 40
1.0
 40
1.0
 40
1.0
 10
6.5207013364
 20
8.0478642798
 30
0.0
 10
6.5257973803
 20
8.0479650616
 30
0.0
 10
6.5360090982
 20
8.0471844545
 30
0.0
 10
6.5458877947
 20
8.0444552221
 30
0.0
 10
6.5506132494
 20
8.042604253
 30
0.0
  0
SPLINE
  5
2D5
100
AcDbEntity
  8
0
100
AcDbSpline
 62
9
  6
CONTINUOUS
 70
0
 71
3
 72
13
 73
9
 74
0
 42
0.0000001
 43
0.0000001
 44
0.0000000001
 40
0.0
 40
0.0
 40
0.0
 40
0.0
 40
0.1297149508
 40
0.258520287
 40
0.3859429357
 40
0.5118772763
 40
0.7591029523
 40
1.0
 40
1.0
 40
1.0
 40
1.0
 10
6.5680209816
 20
8.0775656022
 30
0.0
 10
6.5710328156
 20
8.0751250987
 30
0.0
 10
6.5766669772
 20
8.0697993672
 30
0.0
 10
6.5841335165
 20
8.0609889648
 30
0.0
 10
6.5907576314
 20
8.0516711471
 30
0.0
 10
6.5985718242
 20
8.0389040221
 30
0.0
 10
6.6067827306
 20
8.0224539466
 30
0.0
 10
6.6120895524
 20
8.0088439948
 30
0.0
 10
6.6144024231
 20
8.0020265015
 30
0.0
  0
SPLINE
  5
2D6
100
AcDbEntity
  8
0
100
AcDbSpline
 62
9
  6
CONTINUOUS
 70
0
 71
3
 72
13
 73
9
 74
0
 42
0.0000001
 43
0.0000001
 44
0.0000000001
 40
0.0
 40
0.0
 40
0.0
 40
0.0
 40
0.1298235745
 40
0.258730074
 40
0.3862305029
 40
0.5122071875
 40
0.7593802976
 40
1.0
 40
1.0
 40
1.0
 40
1.0
 10
6.5680209816
 20
8.3656051609
 30
0.0
 10
6.5710164776
 20
8.3680071902
 30
0.0
 10
6.5766275925
 20
8.3732488087
 30
0.0
 10
6.5840797692
 20
8.3819255846
 30
0.0
 10
6.5907023707
 20
8.3911071137
 30
0.0
 10
6.5985232648
 20
8.403690672
 30
0.0
 10
6.6067525246
 20
8.4199094916
 30
0.0
 10
6.6120807248
 20
8.4333387719
 30
0.0
 10
6.6144024231
 20
8.4400659077
 30
0.0
  0
SPLINE
  5
2D7
100
AcDbEntity
  8
0
100
AcDbSpline
 62
9
  6
CONTINUOUS
 70
0
 71
3
 72
13
 73
9
 74
0
 42
0.0000001
 43
0.0000001
 44
0.0000000001
 40
0.0
 40
0.0
 40
0.0
 40
0.0
 40
0.2276791663
 40
0.4708112618
 40
0.5980324125
 40
0.7289872824
 40
0.8634469111
 40
1.0
 40
1.0
 40
1.0
 40
1.0
 10
6.6144028819
 20
8.4400671287
 30
0.0
 10
6.6100393241
 20
8.4363906947
 30
0.0
 10
6.6007808723
 20
8.4290631139
 30
0.0
 10
6.5884622058
 20
8.4205080853
 30
0.0
 10
6.5778041149
 20
8.4138522294
 30
0.0
 10
6.5692467372
 20
8.40898792
 30
0.0
 10
6.5602532418
 20
8.4044397532
 30
0.0
 10
6.5540072423
 20
8.4017548263
 30
0.0
 10
6.550813236
 20
8.4005262344
 30
0.0
  0
SPLINE
  5
2D8
100
AcDbEntity
  8
0
100
AcDbSpline
 62
9
  6
CONTINUOUS
 70
0
 71
3
 72
9
 73
5
 74
0
 42
0.0000001
 43
0.0000001
 44
0.0000000001
 40
0.0
 40
0.0
 40
0.0
 40
0.0
 40
0.4987466031
 40
1.0
 40
1.0
 40
1.0
 40
1.0
 10
6.5508134129
 20
8.4005263439
 30
0.0
 10
6.5458360494
 20
8.3986126489
 30
0.0
 10
6.5354093466
 20
8.3958692337
 30
0.0
 10
6.5246532721
 20
8.3952839227
 30
0.0
 10
6.5192996054
 20
8.3955313077
 30
0.0
  0
SPLINE
  5
2D9
100
AcDbEntity
  8
0
100
AcDbSpline
 62
9
  6
CONTINUOUS
 70
0
 71
3
 72
9
 73
5
 74
0
 42
0.0000001
 43
0.0000001
 44
0.0000000001
 40
0.0
 40
0.0
 40
0.0
 40
0.0
 40
0.4999825505
 40
1.0
 40
1.0
 40
1.0
 40
1.0
 10
6.5192995103
 20
8.3955306046
 30
0.0
 10
6.1209116308
 20
8.4061812086
 30
0.0
 10
5.3241276995
 20
8.4282074501
 30
0.0
 10
4.5273254374
 20
8.4495691977
 30
0.0
 10
4.1289003764
 20
8.4598639394
 30
0.0
  0
SPLINE
  5
2DA
100
AcDbEntity
  8
0
100
AcDbSpline
 62
9
  6
CONTINUOUS
 70
0
 71
3
 72
13
 73
9
 74
0
 42
0.0000001
 43
0.0000001
 44
0.0000000001
 40
0.0
 40
0.0
 40
0.0
 40
0.0
 40
0.2503788039
 40
0.5003668399
 40
0.6255189971
 40
0.7504991605
 40
0.8752828845
 40
1.0
 40
1.0
 40
1.0
 40
1.0
 10
4.1289003502
 20
8.4598642759
 30
0.0
 10
4.1246466585
 20
8.4599924551
 30
0.0
 10
4.1160467528
 20
8.4588862198
 30
0.0
 10
4.1062903083
 20
8.4542039923
 30
0.0
 10
4.0996969082
 20
8.4487903197
 30
0.0
 10
4.0954538878
 20
8.4439976481
 30
0.0
 10
4.0920429751
 20
8.4385929339
 30
0.0
 10
4.0903739692
 20
8.4346707265
 30
0.0
 10
4.0897053384
 20
8.4326591559
 30
0.0
  0
LINE
  5
2DB
100
AcDbEntity
  8
0
100
AcDbLine
 62
9
  6
CONTINUOUS
 10
6.5425944416
 20
8.4577069686
 11
6.5376927123
 21
8.4590240557
  0
SPLINE
  5
2DC
100
AcDbEntity
  8
0
100
AcDbSpline
 62
9
  6
CONTINUOUS
 70
0
 71
3
 72
18
 73
14
 74
0
 42
0.0000001
 43
0.0000001
 44
0.0000000001
 40
0.0
 40
0.0
 40
0.0
 40
0.0
 40
0.0148466342
 40
0.0370517339
 40
0.0669467123
 40
0.1048395284
 40
0.1508935367
 40
0.2047207983
 40
0.3335827787
 40
0.4863268243
 40
0.6543667092
 40
0.8284295036
 40
1.0
 40
1.0
 40
1.0
 40
1.0
 10
4.1288998403
 20
8.4598640922
 30
0.0
 10
4.1289445084
 20
8.4596730254
 30
0.0
 10
4.1290175725
 20
8.4591878383
 30
0.0
 10
4.12910637
 20
8.4583076885
 30
0.0
 10
4.1291876476
 20
8.4571207994
 30
0.0
 10
4.129260324
 20
8.4556179767
 30
0.0
 10
4.129321521
 20
8.4537980608
 30
0.0
 10
4.1293913571
 20
8.4507756825
 30
0.0
 10
4.1294369131
 20
8.4463425298
 30
0.0
 10
4.1294306148
 20
8.4403997736
 30
0.0
 10
4.1293694443
 20
8.4338599113
 30
0.0
 10
4.1292566319
 20
8.427071905
 30
0.0
 10
4.1291527965
 20
8.4225050355
 30
0.0
 10
4.1290944392
 20
8.420238247
 30
0.0
  0
SPLINE
  5
2DD
100
AcDbEntity
  8
0
100
AcDbSpline
 62
9
  6
CONTINUOUS
 70
0
 71
3
 72
20
 73
16
 74
0
 42
0.0000001
 43
0.0000001
 44
0.0000000001
 40
0.0
 40
0.0
 40
0.0
 40
0.0
 40
0.0047136325
 40
0.0113005772
 40
0.0303751808
 40
0.0576907717
 40
0.0936450354
 40
0.1384611945
 40
0.1917213681
 40
0.2528452859
 40
0.321250904
 40
0.4765931122
 40
0.6481707138
 40
0.825696803
 40
1.0
 40
1.0
 40
1.0
 40
1.0
 10
6.5192995194
 20
8.3955306043
 30
0.0
 10
6.5193223031
 20
8.3954722375
 30
0.0
 10
6.5193629534
 20
8.3953270969
 30
0.0
 10
6.5194414274
 20
8.3949310175
 30
0.0
 10
6.5195259652
 20
8.3942310779
 30
0.0
 10
6.5196148007
 20
8.3931402224
 30
0.0
 10
6.5196932597
 20
8.3917054088
 30
0.0
 10
6.5197599711
 20
8.3899250388
 30
0.0
 10
6.5198135946
 20
8.3878094917
 30
0.0
 10
6.5198528001
 20
8.3853800484
 30
0.0
 10
6.519885169
 20
8.3815934898
 30
0.0
 10
6.5198785356
 20
8.3763385069
 30
0.0
 10
6.5198124447
 20
8.3696334117
 30
0.0
 10
6.5196913058
 20
8.3626770098
 30
0.0
 10
6.5195805823
 20
8.3580015885
 30
0.0
 10
6.5195186181
 20
8.3556854874
 30
0.0
  0
SPLINE
  5
2DE
100
AcDbEntity
  8
0
100
AcDbSpline
 62
9
  6
CONTINUOUS
 70
0
 71
3
 72
17
 73
13
 74
0
 42
0.0000001
 43
0.0000001
 44
0.0000000001
 40
0.0
 40
0.0
 40
0.0
 40
0.0
 40
0.1159978006
 40
0.2388541074
 40
0.302571962
 40
0.3673912507
 40
0.4985834157
 40
0.6300164939
 40
0.6951174836
 40
0.7592049074
 40
0.8829865839
 40
1.0
 40
1.0
 40
1.0
 40
1.0
 10
6.486692963
 20
8.0412125419
 30
0.0
 10
6.490016299
 20
8.0412115689
 30
0.0
 10
6.4968727095
 20
8.0405669431
 30
0.0
 10
6.5052578916
 20
8.038147848
 30
0.0
 10
6.5118061705
 20
8.0351210706
 30
0.0
 10
6.518225884
 20
8.0313389782
 30
0.0
 10
6.5255679162
 20
8.0253835403
 30
0.0
 10
6.5314875944
 20
8.0180030469
 30
0.0
 10
6.5352551123
 20
8.0115454083
 30
0.0
 10
6.538279275
 20
8.0049463613
 30
0.0
 10
6.5407049624
 20
7.9964955164
 30
0.0
 10
6.541367385
 20
7.9895861546
 30
0.0
 10
6.5413801616
 20
7.9862337455
 30
0.0
  0
LINE
  5
2DF
100
AcDbEntity
  8
0
100
AcDbLine
 62
9
  6
CONTINUOUS
 10
6.4810538588
 20
8.4040486472
 11
6.5192995249
 21
8.3955305988
  0
LINE
  5
2E0
100
AcDbEntity
  8
0
100
AcDbLine
 62
9
  6
CONTINUOUS
 10
6.5195186264
 20
8.3556854872
 11
4.1290948971
 21
8.4202312037
  0
SPLINE
  5
2E1
100
AcDbEntity
  8
0
100
AcDbSpline
 62
9
  6
CONTINUOUS
 70
0
 71
3
 72
14
 73
10
 74
0
 42
0.0000001
 43
0.0000001
 44
0.0000000001
 40
0.0
 40
0.0
 40
0.0
 40
0.0
 40
0.0552478578
 40
0.135335711
 40
0.2405265438
 40
0.368219464
 40
0.5145035169
 40
0.6730981677
 40
1.0
 40
1.0
 40
1.0
 40
1.0
 10
6.5508130144
 20
8.400526063
 30
0.0
 10
6.5511821128
 20
8.3999112466
 30
0.0
 10
6.5520406129
 20
8.3983780911
 30
0.0
 10
6.5535043203
 20
8.3956205295
 30
0.0
 10
6.5553529791
 20
8.392003072
 30
0.0
 10
6.5575478209
 20
8.3875980733
 30
0.0
 10
6.5600099245
 20
8.3825519839
 30
0.0
 10
6.5635582428
 20
8.3751590686
 30
0.0
 10
6.5662360506
 20
8.3694545542
 30
0.0
 10
6.5680203644
 20
8.3656048787
 30
0.0
  0
SPLINE
  5
2E2
100
AcDbEntity
  8
0
100
AcDbSpline
 62
9
  6
CONTINUOUS
 70
0
 71
3
 72
9
 73
5
 74
0
 42
0.0000001
 43
0.0000001
 44
0.0000000001
 40
0.0
 40
0.0
 40
0.0
 40
0.0
 40
0.5000165445
 40
1.0
 40
1.0
 40
1.0
 40
1.0
 10
6.5195186264
 20
8.3556854872
 30
0.0
 10
6.5278218876
 20
8.3554624333
 30
0.0
 10
6.5445323138
 20
8.3568991478
 30
0.0
 10
6.5604867193
 20
8.3621094979
 30
0.0
 10
6.5680209816
 20
8.3656051609
 30
0.0
  0
SPLINE
  5
2E3
100
AcDbEntity
  8
0
100
AcDbSpline
 62
9
  6
CONTINUOUS
 70
0
 71
3
 72
9
 73
5
 74
0
 42
0.0000001
 43
0.0000001
 44
0.0000000001
 40
0.0
 40
0.0
 40
0.0
 40
0.0
 40
0.5000175034
 40
1.0
 40
1.0
 40
1.0
 40
1.0
 10
4.1278604209
 20
8.0462618514
 30
0.0
 10
4.5266812313
 20
8.0460995129
 30
0.0
 10
5.3242951666
 20
8.0465510801
 30
0.0
 10
6.1219082058
 20
8.0476695016
 30
0.0
 10
6.5207010798
 20
8.0478644743
 30
0.0
  0
LINE
  5
2E4
100
AcDbEntity
  8
0
100
AcDbLine
 62
9
  6
CONTINUOUS
 10
6.4866916483
 20
8.0412119486
 11
6.4825041122
 21
8.0403575942
  0
SPLINE
  5
2E5
100
AcDbEntity
  8
0
100
AcDbSpline
 62
7
  6
CONTINUOUS
 70
0
 71
3
 72
25
 73
21
 74
0
 42
0.0000001
 43
0.0000001
 44
0.0000000001
 40
0.0
 40
0.0
 40
0.0
 40
0.0
 40
0.069958344
 40
0.137853211
 40
0.2035045087
 40
0.2667882659
 40
0.327727933
 40
0.3865425318
 40
0.4153063196
 40
0.4437422768
 40
0.4999991245
 40
0.556255986
 40
0.5846919532
 40
0.6134557562
 40
0.6722704035
 40
0.7332100673
 40
0.7964937991
 40
0.8621454256
 40
0.9300411239
 40
1.0
 40
1.0
 40
1.0
 40
1.0
 10
6.5586611396
 20
6.6681789697
 30
0.0
 10
6.5513823171
 20
6.6754368209
 30
0.0
 10
6.5367302506
 20
6.6894345803
 30
0.0
 10
6.5140292032
 20
6.7089209944
 30
0.0
 10
6.4908962873
 20
6.7263176938
 30
0.0
 10
6.4673189011
 20
6.7412984146
 30
0.0
 10
6.4432966488
 20
6.7534944169
 30
0.0
 10
6.4227819298
 20
6.7611132176
 30
0.0
 10
6.406274777
 20
6.7654160128
 30
0.0
 10
6.3898779042
 20
6.7684850101
 30
0.0
 10
6.3691464547
 20
6.7700764896
 30
0.0
 10
6.3484150075
 20
6.7684849659
 30
0.0
 10
6.3320181349
 20
6.7654159345
 30
0.0
 10
6.3155109886
 20
6.7611130686
 30
0.0
 10
6.2949962941
 20
6.7534941835
 30
0.0
 10
6.2709740306
 20
6.7412982117
 30
0.0
 10
6.2473965276
 20
6.7263175842
 30
0.0
 10
6.2242636512
 20
6.7089205295
 30
0.0
 10
6.2015629534
 20
6.6894333218
 30
0.0
 10
6.1869109668
 20
6.6754352028
 30
0.0
 10
6.1796320909
 20
6.6681772944
 30
0.0
  0
SPLINE
  5
2E6
100
AcDbEntity
  8
0
100
AcDbSpline
 62
7
  6
CONTINUOUS
 70
0
 71
3
 72
25
 73
21
 74
0
 42
0.0000001
 43
0.0000001
 44
0.0000000001
 40
0.0
 40
0.0
 40
0.0
 40
0.0
 40
0.0699586069
 40
0.1378538298
 40
0.2035053019
 40
0.2667891093
 40
0.3277288377
 40
0.3865435189
 40
0.4153073451
 40
0.4437433385
 40
0.5000002528
 40
0.5562571674
 40
0.5846931598
 40
0.6134569846
 40
0.6722716627
 40
0.7332114054
 40
0.7964952458
 40
0.8621466249
 40
0.9300415746
 40
1.0
 40
1.0
 40
1.0
 40
1.0
 10
7.6957524105
 20
6.6681785097
 30
0.0
 10
7.6884735782
 20
6.6754363746
 30
0.0
 10
7.6738215557
 20
6.6894342443
 30
0.0
 10
7.6511206513
 20
6.7089209076
 30
0.0
 10
7.62798777
 20
6.7263177009
 30
0.0
 10
7.6044103648
 20
6.7412983617
 30
0.0
 10
7.5803881332
 20
6.7534943351
 30
0.0
 10
7.5598734452
 20
6.7611131587
 30
0.0
 10
7.5433663124
 20
6.7654159782
 30
0.0
 10
7.5269694573
 20
6.7684849893
 30
0.0
 10
7.5062380308
 20
6.7700764897
 30
0.0
 10
7.4855066053
 20
6.7684849862
 30
0.0
 10
7.4691097494
 20
6.7654159811
 30
0.0
 10
7.4526026161
 20
6.7611131673
 30
0.0
 10
7.4320879187
 20
6.7534943638
 30
0.0
 10
7.4080656915
 20
6.7412983611
 30
0.0
 10
7.3844883312
 20
6.7263176454
 30
0.0
 10
7.3613554371
 20
6.7089209597
 30
0.0
 10
7.3386544132
 20
6.6894345609
 30
0.0
 10
7.3240023614
 20
6.6754368139
 30
0.0
 10
7.316723546
 20
6.6681789698
 30
0.0
  0
SPLINE
  5
2E7
100
AcDbEntity
  8
0
100
AcDbSpline
 62
7
  6
CONTINUOUS
 70
0
 71
3
 72
19
 73
15
 74
0
 42
0.0000001
 43
0.0000001
 44
0.0000000001
 40
0.0
 40
0.0
 40
0.0
 40
0.0
 40
0.124981256
 40
0.1874945258
 40
0.2500015
 40
0.3749635274
 40
0.4374820464
 40
0.5000000001
 40
0.5625179539
 40
0.6250364729
 40
0.7499985001
 40
0.8125054743
 40
0.875018744
 40
1.0
 40
1.0
 40
1.0
 40
1.0
 10
7.3167216946
 20
6.6681789698
 30
0.0
 10
7.2872073097
 20
6.6828936604
 30
0.0
 10
7.242124619
 20
6.7034436942
 30
0.0
 10
7.1803326265
 20
6.7266162569
 30
0.0
 10
7.1174257152
 20
6.7465305169
 30
0.0
 10
7.052801844
 20
6.7608380526
 30
0.0
 10
6.9871949859
 20
6.76818764
 30
0.0
 10
6.9376923427
 20
6.7700684427
 30
0.0
 10
6.8881896996
 20
6.76818764
 30
0.0
 10
6.8225828415
 20
6.7608380526
 30
0.0
 10
6.7579589703
 20
6.7465305169
 30
0.0
 10
6.695052059
 20
6.7266162571
 30
0.0
 10
6.6332600666
 20
6.7034436943
 30
0.0
 10
6.588177376
 20
6.6828936603
 30
0.0
 10
6.5586629911
 20
6.6681789697
 30
0.0
  0
SPLINE
  5
2E8
100
AcDbEntity
  8
0
100
AcDbSpline
 62
9
  6
CONTINUOUS
 70
0
 71
3
 72
9
 73
5
 74
0
 42
0.0000001
 43
0.0000001
 44
0.0000000001
 40
0.0
 40
0.0
 40
0.0
 40
0.0
 40
0.5000085875
 40
1.0
 40
1.0
 40
1.0
 40
1.0
 10
6.5219645907
 20
8.0877269444
 30
0.0
 10
6.5298727423
 20
8.087731217
 30
0.0
 10
6.5457360536
 20
8.0860285142
 30
0.0
 10
6.560860772
 20
8.0809220858
 30
0.0
 10
6.5680209816
 20
8.0775656022
 30
0.0
  0
LINE
  5
2E9
100
AcDbEntity
  8
0
100
AcDbLine
 62
9
  6
CONTINUOUS
 10
4.1290949877
 20
8.0859124296
 11
6.5219645907
 21
8.0877269444
  0
SPLINE
  5
2EA
100
AcDbEntity
  8
0
100
AcDbSpline
 62
9
  6
CONTINUOUS
 70
0
 71
3
 72
20
 73
16
 74
0
 42
0.0000001
 43
0.0000001
 44
0.0000000001
 40
0.0
 40
0.0
 40
0.0
 40
0.0
 40
0.1742496507
 40
0.3517557145
 40
0.5233410869
 40
0.678705984
 40
0.7471241144
 40
0.8082597095
 40
0.8615298257
 40
0.9063532938
 40
0.9423115951
 40
0.969628357
 40
0.9887019347
 40
0.99528776
 40
1.0
 40
1.0
 40
1.0
 40
1.0
 10
6.5219645836
 20
8.0877269444
 30
0.0
 10
6.521965836
 20
8.085408586
 30
0.0
 10
6.5219539842
 20
8.0807285254
 30
0.0
 10
6.5218926986
 20
8.0737657837
 30
0.0
 10
6.5217828917
 20
8.0670549251
 30
0.0
 10
6.521651619
 20
8.0617961476
 30
0.0
 10
6.5215198385
 20
8.0580076185
 30
0.0
 10
6.5214168318
 20
8.0555773412
 30
0.0
 10
6.5213076342
 20
8.0534615898
 30
0.0
 10
6.5211941382
 20
8.0516816555
 30
0.0
 10
6.5210779588
 20
8.0502479029
 30
0.0
 10
6.5209604274
 20
8.049158692
 30
0.0
 10
6.5208574628
 20
8.0484605786
 30
0.0
 10
6.5207685424
 20
8.0480663788
 30
0.0
 10
6.5207240583
 20
8.0479222556
 30
0.0
 10
6.520699728
 20
8.0478644736
 30
0.0
  0
SPLINE
  5
2EB
100
AcDbEntity
  8
0
100
AcDbSpline
 62
9
  6
CONTINUOUS
 70
0
 71
3
 72
13
 73
9
 74
0
 42
0.0000001
 43
0.0000001
 44
0.0000000001
 40
0.0
 40
0.0
 40
0.0
 40
0.0
 40
0.2503981853
 40
0.5003901606
 40
0.6255325962
 40
0.7505054252
 40
0.8752856576
 40
1.0
 40
1.0
 40
1.0
 40
1.0
 10
4.1278604047
 20
8.0462616848
 30
0.0
 10
4.1236718868
 20
8.0462435674
 30
0.0
 10
4.1152405071
 20
8.0475283717
 30
0.0
 10
4.1057293802
 20
8.0523086649
 30
0.0
 10
4.0993194303
 20
8.0577296569
 30
0.0
 10
4.0952018336
 20
8.0624957487
 30
0.0
 10
4.0918964546
 20
8.0678458304
 30
0.0
 10
4.0902814164
 20
8.0717166867
 30
0.0
 10
4.0896347548
 20
8.0737001012
 30
0.0
  0
SPLINE
  5
2EC
100
AcDbEntity
  8
0
100
AcDbSpline
 62
9
  6
CONTINUOUS
 70
0
 71
3
 72
18
 73
14
 74
0
 42
0.0000001
 43
0.0000001
 44
0.0000000001
 40
0.0
 40
0.0
 40
0.0
 40
0.0
 40
0.171519066
 40
0.3455623916
 40
0.5136087716
 40
0.6663734744
 40
0.7952580115
 40
0.8490947825
 40
0.8951560491
 40
0.9330532727
 40
0.9629500998
 40
0.9851550247
 40
1.0
 40
1.0
 40
1.0
 40
1.0
 10
4.1290945044
 20
8.0859059915
 30
0.0
 10
4.1290934408
 20
8.083637005
 30
0.0
 10
4.129077543
 20
8.0790656349
 30
0.0
 10
4.1290123417
 20
8.0722714864
 30
0.0
 10
4.1289019455
 20
8.0657260312
 30
0.0
 10
4.1287522856
 20
8.059778921
 30
0.0
 10
4.1285903347
 20
8.0553436331
 30
0.0
 10
4.1284411098
 20
8.0523207724
 30
0.0
 10
4.1283320956
 20
8.0505011017
 30
0.0
 10
4.1282199188
 20
8.0489991156
 30
0.0
 10
4.1281074316
 20
8.0478135746
 30
0.0
 10
4.127995475
 20
8.0469352333
 30
0.0
 10
4.1279096322
 20
8.0464516999
 30
0.0
 10
4.1278599208
 20
8.0462617152
 30
0.0
  0
SPLINE
  5
2ED
100
AcDbEntity
  8
0
100
AcDbSpline
 62
9
  6
CONTINUOUS
 70
0
 71
3
 72
14
 73
10
 74
0
 42
0.0000001
 43
0.0000001
 44
0.0000000001
 40
0.0
 40
0.0
 40
0.0
 40
0.0
 40
0.328002421
 40
0.4871889651
 40
0.6338918979
 40
0.7616800102
 40
0.8665614374
 40
0.9458955141
 40
1.0
 40
1.0
 40
1.0
 40
1.0
 10
6.5680208187
 20
8.0775656778
 30
0.0
 10
6.5662095246
 20
8.0736977045
 30
0.0
 10
6.5634910813
 20
8.0679655778
 30
0.0
 10
6.5598896629
 20
8.0605384673
 30
0.0
 10
6.5573927223
 20
8.0554733037
 30
0.0
 10
6.5551711399
 20
8.0510610164
 30
0.0
 10
6.5533065129
 20
8.0474512209
 30
0.0
 10
6.5518383013
 20
8.0447172773
 30
0.0
 10
6.5509805878
 20
8.0432054719
 30
0.0
 10
6.5506131542
 20
8.042604357
 30
0.0
  0
SPLINE
  5
2EE
100
AcDbEntity
  8
0
100
AcDbSpline
 62
7
  6
CONTINUOUS
 70
0
 71
3
 72
9
 73
5
 74
0
 42
0.0000001
 43
0.0000001
 44
0.0000000001
 40
0.0
 40
0.0
 40
0.0
 40
0.0
 40
0.4939152281
 40
1.0
 40
1.0
 40
1.0
 40
1.0
 10
15.3761104603
 20
8.0378021695
 30
0.0
 10
15.3736559894
 20
8.0370274171
 30
0.0
 10
15.3687948665
 20
8.0350951219
 30
0.0
 10
15.3642565713
 20
8.032494549
 30
0.0
 10
15.3620649789
 20
8.0310275579
 30
0.0
  0
SPLINE
  5
2EF
100
AcDbEntity
  8
0
100
AcDbSpline
 62
9
  6
CONTINUOUS
 70
0
 71
3
 72
18
 73
14
 74
0
 42
0.0000001
 43
0.0000001
 44
0.0000000001
 40
0.0
 40
0.0
 40
0.0
 40
0.0
 40
0.0148450308
 40
0.0370499382
 40
0.0669466677
 40
0.104843707
 40
0.1509047179
 40
0.2047411908
 40
0.3336250621
 40
0.4863892426
 40
0.654435578
 40
0.8284795173
 40
1.0
 40
1.0
 40
1.0
 40
1.0
 10
17.7475247324
 20
8.0462617177
 30
0.0
 10
17.747475022
 20
8.0464516997
 30
0.0
 10
17.7473891803
 20
8.0469352247
 30
0.0
 10
17.7472772253
 20
8.0478135492
 30
0.0
 10
17.7471647395
 20
8.0489990647
 30
0.0
 10
17.7470525641
 20
8.0505010164
 30
0.0
 10
17.7469435511
 20
8.0523206442
 30
0.0
 10
17.7467943277
 20
8.0553434338
 30
0.0
 10
17.7466323776
 20
8.0597786216
 30
0.0
 10
17.7464827175
 20
8.0657256074
 30
0.0
 10
17.7463723195
 20
8.0722709444
 30
0.0
 10
17.7463071152
 20
8.0790649958
 30
0.0
 10
17.7462912148
 20
8.0836363098
 30
0.0
 10
17.7462901498
 20
8.0859052739
 30
0.0
  0
SPLINE
  5
2F0
100
AcDbEntity
  8
0
100
AcDbSpline
 62
9
  6
CONTINUOUS
 70
0
 71
3
 72
18
 73
14
 74
0
 42
0.0000001
 43
0.0000001
 44
0.0000000001
 40
0.0
 40
0.0
 40
0.0
 40
0.0
 40
0.171569438
 40
0.3456317787
 40
0.5136717061
 40
0.6664161499
 40
0.7952786324
 40
0.8491061172
 40
0.8951603148
 40
0.9330532647
 40
0.9629483104
 40
0.985153416
 40
1.0
 40
1.0
 40
1.0
 40
1.0
 10
17.7462902052
 20
8.420237706
 30
0.0
 10
17.7462318463
 20
8.4225045116
 30
0.0
 10
17.7461280079
 20
8.4270714235
 30
0.0
 10
17.7460151914
 20
8.4338595031
 30
0.0
 10
17.7459540172
 20
8.4403994547
 30
0.0
 10
17.7459477162
 20
8.4463423047
 30
0.0
 10
17.7459932708
 20
8.4507755328
 30
0.0
 10
17.7460631067
 20
8.4537979646
 30
0.0
 10
17.7461243039
 20
8.4556179127
 30
0.0
 10
17.7461969806
 20
8.4571207611
 30
0.0
 10
17.7462782588
 20
8.4583076692
 30
0.0
 10
17.7463670572
 20
8.4591878314
 30
0.0
 10
17.746440122
 20
8.4596730246
 30
0.0
 10
17.7464847907
 20
8.4598640933
 30
0.0
  0
SPLINE
  5
2F1
100
AcDbEntity
  8
0
100
AcDbSpline
 62
9
  6
CONTINUOUS
 70
0
 71
3
 72
13
 73
9
 74
0
 42
0.0000001
 43
0.0000001
 44
0.0000000001
 40
0.0
 40
0.0
 40
0.0
 40
0.0
 40
0.2503782211
 40
0.5003672436
 40
0.6255202507
 40
0.7505008482
 40
0.8752843926
 40
1.0
 40
1.0
 40
1.0
 40
1.0
 10
17.7464842937
 20
8.4598641108
 30
0.0
 10
17.7507408168
 20
8.4599922519
 30
0.0
 10
17.7593465482
 20
8.4588843189
 30
0.0
 10
17.7691082147
 20
8.4541956033
 30
0.0
 10
17.7757033917
 20
8.4487750032
 30
0.0
 10
17.7799463902
 20
8.4439765313
 30
0.0
 10
17.7833556993
 20
8.4385657473
 30
0.0
 10
17.7850225803
 20
8.4346395483
 30
0.0
 10
17.7856898865
 20
8.432626075
 30
0.0
  0
LINE
  5
2F2
100
AcDbEntity
  8
0
100
AcDbLine
 62
9
  6
CONTINUOUS
 10
15.3928800168
 20
8.0403577149
 11
15.3886922706
 21
8.0412119484
  0
SPLINE
  5
2F3
100
AcDbEntity
  8
0
100
AcDbSpline
 62
9
  6
CONTINUOUS
 70
0
 71
3
 72
9
 73
5
 74
0
 42
0.0000001
 43
0.0000001
 44
0.0000000001
 40
0.0
 40
0.0
 40
0.0
 40
0.0
 40
0.5000174496
 40
1.0
 40
1.0
 40
1.0
 40
1.0
 10
17.7464843129
 20
8.4598639403
 30
0.0
 10
17.3480592542
 20
8.4495692036
 30
0.0
 10
16.5512569978
 20
8.4282074299
 30
0.0
 10
15.7544730688
 20
8.4061812833
 30
0.0
 10
15.3560851937
 20
8.3955306105
 30
0.0
  0
LINE
  5
2F4
100
AcDbEntity
  8
0
100
AcDbLine
 62
9
  6
CONTINUOUS
 10
15.3560851795
 20
8.3955305999
 11
15.3943308267
 21
8.4040486472
  0
SPLINE
  5
2F5
100
AcDbEntity
  8
0
100
AcDbSpline
 62
9
  6
CONTINUOUS
 70
0
 71
3
 72
9
 73
5
 74
0
 42
0.0000001
 43
0.0000001
 44
0.0000000001
 40
0.0
 40
0.0
 40
0.0
 40
0.0
 40
0.5000151353
 40
1.0
 40
1.0
 40
1.0
 40
1.0
 10
15.3558660683
 20
8.355685488
 30
0.0
 10
15.3475628404
 20
8.3554632678
 30
0.0
 10
15.3308528098
 20
8.3569005826
 30
0.0
 10
15.3148978757
 20
8.362109345
 30
0.0
 10
15.3073637039
 20
8.3656051823
 30
0.0
  0
SPLINE
  5
2F6
100
AcDbEntity
  8
0
100
AcDbSpline
 62
9
  6
CONTINUOUS
 70
0
 71
3
 72
14
 73
10
 74
0
 42
0.0000001
 43
0.0000001
 44
0.0000000001
 40
0.0
 40
0.0
 40
0.0
 40
0.0
 40
0.3269028091
 40
0.4854975482
 40
0.6317814917
 40
0.759474181
 40
0.8646647391
 40
0.9447523406
 40
1.0
 40
1.0
 40
1.0
 40
1.0
 10
15.3073641988
 20
8.3656049561
 30
0.0
 10
15.3091485212
 20
8.3694546231
 30
0.0
 10
15.3118263389
 20
8.3751591206
 30
0.0
 10
15.3153746655
 20
8.3825520098
 30
0.0
 10
15.3178367686
 20
8.387598071
 30
0.0
 10
15.3200316065
 20
8.392003041
 30
0.0
 10
15.3218802596
 20
8.3956204724
 30
0.0
 10
15.3233439603
 20
8.3983780129
 30
0.0
 10
15.3242024552
 20
8.3999111566
 30
0.0
 10
15.3245715509
 20
8.4005259684
 30
0.0
  0
SPLINE
  5
2F7
100
AcDbEntity
  8
0
100
AcDbSpline
 62
9
  6
CONTINUOUS
 70
0
 71
3
 72
13
 73
9
 74
0
 42
0.0000001
 43
0.0000001
 44
0.0000000001
 40
0.0
 40
0.0
 40
0.0
 40
0.0
 40
0.1365487447
 40
0.2710163608
 40
0.4019724424
 40
0.5291916378
 40
0.7723284538
 40
1.0
 40
1.0
 40
1.0
 40
1.0
 10
15.3245714265
 20
8.4005261819
 30
0.0
 10
15.3213775305
 20
8.4017547515
 30
0.0
 10
15.3151314647
 20
8.4044397353
 30
0.0
 10
15.3061377915
 20
8.4089878051
 30
0.0
 10
15.2975802587
 20
8.4138522031
 30
0.0
 10
15.2869221817
 20
8.4205082548
 30
0.0
 10
15.27460366
 20
8.4290632497
 30
0.0
 10
15.2653452043
 20
8.4363907
 30
0.0
 10
15.2609818238
 20
8.4400670423
 30
0.0
  0
SPLINE
  5
2F8
100
AcDbEntity
  8
0
100
AcDbSpline
 62
9
  6
CONTINUOUS
 70
0
 71
3
 72
9
 73
5
 74
0
 42
0.0000001
 43
0.0000001
 44
0.0000000001
 40
0.0
 40
0.0
 40
0.0
 40
0.0
 40
0.5012254547
 40
1.0
 40
1.0
 40
1.0
 40
1.0
 10
15.3560851497
 20
8.395531104
 30
0.0
 10
15.3507317562
 20
8.3952842371
 30
0.0
 10
15.3399758342
 20
8.395869657
 30
0.0
 10
15.3295488466
 20
8.3986122487
 30
0.0
 10
15.3245712379
 20
8.4005261436
 30
0.0
  0
SPLINE
  5
2F9
100
AcDbEntity
  8
0
100
AcDbSpline
 62
9
  6
CONTINUOUS
 70
0
 71
3
 72
20
 73
16
 74
0
 42
0.0000001
 43
0.0000001
 44
0.0000000001
 40
0.0
 40
0.0
 40
0.0
 40
0.0
 40
0.0047122412
 40
0.0112980678
 40
0.0303716479
 40
0.057688412
 40
0.093646715
 40
0.1384701842
 40
0.1917403009
 40
0.2528758957
 40
0.3212940251
 40
0.4766589186
 40
0.6482442868
 40
0.8257503482
 40
1.0
 40
1.0
 40
1.0
 40
1.0
 10
15.3546849719
 20
8.0478644789
 30
0.0
 10
15.3546606416
 20
8.0479222609
 30
0.0
 10
15.3546161576
 20
8.0480663841
 30
0.0
 10
15.3545272372
 20
8.0484605839
 30
0.0
 10
15.3544242725
 20
8.0491586973
 30
0.0
 10
15.3543067412
 20
8.0502479081
 30
0.0
 10
15.3541905618
 20
8.0516816605
 30
0.0
 10
15.3540770658
 20
8.0534615947
 30
0.0
 10
15.3539678682
 20
8.0555773457
 30
0.0
 10
15.3538648615
 20
8.0580076226
 30
0.0
 10
15.353733081
 20
8.0617961511
 30
0.0
 10
15.3536018083
 20
8.0670549277
 30
0.0
 10
15.3534920015
 20
8.0737657852
 30
0.0
 10
15.3534307159
 20
8.0807285257
 30
0.0
 10
15.3534188641
 20
8.0854085856
 30
0.0
 10
15.3534201165
 20
8.0877269436
 30
0.0
  0
LINE
  5
2FA
100
AcDbEntity
  8
0
100
AcDbLine
 62
9
  6
CONTINUOUS
 10
15.3534201083
 20
8.0877269436
 11
17.7462896978
 21
8.0859123491
  0
SPLINE
  5
2FB
100
AcDbEntity
  8
0
100
AcDbSpline
 62
9
  6
CONTINUOUS
 70
0
 71
3
 72
13
 73
9
 74
0
 42
0.0000001
 43
0.0000001
 44
0.0000000001
 40
0.0
 40
0.0
 40
0.0
 40
0.0
 40
0.1298235596
 40
0.2587299915
 40
0.3862303889
 40
0.5122072066
 40
0.7593800444
 40
1.0
 40
1.0
 40
1.0
 40
1.0
 10
15.3073637039
 20
8.3656051823
 30
0.0
 10
15.304368399
 20
8.3680074058
 30
0.0
 10
15.2987573239
 20
8.3732489268
 30
0.0
 10
15.2913048828
 20
8.381925384
 30
0.0
 10
15.2846824092
 20
8.3911069192
 30
0.0
 10
15.2768617196
 20
8.4036904641
 30
0.0
 10
15.2686321932
 20
8.4199090167
 30
0.0
 10
15.2633043048
 20
8.4333383066
 30
0.0
 10
15.2609824653
 20
8.4400653485
 30
0.0
  0
LINE
  5
2FC
100
AcDbEntity
  8
0
100
AcDbLine
 62
9
  6
CONTINUOUS
 10
15.337691937
 20
8.4590240026
 11
15.3327912211
 21
8.4577071743
  0
SPLINE
  5
2FD
100
AcDbEntity
  8
0
100
AcDbSpline
 62
9
  6
CONTINUOUS
 70
0
 71
3
 72
13
 73
9
 74
0
 42
0.0000001
 43
0.0000001
 44
0.0000000001
 40
0.0
 40
0.0
 40
0.0
 40
0.0
 40
0.2284024249
 40
0.4716598569
 40
0.5987671076
 40
0.7295232284
 40
0.8637289527
 40
1.0
 40
1.0
 40
1.0
 40
1.0
 10
15.2609827069
 20
8.0020250148
 30
0.0
 10
15.265361549
 20
8.0057975566
 30
0.0
 10
15.2746416578
 20
8.0133165694
 30
0.0
 10
15.2869976041
 20
8.022105699
 30
0.0
 10
15.2976835039
 20
8.0289382865
 30
0.0
 10
15.3062628491
 20
8.0339285109
 30
0.0
 10
15.3152863681
 20
8.0385934996
 30
0.0
 10
15.3215611121
 20
8.0413455947
 30
0.0
 10
15.3247717896
 20
8.0426037648
 30
0.0
  0
SPLINE
  5
2FE
100
AcDbEntity
  8
0
100
AcDbSpline
 62
9
  6
CONTINUOUS
 70
0
 71
3
 72
9
 73
5
 74
0
 42
0.0000001
 43
0.0000001
 44
0.0000000001
 40
0.0
 40
0.0
 40
0.0
 40
0.0
 40
0.4988915381
 40
1.0
 40
1.0
 40
1.0
 40
1.0
 10
15.3247714572
 20
8.0426041123
 30
0.0
 10
15.329496373
 20
8.0444547889
 30
0.0
 10
15.3393741779
 20
8.0471844756
 30
0.0
 10
15.3495853065
 20
8.0479652673
 30
0.0
 10
15.3546812833
 20
8.0478642213
 30
0.0
  0
SPLINE
  5
2FF
100
AcDbEntity
  8
0
100
AcDbSpline
 62
9
  6
CONTINUOUS
 70
0
 71
3
 72
17
 73
13
 74
0
 42
0.0000001
 43
0.0000001
 44
0.0000000001
 40
0.0
 40
0.0
 40
0.0
 40
0.0
 40
0.1159972232
 40
0.2388532053
 40
0.3025710016
 40
0.3673902893
 40
0.498582567
 40
0.6300158817
 40
0.695117013
 40
0.7592045715
 40
0.882986461
 40
1.0
 40
1.0
 40
1.0
 40
1.0
 10
15.3886928131
 20
8.0412119816
 30
0.0
 10
15.3853694704
 20
8.0412110995
 30
0.0
 10
15.3785130198
 20
8.0405666562
 30
0.0
 10
15.3701277429
 20
8.0381477647
 30
0.0
 10
15.3635793556
 20
8.0351211265
 30
0.0
 10
15.3571595098
 20
8.0313391523
 30
0.0
 10
15.3498172932
 20
8.025383817
 30
0.0
 10
15.3438974377
 20
8.0180033591
 30
0.0
 10
15.3401297921
 20
8.0115457171
 30
0.0
 10
15.337105518
 20
8.0049466491
 30
0.0
 10
15.3346797272
 20
7.9964957532
 30
0.0
 10
15.3340172555
 20
7.9895863359
 30
0.0
 10
15.3340044637
 20
7.9862338998
 30
0.0
  0
SPLINE
  5
300
100
AcDbEntity
  8
0
100
AcDbSpline
 62
9
  6
CONTINUOUS
 70
0
 71
3
 72
13
 73
9
 74
0
 42
0.0000001
 43
0.0000001
 44
0.0000000001
 40
0.0
 40
0.0
 40
0.0
 40
0.0
 40
0.1297146445
 40
0.2585197081
 40
0.385941986
 40
0.511875717
 40
0.7591011588
 40
1.0
 40
1.0
 40
1.0
 40
1.0
 10
15.3073637039
 20
8.077565582
 30
0.0
 10
15.3043516404
 20
8.0751253015
 30
0.0
 10
15.2987174068
 20
8.0697994668
 30
0.0
 10
15.2912511865
 20
8.0609886684
 30
0.0
 10
15.284626894
 20
8.0516708688
 30
0.0
 10
15.2768123584
 20
8.0389037657
 30
0.0
 10
15.2686018738
 20
8.0224532087
 30
0.0
 10
15.2632947655
 20
8.0088430981
 30
0.0
 10
15.2609824653
 20
8.0020252621
 30
0.0
  0
SPLINE
  5
301
100
AcDbEntity
  8
0
100
AcDbSpline
 62
9
  6
CONTINUOUS
 70
0
 71
3
 72
14
 73
10
 74
0
 42
0.0000001
 43
0.0000001
 44
0.0000000001
 40
0.0
 40
0.0
 40
0.0
 40
0.0
 40
0.054104615
 40
0.1334388301
 40
0.2383203895
 40
0.3661085997
 40
0.5128115648
 40
0.671998048
 40
1.0
 40
1.0
 40
1.0
 40
1.0
 10
15.3247715847
 20
8.0426042925
 30
0.0
 10
15.3244041497
 20
8.0432054097
 30
0.0
 10
15.3235464333
 20
8.0447172207
 30
0.0
 10
15.3220782176
 20
8.0474511737
 30
0.0
 10
15.3202135866
 20
8.0510609798
 30
0.0
 10
15.3179920008
 20
8.0554732781
 30
0.0
 10
15.3154950581
 20
8.0605384518
 30
0.0
 10
15.3118936406
 20
8.0679655702
 30
0.0
 10
15.3091751992
 20
8.0736977014
 30
0.0
 10
15.3073639072
 20
8.0775656765
 30
0.0
  0
SPLINE
  5
302
100
AcDbEntity
  8
0
100
AcDbSpline
 62
9
  6
CONTINUOUS
 70
0
 71
3
 72
9
 73
5
 74
0
 42
0.0000001
 43
0.0000001
 44
0.0000000001
 40
0.0
 40
0.0
 40
0.0
 40
0.0
 40
0.5000063602
 40
1.0
 40
1.0
 40
1.0
 40
1.0
 10
15.3534201083
 20
8.0877269436
 30
0.0
 10
15.3455119859
 20
8.0877318751
 30
0.0
 10
15.3296486027
 20
8.0860284299
 30
0.0
 10
15.3145240091
 20
8.0809219597
 30
0.0
 10
15.3073637039
 20
8.077565582
 30
0.0
  0
SPLINE
  5
303
100
AcDbEntity
  8
0
100
AcDbSpline
 62
7
  6
CONTINUOUS
 70
0
 71
3
 72
25
 73
21
 74
0
 42
0.0000001
 43
0.0000001
 44
0.0000000001
 40
0.0
 40
0.0
 40
0.0
 40
0.0
 40
0.0699583301
 40
0.137853236
 40
0.2035046568
 40
0.2667884899
 40
0.3277280672
 40
0.3865425636
 40
0.4153063394
 40
0.4437422972
 40
0.4999991259
 40
0.556255968
 40
0.5846919358
 40
0.6134557268
 40
0.6722702717
 40
0.7332098457
 40
0.796493651
 40
0.8621453992
 40
0.9300411371
 40
1.0
 40
1.0
 40
1.0
 40
1.0
 10
14.5586611396
 20
6.6681789697
 30
0.0
 10
14.5513823155
 20
6.6754368225
 30
0.0
 10
14.5367302407
 20
6.6894345909
 30
0.0
 10
14.5140291909
 20
6.7089210529
 30
0.0
 10
14.4908963186
 20
6.7263178845
 30
0.0
 10
14.4673189809
 20
6.7412987403
 30
0.0
 10
14.4432966836
 20
6.7534946612
 30
0.0
 10
14.4227819247
 20
6.7611132872
 30
0.0
 10
14.4062747741
 20
6.7654160452
 30
0.0
 10
14.3898779052
 20
6.768485069
 30
0.0
 10
14.3691464541
 20
6.7700766195
 30
0.0
 10
14.348415005
 20
6.7684850253
 30
0.0
 10
14.3320181365
 20
6.7654159665
 30
0.0
 10
14.3155109922
 20
6.7611131384
 30
0.0
 10
14.2949962584
 20
6.7534944264
 30
0.0
 10
14.2709739503
 20
6.7412985362
 30
0.0
 10
14.2473964949
 20
6.7263177763
 30
0.0
 10
14.2242636621
 20
6.7089205899
 30
0.0
 10
14.201562963
 20
6.6894333331
 30
0.0
 10
14.1869109685
 20
6.6754352045
 30
0.0
 10
14.1796320909
 20
6.6681772944
 30
0.0
  0
SPLINE
  5
304
100
AcDbEntity
  8
0
100
AcDbSpline
 62
7
  6
CONTINUOUS
 70
0
 71
3
 72
25
 73
21
 74
0
 42
0.0000001
 43
0.0000001
 44
0.0000000001
 40
0.0
 40
0.0
 40
0.0
 40
0.0
 40
0.0699585918
 40
0.1378538523
 40
0.2035054481
 40
0.2667893325
 40
0.3277289716
 40
0.38654355
 40
0.4153073642
 40
0.4437433582
 40
0.5000002533
 40
0.5562571486
 40
0.5846931417
 40
0.6134569546
 40
0.6722715299
 40
0.7332111832
 40
0.7964950995
 40
0.8621466015
 40
0.9300415892
 40
1.0
 40
1.0
 40
1.0
 40
1.0
 10
15.6957524105
 20
6.6681785097
 30
0.0
 10
15.6884735767
 20
6.6754363761
 30
0.0
 10
15.6738215458
 20
6.689434254
 30
0.0
 10
15.6511206384
 20
6.708920964
 30
0.0
 10
15.627987801
 20
6.7263178901
 30
0.0
 10
15.604410445
 20
6.7412986874
 30
0.0
 10
15.5803881686
 20
6.75349458
 30
0.0
 10
15.5598734406
 20
6.7611132286
 30
0.0
 10
15.5433663098
 20
6.7654160105
 30
0.0
 10
15.5269694587
 20
6.7684850483
 30
0.0
 10
15.5062380306
 20
6.7700766197
 30
0.0
 10
15.4855066033
 20
6.7684850453
 30
0.0
 10
15.4691097515
 20
6.7654160131
 30
0.0
 10
15.4526026202
 20
6.7611132371
 30
0.0
 10
15.432087883
 20
6.7534946079
 30
0.0
 10
15.4080656112
 20
6.7412986863
 30
0.0
 10
15.3844882996
 20
6.7263178353
 30
0.0
 10
15.3613554494
 20
6.7089210171
 30
0.0
 10
15.338654423
 20
6.689434571
 30
0.0
 10
15.3240023629
 20
6.6754368154
 30
0.0
 10
15.316723546
 20
6.6681789698
 30
0.0
  0
SPLINE
  5
305
100
AcDbEntity
  8
0
100
AcDbSpline
 62
7
  6
CONTINUOUS
 70
0
 71
3
 72
19
 73
15
 74
0
 42
0.0000001
 43
0.0000001
 44
0.0000000001
 40
0.0
 40
0.0
 40
0.0
 40
0.0
 40
0.1249812529
 40
0.1874945309
 40
0.250001503
 40
0.3749635232
 40
0.4374820547
 40
0.5000000001
 40
0.5625179456
 40
0.6250364771
 40
0.7499984971
 40
0.8125054692
 40
0.8750187471
 40
1.0
 40
1.0
 40
1.0
 40
1.0
 10
15.3167216946
 20
6.6681789698
 30
0.0
 10
15.2872073095
 20
6.6828936605
 30
0.0
 10
15.2421246156
 20
6.7034436856
 30
0.0
 10
15.1803326911
 20
6.7266164287
 30
0.0
 10
15.1174258265
 20
6.746530868
 30
0.0
 10
15.052801845
 20
6.760837965
 30
0.0
 10
14.9871949857
 20
6.7681874588
 30
0.0
 10
14.9376923426
 20
6.7700683097
 30
0.0
 10
14.8881896996
 20
6.7681874593
 30
0.0
 10
14.8225828402
 20
6.7608379659
 30
0.0
 10
14.7579588589
 20
6.7465308684
 30
0.0
 10
14.6950519944
 20
6.726616429
 30
0.0
 10
14.63326007
 20
6.7034436858
 30
0.0
 10
14.5881773762
 20
6.6828936604
 30
0.0
 10
14.5586629911
 20
6.6681789697
 30
0.0
  0
SPLINE
  5
306
100
AcDbEntity
  8
0
100
AcDbSpline
 62
9
  6
CONTINUOUS
 70
0
 71
3
 72
9
 73
5
 74
0
 42
0.0000001
 43
0.0000001
 44
0.0000000001
 40
0.0
 40
0.0
 40
0.0
 40
0.0
 40
0.4999824967
 40
1.0
 40
1.0
 40
1.0
 40
1.0
 10
15.3546818496
 20
8.0478644804
 30
0.0
 10
15.7534750169
 20
8.0476695777
 30
0.0
 10
16.5510886426
 20
8.0465510602
 30
0.0
 10
17.3487031644
 20
8.0460995183
 30
0.0
 10
17.747524268
 20
8.046261852
 30
0.0
  0
LINE
  5
307
100
AcDbEntity
  8
0
100
AcDbLine
 62
9
  6
CONTINUOUS
 10
17.7462897895
 20
8.4202311235
 11
15.3558660683
 21
8.355685488
  0
SPLINE
  5
308
100
AcDbEntity
  8
0
100
AcDbSpline
 62
9
  6
CONTINUOUS
 70
0
 71
3
 72
20
 73
16
 74
0
 42
0.0000001
 43
0.0000001
 44
0.0000000001
 40
0.0
 40
0.0
 40
0.0
 40
0.0
 40
0.174303195
 40
0.3518292866
 40
0.5234068935
 40
0.6787491073
 40
0.7471547274
 40
0.8082786465
 40
0.8615388204
 40
0.9063549787
 40
0.9423092403
 40
0.969624828
 40
0.9886994275
 40
0.9952863699
 40
1.0
 40
1.0
 40
1.0
 40
1.0
 10
15.3558660775
 20
8.3556854883
 30
0.0
 10
15.3558041133
 20
8.3580015896
 30
0.0
 10
15.3556933898
 20
8.3626770115
 30
0.0
 10
15.3555722509
 20
8.3696334143
 30
0.0
 10
15.35550616
 20
8.3763385105
 30
0.0
 10
15.3554995265
 20
8.3815934943
 30
0.0
 10
15.3555318954
 20
8.3853800534
 30
0.0
 10
15.355571101
 20
8.387809497
 30
0.0
 10
15.3556247245
 20
8.3899250444
 30
0.0
 10
15.3556914359
 20
8.3917054146
 30
0.0
 10
15.3557698949
 20
8.3931402283
 30
0.0
 10
15.3558587304
 20
8.3942310838
 30
0.0
 10
15.3559432682
 20
8.3949310234
 30
0.0
 10
15.3560217422
 20
8.3953271027
 30
0.0
 10
15.3560623926
 20
8.3954722432
 30
0.0
 10
15.3560851762
 20
8.39553061
 30
0.0
  0
SPLINE
  5
309
100
AcDbEntity
  8
0
100
AcDbSpline
 62
9
  6
CONTINUOUS
 70
0
 71
3
 72
13
 73
9
 74
0
 42
0.0000001
 43
0.0000001
 44
0.0000000001
 40
0.0
 40
0.0
 40
0.0
 40
0.0
 40
0.2503995316
 40
0.500390921
 40
0.6255323678
 40
0.750504475
 40
0.8752845609
 40
1.0
 40
1.0
 40
1.0
 40
1.0
 10
17.7475243018
 20
8.0462614976
 30
0.0
 10
17.7517109525
 20
8.046243327
 30
0.0
 10
17.7601384879
 20
8.047526979
 30
0.0
 10
17.7696462489
 20
8.0523028502
 30
0.0
 10
17.7760550833
 20
8.0577191995
 30
0.0
 10
17.7801727218
 20
8.0624814242
 30
0.0
 10
17.7834791804
 20
8.0678274806
 30
0.0
 10
17.7850956234
 20
8.0716956985
 30
0.0
 10
17.7857431574
 20
8.0736778578
 30
0.0
  0
LINE
  5
30A
100
AcDbEntity
  8
0
100
AcDbLine
 62
7
  6
CONTINUOUS
 10
9.4426923427
 20
6.6211772378
 11
9.7302559961
 21
7.8324210802
  0
LINE
  5
30B
100
AcDbEntity
  8
0
100
AcDbLine
 62
7
  6
CONTINUOUS
 10
9.7302559961
 20
7.8324210802
 11
9.8163158484
 21
8.195763828
  0
LINE
  5
30C
100
AcDbEntity
  8
0
100
AcDbLine
 62
7
  6
CONTINUOUS
 10
9.8163158484
 20
8.195763828
 11
9.9334470765
 21
8.6914226545
  0
SPLINE
  5
30D
100
AcDbEntity
  8
0
100
AcDbSpline
 62
7
  6
CONTINUOUS
 70
0
 71
3
 72
10
 73
6
 74
0
 42
0.0000001
 43
0.0000001
 44
0.0000000001
 40
0.0
 40
0.0
 40
0.0
 40
0.0
 40
0.5707722321
 40
0.8030791011
 40
1.0
 40
1.0
 40
1.0
 40
1.0
 10
9.9334470765
 20
8.6914226545
 30
0.0
 10
9.9632020097
 20
8.8175666271
 30
0.0
 10
10.0050055471
 20
8.9950663862
 30
0.0
 10
10.0568165953
 20
9.216147431
 30
0.0
 10
10.0789652454
 20
9.3110626421
 30
0.0
 10
10.0890943436
 20
9.3546152947
 30
0.0
  0
LINE
  5
30E
100
AcDbEntity
  8
0
100
AcDbLine
 62
7
  6
CONTINUOUS
 10
10.2055768152
 20
10.7680354258
 11
10.210826503
 21
10.9714262016
  0
LINE
  5
30F
100
AcDbEntity
  8
0
100
AcDbLine
 62
7
  6
CONTINUOUS
 10
11.6698083411
 20
10.7680250766
 11
11.6645610932
 21
10.9714259656
  0
SPLINE
  5
310
100
AcDbEntity
  8
0
100
AcDbSpline
 62
7
  6
CONTINUOUS
 70
0
 71
3
 72
25
 73
21
 74
0
 42
0.0000001
 43
0.0000001
 44
0.0000000001
 40
0.0
 40
0.0
 40
0.0
 40
0.0
 40
0.1947323376
 40
0.3778628866
 40
0.4635486085
 40
0.5445132617
 40
0.6202595347
 40
0.6903342192
 40
0.7542846007
 40
0.8116584506
 40
0.8620138347
 40
0.9050438233
 40
0.9405427415
 40
0.9554060488
 40
0.9683131691
 40
0.9792416474
 40
0.9881716103
 40
0.9950888593
 40
0.9977928392
 40
1.0
 40
1.0
 40
1.0
 40
1.0
 10
11.6628140123
 20
11.0384127734
 30
0.0
 10
11.6614249874
 20
11.0915380608
 30
0.0
 10
11.6586766864
 20
11.1946221575
 30
0.0
 10
11.6550745207
 20
11.3210757709
 30
0.0
 10
11.6521398672
 20
11.4164876835
 30
0.0
 10
11.6499803425
 20
11.4826037493
 30
0.0
 10
11.6478146326
 20
11.5444568604
 30
0.0
 10
11.6456439243
 20
11.6016634545
 30
0.0
 10
11.6434692055
 20
11.6538520576
 30
0.0
 10
11.6412922602
 20
11.7006539128
 30
0.0
 10
11.6391130856
 20
11.7417395689
 30
0.0
 10
11.6369328962
 20
11.7768455931
 30
0.0
 10
11.635030373
 20
11.802263066
 30
0.0
 10
11.6334633976
 20
11.8194587863
 30
0.0
 10
11.6323599088
 20
11.8299624406
 30
0.0
 10
11.6312608062
 20
11.8388375288
 30
0.0
 10
11.6301660732
 20
11.8460627924
 30
0.0
 10
11.6292055823
 20
11.8510373941
 30
0.0
 10
11.628400499
 20
11.8541642806
 30
0.0
 10
11.627992849
 20
11.8554426118
 30
0.0
 10
11.6277819657
 20
11.8560068353
 30
0.0
  0
SPLINE
  5
311
100
AcDbEntity
  8
0
100
AcDbSpline
 62
7
  6
CONTINUOUS
 70
0
 71
3
 72
25
 73
21
 74
0
 42
0.0000001
 43
0.0000001
 44
0.0000000001
 40
0.0
 40
0.0
 40
0.0
 40
0.0
 40
0.1947194468
 40
0.3778391826
 40
0.4635206196
 40
0.5444818944
 40
0.620225765
 40
0.6902991234
 40
0.7542493563
 40
0.8116243361
 40
0.8619821896
 40
0.9050159086
 40
0.9405198464
 40
0.9553861587
 40
0.9682966189
 40
0.9792287732
 40
0.9881627444
 40
0.9950843176
 40
0.9977905558
 40
1.0
 40
1.0
 40
1.0
 40
1.0
 10
10.2125706731
 20
11.0384127734
 30
0.0
 10
10.2139595925
 20
11.0915340236
 30
0.0
 10
10.2167076903
 20
11.1946106438
 30
0.0
 10
10.2203095729
 20
11.3210553839
 30
0.0
 10
10.2232439875
 20
11.4164613234
 30
0.0
 10
10.2254033422
 20
11.4825739979
 30
0.0
 10
10.2275688824
 20
11.5444245675
 30
0.0
 10
10.229739421
 20
11.6016295479
 30
0.0
 10
10.2319139709
 20
11.6538175516
 30
0.0
 10
10.2340907489
 20
11.7006198976
 30
0.0
 10
10.2362697558
 20
11.7417071617
 30
0.0
 10
10.2384497842
 20
11.7768159179
 30
0.0
 10
10.240352152
 20
11.8022363678
 30
0.0
 10
10.2419189754
 20
11.8194350458
 30
0.0
 10
10.2430223841
 20
11.8299413541
 30
0.0
 10
10.2441214162
 20
11.8388193921
 30
0.0
 10
10.2452160847
 20
11.8460479084
 30
0.0
 10
10.2461765092
 20
11.8510254058
 30
0.0
 10
10.2469814815
 20
11.8541547847
 30
0.0
 10
10.247389072
 20
11.8554344162
 30
0.0
 10
10.247599911
 20
11.8559993152
 30
0.0
  0
LINE
  5
312
100
AcDbEntity
  8
0
100
AcDbLine
 62
7
  6
CONTINUOUS
 10
10.2108250868
 20
10.9714193196
 11
10.2125706731
 21
11.0384127732
  0
LINE
  5
313
100
AcDbEntity
  8
0
100
AcDbLine
 62
7
  6
CONTINUOUS
 10
11.6645595985
 20
10.9714193196
 11
11.6628140123
 21
11.0384127732
  0
SPLINE
  5
314
100
AcDbEntity
  8
0
100
AcDbSpline
 62
7
  6
CONTINUOUS
 70
0
 71
3
 72
23
 73
19
 74
0
 42
0.0000001
 43
0.0000001
 44
0.0000000001
 40
0.0
 40
0.0
 40
0.0
 40
0.0
 40
0.010774981
 40
0.0219041096
 40
0.0337062145
 40
0.0464415951
 40
0.0754261266
 40
0.1099594018
 40
0.1505807232
 40
0.1975551298
 40
0.2509973704
 40
0.3109365199
 40
0.3773185913
 40
0.4499270795
 40
0.5284874422
 40
0.6127078176
 40
0.796898016
 40
1.0
 40
1.0
 40
1.0
 40
1.0
 10
11.6701926239
 20
10.7530227694
 30
0.0
 10
11.6701926531
 20
10.7516552695
 30
0.0
 10
11.6699253175
 20
10.7488687598
 30
0.0
 10
11.6687405821
 20
10.7447368134
 30
0.0
 10
11.6667886662
 20
10.7406325999
 30
0.0
 10
11.6630196611
 20
10.7349588746
 30
0.0
 10
11.6562229307
 20
10.727964806
 30
0.0
 10
11.6455728233
 20
10.7200816329
 30
0.0
 10
11.632113628
 20
10.71234065
 30
0.0
 10
11.6158791589
 20
10.7047644254
 30
0.0
 10
11.5969032714
 20
10.6973776176
 30
0.0
 10
11.5752337616
 20
10.6902144284
 30
0.0
 10
11.5509421172
 20
10.6833123108
 30
0.0
 10
11.5241335405
 20
10.6766880666
 30
0.0
 10
11.4949321235
 20
10.6703661928
 30
0.0
 10
11.4516703092
 20
10.6621272555
 30
0.0
 10
11.3925265143
 20
10.6529036602
 30
0.0
 10
11.343716262
 20
10.6470320023
 30
0.0
 10
11.3180819953
 20
10.644327301
 30
0.0
  0
SPLINE
  5
315
100
AcDbEntity
  8
0
100
AcDbSpline
 62
7
  6
CONTINUOUS
 70
0
 71
3
 72
11
 73
7
 74
0
 42
0.0000001
 43
0.0000001
 44
0.0000000001
 40
0.0
 40
0.0
 40
0.0
 40
0.0
 40
0.2339270242
 40
0.4815596891
 40
0.7384171542
 40
1.0
 40
1.0
 40
1.0
 40
1.0
 10
11.3180818665
 20
10.6443322028
 30
0.0
 10
11.2885375222
 20
10.6412146944
 30
0.0
 10
11.2276076061
 20
10.6358191914
 30
0.0
 10
11.1339934384
 20
10.630118818
 30
0.0
 10
11.0367566923
 20
10.6266282049
 30
0.0
 10
10.9709129577
 20
10.625836461
 30
0.0
 10
10.9376923431
 20
10.625836461
 30
0.0
  0
SPLINE
  5
316
100
AcDbEntity
  8
0
100
AcDbSpline
 62
7
  6
CONTINUOUS
 70
0
 71
3
 72
11
 73
7
 74
0
 42
0.0000001
 43
0.0000001
 44
0.0000000001
 40
0.0
 40
0.0
 40
0.0
 40
0.0
 40
0.2615828458
 40
0.5184403108
 40
0.7660729757
 40
1.0
 40
1.0
 40
1.0
 40
1.0
 10
10.9376923431
 20
10.625836461
 30
0.0
 10
10.9044717286
 20
10.625836461
 30
0.0
 10
10.8386279939
 20
10.6266282048
 30
0.0
 10
10.7413912477
 20
10.630118818
 30
0.0
 10
10.6477770799
 20
10.6358191914
 30
0.0
 10
10.5868471637
 20
10.6412146943
 30
0.0
 10
10.5573028193
 20
10.6443322027
 30
0.0
  0
SPLINE
  5
317
100
AcDbEntity
  8
0
100
AcDbSpline
 62
7
  6
CONTINUOUS
 70
0
 71
3
 72
23
 73
19
 74
0
 42
0.0000001
 43
0.0000001
 44
0.0000000001
 40
0.0
 40
0.0
 40
0.0
 40
0.0
 40
0.203101984
 40
0.3872921824
 40
0.4715125578
 40
0.5500729206
 40
0.6226814087
 40
0.6890634801
 40
0.7490026296
 40
0.8024448702
 40
0.8494192769
 40
0.8900405982
 40
0.9245738735
 40
0.9535584049
 40
0.9662937856
 40
0.9780958904
 40
0.989225019
 40
1.0
 40
1.0
 40
1.0
 40
1.0
 10
10.5573026905
 20
10.644327301
 30
0.0
 10
10.5316684238
 20
10.6470320023
 30
0.0
 10
10.4828581715
 20
10.6529036601
 30
0.0
 10
10.4237143765
 20
10.6621272554
 30
0.0
 10
10.3804525621
 20
10.6703661928
 30
0.0
 10
10.3512511451
 20
10.6766880665
 30
0.0
 10
10.3244425684
 20
10.6833123107
 30
0.0
 10
10.3001509239
 20
10.6902144283
 30
0.0
 10
10.2784814142
 20
10.6973776176
 30
0.0
 10
10.2595055267
 20
10.7047644254
 30
0.0
 10
10.2432710575
 20
10.71234065
 30
0.0
 10
10.2298118622
 20
10.7200816329
 30
0.0
 10
10.2191617548
 20
10.727964806
 30
0.0
 10
10.2123650244
 20
10.7349588745
 30
0.0
 10
10.2085960193
 20
10.7406325998
 30
0.0
 10
10.2066441033
 20
10.7447368134
 30
0.0
 10
10.2054593679
 20
10.7488687598
 30
0.0
 10
10.2051920324
 20
10.7516552695
 30
0.0
 10
10.2051920616
 20
10.7530227695
 30
0.0
  0
SPLINE
  5
318
100
AcDbEntity
  8
0
100
AcDbSpline
 62
7
  6
CONTINUOUS
 70
0
 71
3
 72
11
 73
7
 74
0
 42
0.0000001
 43
0.0000001
 44
0.0000000001
 40
0.0
 40
0.0
 40
0.0
 40
0.0
 40
0.2482083493
 40
0.497335835
 40
0.7477971864
 40
1.0
 40
1.0
 40
1.0
 40
1.0
 10
10.2808730771
 20
10.6999141251
 30
0.0
 10
10.2749347203
 20
10.5875037625
 30
0.0
 10
10.2579922853
 20
10.3625014967
 30
0.0
 10
10.2175086112
 20
10.0256790724
 30
0.0
 10
10.1619315736
 20
9.6891807623
 30
0.0
 10
10.1150074282
 20
9.4660094781
 30
0.0
 10
10.089086309
 20
9.354606713
 30
0.0
  0
SPLINE
  5
319
100
AcDbEntity
  8
0
100
AcDbSpline
 62
7
  6
CONTINUOUS
 70
0
 71
3
 72
11
 73
7
 74
0
 42
0.0000001
 43
0.0000001
 44
0.0000000001
 40
0.0
 40
0.0
 40
0.0
 40
0.0
 40
0.2522028172
 40
0.5026641682
 40
0.7517916518
 40
1.0
 40
1.0
 40
1.0
 40
1.0
 10
11.7862983765
 20
9.354606713
 30
0.0
 10
11.7603771785
 20
9.4660098166
 30
0.0
 10
11.7134529054
 20
9.6891817806
 30
0.0
 10
11.6578757667
 20
10.0256811206
 30
0.0
 10
11.6173920839
 20
10.3625045761
 30
0.0
 10
11.6004497048
 20
10.5875075295
 30
0.0
 10
11.5945113914
 20
10.6999182348
 30
0.0
  0
LINE
  5
31A
100
AcDbEntity
  8
0
100
AcDbLine
 62
7
  6
CONTINUOUS
 10
12.0590688371
 20
8.195763828
 11
12.1451286893
 21
7.8324210802
  0
LINE
  5
31B
100
AcDbEntity
  8
0
100
AcDbLine
 62
7
  6
CONTINUOUS
 10
11.9419376089
 20
8.6914226545
 11
12.0590688371
 21
8.195763828
  0
LINE
  5
31C
100
AcDbEntity
  8
0
100
AcDbLine
 62
7
  6
CONTINUOUS
 10
12.1451286893
 20
7.8324210802
 11
12.4326923427
 21
6.6211772378
  0
SPLINE
  5
31D
100
AcDbEntity
  8
0
100
AcDbSpline
 62
7
  6
CONTINUOUS
 70
0
 71
3
 72
40
 73
36
 74
0
 42
0.0000001
 43
0.0000001
 44
0.0000000001
 40
0.0
 40
0.0
 40
0.0
 40
0.0
 40
0.0815330458
 40
0.1616557155
 40
0.2010039645
 40
0.2397478198
 40
0.2777560657
 40
0.3148742539
 40
0.3509111921
 40
0.3856370762
 40
0.4187885553
 40
0.4500736094
 40
0.4792061422
 40
0.5059686766
 40
0.5303128337
 40
0.541654656
 40
0.552514393
 40
0.5629827744
 40
0.5731694172
 40
0.5831987723
 40
0.593197375
 40
0.6032861489
 40
0.6135696662
 40
0.6350162663
 40
0.6579978861
 40
0.682667011
 40
0.7090032461
 40
0.7369007498
 40
0.76621648
 40
0.7968003248
 40
0.8285133798
 40
0.8612233393
 40
0.8948212843
 40
0.9292077932
 40
1.0
 40
1.0
 40
1.0
 40
1.0
 10
10.1901923427
 20
6.6211772378
 30
0.0
 10
10.1706880187
 20
6.5855641395
 30
0.0
 10
10.1307957948
 20
6.5156132626
 30
0.0
 10
10.0777191947
 20
6.4306983301
 30
0.0
 10
10.0335208312
 20
6.3654599546
 30
0.0
 10
9.9997937019
 20
6.3184866878
 30
0.0
 10
9.9653101128
 20
6.2734545195
 30
0.0
 10
9.9301207675
 20
6.2306999649
 30
0.0
 10
9.8943017311
 20
6.1906332065
 30
0.0
 10
9.8579741079
 20
6.1537431905
 30
0.0
 10
9.8213145651
 20
6.1206041876
 30
0.0
 10
9.7845667351
 20
6.0918725521
 30
0.0
 10
9.7480417045
 20
6.0682612632
 30
0.0
 10
9.7121305439
 20
6.0505002317
 30
0.0
 10
9.6823587964
 20
6.0409380782
 30
0.0
 10
9.6594568392
 20
6.0371241277
 30
0.0
 10
9.6431812242
 20
6.0361673698
 30
0.0
 10
9.6274742916
 20
6.0370571878
 30
0.0
 10
9.6124005208
 20
6.0398001598
 30
0.0
 10
9.5980163827
 20
6.044354557
 30
0.0
 10
9.5843710306
 20
6.0506734459
 30
0.0
 10
9.5714907205
 20
6.0586704566
 30
0.0
 10
9.5551387055
 20
6.071630841
 30
0.0
 10
9.5366089842
 20
6.0918530041
 30
0.0
 10
9.517811549
 20
6.1208100727
 30
0.0
 10
9.501798221
 20
6.1540806031
 30
0.0
 10
9.48828878
 20
6.1910304228
 30
0.0
 10
9.4770139732
 20
6.2311150612
 30
0.0
 10
9.467732179
 20
6.2738638015
 30
0.0
 10
9.460216484
 20
6.3188791385
 30
0.0
 10
9.4542756595
 20
6.3658292274
 30
0.0
 10
9.4497220659
 20
6.4144389621
 30
0.0
 10
9.4464076398
 20
6.4644815486
 30
0.0
 10
9.443420009
 20
6.5335335294
 30
0.0
 10
9.4426923427
 20
6.5859219627
 30
0.0
 10
9.4426923427
 20
6.6211772378
 30
0.0
  0
SPLINE
  5
31E
100
AcDbEntity
  8
0
100
AcDbSpline
 62
7
  6
CONTINUOUS
 70
0
 71
3
 72
18
 73
14
 74
0
 42
0.0000001
 43
0.0000001
 44
0.0000000001
 40
0.0
 40
0.0
 40
0.0
 40
0.0
 40
0.0639282835
 40
0.1277465415
 40
0.1913691497
 40
0.2547393052
 40
0.3178347457
 40
0.3806592821
 40
0.5055208702
 40
0.6296647301
 40
0.7533328155
 40
0.8767295842
 40
1.0
 40
1.0
 40
1.0
 40
1.0
 10
10.9376923427
 20
6.0364730438
 30
0.0
 10
10.916489148
 20
6.0364730438
 30
0.0
 10
10.8740792597
 20
6.0389248517
 30
0.0
 10
10.8114157796
 20
6.049783287
 30
0.0
 10
10.7504859819
 20
6.0673295661
 30
0.0
 10
10.691892098
 20
6.0908701157
 30
0.0
 10
10.6359909499
 20
6.1196317005
 30
0.0
 10
10.5654306933
 20
6.1638254408
 30
0.0
 10
10.4842761506
 20
6.2285209609
 30
0.0
 10
10.3975436155
 20
6.3169081605
 30
0.0
 10
10.3202623635
 20
6.4129642637
 30
0.0
 10
10.2511820676
 20
6.5146547912
 30
0.0
 10
10.209831629
 20
6.585317711
 30
0.0
 10
10.1901923427
 20
6.6211772378
 30
0.0
  0
SPLINE
  5
31F
100
AcDbEntity
  8
0
100
AcDbSpline
 62
7
  6
CONTINUOUS
 70
0
 71
3
 72
25
 73
21
 74
0
 42
0.0000001
 43
0.0000001
 44
0.0000000001
 40
0.0
 40
0.0
 40
0.0
 40
0.0
 40
0.06841119
 40
0.1391821667
 40
0.211642628
 40
0.2851183643
 40
0.4324066573
 40
0.5048615218
 40
0.575617634
 40
0.6439962122
 40
0.7093200663
 40
0.7709148935
 40
0.8281112623
 40
0.8802479318
 40
0.9042164619
 40
0.9266793138
 40
0.9475599114
 40
0.966784838
 40
0.9842853659
 40
1.0
 40
1.0
 40
1.0
 40
1.0
 10
10.1901923427
 20
6.6211772378
 30
0.0
 10
10.1981872893
 20
6.6649713447
 30
0.0
 10
10.2150825821
 20
6.7539557698
 30
0.0
 10
10.2422097578
 20
6.8889838191
 30
0.0
 10
10.2710978602
 20
7.0270144317
 30
0.0
 10
10.3112795421
 20
7.2135493672
 30
0.0
 10
10.3525527214
 20
7.3998421744
 30
0.0
 10
10.3935323686
 20
7.5843863301
 30
0.0
 10
10.4231770772
 20
7.7188471287
 30
0.0
 10
10.4513632376
 20
7.8488770979
 30
0.0
 10
10.4775558865
 20
7.9732374436
 30
0.0
 10
10.5012232595
 20
8.0906899442
 30
0.0
 10
10.5218337189
 20
8.1999967525
 30
0.0
 10
10.5364170791
 20
8.2855145061
 30
0.0
 10
10.5459715698
 20
8.3489430855
 30
0.0
 10
10.5518286492
 20
8.3923544583
 30
0.0
 10
10.5565170634
 20
8.4328021928
 30
0.0
 10
10.5599717305
 20
8.4701336293
 30
0.0
 10
10.5621287413
 20
8.504195433
 30
0.0
 10
10.5626923427
 20
8.5258107722
 30
0.0
 10
10.5626923427
 20
8.5360369125
 30
0.0
  0
SPLINE
  5
320
100
AcDbEntity
  8
0
100
AcDbSpline
 62
7
  6
CONTINUOUS
 70
0
 71
3
 72
41
 73
37
 74
0
 42
0.0000001
 43
0.0000001
 44
0.0000000001
 40
0.0
 40
0.0
 40
0.0
 40
0.0
 40
0.1033360194
 40
0.2041593653
 40
0.3017447508
 40
0.3953668882
 40
0.4843004922
 40
0.5678565463
 40
0.6454734408
 40
0.7166175285
 40
0.7807551639
 40
0.8100297989
 40
0.8373527379
 40
0.8626672121
 40
0.885940262
 40
0.907142434
 40
0.9262442754
 40
0.9432163357
 40
0.958029167
 40
0.9646166709
 40
0.9706533271
 40
0.9761354567
 40
0.9810593821
 40
0.9854214273
 40
0.9892179191
 40
0.9924451894
 40
0.9950997033
 40
0.9962117425
 40
0.997180549
 40
0.9980063364
 40
0.9986893267
 40
0.9992297582
 40
0.9996279089
 40
0.9998841851
 40
0.9999594249
 40
1.0
 40
1.0
 40
1.0
 40
1.0
 10
11.3209050789
 20
11.2909678122
 30
0.0
 10
11.3206855265
 20
11.333423515
 30
0.0
 10
11.3202567794
 20
11.4173026123
 30
0.0
 10
11.3196341673
 20
11.5412748273
 30
0.0
 10
11.3190385021
 20
11.6612561159
 30
0.0
 10
11.3184698348
 20
11.7763525011
 30
0.0
 10
11.3179281552
 20
11.8856849079
 30
0.0
 10
11.3174131349
 20
11.9884415087
 30
0.0
 10
11.316925239
 20
12.0838892157
 30
0.0
 10
11.3164646055
 20
12.1713587743
 30
0.0
 10
11.3160931833
 20
12.2389667968
 30
0.0
 10
11.3158076826
 20
12.2885708156
 30
0.0
 10
11.3156069152
 20
12.3222243107
 30
0.0
 10
11.3154128563
 20
12.353412011
 30
0.0
 10
11.3152256097
 20
12.3820849472
 30
0.0
 10
11.3150452075
 20
12.4082053718
 30
0.0
 10
11.3148717002
 20
12.4317369778
 30
0.0
 10
11.3147051252
 20
12.4526434582
 30
0.0
 10
11.3145673446
 20
12.4684084051
 30
0.0
 10
11.314459487
 20
12.4796805547
 30
0.0
 10
11.3143835238
 20
12.4871192534
 30
0.0
 10
11.3143093035
 20
12.4938744405
 30
0.0
 10
11.3142368438
 20
12.4999415782
 30
0.0
 10
11.3141661726
 20
12.5053161294
 30
0.0
 10
11.314097356
 20
12.509993558
 30
0.0
 10
11.3140304388
 20
12.5139693815
 30
0.0
 10
11.3139735702
 20
12.5168422809
 30
0.0
 10
11.3139279082
 20
12.5187873062
 30
0.0
 10
11.3138961766
 20
12.5199810821
 30
0.0
 10
11.3138650783
 20
12.5209985831
 30
0.0
 10
11.3138343039
 20
12.5218398438
 30
0.0
 10
11.3138050206
 20
12.5225057403
 30
0.0
 10
11.3137750158
 20
12.5229950841
 30
0.0
 10
11.3137521054
 20
12.5232952561
 30
0.0
 10
11.3137284088
 20
12.5234452506
 30
0.0
 10
11.3137187318
 20
12.5234929299
 30
0.0
 10
11.3137105402
 20
12.5235074491
 30
0.0
  0
SPLINE
  5
321
100
AcDbEntity
  8
0
100
AcDbSpline
 62
9
  6
CONTINUOUS
 70
0
 71
3
 72
20
 73
16
 74
0
 42
0.0000001
 43
0.0000001
 44
0.0000000001
 40
0.0
 40
0.0
 40
0.0
 40
0.0
 40
0.0404820529
 40
0.0830321238
 40
0.1280750156
 40
0.1759368782
 40
0.22686068
 40
0.2810221434
 40
0.3385439783
 40
0.3995076966
 40
0.4639405534
 40
0.5317498603
 40
0.6768674753
 40
0.8334903745
 40
1.0
 40
1.0
 40
1.0
 40
1.0
 10
11.6628140123
 20
11.0384127734
 30
0.0
 10
11.6614724506
 20
11.0441897289
 30
0.0
 10
11.6578965496
 20
11.0558589505
 30
0.0
 10
11.650229595
 20
11.0730269154
 30
0.0
 10
11.640198538
 20
11.0901902248
 30
0.0
 10
11.6278518198
 20
11.1072999632
 30
0.0
 10
11.6132331141
 20
11.1243125538
 30
0.0
 10
11.5963842469
 20
11.1411812069
 30
0.0
 10
11.5773459754
 20
11.1578583095
 30
0.0
 10
11.5561608975
 20
11.1742924065
 30
0.0
 10
11.5328877983
 20
11.1904239127
 30
0.0
 10
11.4984223895
 20
11.2119699561
 30
0.0
 10
11.4507087952
 20
11.2376808858
 30
0.0
 10
11.3881731586
 20
11.2659817658
 30
0.0
 10
11.3439180921
 20
11.2828768055
 30
0.0
 10
11.3209050789
 20
11.2909678122
 30
0.0
  0
SPLINE
  5
322
100
AcDbEntity
  8
0
100
AcDbSpline
 62
9
  6
CONTINUOUS
 70
0
 71
3
 72
11
 73
7
 74
0
 42
0.0000001
 43
0.0000001
 44
0.0000000001
 40
0.0
 40
0.0
 40
0.0
 40
0.0
 40
0.2359133398
 40
0.4835386947
 40
0.739396503
 40
1.0
 40
1.0
 40
1.0
 40
1.0
 10
11.3209050789
 20
11.2909678122
 30
0.0
 10
11.2909489201
 20
11.2948900352
 30
0.0
 10
11.2293908687
 20
11.301748421
 30
0.0
 10
11.1349715189
 20
11.3090959769
 30
0.0
 10
11.037210232
 20
11.3136326028
 30
0.0
 10
10.9710660857
 20
11.3146684848
 30
0.0
 10
10.9376923427
 20
11.3146684848
 30
0.0
  0
SPLINE
  5
323
100
AcDbEntity
  8
0
100
AcDbSpline
 62
7
  6
CONTINUOUS
 70
0
 71
3
 72
40
 73
36
 74
0
 42
0.0000001
 43
0.0000001
 44
0.0000000001
 40
0.0
 40
0.0
 40
0.0
 40
0.0
 40
0.1033208793
 40
0.20412994
 40
0.3017022189
 40
0.3953127518
 40
0.4842365772
 40
0.5677849092
 40
0.6453963239
 40
0.7165374124
 40
0.7806747674
 40
0.809950356
 40
0.837275016
 40
0.8625919332
 40
0.8858681249
 40
0.9070741507
 40
0.9261805713
 40
0.9431579491
 40
0.9579768493
 40
0.9706078421
 40
0.9760936793
 40
0.9810215083
 40
0.9853876547
 40
0.9891884471
 40
0.9924202188
 40
0.9950794301
 40
0.9961938793
 40
0.9971651344
 40
0.997993409
 40
0.9986789248
 40
0.9992219194
 40
0.9996226698
 40
0.9998815774
 40
0.9999581365
 40
1.0
 40
1.0
 40
1.0
 40
1.0
 10
10.5544796066
 20
11.2909678122
 30
0.0
 10
10.5546991266
 20
11.3334172551
 30
0.0
 10
10.5551278122
 20
11.4172841849
 30
0.0
 10
10.5557503382
 20
11.5412388101
 30
0.0
 10
10.5563459253
 20
11.6612039652
 30
0.0
 10
10.5569145225
 20
11.776286073
 30
0.0
 10
10.55745614
 20
11.88560642
 30
0.0
 10
10.5579711061
 20
11.9883534835
 30
0.0
 10
10.5584589564
 20
12.0837944454
 30
0.0
 10
10.5589195525
 20
12.1712603238
 30
0.0
 10
10.559290946
 20
12.2388673279
 30
0.0
 10
10.5595764264
 20
12.2884722842
 30
0.0
 10
10.5597771836
 20
12.3221278506
 30
0.0
 10
10.5599712341
 20
12.3533185236
 30
0.0
 10
10.5601584756
 20
12.3819953111
 30
0.0
 10
10.5603388716
 20
12.4081204671
 30
0.0
 10
10.5605123855
 20
12.4316577007
 30
0.0
 10
10.5606789368
 20
12.4525707219
 30
0.0
 10
10.5608384716
 20
12.4708232406
 30
0.0
 10
10.5609708505
 20
12.4843544422
 30
0.0
 10
10.5610747779
 20
12.4938219109
 30
0.0
 10
10.5611472461
 20
12.4998938554
 30
0.0
 10
10.5612179212
 20
12.5052734577
 30
0.0
 10
10.561286744
 20
12.5099561838
 30
0.0
 10
10.5613536689
 20
12.5139375503
 30
0.0
 10
10.5614105402
 20
12.5168152179
 30
0.0
 10
10.561456202
 20
12.5187641678
 30
0.0
 10
10.561487936
 20
12.5199609635
 30
0.0
 10
10.5615190461
 20
12.5209815244
 30
0.0
 10
10.5615498111
 20
12.5218259153
 30
0.0
 10
10.5615791504
 20
12.5224949291
 30
0.0
 10
10.5616090761
 20
12.5229875793
 30
0.0
 10
10.5616321851
 20
12.5232902682
 30
0.0
 10
10.5616557171
 20
12.5234426226
 30
0.0
 10
10.5616655291
 20
12.5234912313
 30
0.0
 10
10.5616735866
 20
12.5235064271
 30
0.0
  0
SPLINE
  5
324
100
AcDbEntity
  8
0
100
AcDbSpline
 62
9
  6
CONTINUOUS
 70
0
 71
3
 72
11
 73
7
 74
0
 42
0.0000001
 43
0.0000001
 44
0.0000000001
 40
0.0
 40
0.0
 40
0.0
 40
0.0
 40
0.2601261596
 40
0.5151951628
 40
0.7626864963
 40
1.0
 40
1.0
 40
1.0
 40
1.0
 10
10.9376923427
 20
11.3146684848
 30
0.0
 10
10.9043829458
 20
11.3146684848
 30
0.0
 10
10.8384069862
 20
11.3134891718
 30
0.0
 10
10.7408521075
 20
11.3086073064
 30
0.0
 10
10.6463947622
 20
11.3011213148
 30
0.0
 10
10.5846542184
 20
11.2945645348
 30
0.0
 10
10.5544796066
 20
11.2909678122
 30
0.0
  0
SPLINE
  5
325
100
AcDbEntity
  8
0
100
AcDbSpline
 62
9
  6
CONTINUOUS
 70
0
 71
3
 72
21
 73
17
 74
0
 42
0.0000001
 43
0.0000001
 44
0.0000000001
 40
0.0
 40
0.0
 40
0.0
 40
0.0
 40
0.1657025768
 40
0.3223225372
 40
0.396570535
 40
0.4677841365
 40
0.5357532871
 40
0.6003021638
 40
0.6613270669
 40
0.7188727952
 40
0.7730409783
 40
0.8239701896
 40
0.8718464511
 40
0.9169157501
 40
0.9594979128
 40
1.0
 40
1.0
 40
1.0
 40
1.0
 10
10.5544796066
 20
11.2909678122
 30
0.0
 10
10.5317013609
 20
11.2825808843
 30
0.0
 10
10.4877275753
 20
11.2653365577
 30
0.0
 10
10.4347649614
 20
11.2413828849
 30
0.0
 10
10.3953739684
 20
11.2212036231
 30
0.0
 10
10.3680779848
 20
11.2059421928
 30
0.0
 10
10.3426479083
 20
11.1903039642
 30
0.0
 10
10.3192265006
 20
11.1743048715
 30
0.0
 10
10.297946676
 20
11.1579474946
 30
0.0
 10
10.2788627097
 20
11.1413044679
 30
0.0
 10
10.2620066175
 20
11.1244375603
 30
0.0
 10
10.2474082525
 20
11.1074043455
 30
0.0
 10
10.2350984015
 20
11.0902617621
 30
0.0
 10
10.2251095252
 20
11.0730638399
 30
0.0
 10
10.2174783899
 20
11.0558699683
 30
0.0
 10
10.2139127624
 20
11.0441920007
 30
0.0
 10
10.2125706731
 20
11.0384127734
 30
0.0
  0
SPLINE
  5
326
100
AcDbEntity
  8
0
100
AcDbSpline
 62
9
  6
CONTINUOUS
 70
0
 71
3
 72
15
 73
11
 74
0
 42
0.0000001
 43
0.0000001
 44
0.0000000001
 40
0.0
 40
0.0
 40
0.0
 40
0.0
 40
0.1593606897
 40
0.3109983369
 40
0.4535991174
 40
0.5859554863
 40
0.7070277179
 40
0.8161638403
 40
0.9135819326
 40
1.0
 40
1.0
 40
1.0
 40
1.0
 10
10.5539424067
 20
11.1900222393
 30
0.0
 10
10.5353495018
 20
11.1844067159
 30
0.0
 10
10.4992360463
 20
11.1728665009
 30
0.0
 10
10.4472286271
 20
11.1540762976
 30
0.0
 10
10.3991360862
 20
11.134267351
 30
0.0
 10
10.3555256396
 20
11.1135190104
 30
0.0
 10
10.3169338767
 20
11.0919097162
 30
0.0
 10
10.2838546219
 20
11.0694323214
 30
0.0
 10
10.2565380736
 20
11.0463269723
 30
0.0
 10
10.2413938362
 20
11.0296803268
 30
0.0
 10
10.235013287
 20
11.02130061
 30
0.0
  0
SPLINE
  5
327
100
AcDbEntity
  8
0
100
AcDbSpline
 62
9
  6
CONTINUOUS
 70
0
 71
3
 72
11
 73
7
 74
0
 42
0.0000001
 43
0.0000001
 44
0.0000000001
 40
0.0
 40
0.0
 40
0.0
 40
0.0
 40
0.2717540702
 40
0.5274570936
 40
0.7692969457
 40
1.0
 40
1.0
 40
1.0
 40
1.0
 10
10.235013287
 20
11.02130061
 30
0.0
 10
10.2319472104
 20
11.0172738637
 30
0.0
 10
10.2263233279
 20
11.009199532
 30
0.0
 10
10.2193269208
 20
10.9966665383
 30
0.0
 10
10.2140668976
 20
10.9841328008
 30
0.0
 10
10.211690957
 20
10.9756278075
 30
0.0
 10
10.2108250868
 20
10.9714193196
 30
0.0
  0
SPLINE
  5
328
100
AcDbEntity
  8
0
100
AcDbSpline
 62
7
  6
CONTINUOUS
 70
0
 71
3
 72
25
 73
21
 74
0
 42
0.0000001
 43
0.0000001
 44
0.0000000001
 40
0.0
 40
0.0
 40
0.0
 40
0.0
 40
0.0157146341
 40
0.033215162
 40
0.0524400886
 40
0.0733206862
 40
0.0957835381
 40
0.1197520682
 40
0.1718887377
 40
0.2290851065
 40
0.2906799337
 40
0.3560037878
 40
0.424382366
 40
0.4951384782
 40
0.5675933427
 40
0.7148816357
 40
0.788357372
 40
0.8608178333
 40
0.93158881
 40
1.0
 40
1.0
 40
1.0
 40
1.0
 10
11.3126923427
 20
8.5360369125
 30
0.0
 10
11.3126923427
 20
8.5258107722
 30
0.0
 10
11.3132559442
 20
8.504195433
 30
0.0
 10
11.3154129549
 20
8.4701336293
 30
0.0
 10
11.3188676221
 20
8.4328021928
 30
0.0
 10
11.3235560362
 20
8.3923544583
 30
0.0
 10
11.3294131156
 20
8.3489430855
 30
0.0
 10
11.3389676064
 20
8.2855145061
 30
0.0
 10
11.3535509666
 20
8.1999967525
 30
0.0
 10
11.3741614259
 20
8.0906899442
 30
0.0
 10
11.397828799
 20
7.9732374436
 30
0.0
 10
11.4240214478
 20
7.8488770979
 30
0.0
 10
11.4522076083
 20
7.7188471287
 30
0.0
 10
11.4818523169
 20
7.5843863301
 30
0.0
 10
11.522831964
 20
7.3998421744
 30
0.0
 10
11.5641051433
 20
7.2135493672
 30
0.0
 10
11.6042868253
 20
7.0270144317
 30
0.0
 10
11.6331749276
 20
6.8889838191
 30
0.0
 10
11.6603021033
 20
6.7539557698
 30
0.0
 10
11.6771973962
 20
6.6649713447
 30
0.0
 10
11.6851923427
 20
6.6211772378
 30
0.0
  0
LINE
  5
329
100
AcDbEntity
  8
0
100
AcDbLine
 62
7
  6
CONTINUOUS
 10
11.3214422601
 20
11.1900223337
 11
11.3209122331
 21
11.2909652969
  0
SPLINE
  5
32A
100
AcDbEntity
  8
0
100
AcDbSpline
 62
9
  6
CONTINUOUS
 70
0
 71
3
 72
11
 73
7
 74
0
 42
0.0000001
 43
0.0000001
 44
0.0000000001
 40
0.0
 40
0.0
 40
0.0
 40
0.0
 40
0.2310037065
 40
0.4729290847
 40
0.7285309334
 40
1.0
 40
1.0
 40
1.0
 40
1.0
 10
11.6645595986
 20
10.9714193196
 30
0.0
 10
11.6637048397
 20
10.9755738023
 30
0.0
 10
11.6613616268
 20
10.9839657809
 30
0.0
 10
11.656179419
 20
10.9963295144
 30
0.0
 10
11.6492968203
 20
11.0086872704
 30
0.0
 10
11.643770636
 20
11.0166513011
 30
0.0
 10
11.6407598819
 20
11.0206237738
 30
0.0
  0
SPLINE
  5
32B
100
AcDbEntity
  8
0
100
AcDbSpline
 62
9
  6
CONTINUOUS
 70
0
 71
3
 72
15
 73
11
 74
0
 42
0.0000001
 43
0.0000001
 44
0.0000000001
 40
0.0
 40
0.0
 40
0.0
 40
0.0
 40
0.0862501485
 40
0.1835149463
 40
0.2924537833
 40
0.4132389482
 40
0.5453104951
 40
0.6878015682
 40
0.8397205852
 40
1.0
 40
1.0
 40
1.0
 40
1.0
 10
11.6407598819
 20
11.0206237738
 30
0.0
 10
11.6343961242
 20
11.0290202926
 30
0.0
 10
11.6192760806
 20
11.0457039807
 30
0.0
 10
11.5920154249
 20
11.0688981136
 30
0.0
 10
11.5590401945
 20
11.0915437175
 30
0.0
 10
11.5205993152
 20
11.1134298706
 30
0.0
 10
11.477090083
 20
11.1344538933
 30
0.0
 10
11.4289581475
 20
11.1544470625
 30
0.0
 10
11.3766723456
 20
11.1732373666
 30
0.0
 10
11.340246208
 20
11.1845702249
 30
0.0
 10
11.3214422601
 20
11.1900223337
 30
0.0
  0
SPLINE
  5
32C
100
AcDbEntity
  8
0
100
AcDbSpline
 62
9
  6
CONTINUOUS
 70
0
 71
3
 72
11
 73
7
 74
0
 42
0.0000001
 43
0.0000001
 44
0.0000000001
 40
0.0
 40
0.0
 40
0.0
 40
0.0
 40
0.2352910604
 40
0.4828913812
 40
0.7390488146
 40
1.0
 40
1.0
 40
1.0
 40
1.0
 10
11.3214420511
 20
11.1900235772
 30
0.0
 10
11.2915059236
 20
11.193739896
 30
0.0
 10
11.2299219533
 20
11.2002222074
 30
0.0
 10
11.135410256
 20
11.2071436066
 30
0.0
 10
11.0374488122
 20
11.2114098922
 30
0.0
 10
10.9711480663
 20
11.2123827553
 30
0.0
 10
10.9376923427
 20
11.2123827553
 30
0.0
  0
LINE
  5
32D
100
AcDbEntity
  8
0
100
AcDbLine
 62
7
  6
CONTINUOUS
 10
10.5539424138
 20
11.1900235669
 11
10.5544724657
 21
11.290966893
  0
SPLINE
  5
32E
100
AcDbEntity
  8
0
100
AcDbSpline
 62
9
  6
CONTINUOUS
 70
0
 71
3
 72
11
 73
7
 74
0
 42
0.0000001
 43
0.0000001
 44
0.0000000001
 40
0.0
 40
0.0
 40
0.0
 40
0.0
 40
0.2605737711
 40
0.5161068896
 40
0.7636002173
 40
1.0
 40
1.0
 40
1.0
 40
1.0
 10
10.9376923427
 20
11.2123827553
 30
0.0
 10
10.9042874391
 20
11.2123827553
 30
0.0
 10
10.8381196934
 20
11.2112965601
 30
0.0
 10
10.7403204919
 20
11.2067586604
 30
0.0
 10
10.645777626
 20
11.1997286195
 30
0.0
 10
10.5840504137
 20
11.1934830717
 30
0.0
 10
10.5539426497
 20
11.1900236449
 30
0.0
  0
SPLINE
  5
32F
100
AcDbEntity
  8
0
100
AcDbSpline
 62
7
  6
CONTINUOUS
 70
0
 71
3
 72
11
 73
7
 74
0
 42
0.0000001
 43
0.0000001
 44
0.0000000001
 40
0.0
 40
0.0
 40
0.0
 40
0.0
 40
0.2619730969
 40
0.5190864097
 40
0.7666515945
 40
1.0
 40
1.0
 40
1.0
 40
1.0
 10
10.9376923423
 20
10.8802310411
 30
0.0
 10
10.9714180349
 20
10.8802310411
 30
0.0
 10
11.0382465234
 20
10.8794139423
 30
0.0
 10
11.1368872979
 20
10.8758166404
 30
0.0
 10
11.2317276702
 20
10.8699487655
 30
0.0
 10
11.2934011597
 20
10.8643937673
 30
0.0
 10
11.3232696837
 20
10.8611827456
 30
0.0
  0
SPLINE
  5
330
100
AcDbEntity
  8
0
100
AcDbSpline
 62
7
  6
CONTINUOUS
 70
0
 71
3
 72
19
 73
15
 74
0
 42
0.0000001
 43
0.0000001
 44
0.0000000001
 40
0.0
 40
0.0
 40
0.0
 40
0.0
 40
0.1787187135
 40
0.3446105734
 40
0.496222199
 40
0.6321441027
 40
0.6938070341
 40
0.7510603678
 40
0.8037833938
 40
0.851952517
 40
0.8955851524
 40
0.9347290144
 40
0.9694782148
 40
1.0
 40
1.0
 40
1.0
 40
1.0
 10
11.3232697246
 20
10.8611773945
 30
0.0
 10
11.3436906516
 20
10.8589820948
 30
0.0
 10
11.383018881
 20
10.8542812888
 30
0.0
 10
11.439443695
 20
10.845962751
 30
0.0
 10
11.4907358354
 20
10.8367229149
 30
0.0
 10
11.5299420178
 20
10.8280916948
 30
0.0
 10
11.5582831998
 20
10.8206982983
 30
0.0
 10
11.5772191492
 20
10.8151631997
 30
0.0
 10
11.5944815011
 20
10.8094651978
 30
0.0
 10
11.6100351216
 20
10.8036237937
 30
0.0
 10
11.6238574572
 20
10.7976568672
 30
0.0
 10
11.6359305502
 20
10.7915798025
 30
0.0
 10
11.6462351696
 20
10.7854087813
 30
0.0
 10
11.6522967323
 20
10.7809599636
 30
0.0
 10
11.6549825581
 20
10.7787039446
 30
0.0
  0
SPLINE
  5
331
100
AcDbEntity
  8
0
100
AcDbSpline
 62
7
  6
CONTINUOUS
 70
0
 71
3
 72
11
 73
7
 74
0
 42
0.0000001
 43
0.0000001
 44
0.0000000001
 40
0.0
 40
0.0
 40
0.0
 40
0.0
 40
0.2980337155
 40
0.5578983731
 40
0.7877873628
 40
1.0
 40
1.0
 40
1.0
 40
1.0
 10
11.6549825581
 20
10.7787039446
 30
0.0
 10
11.657278134
 20
10.7767757246
 30
0.0
 10
11.6613822241
 20
10.7729186221
 30
0.0
 10
11.666249887
 20
10.7666103689
 30
0.0
 10
11.6693288413
 20
10.760184971
 30
0.0
 10
11.6701281359
 20
10.7557376348
 30
0.0
 10
11.6701848171
 20
10.7536037203
 30
0.0
  0
LINE
  5
332
100
AcDbEntity
  8
0
100
AcDbLine
 62
9
  6
CONTINUOUS
 10
10.5626927683
 20
8.5360423393
 11
10.0890941428
 21
9.3546156428
  0
SPLINE
  5
333
100
AcDbEntity
  8
0
100
AcDbSpline
 62
7
  6
CONTINUOUS
 70
0
 71
3
 72
11
 73
7
 74
0
 42
0.0000001
 43
0.0000001
 44
0.0000000001
 40
0.0
 40
0.0
 40
0.0
 40
0.0
 40
0.2333484054
 40
0.4809135902
 40
0.738026903
 40
1.0
 40
1.0
 40
1.0
 40
1.0
 10
10.5521150013
 20
10.8611827455
 30
0.0
 10
10.5819835253
 20
10.8643937672
 30
0.0
 10
10.6436570147
 20
10.8699487654
 30
0.0
 10
10.7384973869
 20
10.8758166403
 30
0.0
 10
10.8371381613
 20
10.8794139423
 30
0.0
 10
10.9039666497
 20
10.8802310411
 30
0.0
 10
10.9376923423
 20
10.8802310411
 30
0.0
  0
SPLINE
  5
334
100
AcDbEntity
  8
0
100
AcDbSpline
 62
7
  6
CONTINUOUS
 70
0
 71
3
 72
11
 73
7
 74
0
 42
0.0000001
 43
0.0000001
 44
0.0000000001
 40
0.0
 40
0.0
 40
0.0
 40
0.0
 40
0.2122126266
 40
0.4421019406
 40
0.7019667157
 40
1.0
 40
1.0
 40
1.0
 40
1.0
 10
10.2051998779
 20
10.7536040794
 30
0.0
 10
10.2052565948
 20
10.7557379668
 30
0.0
 10
10.2060559451
 20
10.7601852376
 30
0.0
 10
10.2091349165
 20
10.7666105325
 30
0.0
 10
10.2140025427
 20
10.7729186896
 30
0.0
 10
10.2181065832
 20
10.7767757394
 30
0.0
 10
10.2204021279
 20
10.778703933
 30
0.0
  0
SPLINE
  5
335
100
AcDbEntity
  8
0
100
AcDbSpline
 62
7
  6
CONTINUOUS
 70
0
 71
3
 72
19
 73
15
 74
0
 42
0.0000001
 43
0.0000001
 44
0.0000000001
 40
0.0
 40
0.0
 40
0.0
 40
0.0
 40
0.030521785
 40
0.0652709853
 40
0.1044148469
 40
0.1480474815
 40
0.1962166034
 40
0.2489396271
 40
0.3061929575
 40
0.3678558847
 40
0.5037777803
 40
0.6553894017
 40
0.8212812666
 40
1.0
 40
1.0
 40
1.0
 40
1.0
 10
10.2204021279
 20
10.778703933
 30
0.0
 10
10.2230879538
 20
10.7809599518
 30
0.0
 10
10.2291495167
 20
10.785408769
 30
0.0
 10
10.2394541363
 20
10.7915797897
 30
0.0
 10
10.2515272292
 20
10.7976568542
 30
0.0
 10
10.2653495645
 20
10.8036237807
 30
0.0
 10
10.2809031843
 20
10.8094651851
 30
0.0
 10
10.298165535
 20
10.8151631877
 30
0.0
 10
10.3171014829
 20
10.8206982875
 30
0.0
 10
10.3454426625
 20
10.828091686
 30
0.0
 10
10.3846488422
 20
10.8367229088
 30
0.0
 10
10.4359409814
 20
10.8459627462
 30
0.0
 10
10.4923657979
 20
10.8542812823
 30
0.0
 10
10.5316940307
 20
10.8589820838
 30
0.0
 10
10.5521149603
 20
10.8611773802
 30
0.0
  0
LINE
  5
336
100
AcDbEntity
  8
0
100
AcDbLine
 62
9
  6
CONTINUOUS
 10
11.7862905427
 20
9.3546156428
 11
11.3126919172
 21
8.5360423393
  0
SPLINE
  5
337
100
AcDbEntity
  8
0
100
AcDbSpline
 62
7
  6
CONTINUOUS
 70
0
 71
3
 72
40
 73
36
 74
0
 42
0.0000001
 43
0.0000001
 44
0.0000000001
 40
0.0
 40
0.0
 40
0.0
 40
0.0
 40
0.0707920434
 40
0.1051784517
 40
0.1387761989
 40
0.1714861548
 40
0.2031989897
 40
0.2337828544
 40
0.2630983759
 40
0.2909959826
 40
0.3173322362
 40
0.342001342
 40
0.364983054
 40
0.3864297581
 40
0.3967133109
 40
0.4068021286
 40
0.4168007458
 40
0.4268301139
 40
0.4370167395
 40
0.4474851136
 40
0.4583448218
 40
0.4696866273
 40
0.4940306899
 40
0.5207930847
 40
0.5499254646
 40
0.581210399
 40
0.6143619236
 40
0.649087799
 40
0.6851246367
 40
0.7222430925
 40
0.7602513463
 40
0.7989954662
 40
0.8383437451
 40
0.9184667706
 40
1.0
 40
1.0
 40
1.0
 40
1.0
 10
12.4326923427
 20
6.6211772378
 30
0.0
 10
12.4326923427
 20
6.5859220441
 30
0.0
 10
12.4319645813
 20
6.5335337464
 30
0.0
 10
12.4289771373
 20
6.4644819857
 30
0.0
 10
12.4256625381
 20
6.4144395635
 30
0.0
 10
12.4211092228
 20
6.3658300115
 30
0.0
 10
12.4151681825
 20
6.3188800549
 30
0.0
 10
12.4076528498
 20
6.2738648617
 30
0.0
 10
12.3983708481
 20
6.2311162115
 30
0.0
 10
12.387096353
 20
6.1910315335
 30
0.0
 10
12.3735868818
 20
6.1540816656
 30
0.0
 10
12.3575736547
 20
6.1208110427
 30
0.0
 10
12.3387763453
 20
6.091853793
 30
0.0
 10
12.3202466706
 20
6.0716314165
 30
0.0
 10
12.3038946016
 20
6.0586709574
 30
0.0
 10
12.2910143317
 20
6.0506737956
 30
0.0
 10
12.277368975
 20
6.0443548276
 30
0.0
 10
12.262984865
 20
6.0398003283
 30
0.0
 10
12.2479111145
 20
6.0370572715
 30
0.0
 10
12.2322042134
 20
6.036167368
 30
0.0
 10
12.2159286195
 20
6.0371240418
 30
0.0
 10
12.1930267132
 20
6.0409378726
 30
0.0
 10
12.1632550423
 20
6.0504998603
 30
0.0
 10
12.1273440015
 20
6.0682607022
 30
0.0
 10
12.0908190802
 20
6.0918717799
 30
0.0
 10
12.054071244
 20
6.1206032236
 30
0.0
 10
12.0174116592
 20
6.1537421232
 30
0.0
 10
11.9810840566
 20
6.1906321118
 30
0.0
 10
11.945264808
 20
6.2306987882
 30
0.0
 10
11.910075499
 20
6.2734534861
 30
0.0
 10
11.8755915759
 20
6.3184857364
 30
0.0
 10
11.8418644552
 20
6.3654591966
 30
0.0
 10
11.7976657579
 20
6.4306977351
 30
0.0
 10
11.7445890713
 20
6.5156129535
 30
0.0
 10
11.7046967107
 20
6.5855640593
 30
0.0
 10
11.6851923427
 20
6.6211772378
 30
0.0
  0
SPLINE
  5
338
100
AcDbEntity
  8
0
100
AcDbSpline
 62
7
  6
CONTINUOUS
 70
0
 71
3
 72
18
 73
14
 74
0
 42
0.0000001
 43
0.0000001
 44
0.0000000001
 40
0.0
 40
0.0
 40
0.0
 40
0.0
 40
0.0639282848
 40
0.1277465514
 40
0.1913691775
 40
0.2547393396
 40
0.3178347915
 40
0.3806593404
 40
0.505520962
 40
0.6296648119
 40
0.7533328731
 40
0.8767296075
 40
1.0
 40
1.0
 40
1.0
 40
1.0
 10
10.9376923427
 20
6.0364730438
 30
0.0
 10
10.9588955379
 20
6.0364730438
 30
0.0
 10
11.0013054294
 20
6.0389248519
 30
0.0
 10
11.0639689183
 20
6.0497832895
 30
0.0
 10
11.1248987263
 20
6.0673295729
 30
0.0
 10
11.1834926199
 20
6.0908701304
 30
0.0
 10
11.2393937746
 20
6.119631724
 30
0.0
 10
11.3099540466
 20
6.1638254757
 30
0.0
 10
11.3911085896
 20
6.2285210151
 30
0.0
 10
11.4778411158
 20
6.3169082221
 30
0.0
 10
11.5551223493
 20
6.4129643107
 30
0.0
 10
11.6242026279
 20
6.5146548166
 30
0.0
 10
11.6655530603
 20
6.5853177178
 30
0.0
 10
11.6851923427
 20
6.6211772378
 30
0.0
  0
ENDSEC
  0
SECTION
  2
OBJECTS
  0
DICTIONARY
  5
C
100
AcDbDictionary
280
0
281
1
  3
ACAD_GROUP
350
D
  3
ACAD_MLINESTYLE
350
17
  3
ACAD_LAYOUT
350
1A
  3
ACAD_PLOTSETTINGS
350
19
  3
ACAD_PLOTSTYLENAME
350
E
  0
DICTIONARY
  5
D
102
{ACAD_REACTORS
330
C
102
}
100
AcDbDictionary
280
0
281
1
  0
ACDBDICTIONARYWDFLT
  5
E
102
{ACAD_REACTORS
330
C
102
}
100
AcDbDictionary
281
1
  3
Normal
350
F
100
AcDbDictionaryWithDefault
340
F
  0
DICTIONARY
  5
17
102
{ACAD_REACTORS
330
C
102
}
100
AcDbDictionary
280
0
281
1
  3
Standard
350
18
  0
DICTIONARY
  5
19
102
{ACAD_REACTORS
330
C
102
}
100
AcDbDictionary
281
1
  0
DICTIONARY
  5
1A
102
{ACAD_REACTORS
330
C
102
}
100
AcDbDictionary
281
1
  3
Model
350
339
  3
Layout1
350
33A
  0
ACDBPLACEHOLDER
  5
F
102
{ACAD_REACTORS
330
E
102
}
  0
MLINESTYLE
  5
18
102
{ACAD_REACTORS
330
17
102
}
100
AcDbMlineStyle
  2
STANDARD
 70
0
  3

 62
256
 51
90.0
 52
90.0
 71
2
 49
0.5
 62
256
  6
BYLAYER
 49
-0.5
 62
256
  6
BYLAYER
  0
LAYOUT
  5
339
102
{ACAD_REACTORS
330
1A
102
}
100
AcDbPlotSettings
  1

  2
none_device
  4
ANSI_C_(22.00_x_17.00_Inches)
  6

 40
0.0
 41
0.0
 42
0.0
 43
0.0
 44
558.8
 45
431.8
 46
0.0
 47
0.0
 48
0.0
 49
0.0
140
0.0
141
0.0
142
1.0
143
1.0
 70
1024
 72
0
 73
0
 74
0
  7

 75
0
147
1.0
148
0.0
149
0.0
100
AcDbLayout
  1
Model
 70
0
 71
0
 10
0.0
 20
0.0
 11
22.0
 21
17.0
 12
0.0
 22
0.0
 32
0.0
 14
0.0
 24
0.0
 34
0.0
 15
0.0
 25
0.0
 35
0.0
146
0.0
 13
0.0
 23
0.0
 33
0.0
 16
1.0
 26
0.0
 36
0.0
 17
0.0
 27
1.0
 37
0.0
 76
0
330
202
345
0
346
0
  0
LAYOUT
  5
33A
102
{ACAD_REACTORS
330
1A
102
}
100
AcDbPlotSettings
  1

  2
none_device
  4
ANSI_C_(22.00_x_17.00_Inches)
  6

 40
0.0
 41
0.0
 42
0.0
 43
0.0
 44
558.8
 45
431.8
 46
0.0
 47
0.0
 48
0.0
 49
0.0
140
0.0
141
0.0
142
1.0
143
1.0
 70
0
 72
0
 73
0
 74
0
  7

 75
0
147
1.0
148
0.0
149
0.0
100
AcDbLayout
  1
Layout1
 70
0
 71
1
 10
0.0
 20
0.0
 11
22.0
 21
17.0
 12
0.0
 22
0.0
 32
0.0
 14
0.0
 24
0.0
 34
0.0
 15
0.0
 25
0.0
 35
0.0
146
0.0
 13
0.0
 23
0.0
 33
0.0
 16
1.0
 26
0.0
 36
0.0
 17
0.0
 27
1.0
 37
0.0
 76
0
330
203
345
0
346
0
  0
ENDSEC
  0
EOF
