999
DXF file: E:\BT Custom\CADOUTPUT\_TOP.dxf
999
Pro/ENGINEER 2018400 by Parametric Technology Corporation
  0
SECTION
  2
HEADER
  9
$ACADVER
  1
AC1018
  9
$DWGCODEPAGE
  3
ANSI_1252
  9
$EXTMAX
 10
22.0
 20
17.0
 30
0.0
  9
$EXTMIN
 10
0.0
 20
0.0
 30
0.0
  9
$LIMMIN
 10
0.0
 20
0.0
  9
$LIMMAX
 10
22.0
 20
17.0
  9
$VIEWCTR
 10
11.0
 20
8.5
  9
$VIEWSIZE
 40
17.0
  9
$CLAYER
  8
0
  9
$LTSCALE
 40
1.21
  9
$CELTYPE
  6
BYLAYER
  9
$DIMSCALE
 40
1.0
  9
$DIMASZ
 40
0.1
  9
$DIMEXO
 40
0.0625
  9
$DIMDLI
 40
0.836
  9
$DIMEXE
 40
0.125
  9
$DIMCEN
 40
0.198
  9
$DIMLFAC
 40
1.0
  9
$DIMBLK
  1
_FILLED
  9
$DIMALT
 70
1
  9
$DIMALTD
 70
2
  9
$DIMALTTD
 70
2
  9
$DIMALTF
 40
25.4
  9
$DIMTXT
 40
0.08
  9
$DIMTOL
 70
1
  9
$DIMLIM
 70
0
  9
$DIMTFAC
 40
1.0
  9
$DIMTP
 40
0.001
  9
$DIMTM
 40
0.001
  9
$DIMGAP
 40
0.09
  9
$DIMDSEP
 70
46
  9
$AUNITS
 70
0
  9
$PDMODE
 70
3
  9
$PDSIZE
 40
0.06
  9
$HANDSEED
  5
2C9
  9
$TILEMODE
 70
1
  9
$MEASUREMENT
 70
0
  9
$INSUNITS
 70
1
  0
ENDSEC
  0
SECTION
  2
CLASSES
  0
CLASS
  1
ACDBDICTIONARYWDFLT
  2
AcDbDictionaryWithDefault
  3
AutoCAD 2000
 90
0
 91
1
280
0
281
0
  0
CLASS
  1
ACDBPLACEHOLDER
  2
AcDbPlaceHolder
  3
AutoCAD 2000
 90
0
 91
1
280
0
281
0
  0
CLASS
  1
LAYOUT
  2
AcDbLayout
  3
AutoCAD 2000
 90
0
 91
0
280
0
281
0
  0
ENDSEC
  0
SECTION
  2
TABLES
  0
TABLE
  2
VPORT
  5
8
100
AcDbSymbolTable
 70
2
  0
VPORT
  5
1F4
100
AcDbSymbolTableRecord
100
AcDbViewportTableRecord
  2
*ACTIVE
 70
0
 10
0.0
 20
0.0
 11
1.0
 21
1.0
 12
11.0
 22
8.5
 13
0.0
 23
0.0
 14
1.0
 24
1.0
 15
0.0
 25
0.0
 16
0.0
 26
0.0
 36
1.0
 17
0.0
 27
0.0
 37
0.0
 40
17.0
 41
1.2941176471
 42
50.0
 43
0.0
 44
0.0
 50
0.0
 51
0.0
 71
0
 72
100
 73
1
 74
1
 75
0
 76
0
 77
0
 78
0
  0
ENDTAB
  0
TABLE
  2
LTYPE
  5
5
100
AcDbSymbolTable
 70
6
  0
LTYPE
  5
14
100
AcDbSymbolTableRecord
100
AcDbLinetypeTableRecord
  2
BYBLOCK
 70
0
  3

 72
65
 73
0
 40
0.0
  0
LTYPE
  5
15
100
AcDbSymbolTableRecord
100
AcDbLinetypeTableRecord
  2
BYLAYER
 70
0
  3

 72
65
 73
0
 40
0.0
  0
LTYPE
  5
16
100
AcDbSymbolTableRecord
100
AcDbLinetypeTableRecord
  2
CONTINUOUS
 70
64
  3
Solid line
 72
65
 73
0
 40
0.0
  0
LTYPE
  5
1F5
100
AcDbSymbolTableRecord
100
AcDbLinetypeTableRecord
  2
CENTER
 70
64
  3
____ _ ____ _ ____ _ ____ _ ____ _ ____ _ ____
 72
65
 73
4
 40
0.6
 49
0.375
 74
0
 49
-0.075
 74
0
 49
0.075
 74
0
 49
-0.075
 74
0
  0
LTYPE
  5
1F6
100
AcDbSymbolTableRecord
100
AcDbLinetypeTableRecord
  2
HIDDEN
 70
64
  3
- - - - - - - - - - - - - - - - - - - -
 72
65
 73
2
 40
0.2
 49
0.1
 74
0
 49
-0.1
 74
0
  0
LTYPE
  5
1F7
100
AcDbSymbolTableRecord
100
AcDbLinetypeTableRecord
  2
PHANTOM
 70
64
  3
_____ _ _ _____ _ _ _____ _ _ _____
 72
65
 73
6
 40
0.8
 49
0.45
 74
0
 49
-0.05
 74
0
 49
0.1
 74
0
 49
-0.05
 74
0
 49
0.1
 74
0
 49
-0.05
 74
0
  0
LTYPE
  5
1F8
100
AcDbSymbolTableRecord
100
AcDbLinetypeTableRecord
  2
DOT
 70
64
  3
. . . . . . . . . . . . . . . . . . . .
 72
65
 73
2
 40
0.2
 49
0.1
 74
0
 49
-0.1
 74
0
  0
LTYPE
  5
1F9
100
AcDbSymbolTableRecord
100
AcDbLinetypeTableRecord
  2
DASHED
 70
64
  3
- - - - - - - - - - - - - - - - - - - -
 72
65
 73
2
 40
0.2
 49
0.1
 74
0
 49
-0.1
 74
0
  0
ENDTAB
  0
TABLE
  2
LAYER
  5
2
100
AcDbSymbolTable
 70
36
  0
LAYER
  5
10
100
AcDbSymbolTableRecord
100
AcDbLayerTableRecord
  2
0
 70
0
 62
7
  6
CONTINUOUS
370
-3
390
F
  0
LAYER
  5
1FA
100
AcDbSymbolTableRecord
100
AcDbLayerTableRecord
  2
DEFAULT_1
 70
0
 62
7
  6
CENTER
370
-3
390
F
  0
LAYER
  5
1FB
100
AcDbSymbolTableRecord
100
AcDbLayerTableRecord
  2
DEFAULT_2
 70
0
 62
8
  6
HIDDEN
370
-3
390
F
  0
LAYER
  5
1FC
100
AcDbSymbolTableRecord
100
AcDbLayerTableRecord
  2
DEFAULT_3
 70
0
 62
7
  6
PHANTOM
370
-3
390
F
  0
LAYER
  5
1FD
100
AcDbSymbolTableRecord
100
AcDbLayerTableRecord
  2
ALL_FEATURES
 70
0
 62
7
  6
CONTINUOUS
370
-3
390
F
  0
LAYER
  5
1FE
100
AcDbSymbolTableRecord
100
AcDbLayerTableRecord
  2
AXES_FEATURES
 70
0
 62
7
  6
CONTINUOUS
370
-3
390
F
  0
LAYER
  5
1FF
100
AcDbSymbolTableRecord
100
AcDbLayerTableRecord
  2
DIMENSIONS
 70
0
 62
7
  6
CONTINUOUS
370
-3
390
F
  0
ENDTAB
  0
TABLE
  2
STYLE
  5
3
100
AcDbSymbolTable
 70
1
  0
STYLE
  5
11
100
AcDbSymbolTableRecord
100
AcDbTextStyleTableRecord
  2
STANDARD
 70
0
 40
0.0
 41
0.8
 50
0.0
 71
0
 42
0.2
  3
txt
  4

  0
STYLE
  5
200
100
AcDbSymbolTableRecord
100
AcDbTextStyleTableRecord
  2
TEXTSTYLE_1
 70
0
 40
0.0
 41
0.8
 50
0.0
 71
0
 42
0.2
  3
gdt
  4

  0
ENDTAB
  0
TABLE
  2
VIEW
  5
6
100
AcDbSymbolTable
 70
0
  0
ENDTAB
  0
TABLE
  2
UCS
  5
7
100
AcDbSymbolTable
 70
0
  0
ENDTAB
  0
TABLE
  2
APPID
  5
9
100
AcDbSymbolTable
 70
1
  0
APPID
  5
201
100
AcDbSymbolTableRecord
100
AcDbRegAppTableRecord
  2
ACAD
 70
0
  0
ENDTAB
  0
TABLE
  2
BLOCK_RECORD
  5
1
100
AcDbSymbolTable
 70
0
  0
BLOCK_RECORD
  5
202
100
AcDbSymbolTableRecord
100
AcDbBlockTableRecord
  2
*Model_Space
  0
BLOCK_RECORD
  5
203
100
AcDbSymbolTableRecord
100
AcDbBlockTableRecord
  2
*Paper_Space
  0
BLOCK_RECORD
  5
204
100
AcDbSymbolTableRecord
100
AcDbBlockTableRecord
  2
_FILLED
  0
ENDTAB
  0
TABLE
  2
DIMSTYLE
  5
A
100
AcDbSymbolTable
 70
1
100
AcDbDimStyleTable
 71
0
  0
DIMSTYLE
105
205
100
AcDbSymbolTableRecord
100
AcDbDimStyleTableRecord
  2
STANDARD
 70
0
  3

  4

 40
1.0
 41
0.1
 42
0.0625
 43
0.38
 44
0.125
 45
0.0
 46
0.0
 47
0.001
 48
0.001
140
0.08
141
0.09
142
0.0
143
25.4
144
1.0
145
0.0
146
1.0
147
0.09
 71
1.0
 72
0.0
 73
1
 74
1
 75
0
 76
0
 77
0
 78
4
 79
1
170
1
171
2
172
0
173
0
174
0
175
0
176
0
177
0
178
0
270
2
179
3
271
3
272
3
273
2
274
2
275
0
280
0
281
0
282
0
283
1
284
4
285
0
286
0
287
3
288
0
340
11
278
46
341
204
342
204
343
204
344
204
  0
ENDTAB
  0
ENDSEC
  0
SECTION
  2
BLOCKS
  0
BLOCK
  5
20
100
AcDbEntity
  8
0
100
AcDbBlockBegin
  2
*Model_Space
 70
0
 10
0.0
 20
0.0
 30
0.0
  3
*Model_Space
  1

  0
ENDBLK
  5
21
100
AcDbEntity
  8
0
100
AcDbBlockEnd
  0
BLOCK
  5
1C
100
AcDbEntity
  8
0
100
AcDbBlockBegin
  2
*Paper_Space
 70
0
 10
0.0
 20
0.0
 30
0.0
  3
*Paper_Space
  1

  0
ENDBLK
  5
1D
100
AcDbEntity
  8
0
100
AcDbBlockEnd
  0
BLOCK
  5
206
100
AcDbEntity
  8
0
100
AcDbBlockBegin
  2
_FILLED
 70
64
 10
0.0
 20
0.0
  3
_FILLED
  1

  0
SOLID
  5
207
100
AcDbEntity
  8
0
  6
BYBLOCK
 62
0
100
AcDbTrace
 10
0.0
 20
0.0
 11
-1.0
 21
0.2
 12
-1.0
 22
-0.2
 13
-1.0
 23
-0.2
  0
ENDBLK
  5
208
100
AcDbEntity
  8
0
  6
BYBLOCK
 62
0
100
AcDbBlockEnd
  0
ENDSEC
  0
SECTION
  2
ENTITIES
  0
LINE
  5
209
100
AcDbEntity
  8
0
100
AcDbLine
 62
7
  6
CONTINUOUS
 10
4.1973183383
 20
11.9878895617
 11
4.1973183383
 21
11.4707458381
  0
LINE
  5
20A
100
AcDbEntity
  8
0
100
AcDbLine
 62
9
  6
CONTINUOUS
 10
4.2385263923
 20
11.9932082023
 11
4.2385263457
 21
11.4654271782
  0
LINE
  5
20B
100
AcDbEntity
  8
0
100
AcDbLine
 62
7
  6
CONTINUOUS
 10
6.4174865605
 20
11.9514170606
 11
6.6682871351
 21
12.3858163983
  0
LINE
  5
20C
100
AcDbEntity
  8
0
100
AcDbLine
 62
7
  6
CONTINUOUS
 10
7.8053784061
 20
11.7293162526
 11
7.4263495415
 21
11.0728190016
  0
LINE
  5
20D
100
AcDbEntity
  8
0
100
AcDbLine
 62
9
  6
CONTINUOUS
 10
11.4223183291
 20
4.4195850906
 11
10.6723183383
 21
4.4196010475
  0
LINE
  5
20E
100
AcDbEntity
  8
0
100
AcDbLine
 62
7
  6
CONTINUOUS
 10
10.2390279614
 20
11.7293176999
 11
10.6431731499
 21
12.4293176999
  0
LINE
  5
20F
100
AcDbEntity
  8
0
100
AcDbLine
 62
9
  6
CONTINUOUS
 10
11.7148297991
 20
4.1810613387
 11
11.422318256
 21
4.4196010283
  0
LINE
  5
210
100
AcDbEntity
  8
0
100
AcDbLine
 62
7
  6
CONTINUOUS
 10
6.6682871352
 20
11.0728190014
 11
6.4174865605
 21
11.5072183393
  0
LINE
  5
211
100
AcDbEntity
  8
0
100
AcDbLine
 62
7
  6
CONTINUOUS
 10
11.8556087151
 20
11.7293176999
 11
11.5629919145
 21
11.2224907595
  0
LINE
  5
212
100
AcDbEntity
  8
0
100
AcDbLine
 62
7
  6
CONTINUOUS
 10
10.3771943906
 20
4.0963322587
 11
10.3798183383
 21
4.1810578782
  0
LINE
  5
213
100
AcDbEntity
  8
0
100
AcDbLine
 62
7
  6
CONTINUOUS
 10
12.2547546849
 20
11.3396613594
 11
12.3435501683
 21
11.4996215023
  0
LINE
  5
214
100
AcDbEntity
  8
0
100
AcDbLine
 62
7
  6
CONTINUOUS
 10
12.5423183383
 20
11.7293176999
 11
12.1246412218
 21
11.005879713
  0
LINE
  5
215
100
AcDbEntity
  8
0
100
AcDbLine
 62
7
  6
CONTINUOUS
 10
7.4263494697
 20
12.3858165226
 11
7.8053784061
 21
11.7293191473
  0
LINE
  5
216
100
AcDbEntity
  8
0
100
AcDbLine
 62
9
  6
CONTINUOUS
 10
11.0473183379
 20
1.7403460209
 11
11.047318344
 21
4.419610987
  0
LINE
  5
217
100
AcDbEntity
  8
0
100
AcDbLine
 62
7
  6
CONTINUOUS
 10
10.6723026717
 20
4.2928889212
 11
10.672310972
 21
10.6976241891
  0
LINE
  5
218
100
AcDbEntity
  8
0
100
AcDbLine
 62
9
  6
CONTINUOUS
 10
10.6617409969
 20
1.8483742735
 11
10.6635749116
 21
1.9107295328
  0
LINE
  5
219
100
AcDbEntity
  8
0
100
AcDbLine
 62
7
  6
CONTINUOUS
 10
10.3221966687
 20
2.5133975536
 11
10.3233226786
 21
2.522567865
  0
LINE
  5
21A
100
AcDbEntity
  8
0
100
AcDbLine
 62
7
  6
CONTINUOUS
 10
11.7174349455
 20
4.0963274095
 11
11.7148110224
 21
4.1810517587
  0
LINE
  5
21B
100
AcDbEntity
  8
0
100
AcDbLine
 62
9
  6
CONTINUOUS
 10
11.4328961777
 20
1.8483745771
 11
11.431061391
 21
1.9107293012
  0
LINE
  5
21C
100
AcDbEntity
  8
0
100
AcDbLine
 62
7
  6
CONTINUOUS
 10
11.4223374988
 20
4.2929048039
 11
11.4223257046
 21
10.6976241894
  0
LINE
  5
21D
100
AcDbEntity
  8
0
100
AcDbLine
 62
7
  6
CONTINUOUS
 10
11.7724400079
 20
2.5133975536
 11
11.7713153736
 21
2.5225555684
  0
LINE
  5
21E
100
AcDbEntity
  8
0
100
AcDbLine
 62
7
  6
CONTINUOUS
 10
14.2892580864
 20
11.7293188286
 11
14.6682871351
 21
12.3858163983
  0
LINE
  5
21F
100
AcDbEntity
  8
0
100
AcDbLine
 62
7
  6
CONTINUOUS
 10
9.9699974206
 20
11.0058763081
 11
9.5523183383
 21
11.7293176999
  0
LINE
  5
220
100
AcDbEntity
  8
0
100
AcDbLine
 62
7
  6
CONTINUOUS
 10
9.7510865083
 20
11.4996215023
 11
9.8398819917
 21
11.3396613594
  0
LINE
  5
221
100
AcDbEntity
  8
0
100
AcDbLine
 62
7
  6
CONTINUOUS
 10
10.531644762
 20
11.2224907595
 11
10.2390279614
 21
11.7293176999
  0
LINE
  5
222
100
AcDbEntity
  8
0
100
AcDbLine
 62
7
  6
CONTINUOUS
 10
15.6771501161
 20
11.5072183393
 11
15.4263495415
 21
11.0728190016
  0
LINE
  5
223
100
AcDbEntity
  8
0
100
AcDbLine
 62
9
  6
CONTINUOUS
 10
10.6723181309
 20
4.4196007921
 11
10.3798058742
 21
4.1810604487
  0
LINE
  5
224
100
AcDbEntity
  8
0
100
AcDbLine
 62
9
  6
CONTINUOUS
 10
10.6723182523
 20
10.0670215857
 11
11.4223184243
 21
10.0670215857
  0
LINE
  5
225
100
AcDbEntity
  8
0
100
AcDbLine
 62
7
  6
CONTINUOUS
 10
11.4514635267
 20
12.4293176999
 11
11.8556087151
 21
11.7293176999
  0
LINE
  5
226
100
AcDbEntity
  8
0
100
AcDbLine
 62
7
  6
CONTINUOUS
 10
10.6185062871
 20
11.0293177435
 11
11.4761303895
 21
11.0293177435
  0
LINE
  5
227
100
AcDbEntity
  8
0
100
AcDbLine
 62
7
  6
CONTINUOUS
 10
15.4263476902
 20
11.0728176999
 11
14.6682889866
 21
11.0728176999
  0
LINE
  5
228
100
AcDbEntity
  8
0
100
AcDbLine
 62
7
  6
CONTINUOUS
 10
7.4263476902
 20
11.0728176999
 11
6.6682889866
 21
11.0728176999
  0
LINE
  5
229
100
AcDbEntity
  8
0
100
AcDbLine
 62
7
  6
CONTINUOUS
 10
4.2387208926
 20
11.4307704211
 11
6.6776469772
 21
11.516346775
  0
LINE
  5
22A
100
AcDbEntity
  8
0
100
AcDbLine
 62
7
  6
CONTINUOUS
 10
10.2390959064
 20
11.7294353841
 11
9.5886745725
 21
11.7291779874
  0
LINE
  5
22B
100
AcDbEntity
  8
0
100
AcDbLine
 62
9
  6
CONTINUOUS
 10
15.5039568242
 20
11.7293176982
 11
15.4473179675
 21
11.7293176933
  0
LINE
  5
22C
100
AcDbEntity
  8
0
100
AcDbLine
 62
9
  6
CONTINUOUS
 10
6.5906798524
 20
11.7293177017
 11
6.647318709
 21
11.7293177066
  0
LINE
  5
22D
100
AcDbEntity
  8
0
100
AcDbLine
 62
7
  6
CONTINUOUS
 10
12.5423183383
 20
11.7293176999
 11
11.8556087151
 21
11.7293176999
  0
LINE
  5
22E
100
AcDbEntity
  8
0
100
AcDbLine
 62
7
  6
CONTINUOUS
 10
9.5887213399
 20
11.7292691771
 11
9.5523183383
 21
11.7293176999
  0
LINE
  5
22F
100
AcDbEntity
  8
0
100
AcDbLine
 62
7
  6
CONTINUOUS
 10
17.8559157851
 20
11.4307704211
 11
15.4169896994
 21
11.516346775
  0
LINE
  5
230
100
AcDbEntity
  8
0
100
AcDbLine
 62
7
  6
CONTINUOUS
 10
17.8559156933
 20
12.0278649756
 11
15.4169896994
 21
11.9422886249
  0
LINE
  5
231
100
AcDbEntity
  8
0
100
AcDbLine
 62
7
  6
CONTINUOUS
 10
4.2387209833
 20
12.0278649756
 11
6.6776469771
 21
11.9422886249
  0
LINE
  5
232
100
AcDbEntity
  8
0
100
AcDbLine
 62
7
  6
CONTINUOUS
 10
6.6682889864
 20
12.3858176999
 11
7.4263474303
 21
12.3858176999
  0
LINE
  5
233
100
AcDbEntity
  8
0
100
AcDbLine
 62
7
  6
CONTINUOUS
 10
14.6682889864
 20
12.3858176999
 11
15.4263474303
 21
12.3858176999
  0
LINE
  5
234
100
AcDbEntity
  8
0
100
AcDbLine
 62
7
  6
CONTINUOUS
 10
11.4514635267
 20
12.4293176999
 11
10.6431731499
 21
12.4293176999
  0
LINE
  5
235
100
AcDbEntity
  8
0
100
AcDbLine
 62
7
  6
CONTINUOUS
 10
14.6682871352
 20
11.0728190014
 11
14.2892580864
 21
11.7293165713
  0
LINE
  5
236
100
AcDbEntity
  8
0
100
AcDbLine
 62
7
  6
CONTINUOUS
 10
15.4263494697
 20
12.3858165226
 11
15.6771501161
 21
11.9514170606
  0
LINE
  5
237
100
AcDbEntity
  8
0
100
AcDbLine
 62
9
  6
CONTINUOUS
 10
17.8561102843
 20
11.4654271976
 11
17.8561103309
 21
11.9932082217
  0
LINE
  5
238
100
AcDbEntity
  8
0
100
AcDbLine
 62
7
  6
CONTINUOUS
 10
17.8973183383
 20
11.4707458382
 11
17.8973183383
 21
11.9878895618
  0
ARC
  5
239
100
AcDbEntity
  8
0
100
AcDbCircle
 62
7
  6
CONTINUOUS
 10
-33.4191595756
 20
5.5431402011
 40
43.8201369178
100
AcDbArc
 50
358.2187614128
 51
5.507168542
  0
ARC
  5
23A
100
AcDbEntity
  8
0
100
AcDbCircle
 62
7
  6
CONTINUOUS
 10
8.8825773483
 20
2.7091562992
 40
1.4528679478
100
AcDbArc
 50
351.7612632872
 51
352.2564415345
  0
ARC
  5
23B
100
AcDbEntity
  8
0
100
AcDbCircle
 62
7
  6
CONTINUOUS
 10
6.6795756148
 20
11.9972547996
 40
0.055
100
AcDbArc
 50
267.990446187
 51
323.923269445
  0
ARC
  5
23C
100
AcDbEntity
  8
0
100
AcDbCircle
 62
7
  6
CONTINUOUS
 10
6.6795756148
 20
11.4613806003
 40
0.055
100
AcDbArc
 50
36.0763715983
 51
92.009553813
  0
ARC
  5
23D
100
AcDbEntity
  8
0
100
AcDbCircle
 62
7
  6
CONTINUOUS
 10
4.2373183383
 20
11.9878895758
 40
0.04
100
AcDbArc
 50
87.9905128562
 51
180.0
  0
ARC
  5
23E
100
AcDbEntity
  8
0
100
AcDbCircle
 62
7
  6
CONTINUOUS
 10
4.2373183383
 20
11.4707458241
 40
0.04
100
AcDbArc
 50
180.0
 51
272.0094879445
  0
ARC
  5
23F
100
AcDbEntity
  8
0
100
AcDbCircle
 62
7
  6
CONTINUOUS
 10
9.6193697523
 20
10.6970185786
 40
1.052937766
100
AcDbArc
 50
0.032795227
 51
18.3964481754
  0
ARC
  5
240
100
AcDbEntity
  8
0
100
AcDbCircle
 62
7
  6
CONTINUOUS
 10
9.621502913
 20
10.6971240737
 40
1.0508892937
100
AcDbArc
 50
18.4276667802
 51
29.9950915419
  0
ARC
  5
241
100
AcDbEntity
  8
0
100
AcDbCircle
 62
7
  6
CONTINUOUS
 10
7.0473183383
 20
11.7293176999
 40
1.18
100
AcDbArc
 50
191.7875833819
 51
168.2128066687
  0
ARC
  5
242
100
AcDbEntity
  8
0
100
AcDbCircle
 62
7
  6
CONTINUOUS
 10
7.0473183383
 20
11.7293176999
 40
1.0000026738
100
AcDbArc
 50
193.5752673692
 51
166.4247326308
  0
ARC
  5
243
100
AcDbEntity
  8
0
100
AcDbCircle
 62
9
  6
CONTINUOUS
 10
7.0473183383
 20
11.7293176999
 40
0.8130026738
100
AcDbArc
 50
196.2854382043
 51
163.7185038792
  0
ARC
  5
244
100
AcDbEntity
  8
0
100
AcDbCircle
 62
7
  6
CONTINUOUS
 10
7.0473183383
 20
11.7293176999
 40
0.741
100
AcDbArc
 50
62.3704986062
 51
117.6295013938
  0
ARC
  5
245
100
AcDbEntity
  8
0
100
AcDbCircle
 62
7
  6
CONTINUOUS
 10
7.0473183383
 20
11.7293176999
 40
0.741
100
AcDbArc
 50
122.3704986062
 51
162.2953821909
  0
ARC
  5
246
100
AcDbEntity
  8
0
100
AcDbCircle
 62
7
  6
CONTINUOUS
 10
7.0473183383
 20
11.7293176999
 40
0.741
100
AcDbArc
 50
2.3704986062
 51
57.6295013938
  0
ARC
  5
247
100
AcDbEntity
  8
0
100
AcDbCircle
 62
7
  6
CONTINUOUS
 10
7.0473183383
 20
11.7293176999
 40
0.741
100
AcDbArc
 50
242.3704986062
 51
297.6295013938
  0
ARC
  5
248
100
AcDbEntity
  8
0
100
AcDbCircle
 62
7
  6
CONTINUOUS
 10
7.0473183383
 20
11.7293176999
 40
0.741
100
AcDbArc
 50
302.3704986062
 51
357.6295013938
  0
ARC
  5
249
100
AcDbEntity
  8
0
100
AcDbCircle
 62
7
  6
CONTINUOUS
 10
7.0473183383
 20
11.7293176999
 40
0.741
100
AcDbArc
 50
197.7046178091
 51
237.6295013938
  0
ARC
  5
24A
100
AcDbEntity
  8
0
100
AcDbCircle
 62
7
  6
CONTINUOUS
 10
7.0473183383
 20
11.7293176999
 40
0.6515
100
AcDbArc
 50
199.878521394
 51
160.121478606
  0
ARC
  5
24B
100
AcDbEntity
  8
0
100
AcDbCircle
 62
9
  6
CONTINUOUS
 10
7.0473183383
 20
11.7293176999
 40
0.6146339942
100
AcDbArc
 50
201.0181837255
 51
158.9818162745
  0
ARC
  5
24C
100
AcDbEntity
  8
0
100
AcDbCircle
 62
9
  6
CONTINUOUS
 10
7.0473183383
 20
11.7293176999
 40
0.5405
100
AcDbArc
 50
203.7911019561
 51
156.2088980439
  0
ARC
  5
24D
100
AcDbEntity
  8
0
100
AcDbCircle
 62
9
  6
CONTINUOUS
 10
7.0249782472
 20
11.7295319722
 40
0.4343031785
100
AcDbArc
 50
180.028268342
 51
204.2278688573
  0
ARC
  5
24E
100
AcDbEntity
  8
0
100
AcDbCircle
 62
9
  6
CONTINUOUS
 10
7.0473183383
 20
11.7293176999
 40
0.4297397276
100
AcDbArc
 50
209.93537254
 51
150.0605512209
  0
CIRCLE
  5
24F
100
AcDbEntity
  8
0
100
AcDbCircle
 62
7
  6
CONTINUOUS
 10
7.0473183383
 20
11.7293176999
 40
0.4
  0
CIRCLE
  5
250
100
AcDbEntity
  8
0
100
AcDbCircle
 62
9
  6
CONTINUOUS
 10
7.0473183383
 20
11.7293176999
 40
0.3875
  0
CIRCLE
  5
251
100
AcDbEntity
  8
0
100
AcDbCircle
 62
7
  6
CONTINUOUS
 10
7.0473183383
 20
11.7293176999
 40
0.3125
  0
CIRCLE
  5
252
100
AcDbEntity
  8
0
100
AcDbCircle
 62
9
  6
CONTINUOUS
 10
7.0473183383
 20
11.7293176999
 40
0.2825
  0
CIRCLE
  5
253
100
AcDbEntity
  8
0
100
AcDbCircle
 62
7
  6
CONTINUOUS
 10
7.0473183383
 20
11.7293176999
 40
0.2625
  0
ARC
  5
254
100
AcDbEntity
  8
0
100
AcDbCircle
 62
9
  6
CONTINUOUS
 10
-99.4303060786
 20
173.3045742149
 40
196.8986647544
100
AcDbArc
 50
303.8333291588
 51
303.9993991475
  0
ARC
  5
255
100
AcDbEntity
  8
0
100
AcDbCircle
 62
9
  6
CONTINUOUS
 10
11.0459729864
 20
6.0485986234
 40
2.2338006591
100
AcDbArc
 50
260.3624208693
 51
270.0345074982
  0
ARC
  5
256
100
AcDbEntity
  8
0
100
AcDbCircle
 62
7
  6
CONTINUOUS
 10
13.2120592914
 20
2.7091562974
 40
1.4528679112
100
AcDbArc
 50
187.7435585901
 51
188.23873685
  0
ARC
  5
257
100
AcDbEntity
  8
0
100
AcDbCircle
 62
9
  6
CONTINUOUS
 10
11.0736599401
 20
2.4445979735
 40
0.75531491
100
AcDbArc
 50
174.0668175272
 51
175.7203411397
  0
ARC
  5
258
100
AcDbEntity
  8
0
100
AcDbCircle
 62
9
  6
CONTINUOUS
 10
11.020979262
 20
2.4445981874
 40
0.7553123756
100
AcDbArc
 50
4.2796569764
 51
5.9320967624
  0
ARC
  5
259
100
AcDbEntity
  8
0
100
AcDbCircle
 62
7
  6
CONTINUOUS
 10
11.0272168702
 20
2.4607758405
 40
0.7124345451
100
AcDbArc
 50
169.0311875079
 51
174.9811999929
  0
ARC
  5
25A
100
AcDbEntity
  8
0
100
AcDbCircle
 62
7
  6
CONTINUOUS
 10
11.0674208299
 20
2.4607759922
 40
0.7124335114
100
AcDbArc
 50
5.0177951082
 51
10.9688162026
  0
ARC
  5
25B
100
AcDbEntity
  8
0
100
AcDbCircle
 62
7
  6
CONTINUOUS
 10
11.0180436406
 20
2.4615861708
 40
0.7032255954
100
AcDbArc
 50
174.9815850025
 51
179.9894413253
  0
ARC
  5
25C
100
AcDbEntity
  8
0
100
AcDbCircle
 62
7
  6
CONTINUOUS
 10
11.0785710985
 20
2.4616730102
 40
0.7012475222
100
AcDbArc
 50
0.0034932066
 51
5.0244687712
  0
ARC
  5
25D
100
AcDbEntity
  8
0
100
AcDbCircle
 62
7
  6
CONTINUOUS
 10
11.0473183383
 20
11.7293176999
 40
1.495
100
AcDbArc
 50
310.6672580394
 51
229.329553279
  0
ARC
  5
25E
100
AcDbEntity
  8
0
100
AcDbCircle
 62
7
  6
CONTINUOUS
 10
12.4752669242
 20
10.6970185786
 40
1.052937766
100
AcDbArc
 50
161.6035518246
 51
179.9672047586
  0
ARC
  5
25F
100
AcDbEntity
  8
0
100
AcDbCircle
 62
7
  6
CONTINUOUS
 10
12.4731337636
 20
10.6971240737
 40
1.0508892937
100
AcDbArc
 50
150.0049084561
 51
161.5723332199
  0
CIRCLE
  5
260
100
AcDbEntity
  8
0
100
AcDbCircle
 62
7
  6
CONTINUOUS
 10
11.0473183383
 20
11.7293176999
 40
0.58
  0
ARC
  5
261
100
AcDbEntity
  8
0
100
AcDbCircle
 62
9
  6
CONTINUOUS
 10
11.0450994186
 20
13.8420239802
 40
9.5564094491
100
AcDbArc
 50
267.7643170651
 51
270.0133036086
  0
ARC
  5
262
100
AcDbEntity
  8
0
100
AcDbCircle
 62
9
  6
CONTINUOUS
 10
15.0696543793
 20
11.729102478
 40
0.4343072066
100
AcDbArc
 50
0.0283933646
 51
24.2277638486
  0
ARC
  5
263
100
AcDbEntity
  8
0
100
AcDbCircle
 62
7
  6
CONTINUOUS
 10
15.4150610617
 20
11.4613806003
 40
0.055
100
AcDbArc
 50
87.990446187
 51
143.923269445
  0
ARC
  5
264
100
AcDbEntity
  8
0
100
AcDbCircle
 62
7
  6
CONTINUOUS
 10
15.0473183383
 20
11.7293176999
 40
1.18
100
AcDbArc
 50
11.7875833819
 51
348.2128066687
  0
ARC
  5
265
100
AcDbEntity
  8
0
100
AcDbCircle
 62
7
  6
CONTINUOUS
 10
15.0473183383
 20
11.7293176999
 40
1.0000026738
100
AcDbArc
 50
13.5752673692
 51
346.4247326308
  0
ARC
  5
266
100
AcDbEntity
  8
0
100
AcDbCircle
 62
9
  6
CONTINUOUS
 10
15.0473183383
 20
11.7293176999
 40
0.8130026738
100
AcDbArc
 50
16.2854382043
 51
343.7185038792
  0
ARC
  5
267
100
AcDbEntity
  8
0
100
AcDbCircle
 62
7
  6
CONTINUOUS
 10
15.0473183383
 20
11.7293176999
 40
0.741
100
AcDbArc
 50
62.3704986062
 51
117.6295013938
  0
ARC
  5
268
100
AcDbEntity
  8
0
100
AcDbCircle
 62
7
  6
CONTINUOUS
 10
15.0473183383
 20
11.7293176999
 40
0.741
100
AcDbArc
 50
122.3704986062
 51
177.6295013938
  0
ARC
  5
269
100
AcDbEntity
  8
0
100
AcDbCircle
 62
7
  6
CONTINUOUS
 10
15.0473183383
 20
11.7293176999
 40
0.741
100
AcDbArc
 50
17.7046178091
 51
57.6295013938
  0
ARC
  5
26A
100
AcDbEntity
  8
0
100
AcDbCircle
 62
7
  6
CONTINUOUS
 10
15.0473183383
 20
11.7293176999
 40
0.741
100
AcDbArc
 50
242.3704986062
 51
297.6295013938
  0
ARC
  5
26B
100
AcDbEntity
  8
0
100
AcDbCircle
 62
7
  6
CONTINUOUS
 10
15.0473183383
 20
11.7293176999
 40
0.741
100
AcDbArc
 50
302.3704986062
 51
342.2953821909
  0
ARC
  5
26C
100
AcDbEntity
  8
0
100
AcDbCircle
 62
7
  6
CONTINUOUS
 10
15.0473183383
 20
11.7293176999
 40
0.741
100
AcDbArc
 50
182.3704986062
 51
237.6295013938
  0
ARC
  5
26D
100
AcDbEntity
  8
0
100
AcDbCircle
 62
7
  6
CONTINUOUS
 10
15.0473183383
 20
11.7293176999
 40
0.6515
100
AcDbArc
 50
19.878521394
 51
340.121478606
  0
ARC
  5
26E
100
AcDbEntity
  8
0
100
AcDbCircle
 62
9
  6
CONTINUOUS
 10
15.0473183383
 20
11.7293176999
 40
0.6146339942
100
AcDbArc
 50
21.0181837255
 51
338.9818162745
  0
ARC
  5
26F
100
AcDbEntity
  8
0
100
AcDbCircle
 62
9
  6
CONTINUOUS
 10
15.0473183383
 20
11.7293176999
 40
0.5405
100
AcDbArc
 50
23.7911019561
 51
336.2088980439
  0
ARC
  5
270
100
AcDbEntity
  8
0
100
AcDbCircle
 62
9
  6
CONTINUOUS
 10
15.0473183383
 20
11.7293176999
 40
0.4297397276
100
AcDbArc
 50
29.93537254
 51
330.0605512209
  0
CIRCLE
  5
271
100
AcDbEntity
  8
0
100
AcDbCircle
 62
7
  6
CONTINUOUS
 10
15.0473183383
 20
11.7293176999
 40
0.4
  0
CIRCLE
  5
272
100
AcDbEntity
  8
0
100
AcDbCircle
 62
9
  6
CONTINUOUS
 10
15.0473183383
 20
11.7293176999
 40
0.3875
  0
CIRCLE
  5
273
100
AcDbEntity
  8
0
100
AcDbCircle
 62
7
  6
CONTINUOUS
 10
15.0473183383
 20
11.7293176999
 40
0.3125
  0
CIRCLE
  5
274
100
AcDbEntity
  8
0
100
AcDbCircle
 62
9
  6
CONTINUOUS
 10
15.0473183383
 20
11.7293176999
 40
0.2825
  0
CIRCLE
  5
275
100
AcDbEntity
  8
0
100
AcDbCircle
 62
7
  6
CONTINUOUS
 10
15.0473183383
 20
11.7293176999
 40
0.2625
  0
ARC
  5
276
100
AcDbEntity
  8
0
100
AcDbCircle
 62
7
  6
CONTINUOUS
 10
15.4150610617
 20
11.9972547996
 40
0.055
100
AcDbArc
 50
216.0763715983
 51
272.009553813
  0
ARC
  5
277
100
AcDbEntity
  8
0
100
AcDbCircle
 62
7
  6
CONTINUOUS
 10
17.8573183383
 20
11.4707458241
 40
0.04
100
AcDbArc
 50
267.9905128562
 51
360.0
  0
ARC
  5
278
100
AcDbEntity
  8
0
100
AcDbCircle
 62
7
  6
CONTINUOUS
 10
17.8573183383
 20
11.9878895758
 40
0.04
100
AcDbArc
 50
0.0
 51
92.0094879445
  0
ARC
  5
279
100
AcDbEntity
  8
0
100
AcDbCircle
 62
7
  6
CONTINUOUS
 10
55.5137962526
 20
5.5431402024
 40
43.8201369181
100
AcDbArc
 50
174.4928314597
 51
181.7812384579
  0
ARC
  5
27A
100
AcDbEntity
  8
0
100
AcDbCircle
 62
9
  6
CONTINUOUS
 10
121.4494765915
 20
173.1923379732
 40
196.7634165479
100
AcDbArc
 50
236.0005437771
 51
236.1667279165
  0
SPLINE
  5
27B
100
AcDbEntity
  8
0
100
AcDbSpline
 62
9
  6
CONTINUOUS
 70
0
 71
3
 72
17
 73
13
 74
0
 42
0.0000001
 43
0.0000001
 44
0.0000000001
 40
0.0
 40
0.0
 40
0.0
 40
0.0
 40
0.0373804732
 40
0.0765709821
 40
0.1637308027
 40
0.2135212646
 40
0.2678756167
 40
0.3901564757
 40
0.5293177548
 40
0.6810155121
 40
0.8397377806
 40
1.0
 40
1.0
 40
1.0
 40
1.0
 10
15.4169901944
 20
11.5163470166
 30
0.0
 10
15.417433203
 20
11.5163314462
 30
0.0
 10
15.4183459127
 20
11.5163877794
 30
0.0
 10
15.4202379617
 20
11.5168626704
 30
0.0
 10
15.4220940852
 20
11.5179058906
 30
0.0
 10
15.4238167377
 20
11.5193855502
 30
0.0
 10
15.4256479601
 20
11.5213569417
 30
0.0
 10
15.4277756618
 20
11.5244627507
 30
0.0
 10
15.4299395256
 20
11.5288708621
 30
0.0
 10
15.4317693945
 20
11.533887546
 30
0.0
 10
15.433205132
 20
11.5392875355
 30
0.0
 10
15.433907181
 20
11.5430080515
 30
0.0
 10
15.4341975464
 20
11.5448862335
 30
0.0
  0
SPLINE
  5
27C
100
AcDbEntity
  8
0
100
AcDbSpline
 62
9
  6
CONTINUOUS
 70
0
 71
3
 72
17
 73
13
 74
0
 42
0.0000001
 43
0.0000001
 44
0.0000000001
 40
0.0
 40
0.0
 40
0.0
 40
0.0
 40
0.1602628452
 40
0.3189856611
 40
0.4706837948
 40
0.6098452007
 40
0.732125888
 40
0.7864800527
 40
0.836270272
 40
0.9234295152
 40
0.9626197522
 40
1.0
 40
1.0
 40
1.0
 40
1.0
 10
15.4341976666
 20
11.9137491776
 30
0.0
 10
15.433907299
 20
11.9156273657
 30
0.0
 10
15.4332052459
 20
11.9193478929
 30
0.0
 10
15.4317695023
 20
11.9247478964
 30
0.0
 10
15.429939628
 20
11.9297645884
 30
0.0
 10
15.4277757611
 20
11.9341726995
 30
0.0
 10
15.4256480577
 20
11.9372785018
 30
0.0
 10
15.4238168355
 20
11.9392498817
 30
0.0
 10
15.4220941869
 20
11.9407295255
 30
0.0
 10
15.4202380675
 20
11.9417727262
 30
0.0
 10
15.4183460263
 20
11.9422475923
 30
0.0
 10
15.4174333221
 20
11.9423039123
 30
0.0
 10
15.4169903166
 20
11.9422883354
 30
0.0
  0
SPLINE
  5
27D
100
AcDbEntity
  8
0
100
AcDbSpline
 62
9
  6
CONTINUOUS
 70
0
 71
3
 72
24
 73
20
 74
0
 42
0.0000001
 43
0.0000001
 44
0.0000000001
 40
0.0
 40
0.0
 40
0.0
 40
0.0
 40
0.1888642921
 40
0.3768280765
 40
0.4674954876
 40
0.5542732521
 40
0.6358630051
 40
0.7109667354
 40
0.7784160408
 40
0.8375610996
 40
0.8878829807
 40
0.9288647791
 40
0.9601526834
 40
0.9722429748
 40
0.9820418426
 40
0.9896119677
 40
0.9950256468
 40
0.9983879083
 40
1.0
 40
1.0
 40
1.0
 40
1.0
 10
17.8561107883
 20
11.9932082131
 30
0.0
 10
17.8560417858
 20
11.9953916176
 30
0.0
 10
17.8559136292
 20
11.999748322
 30
0.0
 10
17.855780027
 20
12.0051539753
 30
0.0
 10
17.8556946633
 20
12.0093796142
 30
0.0
 10
17.8556439621
 20
12.0123753128
 30
0.0
 10
17.8556067662
 20
12.0151911796
 30
0.0
 10
17.8555839967
 20
12.0177836317
 30
0.0
 10
17.8555766298
 20
12.0201165754
 30
0.0
 10
17.85558416
 20
12.0221628665
 30
0.0
 10
17.8556057981
 20
12.0239029599
 30
0.0
 10
17.8556406082
 20
12.0253204334
 30
0.0
 10
17.8556827245
 20
12.0262955863
 30
0.0
 10
17.8557251281
 20
12.0269089542
 30
0.0
 10
17.8557573842
 20
12.0272487971
 30
0.0
 10
17.8557897587
 20
12.0275088475
 30
0.0
 10
17.8558280604
 20
12.0276979257
 30
0.0
 10
17.8558576096
 20
12.0278072672
 30
0.0
 10
17.8558975552
 20
12.0278643237
 30
0.0
 10
17.8559161895
 20
12.0278649909
 30
0.0
  0
SPLINE
  5
27E
100
AcDbEntity
  8
0
100
AcDbSpline
 62
9
  6
CONTINUOUS
 70
0
 71
3
 72
14
 73
10
 74
0
 42
0.0000001
 43
0.0000001
 44
0.0000000001
 40
0.0
 40
0.0
 40
0.0
 40
0.0
 40
0.1188833693
 40
0.2402219605
 40
0.3635862897
 40
0.4887444274
 40
0.6152286292
 40
0.742797608
 40
1.0
 40
1.0
 40
1.0
 40
1.0
 10
15.434197422
 20
11.5448855003
 30
0.0
 10
15.4309705424
 20
11.5442145677
 30
0.0
 10
15.4245844662
 20
11.5421681931
 30
0.0
 10
15.4155743001
 20
11.5375883599
 30
0.0
 10
15.40702443
 20
11.5318934166
 30
0.0
 10
15.3989337477
 20
11.5253472477
 30
0.0
 10
15.3912347661
 20
11.5181771139
 30
0.0
 10
15.3814825936
 20
11.5078820323
 30
0.0
 10
15.374806926
 20
11.4995308721
 30
0.0
 10
15.3706078193
 20
11.493767788
 30
0.0
  0
LINE
  5
27F
100
AcDbEntity
  8
0
100
AcDbLine
 62
9
  6
CONTINUOUS
 10
15.4657111453
 20
11.551307258
 11
15.4341972334
 21
11.5448863361
  0
SPLINE
  5
280
100
AcDbEntity
  8
0
100
AcDbSpline
 62
9
  6
CONTINUOUS
 70
0
 71
3
 72
24
 73
20
 74
0
 42
0.0000001
 43
0.0000001
 44
0.0000000001
 40
0.0
 40
0.0
 40
0.0
 40
0.0
 40
0.0016014645
 40
0.0049190217
 40
0.0102639246
 40
0.0177504598
 40
0.0274596651
 40
0.0394627839
 40
0.0706177034
 40
0.11156815
 40
0.1619753268
 40
0.2213258116
 40
0.2891041262
 40
0.3646489913
 40
0.4467189857
 40
0.5339271836
 40
0.6248862912
 40
0.8126970489
 40
1.0
 40
1.0
 40
1.0
 40
1.0
 10
15.465492073
 20
11.5146449437
 30
0.0
 10
15.4654724889
 20
11.5146456288
 30
0.0
 10
15.4654300282
 20
11.5147045265
 30
0.0
 10
15.4653984626
 20
11.5148189958
 30
0.0
 10
15.465357648
 20
11.5150162723
 30
0.0
 10
15.4653230255
 20
11.5152884559
 30
0.0
 10
15.4652884808
 20
11.5156447032
 30
0.0
 10
15.4652429072
 20
11.5162897644
 30
0.0
 10
15.4651975211
 20
11.5173182729
 30
0.0
 10
15.4651598872
 20
11.5188168604
 30
0.0
 10
15.4651363842
 20
11.5206609013
 30
0.0
 10
15.4651281495
 20
11.5228332912
 30
0.0
 10
15.4651361598
 20
11.5253132897
 30
0.0
 10
15.4651610638
 20
11.5280711831
 30
0.0
 10
15.4652017667
 20
11.5310666616
 30
0.0
 10
15.4652572425
 20
11.5342505458
 30
0.0
 10
15.4653504785
 20
11.5387278268
 30
0.0
 10
15.4654960863
 20
11.5444290409
 30
0.0
 10
15.4656359585
 20
11.5490169589
 30
0.0
 10
15.4657111718
 20
11.5513076332
 30
0.0
  0
SPLINE
  5
281
100
AcDbEntity
  8
0
100
AcDbSpline
 62
9
  6
CONTINUOUS
 70
0
 71
3
 72
9
 73
5
 74
0
 42
0.0000001
 43
0.0000001
 44
0.0000000001
 40
0.0
 40
0.0
 40
0.0
 40
0.0
 40
0.4999843841
 40
1.0
 40
1.0
 40
1.0
 40
1.0
 10
15.4657111707
 20
11.907327769
 30
0.0
 10
15.8641019756
 20
11.9215467405
 30
0.0
 10
16.6608784098
 20
11.9508170255
 30
0.0
 10
17.4576797732
 20
11.9794114624
 30
0.0
 10
17.8561103046
 20
11.9932092317
 30
0.0
  0
SPLINE
  5
282
100
AcDbEntity
  8
0
100
AcDbSpline
 62
9
  6
CONTINUOUS
 70
0
 71
3
 72
9
 73
5
 74
0
 42
0.0000001
 43
0.0000001
 44
0.0000000001
 40
0.0
 40
0.0
 40
0.0
 40
0.0
 40
0.500015616
 40
1.0
 40
1.0
 40
1.0
 40
1.0
 10
17.8561103084
 20
11.4654261743
 30
0.0
 10
17.4576797795
 20
11.4792239465
 30
0.0
 10
16.6608784216
 20
11.5078184
 30
0.0
 10
15.8641019896
 20
11.5370886073
 30
0.0
 10
15.4657111892
 20
11.5513076326
 30
0.0
  0
SPLINE
  5
283
100
AcDbEntity
  8
0
100
AcDbSpline
 62
9
  6
CONTINUOUS
 70
0
 71
3
 72
12
 73
8
 74
0
 42
0.0000001
 43
0.0000001
 44
0.0000000001
 40
0.0
 40
0.0
 40
0.0
 40
0.0
 40
0.2495314234
 40
0.3745047771
 40
0.4995313244
 40
0.7497166291
 40
1.0
 40
1.0
 40
1.0
 40
1.0
 10
15.465711175
 20
11.5513072253
 30
0.0
 10
15.4719519277
 20
11.5652236938
 30
0.0
 10
15.480254078
 20
11.5866133933
 30
0.0
 10
15.4890337307
 20
11.6158666905
 30
0.0
 10
15.4962592164
 20
11.6455863713
 30
0.0
 10
15.5023265356
 20
11.6834075894
 30
0.0
 10
15.5039571381
 20
11.7140200156
 30
0.0
 10
15.5039568222
 20
11.7293176999
 30
0.0
  0
SPLINE
  5
284
100
AcDbEntity
  8
0
100
AcDbSpline
 62
9
  6
CONTINUOUS
 70
0
 71
3
 72
14
 73
10
 74
0
 42
0.0000001
 43
0.0000001
 44
0.0000000001
 40
0.0
 40
0.0
 40
0.0
 40
0.0
 40
0.2572100891
 40
0.3847764856
 40
0.511258849
 40
0.6364181342
 40
0.7597813375
 40
0.8811131498
 40
1.0
 40
1.0
 40
1.0
 40
1.0
 10
15.3706078681
 20
11.9648675211
 30
0.0
 10
15.3748072312
 20
11.9591043592
 30
0.0
 10
15.3814828823
 20
11.9507530194
 30
0.0
 10
15.3912350419
 20
11.9404577928
 30
0.0
 10
15.3989339921
 20
11.9332877519
 30
0.0
 10
15.4070247744
 20
11.9267417832
 30
0.0
 10
15.4155744775
 20
11.9210469547
 30
0.0
 10
15.4245843983
 20
11.9164668967
 30
0.0
 10
15.4309704475
 20
11.9144206743
 30
0.0
 10
15.4341974356
 20
11.9137497881
 30
0.0
  0
LINE
  5
285
100
AcDbEntity
  8
0
100
AcDbLine
 62
9
  6
CONTINUOUS
 10
15.4341972659
 20
11.913748838
 11
15.4657110688
 21
11.9073279064
  0
SPLINE
  5
286
100
AcDbEntity
  8
0
100
AcDbSpline
 62
9
  6
CONTINUOUS
 70
0
 71
3
 72
24
 73
20
 74
0
 42
0.0000001
 43
0.0000001
 44
0.0000000001
 40
0.0
 40
0.0
 40
0.0
 40
0.0
 40
0.0016116834
 40
0.0049733688
 40
0.010386468
 40
0.0179560322
 40
0.0277543653
 40
0.0398441523
 40
0.0711311498
 40
0.1121122387
 40
0.1624336503
 40
0.221578468
 40
0.2890277489
 40
0.364131681
 40
0.4457218536
 40
0.5325002161
 40
0.6231683648
 40
0.8111338819
 40
1.0
 40
1.0
 40
1.0
 40
1.0
 10
17.8559162007
 20
11.4307704083
 30
0.0
 10
17.8558975708
 20
11.4307710654
 30
0.0
 10
17.8558576122
 20
11.4308281049
 30
0.0
 10
17.8558280718
 20
11.4309374298
 30
0.0
 10
17.8557897645
 20
11.431126487
 30
0.0
 10
17.8557573914
 20
11.4313865184
 30
0.0
 10
17.8557251335
 20
11.4317263428
 30
0.0
 10
17.8556827286
 20
11.4323396886
 30
0.0
 10
17.8556406103
 20
11.4333148178
 30
0.0
 10
17.8556057985
 20
11.4347322683
 30
0.0
 10
17.8555841587
 20
11.4364723469
 30
0.0
 10
17.8555766271
 20
11.4385186313
 30
0.0
 10
17.8555839928
 20
11.4408515764
 30
0.0
 10
17.8556067614
 20
11.4434440377
 30
0.0
 10
17.8556439569
 20
11.4462599212
 30
0.0
 10
17.8556946579
 20
11.4492556428
 30
0.0
 10
17.8557800219
 20
11.453481321
 30
0.0
 10
17.8559136251
 20
11.4588870289
 30
0.0
 10
17.856041783
 20
11.4632437784
 30
0.0
 10
17.8561107862
 20
11.465427206
 30
0.0
  0
SPLINE
  5
287
100
AcDbEntity
  8
0
100
AcDbSpline
 62
9
  6
CONTINUOUS
 70
0
 71
3
 72
22
 73
18
 74
0
 42
0.0000001
 43
0.0000001
 44
0.0000000001
 40
0.0
 40
0.0
 40
0.0
 40
0.0
 40
0.188670273
 40
0.3714408872
 40
0.5405537686
 40
0.6179834957
 40
0.6896788298
 40
0.7549757059
 40
0.8132265246
 40
0.8639083875
 40
0.9066728962
 40
0.9412572211
 40
0.9676450216
 40
0.9779417222
 40
0.9865089456
 40
0.9936724071
 40
1.0
 40
1.0
 40
1.0
 40
1.0
 10
17.8561102893
 20
11.4654272193
 30
0.0
 10
17.858765588
 20
11.4654196755
 30
0.0
 10
17.8639936282
 20
11.4654738736
 30
0.0
 10
17.8715969478
 20
11.4657548472
 30
0.0
 10
17.8776268832
 20
11.4661568902
 30
0.0
 10
17.8820859969
 20
11.4665793402
 30
0.0
 10
17.8850838828
 20
11.4669271828
 30
0.0
 10
17.8878050929
 20
11.4673108867
 30
0.0
 10
17.8902221744
 20
11.4677267442
 30
0.0
 10
17.8923110365
 20
11.4681706561
 30
0.0
 10
17.8940532591
 20
11.4686363004
 30
0.0
 10
17.8954322355
 20
11.4691186928
 30
0.0
 10
17.8963394831
 20
11.4695598328
 30
0.0
 10
17.8968562907
 20
11.4699351648
 30
0.0
 10
17.8971155978
 20
11.4701970478
 30
0.0
 10
17.8972789311
 20
11.4704657346
 30
0.0
 10
17.8973183658
 20
11.4706567849
 30
0.0
 10
17.8973183382
 20
11.4707458382
 30
0.0
  0
SPLINE
  5
288
100
AcDbEntity
  8
0
100
AcDbSpline
 62
9
  6
CONTINUOUS
 70
0
 71
3
 72
22
 73
18
 74
0
 42
0.0000001
 43
0.0000001
 44
0.0000000001
 40
0.0
 40
0.0
 40
0.0
 40
0.0
 40
0.1886699655
 40
0.371439439
 40
0.5405500348
 40
0.6179789185
 40
0.6896739166
 40
0.7549705957
 40
0.8132211141
 40
0.8639035519
 40
0.9066690399
 40
0.9412539739
 40
0.9676427414
 40
0.9779400948
 40
0.9865079581
 40
0.9936719693
 40
1.0
 40
1.0
 40
1.0
 40
1.0
 10
17.8561103309
 20
11.9932082217
 30
0.0
 10
17.85876565
 20
11.9932155039
 30
0.0
 10
17.8639937101
 20
11.9931613504
 30
0.0
 10
17.8715970615
 20
11.992880708
 30
0.0
 10
17.8776269882
 20
11.992478586
 30
0.0
 10
17.8820860894
 20
11.9920560962
 30
0.0
 10
17.8850839823
 20
11.9917082467
 30
0.0
 10
17.8878052065
 20
11.9913245498
 30
0.0
 10
17.8902223127
 20
11.9909086991
 30
0.0
 10
17.892311216
 20
11.9904648051
 30
0.0
 10
17.8940534924
 20
11.9899991808
 30
0.0
 10
17.8954325181
 20
11.9895167774
 30
0.0
 10
17.8963398001
 20
11.9890756166
 30
0.0
 10
17.8968566424
 20
11.9887002688
 30
0.0
 10
17.8971159757
 20
11.9884383707
 30
0.0
 10
17.8972793312
 20
11.9881696672
 30
0.0
 10
17.8973187751
 20
11.9879786021
 30
0.0
 10
17.8973187492
 20
11.9878895418
 30
0.0
  0
SPLINE
  5
289
100
AcDbEntity
  8
0
100
AcDbSpline
 62
9
  6
CONTINUOUS
 70
0
 71
3
 72
24
 73
20
 74
0
 42
0.0000001
 43
0.0000001
 44
0.0000000001
 40
0.0
 40
0.0
 40
0.0
 40
0.0
 40
0.1873029432
 40
0.3751136911
 40
0.4660727937
 40
0.5532809871
 40
0.6353509779
 40
0.7108958407
 40
0.7786741544
 40
0.8380246399
 40
0.8884318192
 40
0.9293822698
 40
0.9605371949
 40
0.972540317
 40
0.9822495258
 40
0.9897360648
 40
0.9950809716
 40
0.9983985328
 40
1.0
 40
1.0
 40
1.0
 40
1.0
 10
15.4657111616
 20
11.9073277687
 30
0.0
 10
15.4656359483
 20
11.9096184427
 30
0.0
 10
15.4654960761
 20
11.91420636
 30
0.0
 10
15.4653504684
 20
11.9199075734
 30
0.0
 10
15.4652572324
 20
11.9243848537
 30
0.0
 10
15.4652017566
 20
11.9275687375
 30
0.0
 10
15.4651610537
 20
11.9305642156
 30
0.0
 10
15.4651361498
 20
11.9333221086
 30
0.0
 10
15.4651281394
 20
11.9358021069
 30
0.0
 10
15.4651363741
 20
11.9379744966
 30
0.0
 10
15.4651598771
 20
11.9398185375
 30
0.0
 10
15.4651975111
 20
11.9413171249
 30
0.0
 10
15.4652428971
 20
11.9423456335
 30
0.0
 10
15.4652884707
 20
11.9429906948
 30
0.0
 10
15.4653230154
 20
11.9433469422
 30
0.0
 10
15.4653576379
 20
11.9436191259
 30
0.0
 10
15.4653984525
 20
11.9438164026
 30
0.0
 10
15.4654300182
 20
11.943930872
 30
0.0
 10
15.4654724787
 20
11.9439897698
 30
0.0
 10
15.4654920629
 20
11.943990455
 30
0.0
  0
LINE
  5
28A
100
AcDbEntity
  8
0
100
AcDbLine
 62
9
  6
CONTINUOUS
 10
6.6289255379
 20
11.9073281088
 11
6.6604394454
 21
11.913749032
  0
SPLINE
  5
28B
100
AcDbEntity
  8
0
100
AcDbSpline
 62
9
  6
CONTINUOUS
 70
0
 71
3
 72
17
 73
13
 74
0
 42
0.0000001
 43
0.0000001
 44
0.0000000001
 40
0.0
 40
0.0
 40
0.0
 40
0.0
 40
0.1602628903
 40
0.3189857365
 40
0.4706838828
 40
0.6098452851
 40
0.732125956
 40
0.7864801099
 40
0.8362703177
 40
0.9234295379
 40
0.9626197636
 40
1.0
 40
1.0
 40
1.0
 40
1.0
 10
6.6604390099
 20
11.5448862223
 30
0.0
 10
6.6607293776
 20
11.5430080337
 30
0.0
 10
6.6614314309
 20
11.5392875056
 30
0.0
 10
6.662867175
 20
11.5338875011
 30
0.0
 10
6.6646970497
 20
11.5288708087
 30
0.0
 10
6.6668609169
 20
11.5244626978
 30
0.0
 10
6.6689886204
 20
11.5213568961
 30
0.0
 10
6.6708198425
 20
11.5193855167
 30
0.0
 10
6.6725424909
 20
11.5179058735
 30
0.0
 10
6.6743986099
 20
11.5168626733
 30
0.0
 10
6.6762906507
 20
11.5163878075
 30
0.0
 10
6.6772033546
 20
11.5163314876
 30
0.0
 10
6.6776463599
 20
11.5163470645
 30
0.0
  0
SPLINE
  5
28C
100
AcDbEntity
  8
0
100
AcDbSpline
 62
9
  6
CONTINUOUS
 70
0
 71
3
 72
24
 73
20
 74
0
 42
0.0000001
 43
0.0000001
 44
0.0000000001
 40
0.0
 40
0.0
 40
0.0
 40
0.0
 40
0.1888642922
 40
0.3768280766
 40
0.4674954877
 40
0.5542732521
 40
0.6358630052
 40
0.7109667355
 40
0.7784160409
 40
0.8375610997
 40
0.8878829808
 40
0.9288647791
 40
0.9601526834
 40
0.9722429748
 40
0.9820418426
 40
0.9896119678
 40
0.9950256469
 40
0.9983879083
 40
1.0
 40
1.0
 40
1.0
 40
1.0
 10
4.2385258359
 20
11.465427185
 30
0.0
 10
4.2385948384
 20
11.4632437805
 30
0.0
 10
4.238722995
 20
11.4588870761
 30
0.0
 10
4.2388565972
 20
11.4534814227
 30
0.0
 10
4.2389419609
 20
11.4492557839
 30
0.0
 10
4.2389926621
 20
11.4462600852
 30
0.0
 10
4.239029858
 20
11.4434442184
 30
0.0
 10
4.2390526275
 20
11.4408517664
 30
0.0
 10
4.2390599944
 20
11.4385188226
 30
0.0
 10
4.2390524642
 20
11.4364725316
 30
0.0
 10
4.2390308261
 20
11.4347324381
 30
0.0
 10
4.238996016
 20
11.4333149646
 30
0.0
 10
4.2389538997
 20
11.4323398117
 30
0.0
 10
4.2389114961
 20
11.4317264439
 30
0.0
 10
4.23887924
 20
11.431386601
 30
0.0
 10
4.2388468655
 20
11.4311265505
 30
0.0
 10
4.2388085638
 20
11.4309374723
 30
0.0
 10
4.2387790146
 20
11.4308281309
 30
0.0
 10
4.238739069
 20
11.4307710744
 30
0.0
 10
4.2387204347
 20
11.4307704071
 30
0.0
  0
SPLINE
  5
28D
100
AcDbEntity
  8
0
100
AcDbSpline
 62
9
  6
CONTINUOUS
 70
0
 71
3
 72
17
 73
13
 74
0
 42
0.0000001
 43
0.0000001
 44
0.0000000001
 40
0.0
 40
0.0
 40
0.0
 40
0.0
 40
0.0373804521
 40
0.0765709401
 40
0.1637307182
 40
0.2135211589
 40
0.267875491
 40
0.3901563198
 40
0.5293175923
 40
0.6810153728
 40
0.8397376973
 40
1.0
 40
1.0
 40
1.0
 40
1.0
 10
6.6776464822
 20
11.9422883833
 30
0.0
 10
6.6772034738
 20
11.9423039537
 30
0.0
 10
6.6762907647
 20
11.9422476206
 30
0.0
 10
6.6743987165
 20
11.9417727301
 30
0.0
 10
6.6725425937
 20
11.9407295108
 30
0.0
 10
6.6708199416
 20
11.9392498523
 30
0.0
 10
6.6689887194
 20
11.9372784618
 30
0.0
 10
6.6668610174
 20
11.9341726538
 30
0.0
 10
6.6646971531
 20
11.9297645428
 30
0.0
 10
6.6628672834
 20
11.9247478583
 30
0.0
 10
6.6614315451
 20
11.919347867
 30
0.0
 10
6.6607294957
 20
11.9156273493
 30
0.0
 10
6.6604391301
 20
11.9137491664
 30
0.0
  0
SPLINE
  5
28E
100
AcDbEntity
  8
0
100
AcDbSpline
 62
9
  6
CONTINUOUS
 70
0
 71
3
 72
14
 73
10
 74
0
 42
0.0000001
 43
0.0000001
 44
0.0000000001
 40
0.0
 40
0.0
 40
0.0
 40
0.0
 40
0.1188832933
 40
0.2402218544
 40
0.363586183
 40
0.488744336
 40
0.61522856
 40
0.7427975633
 40
1.0
 40
1.0
 40
1.0
 40
1.0
 10
6.6604392457
 20
11.913750027
 30
0.0
 10
6.663666125
 20
11.9144209574
 30
0.0
 10
6.6700522024
 20
11.9164673281
 30
0.0
 10
6.679062373
 20
11.9210471553
 30
0.0
 10
6.6876122513
 20
11.9267420936
 30
0.0
 10
6.6957029443
 20
11.933288258
 30
0.0
 10
6.703401938
 20
11.940458388
 30
0.0
 10
6.713154128
 20
11.950753465
 30
0.0
 10
6.7198298095
 20
11.9591046224
 30
0.0
 10
6.7240289253
 20
11.9648677052
 30
0.0
  0
SPLINE
  5
28F
100
AcDbEntity
  8
0
100
AcDbSpline
 62
9
  6
CONTINUOUS
 70
0
 71
3
 72
24
 73
20
 74
0
 42
0.0000001
 43
0.0000001
 44
0.0000000001
 40
0.0
 40
0.0
 40
0.0
 40
0.0
 40
0.0016014645
 40
0.0049190217
 40
0.0102639246
 40
0.0177504598
 40
0.0274596651
 40
0.0394627839
 40
0.0706177034
 40
0.11156815
 40
0.1619753268
 40
0.2213258116
 40
0.2891041262
 40
0.3646489913
 40
0.4467189857
 40
0.5339271836
 40
0.6248862912
 40
0.8126970489
 40
1.0
 40
1.0
 40
1.0
 40
1.0
 10
6.6291446035
 20
11.9439904562
 30
0.0
 10
6.6291641877
 20
11.9439897711
 30
0.0
 10
6.6292066483
 20
11.9439308734
 30
0.0
 10
6.6292382139
 20
11.9438164041
 30
0.0
 10
6.6292790286
 20
11.9436191276
 30
0.0
 10
6.6293136511
 20
11.9433469439
 30
0.0
 10
6.6293481958
 20
11.9429906967
 30
0.0
 10
6.6293937694
 20
11.9423456355
 30
0.0
 10
6.6294391554
 20
11.941317127
 30
0.0
 10
6.6294767894
 20
11.9398185395
 30
0.0
 10
6.6295002924
 20
11.9379744986
 30
0.0
 10
6.6295085271
 20
11.9358021087
 30
0.0
 10
6.6295005167
 20
11.9333221101
 30
0.0
 10
6.6294756128
 20
11.9305642168
 30
0.0
 10
6.6294349098
 20
11.9275687383
 30
0.0
 10
6.6293794341
 20
11.924384854
 30
0.0
 10
6.629286198
 20
11.9199075731
 30
0.0
 10
6.6291405903
 20
11.9142063589
 30
0.0
 10
6.6290007181
 20
11.9096184409
 30
0.0
 10
6.6289255048
 20
11.9073277666
 30
0.0
  0
SPLINE
  5
290
100
AcDbEntity
  8
0
100
AcDbSpline
 62
9
  6
CONTINUOUS
 70
0
 71
3
 72
9
 73
5
 74
0
 42
0.0000001
 43
0.0000001
 44
0.0000000001
 40
0.0
 40
0.0
 40
0.0
 40
0.0
 40
0.4999843841
 40
1.0
 40
1.0
 40
1.0
 40
1.0
 10
6.6289255058
 20
11.5513076309
 30
0.0
 10
6.230534701
 20
11.5370886594
 30
0.0
 10
5.4337582668
 20
11.5078183743
 30
0.0
 10
4.6369569034
 20
11.4792239375
 30
0.0
 10
4.2385263719
 20
11.4654261682
 30
0.0
  0
SPLINE
  5
291
100
AcDbEntity
  8
0
100
AcDbSpline
 62
9
  6
CONTINUOUS
 70
0
 71
3
 72
9
 73
5
 74
0
 42
0.0000001
 43
0.0000001
 44
0.0000000001
 40
0.0
 40
0.0
 40
0.0
 40
0.0
 40
0.500015616
 40
1.0
 40
1.0
 40
1.0
 40
1.0
 10
4.2385263681
 20
11.9932092256
 30
0.0
 10
4.6369568971
 20
11.9794114534
 30
0.0
 10
5.4337582549
 20
11.9508169999
 30
0.0
 10
6.230534687
 20
11.9215467925
 30
0.0
 10
6.6289254873
 20
11.9073277673
 30
0.0
  0
SPLINE
  5
292
100
AcDbEntity
  8
0
100
AcDbSpline
 62
9
  6
CONTINUOUS
 70
0
 71
3
 72
12
 73
8
 74
0
 42
0.0000001
 43
0.0000001
 44
0.0000000001
 40
0.0
 40
0.0
 40
0.0
 40
0.0
 40
0.2495312749
 40
0.3745047722
 40
0.4995314041
 40
0.7497164866
 40
1.0
 40
1.0
 40
1.0
 40
1.0
 10
6.6289255016
 20
11.9073281746
 30
0.0
 10
6.6226843124
 20
11.893411907
 30
0.0
 10
6.6143823362
 20
11.872022091
 30
0.0
 10
6.605602901
 20
11.8427687281
 30
0.0
 10
6.5983772002
 20
11.8130490947
 30
0.0
 10
6.5923098836
 20
11.7752278259
 30
0.0
 10
6.5906798018
 20
11.7446153973
 30
0.0
 10
6.5906798543
 20
11.7293176999
 30
0.0
  0
SPLINE
  5
293
100
AcDbEntity
  8
0
100
AcDbSpline
 62
9
  6
CONTINUOUS
 70
0
 71
3
 72
14
 73
10
 74
0
 42
0.0000001
 43
0.0000001
 44
0.0000000001
 40
0.0
 40
0.0
 40
0.0
 40
0.0
 40
0.2572101367
 40
0.3847765591
 40
0.5112589459
 40
0.6364182473
 40
0.7597814499
 40
0.8811132302
 40
1.0
 40
1.0
 40
1.0
 40
1.0
 10
6.7240288774
 20
11.4937677841
 30
0.0
 10
6.7198295048
 20
11.4995309441
 30
0.0
 10
6.7131538392
 20
11.5078822804
 30
0.0
 10
6.7034016615
 20
11.5181775011
 30
0.0
 10
6.6957026988
 20
11.5253475373
 30
0.0
 10
6.6876119055
 20
11.5318935007
 30
0.0
 10
6.6790621942
 20
11.5375883233
 30
0.0
 10
6.6700522692
 20
11.5421683745
 30
0.0
 10
6.6636662191
 20
11.5442145927
 30
0.0
 10
6.6604392316
 20
11.5448854765
 30
0.0
  0
LINE
  5
294
100
AcDbEntity
  8
0
100
AcDbLine
 62
9
  6
CONTINUOUS
 10
6.6604394084
 20
11.5448865294
 11
6.6289256009
 21
11.5513074597
  0
SPLINE
  5
295
100
AcDbEntity
  8
0
100
AcDbSpline
 62
9
  6
CONTINUOUS
 70
0
 71
3
 72
24
 73
20
 74
0
 42
0.0000001
 43
0.0000001
 44
0.0000000001
 40
0.0
 40
0.0
 40
0.0
 40
0.0
 40
0.0016116834
 40
0.0049733688
 40
0.010386468
 40
0.0179560322
 40
0.0277543653
 40
0.0398441522
 40
0.0711311498
 40
0.1121122386
 40
0.1624336502
 40
0.2215784679
 40
0.2890277489
 40
0.3641316809
 40
0.4457218535
 40
0.532500216
 40
0.6231683647
 40
0.8111338818
 40
1.0
 40
1.0
 40
1.0
 40
1.0
 10
4.2387204329
 20
12.0278649931
 30
0.0
 10
4.2387390628
 20
12.027864336
 30
0.0
 10
4.2387790213
 20
12.0278072965
 30
0.0
 10
4.2388085618
 20
12.0276979716
 30
0.0
 10
4.2388468691
 20
12.0275089144
 30
0.0
 10
4.2388792422
 20
12.027248883
 30
0.0
 10
4.2389115001
 20
12.0269090586
 30
0.0
 10
4.238953905
 20
12.0262957128
 30
0.0
 10
4.2389960233
 20
12.0253205836
 30
0.0
 10
4.2390308351
 20
12.0239031331
 30
0.0
 10
4.2390524748
 20
12.0221630545
 30
0.0
 10
4.2390600065
 20
12.0201167701
 30
0.0
 10
4.2390526408
 20
12.017783825
 30
0.0
 10
4.2390298722
 20
12.0151913637
 30
0.0
 10
4.2389926767
 20
12.0123754802
 30
0.0
 10
4.2389419757
 20
12.0093797585
 30
0.0
 10
4.2388566117
 20
12.0051540804
 30
0.0
 10
4.2387230085
 20
11.9997483725
 30
0.0
 10
4.2385948506
 20
11.995391623
 30
0.0
 10
4.2385258473
 20
11.9932081954
 30
0.0
  0
SPLINE
  5
296
100
AcDbEntity
  8
0
100
AcDbSpline
 62
9
  6
CONTINUOUS
 70
0
 71
3
 72
22
 73
18
 74
0
 42
0.0000001
 43
0.0000001
 44
0.0000000001
 40
0.0
 40
0.0
 40
0.0
 40
0.0
 40
0.1886699511
 40
0.371439982
 40
0.5405516188
 40
0.6179807082
 40
0.6896755199
 40
0.7549718823
 40
0.8132221176
 40
0.863903592
 40
0.9066678875
 40
0.941252153
 40
0.9676405269
 40
0.9779378759
 40
0.9865060367
 40
0.9936707791
 40
1.0
 40
1.0
 40
1.0
 40
1.0
 10
4.2385263873
 20
11.9932081806
 30
0.0
 10
4.2358710858
 20
11.993215579
 30
0.0
 10
4.2306430486
 20
11.9931611601
 30
0.0
 10
4.2230397446
 20
11.9928801195
 30
0.0
 10
4.21700982
 20
11.9924782221
 30
0.0
 10
4.2125507157
 20
11.9920559078
 30
0.0
 10
4.2095528344
 20
11.9917081626
 30
0.0
 10
4.2068316269
 20
11.9913245533
 30
0.0
 10
4.204414545
 20
11.9909087836
 30
0.0
 10
4.2023256775
 20
11.9904649509
 30
0.0
 10
4.2005834445
 20
11.9899993613
 30
0.0
 10
4.1992044553
 20
11.9895169781
 30
0.0
 10
4.1982972012
 20
11.9890758015
 30
0.0
 10
4.1977803915
 20
11.9887004168
 30
0.0
 10
4.1975210776
 20
11.9884384811
 30
0.0
 10
4.1973577426
 20
11.9881697304
 30
0.0
 10
4.1973183108
 20
11.9879786382
 30
0.0
 10
4.1973183383
 20
11.9878895617
 30
0.0
  0
SPLINE
  5
297
100
AcDbEntity
  8
0
100
AcDbSpline
 62
9
  6
CONTINUOUS
 70
0
 71
3
 72
22
 73
18
 74
0
 42
0.0000001
 43
0.0000001
 44
0.0000000001
 40
0.0
 40
0.0
 40
0.0
 40
0.0
 40
0.1886692606
 40
0.3714379453
 40
0.5405479082
 40
0.617976443
 40
0.689671068
 40
0.7549673249
 40
0.8132173399
 40
0.8638992081
 40
0.9066641898
 40
0.941248908
 40
0.9676380777
 40
0.9779360048
 40
0.9865047914
 40
0.9936701646
 40
1.0
 40
1.0
 40
1.0
 40
1.0
 10
4.2385263457
 20
11.4654271782
 30
0.0
 10
4.2358710279
 20
11.4654200379
 30
0.0
 10
4.2306429762
 20
11.465474409
 30
0.0
 10
4.2230396363
 20
11.4657551238
 30
0.0
 10
4.2170097077
 20
11.4661571034
 30
0.0
 10
4.212550599
 20
11.46657946
 30
0.0
 10
4.2095527018
 20
11.4669272138
 30
0.0
 10
4.2068314741
 20
11.4673108156
 30
0.0
 10
4.2044143653
 20
11.4677265713
 30
0.0
 10
4.2023254592
 20
11.468170377
 30
0.0
 10
4.2005831787
 20
11.4686359396
 30
0.0
 10
4.1992041456
 20
11.4691183251
 30
0.0
 10
4.1982968621
 20
11.4695595227
 30
0.0
 10
4.1977800258
 20
11.4699349292
 30
0.0
 10
4.1975206916
 20
11.4701968862
 30
0.0
 10
4.19735734
 20
11.4704656612
 30
0.0
 10
4.1973179014
 20
11.4706567721
 30
0.0
 10
4.1973179274
 20
11.4707458581
 30
0.0
  0
SPLINE
  5
298
100
AcDbEntity
  8
0
100
AcDbSpline
 62
9
  6
CONTINUOUS
 70
0
 71
3
 72
24
 73
20
 74
0
 42
0.0000001
 43
0.0000001
 44
0.0000000001
 40
0.0
 40
0.0
 40
0.0
 40
0.0
 40
0.1873029432
 40
0.3751136911
 40
0.4660727937
 40
0.5532809871
 40
0.6353509779
 40
0.7108958407
 40
0.7786741544
 40
0.8380246399
 40
0.8884318192
 40
0.9293822698
 40
0.9605371949
 40
0.972540317
 40
0.9822495258
 40
0.9897360648
 40
0.9950809716
 40
0.9983985328
 40
1.0
 40
1.0
 40
1.0
 40
1.0
 10
6.628925515
 20
11.5513076312
 30
0.0
 10
6.6290007283
 20
11.5490169572
 30
0.0
 10
6.6291406005
 20
11.5444290398
 30
0.0
 10
6.6292862082
 20
11.5387278264
 30
0.0
 10
6.6293794442
 20
11.5342505462
 30
0.0
 10
6.6294349199
 20
11.5310666624
 30
0.0
 10
6.6294756229
 20
11.5280711843
 30
0.0
 10
6.6295005268
 20
11.5253132913
 30
0.0
 10
6.6295085372
 20
11.5228332929
 30
0.0
 10
6.6295003025
 20
11.5206609032
 30
0.0
 10
6.6294767994
 20
11.5188168624
 30
0.0
 10
6.6294391655
 20
11.5173182749
 30
0.0
 10
6.6293937795
 20
11.5162897664
 30
0.0
 10
6.6293482059
 20
11.515644705
 30
0.0
 10
6.6293136612
 20
11.5152884577
 30
0.0
 10
6.6292790387
 20
11.515016274
 30
0.0
 10
6.6292382241
 20
11.5148189973
 30
0.0
 10
6.6292066584
 20
11.5147045279
 30
0.0
 10
6.6291641978
 20
11.5146456301
 30
0.0
 10
6.6291446137
 20
11.5146449449
 30
0.0
  0
SPLINE
  5
299
100
AcDbEntity
  8
0
100
AcDbSpline
 62
7
  6
CONTINUOUS
 70
0
 71
3
 72
9
 73
5
 74
0
 42
0.0000001
 43
0.0000001
 44
0.0000000001
 40
0.0
 40
0.0
 40
0.0
 40
0.0
 40
0.4847213729
 40
1.0
 40
1.0
 40
1.0
 40
1.0
 10
9.8398819917
 20
11.3396613594
 30
0.0
 10
9.855508762
 20
11.3074363304
 30
0.0
 10
9.8858389699
 20
11.2400192737
 30
0.0
 10
9.9128057182
 20
11.1711997441
 30
0.0
 10
9.9259418439
 20
11.135465914
 30
0.0
  0
SPLINE
  5
29A
100
AcDbEntity
  8
0
100
AcDbSpline
 62
7
  6
CONTINUOUS
 70
0
 71
3
 72
11
 73
7
 74
0
 42
0.0000001
 43
0.0000001
 44
0.0000000001
 40
0.0
 40
0.0
 40
0.0
 40
0.0
 40
0.2331563393
 40
0.4773961783
 40
0.7329450922
 40
1.0
 40
1.0
 40
1.0
 40
1.0
 10
9.9259418439
 20
11.135465914
 30
0.0
 10
9.9369848479
 20
11.1054259434
 30
0.0
 10
9.9584997398
 20
11.0435107662
 30
0.0
 10
9.988497376
 20
10.9474600622
 30
0.0
 10
10.0169604071
 20
10.8461026687
 30
0.0
 10
10.03452254
 20
10.7765384039
 30
0.0
 10
10.0430730721
 20
10.7408908427
 30
0.0
  0
SPLINE
  5
29B
100
AcDbEntity
  8
0
100
AcDbSpline
 62
7
  6
CONTINUOUS
 70
0
 71
3
 72
11
 73
7
 74
0
 42
0.0000001
 43
0.0000001
 44
0.0000000001
 40
0.0
 40
0.0
 40
0.0
 40
0.0
 40
0.2227837011
 40
0.4635041
 40
0.7224886082
 40
1.0
 40
1.0
 40
1.0
 40
1.0
 10
10.0430730721
 20
10.7408908427
 30
0.0
 10
10.0604845645
 20
10.6683015306
 30
0.0
 10
10.0930773853
 20
10.5163947286
 30
0.0
 10
10.1345020291
 20
10.277830459
 30
0.0
 10
10.1703287782
 20
10.0198406907
 30
0.0
 10
10.1898016821
 20
9.8411081658
 30
0.0
 10
10.1987203391
 20
9.7485509216
 30
0.0
  0
SPLINE
  5
29C
100
AcDbEntity
  8
0
100
AcDbSpline
 62
7
  6
CONTINUOUS
 70
0
 71
3
 72
20
 73
16
 74
0
 42
0.0000001
 43
0.0000001
 44
0.0000000001
 40
0.0
 40
0.0
 40
0.0
 40
0.0
 40
0.0105273014
 40
0.0230295723
 40
0.0537995859
 40
0.0919853886
 40
0.1372547446
 40
0.189165725
 40
0.2470992754
 40
0.3104194029
 40
0.3784894601
 40
0.5259982652
 40
0.6832127827
 40
0.8434876872
 40
1.0
 40
1.0
 40
1.0
 40
1.0
 10
11.7713153736
 20
2.5225555684
 30
0.0
 10
11.7708186046
 20
2.5269955855
 30
0.0
 10
11.7698514579
 20
2.5367219463
 30
0.0
 10
11.7679354579
 20
2.5594740879
 30
0.0
 10
11.7656149319
 20
2.5939684375
 30
0.0
 10
11.7629410106
 20
2.6423715079
 30
0.0
 10
11.7602443389
 20
2.6997572801
 30
0.0
 10
11.7575272658
 20
2.7655307504
 30
0.0
 10
11.754789823
 20
2.8389699043
 30
0.0
 10
11.7520344913
 20
2.9192705416
 30
0.0
 10
11.7482392218
 20
3.0375727449
 30
0.0
 10
11.7435605592
 20
3.1957149148
 30
0.0
 10
11.7380161398
 20
3.3929793566
 30
0.0
 10
11.732422553
 20
3.5940649429
 30
0.0
 10
11.7285670388
 20
3.7284522384
 30
0.0
 10
11.7265850309
 20
3.7948455104
 30
0.0
  0
SPLINE
  5
29D
100
AcDbEntity
  8
0
100
AcDbSpline
 62
7
  6
CONTINUOUS
 70
0
 71
3
 72
20
 73
16
 74
0
 42
0.0000001
 43
0.0000001
 44
0.0000000001
 40
0.0
 40
0.0
 40
0.0
 40
0.0
 40
0.0105290705
 40
0.0230329654
 40
0.0538058011
 40
0.0919938786
 40
0.1372649835
 40
0.1891771393
 40
0.247111317
 40
0.3104315779
 40
0.3785013283
 40
0.5260083331
 40
0.6832198956
 40
0.8434912513
 40
1.0
 40
1.0
 40
1.0
 40
1.0
 10
10.3233226786
 20
2.522567865
 30
0.0
 10
10.3238194204
 20
2.5270085969
 30
0.0
 10
10.3247865266
 20
2.5367363129
 30
0.0
 10
10.326702452
 20
2.5594908849
 30
0.0
 10
10.329022912
 20
2.5939877599
 30
0.0
 10
10.3316967648
 20
2.642393272
 30
0.0
 10
10.3343933614
 20
2.6997806975
 30
0.0
 10
10.3371103578
 20
2.7655550392
 30
0.0
 10
10.3398477214
 20
2.8389943035
 30
0.0
 10
10.3426029718
 20
2.919294355
 30
0.0
 10
10.3463981167
 20
3.0375945735
 30
0.0
 10
10.3510766342
 20
3.1957330602
 30
0.0
 10
10.356620889
 20
3.3929920625
 30
0.0
 10
10.3622143072
 20
3.5940714235
 30
0.0
 10
10.3660697022
 20
3.7284543955
 30
0.0
 10
10.3680516456
 20
3.7948455104
 30
0.0
  0
LINE
  5
29E
100
AcDbEntity
  8
0
100
AcDbLine
 62
7
  6
CONTINUOUS
 10
11.7265848598
 20
3.7948454988
 11
11.7174421122
 21
4.096332144
  0
LINE
  5
29F
100
AcDbEntity
  8
0
100
AcDbLine
 62
7
  6
CONTINUOUS
 10
10.368051479
 20
3.7948455008
 11
10.3771942177
 21
4.0963321469
  0
SPLINE
  5
2A0
100
AcDbEntity
  8
0
100
AcDbSpline
 62
7
  6
CONTINUOUS
 70
0
 71
3
 72
9
 73
5
 74
0
 42
0.0000001
 43
0.0000001
 44
0.0000000001
 40
0.0
 40
0.0
 40
0.0
 40
0.0
 40
0.5152786271
 40
1.0
 40
1.0
 40
1.0
 40
1.0
 10
12.1686948327
 20
11.135465914
 30
0.0
 10
12.1818309583
 20
11.1711997441
 30
0.0
 10
12.2087977066
 20
11.2400192737
 30
0.0
 10
12.2391279146
 20
11.3074363304
 30
0.0
 10
12.2547546849
 20
11.3396613594
 30
0.0
  0
SPLINE
  5
2A1
100
AcDbEntity
  8
0
100
AcDbSpline
 62
7
  6
CONTINUOUS
 70
0
 71
3
 72
11
 73
7
 74
0
 42
0.0000001
 43
0.0000001
 44
0.0000000001
 40
0.0
 40
0.0
 40
0.0
 40
0.0
 40
0.2670549078
 40
0.5226038217
 40
0.7668436607
 40
1.0
 40
1.0
 40
1.0
 40
1.0
 10
12.0515636045
 20
10.7408908427
 30
0.0
 10
12.0601141365
 20
10.7765384039
 30
0.0
 10
12.0776762694
 20
10.8461026687
 30
0.0
 10
12.1061393006
 20
10.9474600622
 30
0.0
 10
12.1361369368
 20
11.0435107662
 30
0.0
 10
12.1576518287
 20
11.1054259434
 30
0.0
 10
12.1686948327
 20
11.135465914
 30
0.0
  0
SPLINE
  5
2A2
100
AcDbEntity
  8
0
100
AcDbSpline
 62
7
  6
CONTINUOUS
 70
0
 71
3
 72
11
 73
7
 74
0
 42
0.0000001
 43
0.0000001
 44
0.0000000001
 40
0.0
 40
0.0
 40
0.0
 40
0.0
 40
0.2775113918
 40
0.5364959
 40
0.7772162989
 40
1.0
 40
1.0
 40
1.0
 40
1.0
 10
11.8959163375
 20
9.7485509216
 30
0.0
 10
11.9048349945
 20
9.8411081658
 30
0.0
 10
11.9243078983
 20
10.0198406907
 30
0.0
 10
11.9601346474
 20
10.277830459
 30
0.0
 10
12.0015592912
 20
10.5163947286
 30
0.0
 10
12.0341521121
 20
10.6683015306
 30
0.0
 10
12.0515636045
 20
10.7408908427
 30
0.0
  0
SPLINE
  5
2A3
100
AcDbEntity
  8
0
100
AcDbSpline
 62
7
  6
CONTINUOUS
 70
0
 71
3
 72
11
 73
7
 74
0
 42
0.0000001
 43
0.0000001
 44
0.0000000001
 40
0.0
 40
0.0
 40
0.0
 40
0.0
 40
0.2503407101
 40
0.5005717613
 40
0.7505136691
 40
1.0
 40
1.0
 40
1.0
 40
1.0
 10
11.0473183379
 20
1.7403460209
 30
0.0
 10
11.0811224906
 20
1.7403460208
 30
0.0
 10
11.1488033877
 20
1.745078918
 30
0.0
 10
11.2482978363
 20
1.7658515233
 30
0.0
 10
11.3439949698
 20
1.7997541655
 30
0.0
 10
11.4041315089
 20
1.8308369801
 30
0.0
 10
11.4328956793
 20
1.8483742732
 30
0.0
  0
SPLINE
  5
2A4
100
AcDbEntity
  8
0
100
AcDbSpline
 62
7
  6
CONTINUOUS
 70
0
 71
3
 72
17
 73
13
 74
0
 42
0.0000001
 43
0.0000001
 44
0.0000000001
 40
0.0
 40
0.0
 40
0.0
 40
0.0
 40
0.1258056697
 40
0.2514396035
 40
0.3768262486
 40
0.4394353864
 40
0.5019657609
 40
0.6267714885
 40
0.7513803757
 40
0.8136386856
 40
0.8758390936
 40
1.0
 40
1.0
 40
1.0
 40
1.0
 10
11.4328957202
 20
1.8483732626
 30
0.0
 10
11.4592459746
 20
1.8644388041
 30
0.0
 10
11.5098961071
 20
1.8999885532
 30
0.0
 10
11.5784361382
 20
1.9623498164
 30
0.0
 10
11.6285595099
 20
2.0210158923
 30
0.0
 10
11.6638656776
 20
2.0713632765
 30
0.0
 10
11.6957842078
 20
2.1237597772
 30
0.0
 10
11.7290961941
 20
2.192906087
 30
0.0
 10
11.7532827038
 20
2.2656661257
 30
0.0
 10
11.7669611164
 20
2.3252534441
 30
0.0
 10
11.7768013959
 20
2.3854726496
 30
0.0
 10
11.7798184644
 20
2.4312589662
 30
0.0
 10
11.7798184293
 20
2.4617170734
 30
0.0
  0
SPLINE
  5
2A5
100
AcDbEntity
  8
0
100
AcDbSpline
 62
7
  6
CONTINUOUS
 70
0
 71
3
 72
17
 73
13
 74
0
 42
0.0000001
 43
0.0000001
 44
0.0000000001
 40
0.0
 40
0.0
 40
0.0
 40
0.0
 40
0.1241609068
 40
0.1863613153
 40
0.2486196258
 40
0.3732285131
 40
0.4980342381
 40
0.5605646096
 40
0.6231737438
 40
0.7485603828
 40
0.8741943171
 40
1.0
 40
1.0
 40
1.0
 40
1.0
 10
10.3148182471
 20
2.4617170717
 30
0.0
 10
10.3148182118
 20
2.4312589644
 30
0.0
 10
10.3178352806
 20
2.3854726475
 30
0.0
 10
10.3276755608
 20
2.3252534416
 30
0.0
 10
10.3413539739
 20
2.265666123
 30
0.0
 10
10.3655404836
 20
2.1929060847
 30
0.0
 10
10.3988524682
 20
2.1237597756
 30
0.0
 10
10.430770996
 20
2.0713632759
 30
0.0
 10
10.4660771607
 20
2.0210158933
 30
0.0
 10
10.51620053
 20
1.9623498181
 30
0.0
 10
10.5847405628
 20
1.8999885538
 30
0.0
 10
10.6353906986
 20
1.8644388034
 30
0.0
 10
10.6617409558
 20
1.8483732602
 30
0.0
  0
SPLINE
  5
2A6
100
AcDbEntity
  8
0
100
AcDbSpline
 62
7
  6
CONTINUOUS
 70
0
 71
3
 72
11
 73
7
 74
0
 42
0.0000001
 43
0.0000001
 44
0.0000000001
 40
0.0
 40
0.0
 40
0.0
 40
0.0
 40
0.2494863309
 40
0.4994282387
 40
0.7496592899
 40
1.0
 40
1.0
 40
1.0
 40
1.0
 10
10.6617409969
 20
1.8483742735
 30
0.0
 10
10.6905051672
 20
1.8308369804
 30
0.0
 10
10.7506417062
 20
1.7997541657
 30
0.0
 10
10.8463388396
 20
1.7658515235
 30
0.0
 10
10.9458332881
 20
1.7450789181
 30
0.0
 10
11.0135141851
 20
1.7403460209
 30
0.0
 10
11.0473183379
 20
1.7403460209
 30
0.0
  0
SPLINE
  5
2A7
100
AcDbEntity
  8
0
100
AcDbSpline
 62
9
  6
CONTINUOUS
 70
0
 71
3
 72
16
 73
12
 74
0
 42
0.0000001
 43
0.0000001
 44
0.0000000001
 40
0.0
 40
0.0
 40
0.0
 40
0.0
 40
0.1652228619
 40
0.3193478194
 40
0.4621439434
 40
0.5933947312
 40
0.7129139593
 40
0.8205750147
 40
0.9162857142
 40
0.9596439269
 40
1.0
 40
1.0
 40
1.0
 40
1.0
 10
9.8398819917
 20
11.3396613594
 30
0.0
 10
9.878327857
 20
11.3353277346
 30
0.0
 10
9.9526089818
 20
11.3266965562
 30
0.0
 10
10.0599817288
 20
11.3131827902
 30
0.0
 10
10.1592978779
 20
11.2994138149
 30
0.0
 10
10.2503692689
 20
11.2852603844
 30
0.0
 10
10.3330168105
 20
11.2705867156
 30
0.0
 10
10.4071003323
 20
11.2554253098
 30
0.0
 10
10.4633137103
 20
11.2420155021
 30
0.0
 10
10.5038486286
 20
11.2309503643
 30
0.0
 10
10.5226316631
 20
11.2253308755
 30
0.0
 10
10.5316447403
 20
11.2224907665
 30
0.0
  0
LINE
  5
2A8
100
AcDbEntity
  8
0
100
AcDbLine
 62
7
  6
CONTINUOUS
 10
11.4226375817
 20
3.8463175246
 11
11.4223340133
 21
4.2928887186
  0
SPLINE
  5
2A9
100
AcDbEntity
  8
0
100
AcDbSpline
 62
9
  6
CONTINUOUS
 70
0
 71
3
 72
11
 73
7
 74
0
 42
0.0000001
 43
0.0000001
 44
0.0000000001
 40
0.0
 40
0.0
 40
0.0
 40
0.0
 40
0.2333759855
 40
0.4784432205
 40
0.7344105778
 40
1.0
 40
1.0
 40
1.0
 40
1.0
 10
11.7265851975
 20
3.7948455008
 30
0.0
 10
11.7025671166
 20
3.7962275842
 30
0.0
 10
11.6533432869
 20
3.7994223497
 30
0.0
 10
11.5780592271
 20
3.8078848924
 30
0.0
 10
11.5003319881
 20
3.8226351078
 30
0.0
 10
11.4485341027
 20
3.8374317907
 30
0.0
 10
11.4226375817
 20
3.8463175246
 30
0.0
  0
SPLINE
  5
2AA
100
AcDbEntity
  8
0
100
AcDbSpline
 62
9
  6
CONTINUOUS
 70
0
 71
3
 72
9
 73
5
 74
0
 42
0.0000001
 43
0.0000001
 44
0.0000000001
 40
0.0
 40
0.0
 40
0.0
 40
0.0
 40
0.4982234434
 40
1.0
 40
1.0
 40
1.0
 40
1.0
 10
11.4226375732
 20
3.8463175273
 30
0.0
 10
11.3608424905
 20
3.8363048727
 30
0.0
 10
11.2360656729
 20
3.8204991499
 30
0.0
 10
11.1103657838
 20
3.8147950168
 30
0.0
 10
11.0473183383
 20
3.8147950168
 30
0.0
  0
LINE
  5
2AB
100
AcDbEntity
  8
0
100
AcDbLine
 62
7
  6
CONTINUOUS
 10
10.6719991028
 20
3.8463175274
 11
10.6723026707
 21
4.2928887239
  0
SPLINE
  5
2AC
100
AcDbEntity
  8
0
100
AcDbSpline
 62
9
  6
CONTINUOUS
 70
0
 71
3
 72
12
 73
8
 74
0
 42
0.0000001
 43
0.0000001
 44
0.0000000001
 40
0.0
 40
0.0
 40
0.0
 40
0.0
 40
0.2634386323
 40
0.5216581571
 40
0.6461350872
 40
0.7671825342
 40
1.0
 40
1.0
 40
1.0
 40
1.0
 10
10.6719990952
 20
3.8463175245
 30
0.0
 10
10.6465734236
 20
3.8367593426
 30
0.0
 10
10.594700017
 20
3.8218184772
 30
0.0
 10
10.5290321238
 20
3.8102385879
 30
0.0
 10
10.4775065432
 20
3.8036470564
 30
0.0
 10
10.4284283061
 20
3.798703064
 30
0.0
 10
10.3920174226
 20
3.7962245837
 30
0.0
 10
10.368051479
 20
3.7948455008
 30
0.0
  0
SPLINE
  5
2AD
100
AcDbEntity
  8
0
100
AcDbSpline
 62
9
  6
CONTINUOUS
 70
0
 71
3
 72
9
 73
5
 74
0
 42
0.0000001
 43
0.0000001
 44
0.0000000001
 40
0.0
 40
0.0
 40
0.0
 40
0.0
 40
0.2495124434
 40
1.0
 40
1.0
 40
1.0
 40
1.0
 10
11.4223374479
 20
4.2928892521
 30
0.0
 10
11.3911612421
 20
4.291737928
 30
0.0
 10
11.2661959485
 20
4.2876104288
 30
0.0
 10
11.141154549
 20
4.2856152126
 30
0.0
 10
11.0473183326
 20
4.2856152127
 30
0.0
  0
SPLINE
  5
2AE
100
AcDbEntity
  8
0
100
AcDbSpline
 62
9
  6
CONTINUOUS
 70
0
 71
3
 72
9
 73
5
 74
0
 42
0.0000001
 43
0.0000001
 44
0.0000000001
 40
0.0
 40
0.0
 40
0.0
 40
0.0
 40
0.4940777472
 40
1.0
 40
1.0
 40
1.0
 40
1.0
 10
11.7174492956
 20
4.096327726
 30
0.0
 10
11.668408621
 20
4.1280394784
 30
0.0
 10
11.5690607123
 20
4.1920817777
 30
0.0
 10
11.4711682597
 20
4.2583731593
 30
0.0
 10
11.4223340058
 20
4.2928887239
 30
0.0
  0
SPLINE
  5
2AF
100
AcDbEntity
  8
0
100
AcDbSpline
 62
7
  6
CONTINUOUS
 70
0
 71
3
 72
19
 73
15
 74
0
 42
0.0000001
 43
0.0000001
 44
0.0000000001
 40
0.0
 40
0.0
 40
0.0
 40
0.0
 40
0.0090025607
 40
0.020138386
 40
0.0486255034
 40
0.0850921648
 40
0.129168691
 40
0.1804280855
 40
0.2382146308
 40
0.3705174673
 40
0.5200939335
 40
0.6798417598
 40
0.8423384904
 40
1.0
 40
1.0
 40
1.0
 40
1.0
 10
11.4305310744
 20
1.9298905238
 30
0.0
 10
11.4303749455
 20
1.9356394089
 30
0.0
 10
11.430081038
 20
1.9485009346
 30
0.0
 10
11.4295160783
 20
1.9795587288
 30
0.0
 10
11.4288723318
 20
2.0281621703
 30
0.0
 10
11.4281729502
 20
2.097809291
 30
0.0
 10
11.4275097852
 20
2.182004704
 30
0.0
 10
11.4268838263
 20
2.2798202254
 30
0.0
 10
11.426063011
 20
2.4339961928
 30
0.0
 10
11.4251764285
 20
2.6509793709
 30
0.0
 10
11.4243040143
 20
2.9330977463
 30
0.0
 10
11.4235862192
 20
3.2345050389
 30
0.0
 10
11.423025813
 20
3.541077542
 30
0.0
 10
11.4227494218
 20
3.7456004577
 30
0.0
 10
11.4226375737
 20
3.8463175274
 30
0.0
  0
SPLINE
  5
2B0
100
AcDbEntity
  8
0
100
AcDbSpline
 62
9
  6
CONTINUOUS
 70
0
 71
3
 72
15
 73
11
 74
0
 42
0.0000001
 43
0.0000001
 44
0.0000000001
 40
0.0
 40
0.0
 40
0.0
 40
0.0
 40
0.1268017712
 40
0.2540945011
 40
0.38126592
 40
0.5077594982
 40
0.6331681917
 40
0.757187403
 40
0.8795282604
 40
1.0
 40
1.0
 40
1.0
 40
1.0
 10
11.7724400079
 20
2.5133975536
 30
0.0
 10
11.7698043227
 20
2.4839339264
 30
0.0
 10
11.761249772
 20
2.4251376258
 30
0.0
 10
11.7390456539
 20
2.3388428118
 30
0.0
 10
11.707743573
 20
2.2554773787
 30
0.0
 10
11.6676523593
 20
2.1764412735
 30
0.0
 10
11.6190972008
 20
2.1031748442
 30
0.0
 10
11.5630151541
 20
2.0367561998
 30
0.0
 10
11.5003243612
 20
1.9782164687
 30
0.0
 10
11.4543224204
 20
1.9448517505
 30
0.0
 10
11.4305310744
 20
1.9298905238
 30
0.0
  0
SPLINE
  5
2B1
100
AcDbEntity
  8
0
100
AcDbSpline
 62
9
  6
CONTINUOUS
 70
0
 71
3
 72
13
 73
9
 74
0
 42
0.0000001
 43
0.0000001
 44
0.0000000001
 40
0.0
 40
0.0
 40
0.0
 40
0.0
 40
0.2526763444
 40
0.5029294066
 40
0.627455314
 40
0.7516969012
 40
0.8758135967
 40
1.0
 40
1.0
 40
1.0
 40
1.0
 10
11.4305310744
 20
1.9298905238
 30
0.0
 10
11.4016461554
 20
1.9118167291
 30
0.0
 10
11.3417076498
 20
1.8795923261
 30
0.0
 10
11.2622036231
 20
1.8498361583
 30
0.0
 10
11.1970195835
 20
1.8329307881
 30
0.0
 10
11.1475319978
 20
1.823770184
 30
0.0
 10
11.0975617089
 20
1.8182032578
 30
0.0
 10
11.0640649013
 20
1.8169490636
 30
0.0
 10
11.0473183383
 20
1.8169490636
 30
0.0
  0
SPLINE
  5
2B2
100
AcDbEntity
  8
0
100
AcDbSpline
 62
7
  6
CONTINUOUS
 70
0
 71
3
 72
19
 73
15
 74
0
 42
0.0000001
 43
0.0000001
 44
0.0000000001
 40
0.0
 40
0.0
 40
0.0
 40
0.0
 40
0.0090025607
 40
0.020138386
 40
0.0486255034
 40
0.0850921648
 40
0.129168691
 40
0.1804280855
 40
0.2382146308
 40
0.3705174673
 40
0.5200939335
 40
0.6798417598
 40
0.8423384904
 40
1.0
 40
1.0
 40
1.0
 40
1.0
 10
10.6641056021
 20
1.9298905238
 30
0.0
 10
10.6642617311
 20
1.9356394089
 30
0.0
 10
10.6645556386
 20
1.9485009346
 30
0.0
 10
10.6651205983
 20
1.9795587288
 30
0.0
 10
10.6657643447
 20
2.0281621703
 30
0.0
 10
10.6664637263
 20
2.097809291
 30
0.0
 10
10.6671268914
 20
2.182004704
 30
0.0
 10
10.6677528502
 20
2.2798202254
 30
0.0
 10
10.6685736656
 20
2.4339961928
 30
0.0
 10
10.6694602481
 20
2.6509793709
 30
0.0
 10
10.6703326622
 20
2.9330977463
 30
0.0
 10
10.6710504573
 20
3.2345050389
 30
0.0
 10
10.6716108636
 20
3.541077542
 30
0.0
 10
10.6718872547
 20
3.7456004577
 30
0.0
 10
10.6719991029
 20
3.8463175274
 30
0.0
  0
SPLINE
  5
2B3
100
AcDbEntity
  8
0
100
AcDbSpline
 62
9
  6
CONTINUOUS
 70
0
 71
3
 72
11
 73
7
 74
0
 42
0.0000001
 43
0.0000001
 44
0.0000000001
 40
0.0
 40
0.0
 40
0.0
 40
0.0
 40
0.2476825442
 40
0.4954517518
 40
0.7455712226
 40
1.0
 40
1.0
 40
1.0
 40
1.0
 10
11.0473183383
 20
1.8169490636
 30
0.0
 10
11.0139252488
 20
1.8169490636
 30
0.0
 10
10.9470271186
 20
1.8218531822
 30
0.0
 10
10.8485624992
 20
1.8436436844
 30
0.0
 10
10.753278963
 20
1.8793180024
 30
0.0
 10
10.69318703
 20
1.9116987385
 30
0.0
 10
10.6641056021
 20
1.9298905238
 30
0.0
  0
SPLINE
  5
2B4
100
AcDbEntity
  8
0
100
AcDbSpline
 62
9
  6
CONTINUOUS
 70
0
 71
3
 72
14
 73
10
 74
0
 42
0.0000001
 43
0.0000001
 44
0.0000000001
 40
0.0
 40
0.0
 40
0.0
 40
0.0
 40
0.1195485267
 40
0.2419176811
 40
0.3664429184
 40
0.4923833209
 40
0.7459336981
 40
0.8731914634
 40
1.0
 40
1.0
 40
1.0
 40
1.0
 10
10.6641056021
 20
1.9298905238
 30
0.0
 10
10.6405093367
 20
1.9447347562
 30
0.0
 10
10.5947364861
 20
1.9780191508
 30
0.0
 10
10.5321590888
 20
2.0364811257
 30
0.0
 10
10.4758532548
 20
2.1029951167
 30
0.0
 10
10.4105958594
 20
2.2009987659
 30
0.0
 10
10.3627760583
 20
2.310365083
 30
0.0
 10
10.3333475848
 20
2.4251658407
 30
0.0
 10
10.3248313558
 20
2.4839450831
 30
0.0
 10
10.3221966687
 20
2.5133975536
 30
0.0
  0
SPLINE
  5
2B5
100
AcDbEntity
  8
0
100
AcDbSpline
 62
9
  6
CONTINUOUS
 70
0
 71
3
 72
15
 73
11
 74
0
 42
0.0000001
 43
0.0000001
 44
0.0000000001
 40
0.0
 40
0.0
 40
0.0
 40
0.0
 40
0.2437278286
 40
0.3059759204
 40
0.3685498714
 40
0.4943268517
 40
0.6206448402
 40
0.747259901
 40
0.8738439969
 40
1.0
 40
1.0
 40
1.0
 40
1.0
 10
10.6635684022
 20
1.9107335983
 30
0.0
 10
10.6148035005
 20
1.9411766605
 30
0.0
 10
10.5583895136
 20
1.9878356922
 30
0.0
 10
10.500193052
 20
2.0524005628
 30
0.0
 10
10.4632562463
 20
2.0985944196
 30
0.0
 10
10.4221186717
 20
2.1605977299
 30
0.0
 10
10.381926475
 20
2.2405988693
 30
0.0
 10
10.3511364247
 20
2.3248597949
 30
0.0
 10
10.3299997316
 20
2.4119870559
 30
0.0
 10
10.3224932532
 20
2.4712772452
 30
0.0
 10
10.3204510824
 20
2.5009631232
 30
0.0
  0
LINE
  5
2B6
100
AcDbEntity
  8
0
100
AcDbLine
 62
7
  6
CONTINUOUS
 10
10.6431731499
 20
12.4293176999
 11
10.2998183383
 21
13.0240256786
  0
SPLINE
  5
2B7
100
AcDbEntity
  8
0
100
AcDbSpline
 62
7
  6
CONTINUOUS
 70
0
 71
3
 72
16
 73
12
 74
0
 42
0.0000001
 43
0.0000001
 44
0.0000000001
 40
0.0
 40
0.0
 40
0.0
 40
0.0
 40
0.2065837817
 40
0.3906771396
 40
0.551667383
 40
0.6892064214
 40
0.8030284624
 40
0.8929269625
 40
0.9586879735
 40
0.9824211916
 40
1.0
 40
1.0
 40
1.0
 40
1.0
 10
11.794904917
 20
13.0239799247
 30
0.0
 10
11.7712582013
 20
12.9830226097
 30
0.0
 10
11.7264797774
 20
12.905601223
 30
0.0
 10
11.6632021288
 20
12.7963031986
 30
0.0
 10
11.6079790365
 20
12.700606499
 30
0.0
 10
11.5608797554
 20
12.6187956155
 30
0.0
 10
11.5219050884
 20
12.551086895
 30
0.0
 10
11.4910814308
 20
12.4976462698
 30
0.0
 10
11.4704261799
 20
12.4621498829
 30
0.0
 10
11.4580739253
 20
12.4409773664
 30
0.0
 10
11.4533173993
 20
12.4328028757
 30
0.0
 10
11.4513052322
 20
12.4293176999
 30
0.0
  0
LINE
  5
2B8
100
AcDbEntity
  8
0
100
AcDbLine
 62
7
  6
CONTINUOUS
 10
11.4310682556
 20
1.9107335857
 11
11.4305382287
 21
1.9298950229
  0
SPLINE
  5
2B9
100
AcDbEntity
  8
0
100
AcDbSpline
 62
9
  6
CONTINUOUS
 70
0
 71
3
 72
14
 73
10
 74
0
 42
0.0000001
 43
0.0000001
 44
0.0000000001
 40
0.0
 40
0.0
 40
0.0
 40
0.0
 40
0.2524343738
 40
0.3790595152
 40
0.5052227644
 40
0.6306224359
 40
0.7550315978
 40
0.878212196
 40
1.0
 40
1.0
 40
1.0
 40
1.0
 10
11.7741855942
 20
2.5009631232
 30
0.0
 10
11.7700991019
 20
2.4415601048
 30
0.0
 10
11.753595385
 20
2.3526655123
 30
0.0
 10
11.7126093959
 20
2.24059055
 30
0.0
 10
11.6725282932
 20
2.160647665
 30
0.0
 10
11.6235069406
 20
2.086498047
 30
0.0
 10
11.5665107404
 20
2.0191997713
 30
0.0
 10
11.5024922892
 20
1.9597998935
 30
0.0
 10
11.455437972
 20
1.9259438693
 30
0.0
 10
11.4310682556
 20
1.9107335857
 30
0.0
  0
SPLINE
  5
2BA
100
AcDbEntity
  8
0
100
AcDbSpline
 62
9
  6
CONTINUOUS
 70
0
 71
3
 72
11
 73
7
 74
0
 42
0.0000001
 43
0.0000001
 44
0.0000000001
 40
0.0
 40
0.0
 40
0.0
 40
0.0
 40
0.2520006495
 40
0.5022360573
 40
0.7512811599
 40
1.0
 40
1.0
 40
1.0
 40
1.0
 10
11.4310680466
 20
1.9107334409
 30
0.0
 10
11.4022127675
 20
1.8927817227
 30
0.0
 10
11.3422281453
 20
1.8608149778
 30
0.0
 10
11.2469148099
 20
1.8255758202
 30
0.0
 10
11.1480814023
 20
1.8038740752
 30
0.0
 10
11.0808594599
 20
1.7989133298
 30
0.0
 10
11.0473183383
 20
1.7989133298
 30
0.0
  0
LINE
  5
2BB
100
AcDbEntity
  8
0
100
AcDbLine
 62
7
  6
CONTINUOUS
 10
10.6635684093
 20
1.9107338496
 11
10.6640984612
 21
1.929895348
  0
SPLINE
  5
2BC
100
AcDbEntity
  8
0
100
AcDbSpline
 62
9
  6
CONTINUOUS
 70
0
 71
3
 72
11
 73
7
 74
0
 42
0.0000001
 43
0.0000001
 44
0.0000000001
 40
0.0
 40
0.0
 40
0.0
 40
0.0
 40
0.2482983247
 40
0.4966159389
 40
0.7466821276
 40
1.0
 40
1.0
 40
1.0
 40
1.0
 10
11.0473183383
 20
1.7989133298
 30
0.0
 10
11.0138308646
 20
1.7989133298
 30
0.0
 10
10.9467560407
 20
1.8037757586
 30
0.0
 10
10.8480582643
 20
1.8253288606
 30
0.0
 10
10.752679673
 20
1.8605983724
 30
0.0
 10
10.6925787308
 20
1.8926883606
 30
0.0
 10
10.6635686452
 20
1.9107334306
 30
0.0
  0
SPLINE
  5
2BD
100
AcDbEntity
  8
0
100
AcDbSpline
 62
7
  6
CONTINUOUS
 70
0
 71
3
 72
10
 73
6
 74
0
 42
0.0000001
 43
0.0000001
 44
0.0000000001
 40
0.0
 40
0.0
 40
0.0
 40
0.0
 40
0.2315023889
 40
0.6002788588
 40
1.0
 40
1.0
 40
1.0
 40
1.0
 10
9.5523183383
 20
11.7293176999
 30
0.0
 10
9.5706163113
 20
11.7145249012
 30
0.0
 10
9.6161771825
 20
11.6737954371
 30
0.0
 10
9.6840524269
 20
11.5977867634
 30
0.0
 10
9.7292034974
 20
11.5338516022
 30
0.0
 10
9.7510865083
 20
11.4996215023
 30
0.0
  0
SPLINE
  5
2BE
100
AcDbEntity
  8
0
100
AcDbSpline
 62
7
  6
CONTINUOUS
 70
0
 71
3
 72
11
 73
7
 74
0
 42
0.0000001
 43
0.0000001
 44
0.0000000001
 40
0.0
 40
0.0
 40
0.0
 40
0.0
 40
0.2701937153
 40
0.4632806036
 40
0.6488360305
 40
1.0
 40
1.0
 40
1.0
 40
1.0
 10
12.3435501683
 20
11.4996215023
 30
0.0
 10
12.3583439492
 20
11.5227624038
 30
0.0
 10
12.3849625064
 20
11.561664705
 30
0.0
 10
12.4256107402
 20
11.6136519659
 30
0.0
 10
12.4746671104
 20
11.6693339255
 30
0.0
 10
12.5145588512
 20
11.7068758423
 30
0.0
 10
12.5423183383
 20
11.7293176999
 30
0.0
  0
LINE
  5
2BF
100
AcDbEntity
  8
0
100
AcDbLine
 62
7
  6
CONTINUOUS
 10
11.7798183379
 20
2.4616971322
 11
11.7741870887
 21
2.50094314
  0
SPLINE
  5
2C0
100
AcDbEntity
  8
0
100
AcDbSpline
 62
9
  6
CONTINUOUS
 70
0
 71
3
 72
16
 73
12
 74
0
 42
0.0000001
 43
0.0000001
 44
0.0000000001
 40
0.0
 40
0.0
 40
0.0
 40
0.0
 40
0.1652228638
 40
0.3193478219
 40
0.462143946
 40
0.5933947337
 40
0.7129139619
 40
0.8205750174
 40
0.9162857162
 40
0.9596439281
 40
1.0
 40
1.0
 40
1.0
 40
1.0
 10
12.2547546848
 20
11.3396613594
 30
0.0
 10
12.2163088181
 20
11.3353277344
 30
0.0
 10
12.1420276908
 20
11.3266965557
 30
0.0
 10
12.0346549404
 20
11.3131827892
 30
0.0
 10
11.9353387886
 20
11.2994138132
 30
0.0
 10
11.8442673953
 20
11.2852603821
 30
0.0
 10
11.7616198517
 20
11.2705867126
 30
0.0
 10
11.6875363281
 20
11.2554253061
 30
0.0
 10
11.631322949
 20
11.2420154977
 30
0.0
 10
11.5907880304
 20
11.2309503593
 30
0.0
 10
11.572004996
 20
11.2253308702
 30
0.0
 10
11.5629919189
 20
11.222490761
 30
0.0
  0
SPLINE
  5
2C1
100
AcDbEntity
  8
0
100
AcDbSpline
 62
9
  6
CONTINUOUS
 70
0
 71
3
 72
15
 73
11
 74
0
 42
0.0000001
 43
0.0000001
 44
0.0000000001
 40
0.0
 40
0.0
 40
0.0
 40
0.0
 40
0.1544989475
 40
0.3009066406
 40
0.4390360425
 40
0.5687102589
 40
0.6897700475
 40
0.802082673
 40
0.9055283027
 40
1.0
 40
1.0
 40
1.0
 40
1.0
 10
12.1686948288
 20
11.1354659036
 30
0.0
 10
12.1327938726
 20
11.1315961254
 30
0.0
 10
12.0628913566
 20
11.1238780947
 30
0.0
 10
11.960987479
 20
11.1118512216
 30
0.0
 10
11.8649645508
 20
11.0995314317
 30
0.0
 10
11.7749775131
 20
11.0867710575
 30
0.0
 10
11.6911802317
 20
11.0734170563
 30
0.0
 10
11.6136935457
 20
11.0595040542
 30
0.0
 10
11.5426320641
 20
11.0450712397
 30
0.0
 10
11.4975556977
 20
11.0346530858
 30
0.0
 10
11.4761304307
 20
11.0293177852
 30
0.0
  0
SPLINE
  5
2C2
100
AcDbEntity
  8
0
100
AcDbSpline
 62
9
  6
CONTINUOUS
 70
0
 71
3
 72
12
 73
8
 74
0
 42
0.0000001
 43
0.0000001
 44
0.0000000001
 40
0.0
 40
0.0
 40
0.0
 40
0.0
 40
0.280280334
 40
0.413198823
 40
0.5411091002
 40
0.7813601525
 40
1.0
 40
1.0
 40
1.0
 40
1.0
 10
12.0515636032
 20
10.7408908372
 30
0.0
 10
11.9926859402
 20
10.7382074947
 30
0.0
 10
11.9058905261
 20
10.7341445755
 30
0.0
 10
11.7922714797
 20
10.7279469701
 30
0.0
 10
11.6871021835
 20
10.7214359263
 30
0.0
 10
11.5640564139
 20
10.7120372384
 30
0.0
 10
11.4680112001
 20
10.7025933982
 30
0.0
 10
11.422318522
 20
10.6974908221
 30
0.0
  0
LINE
  5
2C3
100
AcDbEntity
  8
0
100
AcDbLine
 62
7
  6
CONTINUOUS
 10
10.3148183386
 20
2.4616965392
 11
10.3204524986
 21
2.5009425408
  0
SPLINE
  5
2C4
100
AcDbEntity
  8
0
100
AcDbSpline
 62
9
  6
CONTINUOUS
 70
0
 71
3
 72
9
 73
5
 74
0
 42
0.0000001
 43
0.0000001
 44
0.0000000001
 40
0.0
 40
0.0
 40
0.0
 40
0.0
 40
0.5059221349
 40
1.0
 40
1.0
 40
1.0
 40
1.0
 10
10.6723026708
 20
4.2928887239
 30
0.0
 10
10.6237493086
 20
4.2579815677
 30
0.0
 10
10.5254428723
 20
4.192275723
 30
0.0
 10
10.4262339274
 20
4.1280432649
 30
0.0
 10
10.3771943906
 20
4.0963322587
 30
0.0
  0
SPLINE
  5
2C5
100
AcDbEntity
  8
0
100
AcDbSpline
 62
9
  6
CONTINUOUS
 70
0
 71
3
 72
12
 73
8
 74
0
 42
0.0000001
 43
0.0000001
 44
0.0000000001
 40
0.0
 40
0.0
 40
0.0
 40
0.0
 40
0.2802798131
 40
0.4131981627
 40
0.5411083859
 40
0.7813596013
 40
1.0
 40
1.0
 40
1.0
 40
1.0
 10
10.0430730734
 20
10.7408908372
 30
0.0
 10
10.1019499578
 20
10.7382075302
 30
0.0
 10
10.1887442469
 20
10.7341446648
 30
0.0
 10
10.3023618533
 20
10.7279471605
 30
0.0
 10
10.4075299506
 20
10.7214362346
 30
0.0
 10
10.5305744667
 20
10.7120377293
 30
0.0
 10
10.6266187482
 20
10.7025940853
 30
0.0
 10
10.6723110294
 20
10.6974916177
 30
0.0
  0
SPLINE
  5
2C6
100
AcDbEntity
  8
0
100
AcDbSpline
 62
9
  6
CONTINUOUS
 70
0
 71
3
 72
15
 73
11
 74
0
 42
0.0000001
 43
0.0000001
 44
0.0000000001
 40
0.0
 40
0.0
 40
0.0
 40
0.0
 40
0.1544989504
 40
0.3009066462
 40
0.4390360502
 40
0.5687102674
 40
0.6897700552
 40
0.8020826787
 40
0.9055283057
 40
1.0
 40
1.0
 40
1.0
 40
1.0
 10
9.9259418477
 20
11.1354659036
 30
0.0
 10
9.9618428063
 20
11.1315961251
 30
0.0
 10
10.0317453266
 20
11.123878094
 30
0.0
 10
10.1336492106
 20
11.1118512201
 30
0.0
 10
10.2296721444
 20
11.0995314294
 30
0.0
 10
10.3196591866
 20
11.0867710542
 30
0.0
 10
10.4034564712
 20
11.0734170521
 30
0.0
 10
10.4809431593
 20
11.059504049
 30
0.0
 10
10.5520046421
 20
11.0450712334
 30
0.0
 10
10.5970810091
 20
11.0346530786
 30
0.0
 10
10.6185062763
 20
11.0293177777
 30
0.0
  0
ENDSEC
  0
SECTION
  2
OBJECTS
  0
DICTIONARY
  5
C
100
AcDbDictionary
280
0
281
1
  3
ACAD_GROUP
350
D
  3
ACAD_MLINESTYLE
350
17
  3
ACAD_LAYOUT
350
1A
  3
ACAD_PLOTSETTINGS
350
19
  3
ACAD_PLOTSTYLENAME
350
E
  0
DICTIONARY
  5
D
102
{ACAD_REACTORS
330
C
102
}
100
AcDbDictionary
280
0
281
1
  0
ACDBDICTIONARYWDFLT
  5
E
102
{ACAD_REACTORS
330
C
102
}
100
AcDbDictionary
281
1
  3
Normal
350
F
100
AcDbDictionaryWithDefault
340
F
  0
DICTIONARY
  5
17
102
{ACAD_REACTORS
330
C
102
}
100
AcDbDictionary
280
0
281
1
  3
Standard
350
18
  0
DICTIONARY
  5
19
102
{ACAD_REACTORS
330
C
102
}
100
AcDbDictionary
281
1
  0
DICTIONARY
  5
1A
102
{ACAD_REACTORS
330
C
102
}
100
AcDbDictionary
281
1
  3
Model
350
2C7
  3
Layout1
350
2C8
  0
ACDBPLACEHOLDER
  5
F
102
{ACAD_REACTORS
330
E
102
}
  0
MLINESTYLE
  5
18
102
{ACAD_REACTORS
330
17
102
}
100
AcDbMlineStyle
  2
STANDARD
 70
0
  3

 62
256
 51
90.0
 52
90.0
 71
2
 49
0.5
 62
256
  6
BYLAYER
 49
-0.5
 62
256
  6
BYLAYER
  0
LAYOUT
  5
2C7
102
{ACAD_REACTORS
330
1A
102
}
100
AcDbPlotSettings
  1

  2
none_device
  4
ANSI_C_(22.00_x_17.00_Inches)
  6

 40
0.0
 41
0.0
 42
0.0
 43
0.0
 44
558.8
 45
431.8
 46
0.0
 47
0.0
 48
0.0
 49
0.0
140
0.0
141
0.0
142
1.0
143
1.0
 70
1024
 72
0
 73
0
 74
0
  7

 75
0
147
1.0
148
0.0
149
0.0
100
AcDbLayout
  1
Model
 70
0
 71
0
 10
0.0
 20
0.0
 11
22.0
 21
17.0
 12
0.0
 22
0.0
 32
0.0
 14
0.0
 24
0.0
 34
0.0
 15
0.0
 25
0.0
 35
0.0
146
0.0
 13
0.0
 23
0.0
 33
0.0
 16
1.0
 26
0.0
 36
0.0
 17
0.0
 27
1.0
 37
0.0
 76
0
330
202
345
0
346
0
  0
LAYOUT
  5
2C8
102
{ACAD_REACTORS
330
1A
102
}
100
AcDbPlotSettings
  1

  2
none_device
  4
ANSI_C_(22.00_x_17.00_Inches)
  6

 40
0.0
 41
0.0
 42
0.0
 43
0.0
 44
558.8
 45
431.8
 46
0.0
 47
0.0
 48
0.0
 49
0.0
140
0.0
141
0.0
142
1.0
143
1.0
 70
0
 72
0
 73
0
 74
0
  7

 75
0
147
1.0
148
0.0
149
0.0
100
AcDbLayout
  1
Layout1
 70
0
 71
1
 10
0.0
 20
0.0
 11
22.0
 21
17.0
 12
0.0
 22
0.0
 32
0.0
 14
0.0
 24
0.0
 34
0.0
 15
0.0
 25
0.0
 35
0.0
146
0.0
 13
0.0
 23
0.0
 33
0.0
 16
1.0
 26
0.0
 36
0.0
 17
0.0
 27
1.0
 37
0.0
 76
0
330
203
345
0
346
0
  0
ENDSEC
  0
EOF
