999
DXF file: E:\BT Custom\CADOUTPUT\_RIGHT.dxf
999
Pro/ENGINEER 2018400 by Parametric Technology Corporation
  0
SECTION
  2
HEADER
  9
$ACADVER
  1
AC1018
  9
$DWGCODEPAGE
  3
ANSI_1252
  9
$EXTMAX
 10
22.0
 20
17.0
 30
0.0
  9
$EXTMIN
 10
0.0
 20
0.0
 30
0.0
  9
$LIMMIN
 10
0.0
 20
0.0
  9
$LIMMAX
 10
22.0
 20
17.0
  9
$VIEWCTR
 10
11.0
 20
8.5
  9
$VIEWSIZE
 40
17.0
  9
$CLAYER
  8
0
  9
$LTSCALE
 40
1.21
  9
$CELTYPE
  6
BYLAYER
  9
$DIMSCALE
 40
1.0
  9
$DIMASZ
 40
0.1
  9
$DIMEXO
 40
0.0625
  9
$DIMDLI
 40
0.836
  9
$DIMEXE
 40
0.125
  9
$DIMCEN
 40
0.198
  9
$DIMLFAC
 40
1.0
  9
$DIMBLK
  1
_FILLED
  9
$DIMALT
 70
1
  9
$DIMALTD
 70
2
  9
$DIMALTTD
 70
2
  9
$DIMALTF
 40
25.4
  9
$DIMTXT
 40
0.08
  9
$DIMTOL
 70
1
  9
$DIMLIM
 70
0
  9
$DIMTFAC
 40
1.0
  9
$DIMTP
 40
0.001
  9
$DIMTM
 40
0.001
  9
$DIMGAP
 40
0.09
  9
$DIMDSEP
 70
46
  9
$AUNITS
 70
0
  9
$PDMODE
 70
3
  9
$PDSIZE
 40
0.06
  9
$HANDSEED
  5
455
  9
$TILEMODE
 70
1
  9
$MEASUREMENT
 70
0
  9
$INSUNITS
 70
1
  0
ENDSEC
  0
SECTION
  2
CLASSES
  0
CLASS
  1
ACDBDICTIONARYWDFLT
  2
AcDbDictionaryWithDefault
  3
AutoCAD 2000
 90
0
 91
1
280
0
281
0
  0
CLASS
  1
ACDBPLACEHOLDER
  2
AcDbPlaceHolder
  3
AutoCAD 2000
 90
0
 91
1
280
0
281
0
  0
CLASS
  1
LAYOUT
  2
AcDbLayout
  3
AutoCAD 2000
 90
0
 91
0
280
0
281
0
  0
ENDSEC
  0
SECTION
  2
TABLES
  0
TABLE
  2
VPORT
  5
8
100
AcDbSymbolTable
 70
2
  0
VPORT
  5
1F4
100
AcDbSymbolTableRecord
100
AcDbViewportTableRecord
  2
*ACTIVE
 70
0
 10
0.0
 20
0.0
 11
1.0
 21
1.0
 12
11.0
 22
8.5
 13
0.0
 23
0.0
 14
1.0
 24
1.0
 15
0.0
 25
0.0
 16
0.0
 26
0.0
 36
1.0
 17
0.0
 27
0.0
 37
0.0
 40
17.0
 41
1.2941176471
 42
50.0
 43
0.0
 44
0.0
 50
0.0
 51
0.0
 71
0
 72
100
 73
1
 74
1
 75
0
 76
0
 77
0
 78
0
  0
ENDTAB
  0
TABLE
  2
LTYPE
  5
5
100
AcDbSymbolTable
 70
6
  0
LTYPE
  5
14
100
AcDbSymbolTableRecord
100
AcDbLinetypeTableRecord
  2
BYBLOCK
 70
0
  3

 72
65
 73
0
 40
0.0
  0
LTYPE
  5
15
100
AcDbSymbolTableRecord
100
AcDbLinetypeTableRecord
  2
BYLAYER
 70
0
  3

 72
65
 73
0
 40
0.0
  0
LTYPE
  5
16
100
AcDbSymbolTableRecord
100
AcDbLinetypeTableRecord
  2
CONTINUOUS
 70
64
  3
Solid line
 72
65
 73
0
 40
0.0
  0
LTYPE
  5
1F5
100
AcDbSymbolTableRecord
100
AcDbLinetypeTableRecord
  2
CENTER
 70
64
  3
____ _ ____ _ ____ _ ____ _ ____ _ ____ _ ____
 72
65
 73
4
 40
0.6
 49
0.375
 74
0
 49
-0.075
 74
0
 49
0.075
 74
0
 49
-0.075
 74
0
  0
LTYPE
  5
1F6
100
AcDbSymbolTableRecord
100
AcDbLinetypeTableRecord
  2
HIDDEN
 70
64
  3
- - - - - - - - - - - - - - - - - - - -
 72
65
 73
2
 40
0.2
 49
0.1
 74
0
 49
-0.1
 74
0
  0
LTYPE
  5
1F7
100
AcDbSymbolTableRecord
100
AcDbLinetypeTableRecord
  2
PHANTOM
 70
64
  3
_____ _ _ _____ _ _ _____ _ _ _____
 72
65
 73
6
 40
0.8
 49
0.45
 74
0
 49
-0.05
 74
0
 49
0.1
 74
0
 49
-0.05
 74
0
 49
0.1
 74
0
 49
-0.05
 74
0
  0
LTYPE
  5
1F8
100
AcDbSymbolTableRecord
100
AcDbLinetypeTableRecord
  2
DOT
 70
64
  3
. . . . . . . . . . . . . . . . . . . .
 72
65
 73
2
 40
0.2
 49
0.1
 74
0
 49
-0.1
 74
0
  0
LTYPE
  5
1F9
100
AcDbSymbolTableRecord
100
AcDbLinetypeTableRecord
  2
DASHED
 70
64
  3
- - - - - - - - - - - - - - - - - - - -
 72
65
 73
2
 40
0.2
 49
0.1
 74
0
 49
-0.1
 74
0
  0
ENDTAB
  0
TABLE
  2
LAYER
  5
2
100
AcDbSymbolTable
 70
36
  0
LAYER
  5
10
100
AcDbSymbolTableRecord
100
AcDbLayerTableRecord
  2
0
 70
0
 62
7
  6
CONTINUOUS
370
-3
390
F
  0
LAYER
  5
1FA
100
AcDbSymbolTableRecord
100
AcDbLayerTableRecord
  2
DEFAULT_1
 70
0
 62
7
  6
CENTER
370
-3
390
F
  0
LAYER
  5
1FB
100
AcDbSymbolTableRecord
100
AcDbLayerTableRecord
  2
DEFAULT_2
 70
0
 62
8
  6
HIDDEN
370
-3
390
F
  0
LAYER
  5
1FC
100
AcDbSymbolTableRecord
100
AcDbLayerTableRecord
  2
DEFAULT_3
 70
0
 62
7
  6
PHANTOM
370
-3
390
F
  0
LAYER
  5
1FD
100
AcDbSymbolTableRecord
100
AcDbLayerTableRecord
  2
ALL_FEATURES
 70
0
 62
7
  6
CONTINUOUS
370
-3
390
F
  0
LAYER
  5
1FE
100
AcDbSymbolTableRecord
100
AcDbLayerTableRecord
  2
AXES_FEATURES
 70
0
 62
7
  6
CONTINUOUS
370
-3
390
F
  0
LAYER
  5
1FF
100
AcDbSymbolTableRecord
100
AcDbLayerTableRecord
  2
DIMENSIONS
 70
0
 62
7
  6
CONTINUOUS
370
-3
390
F
  0
ENDTAB
  0
TABLE
  2
STYLE
  5
3
100
AcDbSymbolTable
 70
1
  0
STYLE
  5
11
100
AcDbSymbolTableRecord
100
AcDbTextStyleTableRecord
  2
STANDARD
 70
0
 40
0.0
 41
0.8
 50
0.0
 71
0
 42
0.2
  3
txt
  4

  0
STYLE
  5
200
100
AcDbSymbolTableRecord
100
AcDbTextStyleTableRecord
  2
TEXTSTYLE_1
 70
0
 40
0.0
 41
0.8
 50
0.0
 71
0
 42
0.2
  3
gdt
  4

  0
ENDTAB
  0
TABLE
  2
VIEW
  5
6
100
AcDbSymbolTable
 70
0
  0
ENDTAB
  0
TABLE
  2
UCS
  5
7
100
AcDbSymbolTable
 70
0
  0
ENDTAB
  0
TABLE
  2
APPID
  5
9
100
AcDbSymbolTable
 70
1
  0
APPID
  5
201
100
AcDbSymbolTableRecord
100
AcDbRegAppTableRecord
  2
ACAD
 70
0
  0
ENDTAB
  0
TABLE
  2
BLOCK_RECORD
  5
1
100
AcDbSymbolTable
 70
0
  0
BLOCK_RECORD
  5
202
100
AcDbSymbolTableRecord
100
AcDbBlockTableRecord
  2
*Model_Space
  0
BLOCK_RECORD
  5
203
100
AcDbSymbolTableRecord
100
AcDbBlockTableRecord
  2
*Paper_Space
  0
BLOCK_RECORD
  5
204
100
AcDbSymbolTableRecord
100
AcDbBlockTableRecord
  2
_FILLED
  0
ENDTAB
  0
TABLE
  2
DIMSTYLE
  5
A
100
AcDbSymbolTable
 70
1
100
AcDbDimStyleTable
 71
0
  0
DIMSTYLE
105
205
100
AcDbSymbolTableRecord
100
AcDbDimStyleTableRecord
  2
STANDARD
 70
0
  3

  4

 40
1.0
 41
0.1
 42
0.0625
 43
0.38
 44
0.125
 45
0.0
 46
0.0
 47
0.001
 48
0.001
140
0.08
141
0.09
142
0.0
143
25.4
144
1.0
145
0.0
146
1.0
147
0.09
 71
1.0
 72
0.0
 73
1
 74
1
 75
0
 76
0
 77
0
 78
4
 79
1
170
1
171
2
172
0
173
0
174
0
175
0
176
0
177
0
178
0
270
2
179
3
271
3
272
3
273
2
274
2
275
0
280
0
281
0
282
0
283
1
284
4
285
0
286
0
287
3
288
0
340
11
278
46
341
204
342
204
343
204
344
204
  0
ENDTAB
  0
ENDSEC
  0
SECTION
  2
BLOCKS
  0
BLOCK
  5
20
100
AcDbEntity
  8
0
100
AcDbBlockBegin
  2
*Model_Space
 70
0
 10
0.0
 20
0.0
 30
0.0
  3
*Model_Space
  1

  0
ENDBLK
  5
21
100
AcDbEntity
  8
0
100
AcDbBlockEnd
  0
BLOCK
  5
1C
100
AcDbEntity
  8
0
100
AcDbBlockBegin
  2
*Paper_Space
 70
0
 10
0.0
 20
0.0
 30
0.0
  3
*Paper_Space
  1

  0
ENDBLK
  5
1D
100
AcDbEntity
  8
0
100
AcDbBlockEnd
  0
BLOCK
  5
206
100
AcDbEntity
  8
0
100
AcDbBlockBegin
  2
_FILLED
 70
64
 10
0.0
 20
0.0
  3
_FILLED
  1

  0
SOLID
  5
207
100
AcDbEntity
  8
0
  6
BYBLOCK
 62
0
100
AcDbTrace
 10
0.0
 20
0.0
 11
-1.0
 21
0.2
 12
-1.0
 22
-0.2
 13
-1.0
 23
-0.2
  0
ENDBLK
  5
208
100
AcDbEntity
  8
0
  6
BYBLOCK
 62
0
100
AcDbBlockEnd
  0
ENDSEC
  0
SECTION
  2
ENTITIES
  0
LINE
  5
209
100
AcDbEntity
  8
0
100
AcDbLine
 62
7
  6
CONTINUOUS
 10
4.9679976496
 20
10.5395459155
 11
5.0446006923
 21
10.9739833591
  0
LINE
  5
20A
100
AcDbEntity
  8
0
100
AcDbLine
 62
9
  6
CONTINUOUS
 10
5.0760262059
 20
10.5204975663
 11
5.1383809299
 21
10.8493391983
  0
LINE
  5
20B
100
AcDbEntity
  8
0
100
AcDbLine
 62
7
  6
CONTINUOUS
 10
6.4107410078
 20
10.2851513353
 11
6.4272729588
 21
10.3789086888
  0
LINE
  5
20C
100
AcDbEntity
  8
0
100
AcDbLine
 62
9
  6
CONTINUOUS
 10
7.1640421525
 20
10.7301625615
 11
7.647252657
 21
11.8964216699
  0
LINE
  5
20D
100
AcDbEntity
  8
0
100
AcDbLine
 62
7
  6
CONTINUOUS
 10
13.4619693287
 20
5.6405486253
 11
16.4519693287
 21
5.6405486253
  0
LINE
  5
20E
100
AcDbEntity
  8
0
100
AcDbLine
 62
9
  6
CONTINUOUS
 10
15.9337871831
 20
5.6638602776
 11
13.9801514742
 21
5.6638602776
  0
LINE
  5
20F
100
AcDbEntity
  8
0
100
AcDbLine
 62
7
  6
CONTINUOUS
 10
15.9569693287
 20
5.8275486253
 11
15.9306377563
 21
5.8275486253
  0
LINE
  5
210
100
AcDbEntity
  8
0
100
AcDbLine
 62
7
  6
CONTINUOUS
 10
13.9569693287
 20
5.8275486253
 11
13.983300901
 21
5.8275486253
  0
LINE
  5
211
100
AcDbEntity
  8
0
100
AcDbLine
 62
7
  6
CONTINUOUS
 10
8.9473315561
 20
11.7929863989
 11
8.9493742519
 21
11.7975501029
  0
LINE
  5
212
100
AcDbEntity
  8
0
100
AcDbLine
 62
7
  6
CONTINUOUS
 10
9.0200061341
 20
11.7436228367
 11
9.0221982436
 21
11.7485203544
  0
LINE
  5
213
100
AcDbEntity
  8
0
100
AcDbLine
 62
7
  6
CONTINUOUS
 10
14.1164912808
 20
6.2804921121
 11
13.66226135
 21
6.2804921121
  0
LINE
  5
214
100
AcDbEntity
  8
0
100
AcDbLine
 62
7
  6
CONTINUOUS
 10
9.1739872804
 20
11.6103305298
 11
9.177087376
 21
11.6172566315
  0
LINE
  5
215
100
AcDbEntity
  8
0
100
AcDbLine
 62
7
  6
CONTINUOUS
 10
9.3111543402
 20
11.4884278224
 11
9.3142544358
 21
11.4953539241
  0
LINE
  5
216
100
AcDbEntity
  8
0
100
AcDbLine
 62
9
  6
CONTINUOUS
 10
14.1947636166
 20
6.4110173958
 11
15.7191750408
 21
6.4110173958
  0
LINE
  5
217
100
AcDbEntity
  8
0
100
AcDbLine
 62
7
  6
CONTINUOUS
 10
15.6867816902
 20
6.4275486253
 11
14.2271569671
 21
6.4275486253
  0
LINE
  5
218
100
AcDbEntity
  8
0
100
AcDbLine
 62
9
  6
CONTINUOUS
 10
14.7235012805
 20
6.4398379472
 11
15.1904373768
 21
6.4398375968
  0
LINE
  5
219
100
AcDbEntity
  8
0
100
AcDbLine
 62
9
  6
CONTINUOUS
 10
15.5981327683
 20
6.4440486253
 11
15.5044693287
 21
6.4440486253
  0
LINE
  5
21A
100
AcDbEntity
  8
0
100
AcDbLine
 62
9
  6
CONTINUOUS
 10
14.4094693287
 20
6.4440486253
 11
14.315805889
 21
6.4440486253
  0
LINE
  5
21B
100
AcDbEntity
  8
0
100
AcDbLine
 62
9
  6
CONTINUOUS
 10
14.8235976828
 20
6.4751932862
 11
15.0903409746
 21
6.4751932862
  0
LINE
  5
21C
100
AcDbEntity
  8
0
100
AcDbLine
 62
9
  6
CONTINUOUS
 10
15.5044693287
 20
6.5627200567
 11
14.4094693287
 21
6.5627200567
  0
LINE
  5
21D
100
AcDbEntity
  8
0
100
AcDbLine
 62
9
  6
CONTINUOUS
 10
14.4394693287
 20
6.634134341
 11
15.4744693287
 21
6.634134341
  0
LINE
  5
21E
100
AcDbEntity
  8
0
100
AcDbLine
 62
9
  6
CONTINUOUS
 10
15.5754693287
 20
6.6590486253
 11
15.4564896889
 21
6.6590486253
  0
LINE
  5
21F
100
AcDbEntity
  8
0
100
AcDbLine
 62
9
  6
CONTINUOUS
 10
14.3384693287
 20
6.6590486253
 11
14.4574489685
 21
6.6590486253
  0
LINE
  5
220
100
AcDbEntity
  8
0
100
AcDbLine
 62
9
  6
CONTINUOUS
 10
14.4694693287
 20
6.7055486253
 11
15.4444693287
 21
6.7055486253
  0
LINE
  5
221
100
AcDbEntity
  8
0
100
AcDbLine
 62
7
  6
CONTINUOUS
 10
9.4609319649
 20
11.3579829153
 11
9.4640320605
 21
11.364909017
  0
LINE
  5
222
100
AcDbEntity
  8
0
100
AcDbLine
 62
7
  6
CONTINUOUS
 10
9.6724026293
 20
11.242982683
 11
9.6694275487
 21
11.2363358843
  0
LINE
  5
223
100
AcDbEntity
  8
0
100
AcDbLine
 62
7
  6
CONTINUOUS
 10
9.7180396692
 20
11.2225557255
 11
9.7150645885
 21
11.2159089268
  0
LINE
  5
224
100
AcDbEntity
  8
0
100
AcDbLine
 62
9
  6
CONTINUOUS
 10
10.0899088358
 20
12.114478129
 11
9.7813405531
 21
11.4251732391
  0
LINE
  5
225
100
AcDbEntity
  8
0
100
AcDbLine
 62
9
  6
CONTINUOUS
 10
14.3423353345
 20
6.8872474368
 11
14.3666346074
 21
6.8872474368
  0
LINE
  5
226
100
AcDbEntity
  8
0
100
AcDbLine
 62
9
  6
CONTINUOUS
 10
15.4285727425
 20
6.8872474368
 11
15.5716033229
 21
6.8872474368
  0
LINE
  5
227
100
AcDbEntity
  8
0
100
AcDbLine
 62
9
  6
CONTINUOUS
 10
15.4974693287
 20
6.9931650641
 11
15.4030481664
 21
6.9931650641
  0
LINE
  5
228
100
AcDbEntity
  8
0
100
AcDbLine
 62
7
  6
CONTINUOUS
 10
9.9446845874
 20
11.1414571658
 11
9.947784683
 21
11.1483832676
  0
LINE
  5
229
100
AcDbEntity
  8
0
100
AcDbLine
 62
7
  6
CONTINUOUS
 10
10.1417484657
 20
11.1166571959
 11
10.1448485613
 21
11.1235832977
  0
LINE
  5
22A
100
AcDbEntity
  8
0
100
AcDbLine
 62
9
  6
CONTINUOUS
 10
15.3867090562
 20
7.299147868
 11
15.2746735984
 21
7.299147868
  0
LINE
  5
22B
100
AcDbEntity
  8
0
100
AcDbLine
 62
7
  6
CONTINUOUS
 10
15.3558170595
 20
7.3275486253
 11
15.2547871741
 21
7.3275486253
  0
LINE
  5
22C
100
AcDbEntity
  8
0
100
AcDbLine
 62
9
  6
CONTINUOUS
 10
15.2694693287
 20
7.6155486253
 11
15.0315529741
 21
7.6155486253
  0
LINE
  5
22D
100
AcDbEntity
  8
0
100
AcDbLine
 62
7
  6
CONTINUOUS
 10
15.0147709815
 20
7.6355486253
 11
15.3569661692
 21
7.6355486253
  0
LINE
  5
22E
100
AcDbEntity
  8
0
100
AcDbLine
 62
9
  6
CONTINUOUS
 10
15.2555412045
 20
7.7352208656
 11
15.2155412045
 21
7.7352208656
  0
LINE
  5
22F
100
AcDbEntity
  8
0
100
AcDbLine
 62
7
  6
CONTINUOUS
 10
10.3240406849
 20
11.0955712008
 11
10.3271407805
 21
11.1024973026
  0
LINE
  5
230
100
AcDbEntity
  8
0
100
AcDbLine
 62
7
  6
CONTINUOUS
 10
10.5260284496
 20
11.0695332393
 11
10.528220559
 21
11.074430757
  0
LINE
  5
231
100
AcDbEntity
  8
0
100
AcDbLine
 62
7
  6
CONTINUOUS
 10
10.6112580295
 20
11.0482195285
 11
10.6133007252
 21
11.0527832325
  0
LINE
  5
232
100
AcDbEntity
  8
0
100
AcDbLine
 62
9
  6
CONTINUOUS
 10
11.6087368147
 20
11.4051505856
 11
11.3080152524
 21
11.152816774
  0
LINE
  5
233
100
AcDbEntity
  8
0
100
AcDbLine
 62
7
  6
CONTINUOUS
 10
11.3080147605
 20
11.1528172578
 11
11.0072959739
 21
10.900480294
  0
LINE
  5
234
100
AcDbEntity
  8
0
100
AcDbLine
 62
9
  6
CONTINUOUS
 10
15.2555412045
 20
8.0695525664
 11
15.2155412045
 21
8.0695525664
  0
LINE
  5
235
100
AcDbEntity
  8
0
100
AcDbLine
 62
9
  6
CONTINUOUS
 10
14.6583974528
 20
8.0695525664
 11
14.6983974528
 21
8.0695525664
  0
LINE
  5
236
100
AcDbEntity
  8
0
100
AcDbLine
 62
7
  6
CONTINUOUS
 10
15.3569685715
 20
8.1105486253
 11
15.2208607689
 21
8.1105486253
  0
LINE
  5
237
100
AcDbEntity
  8
0
100
AcDbLine
 62
7
  6
CONTINUOUS
 10
14.7133211965
 20
8.1105486253
 11
14.5952678411
 21
8.1105486253
  0
LINE
  5
238
100
AcDbEntity
  8
0
100
AcDbLine
 62
7
  6
CONTINUOUS
 10
15.2694571303
 20
8.1855486253
 11
14.6444815271
 21
8.1855486253
  0
LINE
  5
239
100
AcDbEntity
  8
0
100
AcDbLine
 62
9
  6
CONTINUOUS
 10
14.6944693287
 20
8.2055486253
 11
15.2194693287
 21
8.2055486253
  0
LINE
  5
23A
100
AcDbEntity
  8
0
100
AcDbLine
 62
7
  6
CONTINUOUS
 10
15.2194685288
 20
8.2355486253
 11
14.6944701285
 21
8.2355486253
  0
LINE
  5
23B
100
AcDbEntity
  8
0
100
AcDbLine
 62
9
  6
CONTINUOUS
 10
6.9918842169
 20
10.786843222
 11
6.9604652146
 21
10.8057006901
  0
LINE
  5
23C
100
AcDbEntity
  8
0
100
AcDbLine
 62
7
  6
CONTINUOUS
 10
11.575298456
 20
10.1705045612
 11
12.364861312
 21
10.8330264625
  0
LINE
  5
23D
100
AcDbEntity
  8
0
100
AcDbLine
 62
9
  6
CONTINUOUS
 10
12.4347935926
 20
10.7089495929
 11
11.6853466983
 21
10.0800889803
  0
LINE
  5
23E
100
AcDbEntity
  8
0
100
AcDbLine
 62
9
  6
CONTINUOUS
 10
6.4272729588
 20
10.3789086888
 11
6.3181402416
 21
10.4021599845
  0
LINE
  5
23F
100
AcDbEntity
  8
0
100
AcDbLine
 62
9
  6
CONTINUOUS
 10
6.4332072737
 20
10.4076153994
 11
6.3228237487
 21
10.4325906996
  0
LINE
  5
240
100
AcDbEntity
  8
0
100
AcDbLine
 62
7
  6
CONTINUOUS
 10
15.6569693287
 20
9.6855486253
 11
14.2569693723
 21
9.6855486253
  0
LINE
  5
241
100
AcDbEntity
  8
0
100
AcDbLine
 62
7
  6
CONTINUOUS
 10
15.4819693287
 20
9.7555486253
 11
14.4319693287
 21
9.7555486253
  0
LINE
  5
242
100
AcDbEntity
  8
0
100
AcDbLine
 62
7
  6
CONTINUOUS
 10
15.2504693287
 20
9.7655486253
 11
14.6634693287
 21
9.7655486253
  0
LINE
  5
243
100
AcDbEntity
  8
0
100
AcDbLine
 62
9
  6
CONTINUOUS
 10
14.6178017485
 20
9.8014368244
 11
15.2961369089
 21
9.8014368244
  0
LINE
  5
244
100
AcDbEntity
  8
0
100
AcDbLine
 62
7
  6
CONTINUOUS
 10
4.9679976541
 20
10.5395459146
 11
6.4107410039
 21
10.2851513358
  0
LINE
  5
245
100
AcDbEntity
  8
0
100
AcDbLine
 62
9
  6
CONTINUOUS
 10
5.1383850696
 20
10.8493384515
 11
5.0265649585
 21
10.8716976296
  0
LINE
  5
246
100
AcDbEntity
  8
0
100
AcDbLine
 62
9
  6
CONTINUOUS
 10
5.1575421526
 20
10.9502826865
 11
5.0446006923
 21
10.9739833591
  0
LINE
  5
247
100
AcDbEntity
  8
0
100
AcDbLine
 62
7
  6
CONTINUOUS
 10
7.3239790382
 20
11.3556803026
 11
7.4087033874
 21
11.3206679337
  0
LINE
  5
248
100
AcDbEntity
  8
0
100
AcDbLine
 62
7
  6
CONTINUOUS
 10
12.3687811679
 20
9.2656034958
 11
7.4087129631
 21
11.320689901
  0
LINE
  5
249
100
AcDbEntity
  8
0
100
AcDbLine
 62
7
  6
CONTINUOUS
 10
14.3769693287
 20
10.2355486253
 11
15.5369693287
 21
10.2355486253
  0
LINE
  5
24A
100
AcDbEntity
  8
0
100
AcDbLine
 62
9
  6
CONTINUOUS
 10
7.073969156
 20
12.1036670985
 11
7.0424466455
 21
12.1202590804
  0
LINE
  5
24B
100
AcDbEntity
  8
0
100
AcDbLine
 62
7
  6
CONTINUOUS
 10
9.5053182214
 20
11.3179354458
 11
9.4644510899
 21
11.3456182024
  0
LINE
  5
24C
100
AcDbEntity
  8
0
100
AcDbLine
 62
7
  6
CONTINUOUS
 10
9.4605129355
 20
11.3772737299
 11
9.4343126924
 21
11.3950213654
  0
LINE
  5
24D
100
AcDbEntity
  8
0
100
AcDbLine
 62
7
  6
CONTINUOUS
 10
9.3960646963
 20
11.4209299607
 11
9.3146734652
 21
11.4760631095
  0
LINE
  5
24E
100
AcDbEntity
  8
0
100
AcDbLine
 62
7
  6
CONTINUOUS
 10
9.3107353108
 20
11.507718637
 11
9.2944251951
 21
11.5187668546
  0
LINE
  5
24F
100
AcDbEntity
  8
0
100
AcDbLine
 62
7
  6
CONTINUOUS
 10
9.2557693685
 20
11.5449517079
 11
9.1775064054
 21
11.5979658169
  0
LINE
  5
250
100
AcDbEntity
  8
0
100
AcDbLine
 62
7
  6
CONTINUOUS
 10
9.173568251
 20
11.6296213444
 11
9.1338563366
 21
11.656521575
  0
LINE
  5
251
100
AcDbEntity
  8
0
100
AcDbLine
 62
7
  6
CONTINUOUS
 10
9.0951839378
 20
11.682717654
 11
9.0235252591
 21
11.7312581239
  0
LINE
  5
252
100
AcDbEntity
  8
0
100
AcDbLine
 62
7
  6
CONTINUOUS
 10
10.039129055
 20
11.1345606028
 11
10.0393159404
 21
11.1344302446
  0
LINE
  5
253
100
AcDbEntity
  8
0
100
AcDbLine
 62
7
  6
CONTINUOUS
 10
9.9942379061
 20
11.1457672353
 11
9.9940557398
 21
11.145908137
  0
LINE
  5
254
100
AcDbEntity
  8
0
100
AcDbLine
 62
7
  6
CONTINUOUS
 10
10.2264632541
 20
11.1117007978
 11
10.2264859253
 21
11.1116827889
  0
LINE
  5
255
100
AcDbEntity
  8
0
100
AcDbLine
 62
7
  6
CONTINUOUS
 10
10.1812147049
 20
11.1230674012
 11
10.1811932269
 21
11.1230880761
  0
LWPOLYLINE
  5
256
100
AcDbEntity
  8
0
100
AcDbPolyline
 62
7
  6
CONTINUOUS
 90
4
 70
0
 10
13.806554902
 20
7.5521499469
 10
13.8435241401
 20
7.5163247924
 10
13.9016646244
 20
7.4820225554
 10
13.9473466576
 20
7.4679501273
  0
LWPOLYLINE
  5
257
100
AcDbEntity
  8
0
100
AcDbPolyline
 62
7
  6
CONTINUOUS
 90
4
 70
0
 10
13.8214671171
 20
7.5646627811
 10
13.8582580609
 20
7.5286694621
 10
13.9155949867
 20
7.4936931232
 10
13.9604994041
 20
7.4789865919
  0
LWPOLYLINE
  5
258
100
AcDbEntity
  8
0
100
AcDbPolyline
 62
7
  6
CONTINUOUS
 90
4
 70
0
 10
13.8554155636
 20
7.59314891
 10
13.8917504675
 20
7.5568082499
 10
13.9472352847
 20
7.520275341
 10
13.9900158297
 20
7.5037538138
  0
LWPOLYLINE
  5
259
100
AcDbEntity
  8
0
100
AcDbPolyline
 62
7
  6
CONTINUOUS
 90
4
 70
0
 10
13.9061962714
 20
7.6357589832
 10
13.9349539734
 20
7.6052401957
 10
13.9772623537
 20
7.571077169
 10
14.0038948299
 20
7.5547751512
  0
LINE
  5
25A
100
AcDbEntity
  8
0
100
AcDbLine
 62
7
  6
CONTINUOUS
 10
11.7174660284
 20
10.2897973188
 11
11.722161618
 21
10.2740731202
  0
LWPOLYLINE
  5
25B
100
AcDbEntity
  8
0
100
AcDbPolyline
 62
7
  6
CONTINUOUS
 90
4
 70
0
 10
11.6719127764
 20
10.2515736019
 10
11.6826859016
 20
10.2108554418
 10
11.7083723693
 20
10.1570795651
 10
11.7342164509
 20
10.1210955717
  0
LWPOLYLINE
  5
25C
100
AcDbEntity
  8
0
100
AcDbPolyline
 62
7
  6
CONTINUOUS
 90
4
 70
0
 10
11.6414738986
 20
10.2260323507
 10
11.650500738
 20
10.1838790857
 10
11.6747349958
 20
10.128885899
 10
11.7002680049
 20
10.0926094432
  0
LWPOLYLINE
  5
25D
100
AcDbEntity
  8
0
100
AcDbPolyline
 62
7
  6
CONTINUOUS
 90
4
 70
0
 10
11.628093689
 20
10.2148050218
 10
11.6363649713
 20
10.1720026196
 10
11.6599700754
 20
10.1164809145
 10
11.6853557901
 20
10.0800966092
  0
LINE
  5
25E
100
AcDbEntity
  8
0
100
AcDbLine
 62
7
  6
CONTINUOUS
 10
15.5369693287
 20
10.4455486253
 11
14.3769693287
 21
10.4455486253
  0
LINE
  5
25F
100
AcDbEntity
  8
0
100
AcDbLine
 62
7
  6
CONTINUOUS
 10
14.964564487
 20
10.6255774689
 11
14.9494895578
 21
10.6255774689
  0
LINE
  5
260
100
AcDbEntity
  8
0
100
AcDbLine
 62
7
  6
CONTINUOUS
 10
7.5205564327
 20
11.9432048155
 11
7.6472367193
 21
11.8963785531
  0
LINE
  5
261
100
AcDbEntity
  8
0
100
AcDbLine
 62
7
  6
CONTINUOUS
 10
7.0424466455
 20
12.1202590804
 11
7.5132664175
 21
11.9460097225
  0
LINE
  5
262
100
AcDbEntity
  8
0
100
AcDbLine
 62
7
  6
CONTINUOUS
 10
9.5132600069
 20
11.3142142877
 11
9.8771822916
 21
11.1513241208
  0
LINE
  5
263
100
AcDbEntity
  8
0
100
AcDbLine
 62
9
  6
CONTINUOUS
 10
9.5053182214
 20
11.3179354458
 11
9.8852482097
 21
11.1478802944
  0
LINE
  5
264
100
AcDbEntity
  8
0
100
AcDbLine
 62
9
  6
CONTINUOUS
 10
9.933118812
 20
11.1358443944
 11
9.4644824565
 21
11.3456041629
  0
LINE
  5
265
100
AcDbEntity
  8
0
100
AcDbLine
 62
9
  6
CONTINUOUS
 10
9.4609319649
 20
11.3579829153
 11
9.9446845874
 21
11.1414571658
  0
LINE
  5
266
100
AcDbEntity
  8
0
100
AcDbLine
 62
9
  6
CONTINUOUS
 10
9.947784683
 20
11.1483832676
 11
9.4640320605
 21
11.364909017
  0
LINE
  5
267
100
AcDbEntity
  8
0
100
AcDbLine
 62
9
  6
CONTINUOUS
 10
9.4605129355
 20
11.3772737299
 11
9.9593352158
 21
11.1540028616
  0
LINE
  5
268
100
AcDbEntity
  8
0
100
AcDbLine
 62
9
  6
CONTINUOUS
 10
10.1301826903
 20
11.1110444245
 11
9.3146965037
 21
11.4760527976
  0
LINE
  5
269
100
AcDbEntity
  8
0
100
AcDbLine
 62
9
  6
CONTINUOUS
 10
9.3111543402
 20
11.4884278224
 11
10.1417484657
 21
11.1166571959
  0
LINE
  5
26A
100
AcDbEntity
  8
0
100
AcDbLine
 62
9
  6
CONTINUOUS
 10
10.1448485613
 20
11.1235832977
 11
9.3142544358
 21
11.4953539241
  0
LINE
  5
26B
100
AcDbEntity
  8
0
100
AcDbLine
 62
9
  6
CONTINUOUS
 10
9.3107353108
 20
11.507718637
 11
10.1564143368
 21
11.1291960691
  0
LINE
  5
26C
100
AcDbEntity
  8
0
100
AcDbLine
 62
9
  6
CONTINUOUS
 10
10.3124749095
 20
11.0899584294
 11
9.1775205248
 21
11.5979594971
  0
LINE
  5
26D
100
AcDbEntity
  8
0
100
AcDbLine
 62
9
  6
CONTINUOUS
 10
9.1739872804
 20
11.6103305298
 11
10.3240406849
 21
11.0955712008
  0
LINE
  5
26E
100
AcDbEntity
  8
0
100
AcDbLine
 62
9
  6
CONTINUOUS
 10
10.3271407805
 20
11.1024973026
 11
9.177087376
 21
11.6172566315
  0
LINE
  5
26F
100
AcDbEntity
  8
0
100
AcDbLine
 62
9
  6
CONTINUOUS
 10
9.173568251
 20
11.6296213444
 11
10.338706556
 21
11.108110074
  0
LINE
  5
270
100
AcDbEntity
  8
0
100
AcDbLine
 62
9
  6
CONTINUOUS
 10
10.5144626741
 20
11.0639204679
 11
9.0235355731
 21
11.7312535074
  0
LINE
  5
271
100
AcDbEntity
  8
0
100
AcDbLine
 62
9
  6
CONTINUOUS
 10
9.0200061341
 20
11.7436228367
 11
10.5260284496
 21
11.0695332393
  0
LINE
  5
272
100
AcDbEntity
  8
0
100
AcDbLine
 62
9
  6
CONTINUOUS
 10
10.528220559
 20
11.074430757
 11
9.0221982436
 21
11.7485203544
  0
LINE
  5
273
100
AcDbEntity
  8
0
100
AcDbLine
 62
7
  6
CONTINUOUS
 10
8.9473315561
 20
11.7929863989
 11
10.6112580295
 21
11.0482195285
  0
LINE
  5
274
100
AcDbEntity
  8
0
100
AcDbLine
 62
7
  6
CONTINUOUS
 10
8.8959788008
 20
11.8214496943
 11
10.6666963664
 21
11.0288835559
  0
LINE
  5
275
100
AcDbEntity
  8
0
100
AcDbLine
 62
7
  6
CONTINUOUS
 10
10.9027915237
 20
10.9874383134
 11
10.9458864901
 21
10.9605261663
  0
LINE
  5
276
100
AcDbEntity
  8
0
100
AcDbLine
 62
7
  6
CONTINUOUS
 10
10.1854289705
 20
11.1300675798
 11
10.1870827813
 21
11.1289629371
  0
LINE
  5
277
100
AcDbEntity
  8
0
100
AcDbLine
 62
7
  6
CONTINUOUS
 10
10.4077734242
 20
11.0952078214
 11
10.4084313591
 21
11.0947594384
  0
LINE
  5
278
100
AcDbEntity
  8
0
100
AcDbLine
 62
7
  6
CONTINUOUS
 10
10.1437086027
 20
11.1398549834
 11
10.1420674903
 21
11.1409879963
  0
LINE
  5
279
100
AcDbEntity
  8
0
100
AcDbLine
 62
7
  6
CONTINUOUS
 10
10.3639043106
 20
11.105956995
 11
10.3632512114
 21
11.1064161817
  0
LINE
  5
27A
100
AcDbEntity
  8
0
100
AcDbLine
 62
7
  6
CONTINUOUS
 10
10.9458864901
 20
10.9605261663
 11
10.9655545166
 21
10.9446520977
  0
LINE
  5
27B
100
AcDbEntity
  8
0
100
AcDbLine
 62
7
  6
CONTINUOUS
 10
10.9655545166
 20
10.9446520977
 11
10.9658410255
 21
10.9444012437
  0
LINE
  5
27C
100
AcDbEntity
  8
0
100
AcDbLine
 62
7
  6
CONTINUOUS
 10
15.5981327683
 20
6.4440486253
 11
15.6134693287
 21
6.4287562436
  0
LINE
  5
27D
100
AcDbEntity
  8
0
100
AcDbLine
 62
7
  6
CONTINUOUS
 10
14.2847842495
 20
6.9809035854
 11
13.9955298251
 21
7.3256235848
  0
LINE
  5
27E
100
AcDbEntity
  8
0
100
AcDbLine
 62
7
  6
CONTINUOUS
 10
13.8065458103
 20
7.552142318
 11
11.6853466983
 21
10.0800889803
  0
LINE
  5
27F
100
AcDbEntity
  8
0
100
AcDbLine
 62
7
  6
CONTINUOUS
 10
14.4314515507
 20
6.8100016119
 11
14.2995551128
 21
6.9671896656
  0
LINE
  5
280
100
AcDbEntity
  8
0
100
AcDbLine
 62
7
  6
CONTINUOUS
 10
13.8214780373
 20
7.5646719442
 11
11.7002789253
 21
10.0926186065
  0
LINE
  5
281
100
AcDbEntity
  8
0
100
AcDbLine
 62
7
  6
CONTINUOUS
 10
13.8554079575
 20
7.5931425277
 11
11.7342088456
 21
10.12108919
  0
LINE
  5
282
100
AcDbEntity
  8
0
100
AcDbLine
 62
7
  6
CONTINUOUS
 10
13.9062036292
 20
7.6357651571
 11
11.7850045173
 21
10.1637118194
  0
LINE
  5
283
100
AcDbEntity
  8
0
100
AcDbLine
 62
7
  6
CONTINUOUS
 10
11.8503505605
 20
10.2185436602
 11
13.9715496725
 21
7.6905969979
  0
LINE
  5
284
100
AcDbEntity
  8
0
100
AcDbLine
 62
7
  6
CONTINUOUS
 10
11.9287214479
 20
10.2843046429
 11
14.0499205599
 21
7.7563579806
  0
LINE
  5
285
100
AcDbEntity
  8
0
100
AcDbLine
 62
7
  6
CONTINUOUS
 10
14.2647453705
 20
7.5515222497
 11
14.4704374056
 21
7.3063880279
  0
LINE
  5
286
100
AcDbEntity
  8
0
100
AcDbLine
 62
7
  6
CONTINUOUS
 10
11.5752985437
 20
10.1705046197
 11
11.007296181
 21
10.9004800279
  0
LWPOLYLINE
  5
287
100
AcDbEntity
  8
0
100
AcDbPolyline
 62
7
  6
CONTINUOUS
 90
4
 70
0
 10
11.722161618
 20
10.2740731202
 10
11.7366253031
 20
10.2384713385
 10
11.7623378481
 20
10.1937418748
 10
11.7849971594
 20
10.1637056455
  0
LINE
  5
288
100
AcDbEntity
  8
0
100
AcDbLine
 62
9
  6
CONTINUOUS
 10
12.8519762685
 20
8.6897539987
 11
12.6625374904
 21
8.1953518132
  0
LINE
  5
289
100
AcDbEntity
  8
0
100
AcDbLine
 62
9
  6
CONTINUOUS
 10
13.294673136
 20
9.8449215049
 11
13.2523907058
 21
9.7345752959
  0
LINE
  5
28A
100
AcDbEntity
  8
0
100
AcDbLine
 62
7
  6
CONTINUOUS
 10
10.6915609333
 20
11.0247516362
 11
10.7727542777
 21
11.0198807256
  0
LINE
  5
28B
100
AcDbEntity
  8
0
100
AcDbLine
 62
7
  6
CONTINUOUS
 10
10.7936449099
 20
11.018573776
 11
10.7727542777
 21
11.0198807256
  0
LWPOLYLINE
  5
28C
100
AcDbEntity
  8
0
100
AcDbPolyline
 62
7
  6
CONTINUOUS
 90
3
 70
0
 10
10.7936449271
 20
11.0185737749
 10
10.8167220884
 20
11.0159927925
 10
10.8590527471
 20
11.0057243466
  0
LINE
  5
28D
100
AcDbEntity
  8
0
100
AcDbLine
 62
7
  6
CONTINUOUS
 10
10.6915615572
 20
11.024751593
 11
10.6666976154
 21
11.0288832423
  0
LINE
  5
28E
100
AcDbEntity
  8
0
100
AcDbLine
 62
7
  6
CONTINUOUS
 10
9.2950953408
 20
11.5197561683
 11
9.2948027099
 21
11.519821884
  0
LINE
  5
28F
100
AcDbEntity
  8
0
100
AcDbLine
 62
7
  6
CONTINUOUS
 10
9.4350806475
 20
11.3961550719
 11
9.434580407
 21
11.3962677056
  0
LINE
  5
290
100
AcDbEntity
  8
0
100
AcDbLine
 62
7
  6
CONTINUOUS
 10
9.2563758497
 20
11.5458470359
 11
9.2566668997
 21
11.5457777881
  0
LINE
  5
291
100
AcDbEntity
  8
0
100
AcDbLine
 62
7
  6
CONTINUOUS
 10
9.1559517034
 20
11.6467937206
 11
9.1551759957
 21
11.6469789804
  0
LINE
  5
292
100
AcDbEntity
  8
0
100
AcDbLine
 62
7
  6
CONTINUOUS
 10
9.1171616259
 20
11.672726887
 11
9.1179342377
 21
11.6725347103
  0
LINE
  5
293
100
AcDbEntity
  8
0
100
AcDbLine
 62
7
  6
CONTINUOUS
 10
9.3963304705
 20
11.4221773822
 11
9.3968255047
 21
11.4220531168
  0
LINE
  5
294
100
AcDbEntity
  8
0
100
AcDbLine
 62
7
  6
CONTINUOUS
 10
9.8852482097
 20
11.1478802944
 11
9.933118812
 21
11.1358443944
  0
LINE
  5
295
100
AcDbEntity
  8
0
100
AcDbLine
 62
7
  6
CONTINUOUS
 10
9.9593504585
 20
11.153996039
 11
9.9939048917
 21
11.1453081662
  0
LINE
  5
296
100
AcDbEntity
  8
0
100
AcDbLine
 62
7
  6
CONTINUOUS
 10
10.0389817408
 20
11.1339746876
 11
10.1301826903
 21
11.1110444245
  0
LINE
  5
297
100
AcDbEntity
  8
0
100
AcDbLine
 62
7
  6
CONTINUOUS
 10
10.1564143368
 20
11.1291960691
 11
10.1811643633
 21
11.1229732762
  0
LINE
  5
298
100
AcDbEntity
  8
0
100
AcDbLine
 62
7
  6
CONTINUOUS
 10
10.2264356272
 20
11.1115909167
 11
10.3124749095
 21
11.0899584294
  0
LINE
  5
299
100
AcDbEntity
  8
0
100
AcDbLine
 62
7
  6
CONTINUOUS
 10
10.338706556
 20
11.108110074
 11
10.3852239696
 21
11.0964144004
  0
LINE
  5
29A
100
AcDbEntity
  8
0
100
AcDbLine
 62
7
  6
CONTINUOUS
 10
10.4305237241
 20
11.0850248777
 11
10.5144626741
 21
11.0639204679
  0
LINE
  5
29B
100
AcDbEntity
  8
0
100
AcDbLine
 62
7
  6
CONTINUOUS
 10
10.859052748
 20
11.0057243463
 11
10.9027915237
 21
10.9874383134
  0
LINE
  5
29C
100
AcDbEntity
  8
0
100
AcDbLine
 62
7
  6
CONTINUOUS
 10
12.2226937318
 20
10.7137336984
 11
12.2373515792
 21
10.706385487
  0
LINE
  5
29D
100
AcDbEntity
  8
0
100
AcDbLine
 62
7
  6
CONTINUOUS
 10
12.015345457
 20
10.356990817
 11
14.136544569
 21
7.8290441547
  0
LINE
  5
29E
100
AcDbEntity
  8
0
100
AcDbLine
 62
7
  6
CONTINUOUS
 10
12.1047796828
 20
10.4320350429
 11
14.2259787947
 21
7.9040883806
  0
LINE
  5
29F
100
AcDbEntity
  8
0
100
AcDbLine
 62
7
  6
CONTINUOUS
 10
14.6827298691
 20
7.4845225556
 11
14.477037834
 21
7.7296567774
  0
LINE
  5
2A0
100
AcDbEntity
  8
0
100
AcDbLine
 62
7
  6
CONTINUOUS
 10
12.1914046439
 20
10.5047220158
 11
14.3126037559
 21
7.9767753535
  0
LINE
  5
2A1
100
AcDbEntity
  8
0
100
AcDbLine
 62
7
  6
CONTINUOUS
 10
12.2697773755
 20
10.5704845459
 11
14.3909764874
 21
8.0425378837
  0
LINE
  5
2A2
100
AcDbEntity
  8
0
100
AcDbLine
 62
7
  6
CONTINUOUS
 10
11.4011988725
 20
11.5622083635
 11
11.1099212276
 21
11.7825812963
  0
LINE
  5
2A3
100
AcDbEntity
  8
0
100
AcDbLine
 62
7
  6
CONTINUOUS
 10
12.3648612653
 20
10.8330263568
 11
11.4011988725
 21
11.5622083635
  0
LINE
  5
2A4
100
AcDbEntity
  8
0
100
AcDbLine
 62
7
  6
CONTINUOUS
 10
11.1099212276
 20
11.7825812963
 11
11.1099255005
 21
11.7825779236
  0
LWPOLYLINE
  5
2A5
100
AcDbEntity
  8
0
100
AcDbPolyline
 62
7
  6
CONTINUOUS
 90
4
 70
0
 10
12.4347845008
 20
10.708941964
 10
12.4033611379
 20
10.7402600808
 10
12.3527819156
 20
10.7731478134
 10
12.3120660711
 20
10.7887259954
  0
LWPOLYLINE
  5
2A6
100
AcDbEntity
  8
0
100
AcDbPolyline
 62
7
  6
CONTINUOUS
 90
4
 70
0
 10
12.419872286
 20
10.69642913
 10
12.3885807115
 20
10.7278735757
 10
12.3386312296
 20
10.7612891274
 10
12.2986858616
 20
10.7774986665
  0
LWPOLYLINE
  5
2A7
100
AcDbEntity
  8
0
100
AcDbPolyline
 62
7
  6
CONTINUOUS
 90
4
 70
0
 10
12.38592384
 20
10.6679430015
 10
12.3549743019
 20
10.6996430083
 10
12.3064758099
 20
10.7342773238
 10
12.2682469837
 20
10.7519574153
  0
LWPOLYLINE
  5
2A8
100
AcDbEntity
  8
0
100
AcDbPolyline
 62
7
  6
CONTINUOUS
 90
4
 70
0
 10
12.3351431314
 20
10.6253329277
 10
12.3096922021
 20
10.6526758109
 10
12.2703614303
 20
10.6856301554
 10
12.2373515792
 20
10.706385487
  0
LINE
  5
2A9
100
AcDbEntity
  8
0
100
AcDbLine
 62
7
  6
CONTINUOUS
 10
14.4563348856
 20
8.0973800914
 11
12.3351357736
 21
10.6253267537
  0
LINE
  5
2AA
100
AcDbEntity
  8
0
100
AcDbLine
 62
7
  6
CONTINUOUS
 10
14.5071305573
 20
8.1400027208
 11
12.3859314453
 21
10.6679493831
  0
LINE
  5
2AB
100
AcDbEntity
  8
0
100
AcDbLine
 62
7
  6
CONTINUOUS
 10
14.5410604775
 20
8.1684733044
 11
12.4198613655
 21
10.6964199667
  0
LINE
  5
2AC
100
AcDbEntity
  8
0
100
AcDbLine
 62
7
  6
CONTINUOUS
 10
15.1783448827
 20
7.4367195313
 11
15.0464484448
 21
7.593907585
  0
LINE
  5
2AD
100
AcDbEntity
  8
0
100
AcDbLine
 62
7
  6
CONTINUOUS
 10
14.5559927045
 20
8.1810029306
 11
12.4347935926
 21
10.7089495929
  0
LINE
  5
2AE
100
AcDbEntity
  8
0
100
AcDbLine
 62
7
  6
CONTINUOUS
 10
15.0355078037
 20
7.6108354429
 11
14.7462533794
 21
7.9555554423
  0
LINE
  5
2AF
100
AcDbEntity
  8
0
100
AcDbLine
 62
7
  6
CONTINUOUS
 10
13.4619693287
 20
5.6405486253
 11
13.4619693287
 21
5.6957879181
  0
LINE
  5
2B0
100
AcDbEntity
  8
0
100
AcDbLine
 62
7
  6
CONTINUOUS
 10
14.4319693287
 20
9.7555486253
 11
14.3944693287
 21
9.6855486253
  0
LINE
  5
2B1
100
AcDbEntity
  8
0
100
AcDbLine
 62
9
  6
CONTINUOUS
 10
14.5559927045
 20
8.1810029306
 11
13.8065458103
 21
7.552142318
  0
LINE
  5
2B2
100
AcDbEntity
  8
0
100
AcDbLine
 62
7
  6
CONTINUOUS
 10
15.4974693287
 20
6.9931650641
 11
15.5716033229
 21
6.8872474368
  0
LINE
  5
2B3
100
AcDbEntity
  8
0
100
AcDbLine
 62
7
  6
CONTINUOUS
 10
14.3004693287
 20
6.4275486253
 11
14.3004693287
 21
6.428756327
  0
LINE
  5
2B4
100
AcDbEntity
  8
0
100
AcDbLine
 62
7
  6
CONTINUOUS
 10
14.6409411305
 20
8.0499449936
 11
13.9208615433
 21
7.4457264776
  0
LINE
  5
2B5
100
AcDbEntity
  8
0
100
AcDbLine
 62
7
  6
CONTINUOUS
 10
14.3580358501
 20
7.6559104024
 11
13.9979948789
 21
7.3538001563
  0
LINE
  5
2B6
100
AcDbEntity
  8
0
100
AcDbLine
 62
7
  6
CONTINUOUS
 10
14.3594498254
 20
7.6570968686
 11
14.7180756665
 21
7.9580196796
  0
LINE
  5
2B7
100
AcDbEntity
  8
0
100
AcDbLine
 62
9
  6
CONTINUOUS
 10
14.7462533794
 20
7.9555554423
 11
14.477037834
 21
7.7296567774
  0
LINE
  5
2B8
100
AcDbEntity
  8
0
100
AcDbLine
 62
9
  6
CONTINUOUS
 10
14.2647453705
 20
7.5515222497
 11
13.9955298251
 21
7.3256235848
  0
LWPOLYLINE
  5
2B9
100
AcDbEntity
  8
0
100
AcDbPolyline
 62
7
  6
CONTINUOUS
 90
4
 70
0
 10
14.5191373379
 20
7.9870889442
 10
14.5072848939
 20
8.0170809519
 10
14.4811375144
 20
8.0641697795
 10
14.4563422434
 20
8.0973862654
  0
LWPOLYLINE
  5
2BA
100
AcDbEntity
  8
0
100
AcDbPolyline
 62
7
  6
CONTINUOUS
 90
4
 70
0
 10
14.5717868441
 20
7.9919176574
 10
14.5629450797
 20
8.0369172029
 10
14.5366020251
 20
8.0979029541
 10
14.5071229512
 20
8.1399963385
  0
LINE
  5
2BB
100
AcDbEntity
  8
0
100
AcDbLine
 62
7
  6
CONTINUOUS
 10
14.3769693287
 20
10.4455486253
 11
14.3769693287
 21
10.2355486253
  0
LINE
  5
2BC
100
AcDbEntity
  8
0
100
AcDbLine
 62
7
  6
CONTINUOUS
 10
14.4094693287
 20
6.5627200567
 11
14.4094693287
 21
6.4275486253
  0
LINE
  5
2BD
100
AcDbEntity
  8
0
100
AcDbLine
 62
7
  6
CONTINUOUS
 10
14.6583974528
 20
8.0695525664
 11
14.6583974528
 21
8.0246546386
  0
LINE
  5
2BE
100
AcDbEntity
  8
0
100
AcDbLine
 62
7
  6
CONTINUOUS
 10
14.6944693287
 20
8.2355486253
 11
14.6944693287
 21
8.2055486253
  0
LINE
  5
2BF
100
AcDbEntity
  8
0
100
AcDbLine
 62
9
  6
CONTINUOUS
 10
14.6983974669
 20
8.0695531997
 11
14.6983974669
 21
7.9415077096
  0
LINE
  5
2C0
100
AcDbEntity
  8
0
100
AcDbLine
 62
9
  6
CONTINUOUS
 10
14.7235012805
 20
6.4275486253
 11
14.7235012805
 21
6.4398379472
  0
LINE
  5
2C1
100
AcDbEntity
  8
0
100
AcDbLine
 62
9
  6
CONTINUOUS
 10
14.7448225634
 20
6.4398379472
 11
14.7448225634
 21
6.4275486253
  0
LINE
  5
2C2
100
AcDbEntity
  8
0
100
AcDbLine
 62
7
  6
CONTINUOUS
 10
14.6827298691
 20
7.4845225556
 11
14.4704374056
 21
7.3063880279
  0
LINE
  5
2C3
100
AcDbEntity
  8
0
100
AcDbLine
 62
9
  6
CONTINUOUS
 10
14.2847842495
 20
6.9809035854
 11
15.0355078037
 21
7.6108354429
  0
LINE
  5
2C4
100
AcDbEntity
  8
0
100
AcDbLine
 62
7
  6
CONTINUOUS
 10
15.0464484448
 20
7.593907585
 11
14.2995551128
 21
6.9671896656
  0
LWPOLYLINE
  5
2C5
100
AcDbEntity
  8
0
100
AcDbPolyline
 62
7
  6
CONTINUOUS
 90
4
 70
0
 10
14.6013062551
 20
8.0166873843
 10
14.5948241405
 20
8.0626166107
 10
14.571146254
 20
8.1241243944
 10
14.541071398
 20
8.1684824678
  0
LWPOLYLINE
  5
2C6
100
AcDbEntity
  8
0
100
AcDbPolyline
 62
7
  6
CONTINUOUS
 90
4
 70
0
 10
14.6144560162
 20
8.0277213439
 10
14.6085299817
 20
8.0751530159
 10
14.5848448618
 20
8.1383667366
 10
14.5559836128
 20
8.1809953017
  0
LINE
  5
2C7
100
AcDbEntity
  8
0
100
AcDbLine
 62
7
  6
CONTINUOUS
 10
14.9569137857
 20
8.2355486171
 11
14.9569693287
 21
9.6855486253
  0
LINE
  5
2C8
100
AcDbEntity
  8
0
100
AcDbLine
 62
9
  6
CONTINUOUS
 10
14.9569693316
 20
6.5287593034
 11
14.956969326
 21
6.4934039644
  0
LINE
  5
2C9
100
AcDbEntity
  8
0
100
AcDbLine
 62
9
  6
CONTINUOUS
 10
15.1691160939
 20
6.4275486253
 11
15.1691160939
 21
6.4398379472
  0
LINE
  5
2CA
100
AcDbEntity
  8
0
100
AcDbLine
 62
9
  6
CONTINUOUS
 10
15.1904373768
 20
6.4398375968
 11
15.1904373768
 21
6.4275486253
  0
LINE
  5
2CB
100
AcDbEntity
  8
0
100
AcDbLine
 62
9
  6
CONTINUOUS
 10
15.1925189579
 20
7.651341361
 11
15.1925189579
 21
7.6930516314
  0
LINE
  5
2CC
100
AcDbEntity
  8
0
100
AcDbLine
 62
7
  6
CONTINUOUS
 10
14.3533862417
 20
6.9030362243
 11
14.3423353345
 21
6.8872474368
  0
LINE
  5
2CD
100
AcDbEntity
  8
0
100
AcDbLine
 62
7
  6
CONTINUOUS
 10
14.315805889
 20
6.4440486253
 11
14.3004693287
 21
6.4287562436
  0
LINE
  5
2CE
100
AcDbEntity
  8
0
100
AcDbLine
 62
9
  6
CONTINUOUS
 10
14.4314515507
 20
6.8100016119
 11
15.1783448827
 21
7.4367195313
  0
LINE
  5
2CF
100
AcDbEntity
  8
0
100
AcDbLine
 62
9
  6
CONTINUOUS
 10
15.2155411905
 20
7.7352199842
 11
15.2155411905
 21
8.0695534376
  0
LINE
  5
2D0
100
AcDbEntity
  8
0
100
AcDbLine
 62
7
  6
CONTINUOUS
 10
15.2194693287
 20
8.2355486253
 11
15.2194693287
 21
8.2055486253
  0
LINE
  5
2D1
100
AcDbEntity
  8
0
100
AcDbLine
 62
7
  6
CONTINUOUS
 10
15.2555412045
 20
7.7352208656
 11
15.2555412045
 21
8.0695525664
  0
LINE
  5
2D2
100
AcDbEntity
  8
0
100
AcDbLine
 62
7
  6
CONTINUOUS
 10
15.2694693287
 20
7.6155486253
 11
15.2694693287
 21
7.3275486253
  0
LINE
  5
2D3
100
AcDbEntity
  8
0
100
AcDbLine
 62
7
  6
CONTINUOUS
 10
15.3569693287
 20
8.1105486253
 11
15.3569693287
 21
7.6355486253
  0
LINE
  5
2D4
100
AcDbEntity
  8
0
100
AcDbLine
 62
7
  6
CONTINUOUS
 10
15.5044693287
 20
6.5627200567
 11
15.5044693287
 21
6.4275486253
  0
LINE
  5
2D5
100
AcDbEntity
  8
0
100
AcDbLine
 62
7
  6
CONTINUOUS
 10
15.5369693287
 20
10.4455486253
 11
15.5369693287
 21
10.2355486253
  0
LINE
  5
2D6
100
AcDbEntity
  8
0
100
AcDbLine
 62
7
  6
CONTINUOUS
 10
15.6134693287
 20
6.428756327
 11
15.6134693287
 21
6.4275486253
  0
LINE
  5
2D7
100
AcDbEntity
  8
0
100
AcDbLine
 62
7
  6
CONTINUOUS
 10
15.4819693287
 20
9.7555486253
 11
15.5194693287
 21
9.6855486253
  0
LINE
  5
2D8
100
AcDbEntity
  8
0
100
AcDbLine
 62
7
  6
CONTINUOUS
 10
16.4519693287
 20
5.6405486253
 11
16.4519693287
 21
5.6957879181
  0
ARC
  5
2D9
100
AcDbEntity
  8
0
100
AcDbCircle
 62
7
  6
CONTINUOUS
 10
-339.8450104778
 20
-749.2308256371
 40
835.4376013682
100
AcDbArc
 50
65.0426440587
 51
65.4578831118
  0
ARC
  5
2DA
100
AcDbEntity
  8
0
100
AcDbCircle
 62
9
  6
CONTINUOUS
 10
-150.0128474969
 20
-0.1034881637
 40
164.7540586715
100
AcDbArc
 50
2.8924560642
 51
3.4062955502
  0
ARC
  5
2DB
100
AcDbEntity
  8
0
100
AcDbCircle
 62
9
  6
CONTINUOUS
 10
-82.6078636853
 20
3.2217562556
 40
97.0802553414
100
AcDbArc
 50
3.086078452
 51
3.8176886403
  0
ARC
  5
2DC
100
AcDbEntity
  8
0
100
AcDbCircle
 62
9
  6
CONTINUOUS
 10
-40.5560353814
 20
7.3214158896
 40
54.5331168718
100
AcDbArc
 50
1.656415187
 51
2.5008379982
  0
ARC
  5
2DD
100
AcDbEntity
  8
0
100
AcDbCircle
 62
7
  6
CONTINUOUS
 10
-3.7751221758
 20
-18.7830570144
 40
32.7367149873
100
AcDbArc
 50
69.8154149127
 51
70.6459610759
  0
ARC
  5
2DE
100
AcDbEntity
  8
0
100
AcDbCircle
 62
7
  6
CONTINUOUS
 10
5.5259430122
 20
6.9923746705
 40
4.7192705905
100
AcDbArc
 50
67.6043788037
 51
71.5114247032
  0
ARC
  5
2DF
100
AcDbEntity
  8
0
100
AcDbCircle
 62
7
  6
CONTINUOUS
 10
6.7047159377
 20
8.1114084857
 40
4.2975084823
100
AcDbArc
 50
55.8265728683
 51
56.0423037919
  0
ARC
  5
2E0
100
AcDbEntity
  8
0
100
AcDbCircle
 62
7
  6
CONTINUOUS
 10
1.2671452566
 20
10.1998156547
 40
13.0
100
AcDbArc
 50
339.72883062
 51
342.4530967739
  0
ARC
  5
2E1
100
AcDbEntity
  8
0
100
AcDbCircle
 62
7
  6
CONTINUOUS
 10
6.7647703175
 20
9.9832757147
 40
0.8453870906
100
AcDbArc
 50
65.1463447049
 51
76.6154518304
  0
ARC
  5
2E2
100
AcDbEntity
  8
0
100
AcDbCircle
 62
7
  6
CONTINUOUS
 10
6.8993155594
 20
10.3282886594
 40
0.5858512803
100
AcDbArc
 50
169.744674286
 51
172.7561619263
  0
ARC
  5
2E3
100
AcDbEntity
  8
0
100
AcDbCircle
 62
7
  6
CONTINUOUS
 10
6.9194239213
 20
10.291205626
 40
0.5009062997
100
AcDbArc
 50
66.3917409343
 51
81.6825025609
  0
ARC
  5
2E4
100
AcDbEntity
  8
0
100
AcDbCircle
 62
7
  6
CONTINUOUS
 10
6.9197820682
 20
10.292062846
 40
0.5001074117
100
AcDbArc
 50
166.6407803317
 51
169.9996391166
  0
ARC
  5
2E5
100
AcDbEntity
  8
0
100
AcDbCircle
 62
7
  6
CONTINUOUS
 10
6.9196959785
 20
10.2920563984
 40
0.5000190727
100
AcDbArc
 50
81.6992463142
 51
166.6377822362
  0
ARC
  5
2E6
100
AcDbEntity
  8
0
100
AcDbCircle
 62
7
  6
CONTINUOUS
 10
9.4027789974
 20
7.0945511731
 40
4.1206932408
100
AcDbArc
 50
75.8126627194
 51
76.0597314706
  0
ARC
  5
2E7
100
AcDbEntity
  8
0
100
AcDbCircle
 62
7
  6
CONTINUOUS
 10
14.7943943924
 20
5.7409839993
 40
1.142
100
AcDbArc
 50
356.1276448243
 51
35.9245410249
  0
ARC
  5
2E8
100
AcDbEntity
  8
0
100
AcDbCircle
 62
7
  6
CONTINUOUS
 10
14.3069693287
 20
6.7055486253
 40
1.1375
100
AcDbArc
 50
0.0
 51
40.0
  0
ARC
  5
2E9
100
AcDbEntity
  8
0
100
AcDbCircle
 62
9
  6
CONTINUOUS
 10
14.9567973239
 20
5.929542705
 40
0.5992166231
100
AcDbArc
 50
89.9835532788
 51
104.1616911554
  0
ARC
  5
2EA
100
AcDbEntity
  8
0
100
AcDbCircle
 62
9
  6
CONTINUOUS
 10
14.9564880911
 20
5.9923841609
 40
0.5010198709
100
AcDbArc
 50
74.5046306723
 51
89.9449664877
  0
ARC
  5
2EB
100
AcDbEntity
  8
0
100
AcDbCircle
 62
7
  6
CONTINUOUS
 10
14.1322116576
 20
7.7918526902
 40
0.2695755326
100
AcDbArc
 50
241.5757921767
 51
248.6794539016
  0
ARC
  5
2EC
100
AcDbEntity
  8
0
100
AcDbCircle
 62
7
  6
CONTINUOUS
 10
14.2633772719
 20
7.9019110943
 40
0.2695709136
100
AcDbArc
 50
11.320505793
 51
18.4197241243
  0
ARC
  5
2ED
100
AcDbEntity
  8
0
100
AcDbCircle
 62
7
  6
CONTINUOUS
 10
14.0927644695
 20
7.5899701596
 40
0.2244047619
100
AcDbArc
 50
220.0
 51
252.3268237287
  0
ARC
  5
2EE
100
AcDbEntity
  8
0
100
AcDbCircle
 62
7
  6
CONTINUOUS
 10
14.4690382043
 20
7.9057013116
 40
0.2244047619
100
AcDbArc
 50
7.6731762712
 51
40.0
  0
ARC
  5
2EF
100
AcDbEntity
  8
0
100
AcDbCircle
 62
7
  6
CONTINUOUS
 10
14.5094444497
 20
6.7702842221
 40
0.2039751211
100
AcDbArc
 50
145.0110095298
 51
213.0478355063
  0
ARC
  5
2F0
100
AcDbEntity
  8
0
100
AcDbCircle
 62
7
  6
CONTINUOUS
 10
13.9641054398
 20
5.6405486253
 40
0.1871361111
100
AcDbArc
 50
92.1854050713
 51
180.0
  0
ARC
  5
2F1
100
AcDbEntity
  8
0
100
AcDbCircle
 62
7
  6
CONTINUOUS
 10
13.9639692827
 20
5.6406796856
 40
0.187
100
AcDbArc
 50
92.1452489224
 51
180.0401561489
  0
ARC
  5
2F2
100
AcDbEntity
  8
0
100
AcDbCircle
 62
7
  6
CONTINUOUS
 10
14.1439666549
 20
5.8285486253
 40
0.187
100
AcDbArc
 50
140.1258832631
 51
180.3063960032
  0
ARC
  5
2F3
100
AcDbEntity
  8
0
100
AcDbCircle
 62
7
  6
CONTINUOUS
 10
14.194694795
 20
6.5655096007
 40
0.1715245336
100
AcDbArc
 50
314.9173576842
 51
33.0478355063
  0
ARC
  5
2F4
100
AcDbEntity
  8
0
100
AcDbCircle
 62
7
  6
CONTINUOUS
 10
14.3069693287
 20
6.7055486253
 40
0.1625
100
AcDbArc
 50
0.0
 51
40.0
  0
ARC
  5
2F5
100
AcDbEntity
  8
0
100
AcDbCircle
 62
7
  6
CONTINUOUS
 10
14.5094693287
 20
6.5627200567
 40
0.1
100
AcDbArc
 50
134.4270040008
 51
180.0
  0
ARC
  5
2F6
100
AcDbEntity
  8
0
100
AcDbCircle
 62
7
  6
CONTINUOUS
 10
14.3694693287
 20
6.7055486253
 40
0.1
100
AcDbArc
 50
314.4270040008
 51
360.0
  0
ARC
  5
2F7
100
AcDbEntity
  8
0
100
AcDbCircle
 62
7
  6
CONTINUOUS
 10
14.5694693287
 20
8.1855486253
 40
0.075
100
AcDbArc
 50
288.8975766701
 51
360.0
  0
ARC
  5
2F8
100
AcDbEntity
  8
0
100
AcDbCircle
 62
7
  6
CONTINUOUS
 10
14.6983974528
 20
8.0695525664
 40
0.04
100
AcDbArc
 50
97.6423323209
 51
180.0
  0
ARC
  5
2F9
100
AcDbEntity
  8
0
100
AcDbCircle
 62
7
  6
CONTINUOUS
 10
14.227155233
 20
6.3875486253
 40
0.04
100
AcDbArc
 50
90.0
 51
144.0754589751
  0
ARC
  5
2FA
100
AcDbEntity
  8
0
100
AcDbCircle
 62
7
  6
CONTINUOUS
 10
14.0050943987
 20
5.6655486253
 40
0.025
100
AcDbArc
 50
183.8723551757
 51
270.0
  0
ARC
  5
2FB
100
AcDbEntity
  8
0
100
AcDbCircle
 62
7
  6
CONTINUOUS
 10
14.6744693287
 20
8.2055486253
 40
0.02
100
AcDbArc
 50
270.0
 51
360.0
  0
ARC
  5
2FC
100
AcDbEntity
  8
0
100
AcDbCircle
 62
7
  6
CONTINUOUS
 10
14.3001051383
 20
6.9937593376
 40
0.02
100
AcDbArc
 50
220.0
 51
287.5000000003
  0
ARC
  5
2FD
100
AcDbEntity
  8
0
100
AcDbCircle
 62
7
  6
CONTINUOUS
 10
14.010850714
 20
7.338479337
 40
0.02
100
AcDbArc
 50
130.0
 51
220.0
  0
ARC
  5
2FE
100
AcDbEntity
  8
0
100
AcDbCircle
 62
7
  6
CONTINUOUS
 10
14.7309324905
 20
7.9426996901
 40
0.02
100
AcDbArc
 50
40.0
 51
130.0
  0
ARC
  5
2FF
100
AcDbEntity
  8
0
100
AcDbCircle
 62
7
  6
CONTINUOUS
 10
11.1883820178
 20
9.6520157221
 40
5.5467962324
100
AcDbArc
 50
169.1332598324
 51
169.8370938194
  0
ARC
  5
300
100
AcDbEntity
  8
0
100
AcDbCircle
 62
7
  6
CONTINUOUS
 10
9.3205225074
 20
9.4172751151
 40
2.965914913
100
AcDbArc
 50
80.1955390651
 51
86.7593400244
  0
ARC
  5
301
100
AcDbEntity
  8
0
100
AcDbCircle
 62
7
  6
CONTINUOUS
 10
9.320797647
 20
9.4172275824
 40
2.9659149122
100
AcDbArc
 50
73.6371313642
 51
80.2009329682
  0
ARC
  5
302
100
AcDbEntity
  8
0
100
AcDbCircle
 62
7
  6
CONTINUOUS
 10
9.3204969883
 20
9.4176283099
 40
2.9656435036
100
AcDbArc
 50
53.125217471
 51
56.0166432507
  0
ARC
  5
303
100
AcDbEntity
  8
0
100
AcDbCircle
 62
7
  6
CONTINUOUS
 10
9.320648494
 20
9.417809435
 40
2.9654086303
100
AcDbArc
 50
56.017114467
 51
60.5095636073
  0
ARC
  5
304
100
AcDbEntity
  8
0
100
AcDbCircle
 62
7
  6
CONTINUOUS
 10
9.3207448129
 20
9.4179542954
 40
2.9652351227
100
AcDbArc
 50
60.5098056782
 51
61.9130693318
  0
ARC
  5
305
100
AcDbEntity
  8
0
100
AcDbCircle
 62
7
  6
CONTINUOUS
 10
9.3207983526
 20
9.4180517301
 40
2.9651239554
100
AcDbArc
 50
61.9131003936
 51
73.6326579124
  0
ARC
  5
306
100
AcDbEntity
  8
0
100
AcDbCircle
 62
7
  6
CONTINUOUS
 10
9.3211449435
 20
9.418509598
 40
2.9645497009
100
AcDbArc
 50
52.8869015885
 51
53.1250145003
  0
ARC
  5
307
100
AcDbEntity
  8
0
100
AcDbCircle
 62
7
  6
CONTINUOUS
 10
9.8713170638
 20
9.7975313788
 40
1.3613818208
100
AcDbArc
 50
75.2895971977
 51
75.6956615296
  0
ARC
  5
308
100
AcDbEntity
  8
0
100
AcDbCircle
 62
7
  6
CONTINUOUS
 10
9.9053870718
 20
9.9355646848
 40
1.2192106873
100
AcDbArc
 50
75.6444152438
 51
76.5522596972
  0
ARC
  5
309
100
AcDbEntity
  8
0
100
AcDbCircle
 62
7
  6
CONTINUOUS
 10
10.4655085518
 20
10.2944161463
 40
1.2030161699
100
AcDbArc
 50
65.6799861575
 51
71.1946419619
  0
ARC
  5
30A
100
AcDbEntity
  8
0
100
AcDbCircle
 62
9
  6
CONTINUOUS
 10
10.4662430015
 20
10.296652109
 40
1.2006449603
100
AcDbArc
 50
54.4852807657
 51
57.829372037
  0
ARC
  5
30B
100
AcDbEntity
  8
0
100
AcDbCircle
 62
7
  6
CONTINUOUS
 10
10.4665794743
 20
10.2971253458
 40
1.2000870114
100
AcDbArc
 50
45.4812991814
 51
54.4852383691
  0
ARC
  5
30C
100
AcDbEntity
  8
0
100
AcDbCircle
 62
7
  6
CONTINUOUS
 10
10.7561865545
 20
10.7049939606
 40
0.3182308079
100
AcDbArc
 50
37.9004239277
 51
48.7921406625
  0
ARC
  5
30D
100
AcDbEntity
  8
0
100
AcDbCircle
 62
7
  6
CONTINUOUS
 10
10.0843586898
 20
10.8370043655
 40
0.3102565219
100
AcDbArc
 50
73.8221983768
 51
75.7448022234
  0
ARC
  5
30E
100
AcDbEntity
  8
0
100
AcDbCircle
 62
7
  6
CONTINUOUS
 10
9.0620141676
 20
11.4143600107
 40
0.259394953
100
AcDbArc
 50
55.9174047614
 51
58.1778182379
  0
ARC
  5
30F
100
AcDbEntity
  8
0
100
AcDbCircle
 62
7
  6
CONTINUOUS
 10
9.1963631296
 20
11.2939122024
 40
0.2553661141
100
AcDbArc
 50
55.951872557
 51
58.2452306344
  0
ARC
  5
310
100
AcDbEntity
  8
0
100
AcDbCircle
 62
7
  6
CONTINUOUS
 10
9.4012339394
 20
11.219069677
 40
0.1836387451
100
AcDbArc
 50
58.3985794133
 51
61.5245188581
  0
ARC
  5
311
100
AcDbEntity
  8
0
100
AcDbCircle
 62
7
  6
CONTINUOUS
 10
9.2123516574
 20
11.4335851523
 40
0.1796975918
100
AcDbArc
 50
58.2033666598
 51
61.4099387333
  0
ARC
  5
312
100
AcDbEntity
  8
0
100
AcDbCircle
 62
7
  6
CONTINUOUS
 10
9.5791299506
 20
11.185321878
 40
0.1415957849
100
AcDbArc
 50
61.7802499747
 51
65.8504805368
  0
ARC
  5
313
100
AcDbEntity
  8
0
100
AcDbCircle
 62
7
  6
CONTINUOUS
 10
9.5324619257
 20
11.2704359333
 40
0.1386427411
100
AcDbArc
 50
61.6887809926
 51
65.8325005149
  0
ARC
  5
314
100
AcDbEntity
  8
0
100
AcDbCircle
 62
7
  6
CONTINUOUS
 10
9.5333528902
 20
11.3349339736
 40
0.1384272702
100
AcDbArc
 50
61.2305200079
 51
65.8223559652
  0
ARC
  5
315
100
AcDbEntity
  8
0
100
AcDbCircle
 62
7
  6
CONTINUOUS
 10
9.7107848924
 20
11.1951036107
 40
0.1345496499
100
AcDbArc
 50
65.8906139511
 51
67.1194376051
  0
ARC
  5
316
100
AcDbEntity
  8
0
100
AcDbCircle
 62
7
  6
CONTINUOUS
 10
9.5350740811
 20
11.2750880768
 40
0.1333082563
100
AcDbArc
 50
60.2898945043
 51
61.7289125387
  0
ARC
  5
317
100
AcDbEntity
  8
0
100
AcDbCircle
 62
7
  6
CONTINUOUS
 10
9.5850111445
 20
11.1963303254
 40
0.1291148489
100
AcDbArc
 50
60.8647869095
 51
61.769938803
  0
ARC
  5
318
100
AcDbEntity
  8
0
100
AcDbCircle
 62
7
  6
CONTINUOUS
 10
9.6954152102
 20
11.4172568937
 40
0.1257190258
100
AcDbArc
 50
240.249216999
 51
245.8115413197
  0
ARC
  5
319
100
AcDbEntity
  8
0
100
AcDbCircle
 62
7
  6
CONTINUOUS
 10
9.3818197322
 20
11.4216713943
 40
0.1209336609
100
AcDbArc
 50
56.851055518
 51
57.7763193649
  0
ARC
  5
31A
100
AcDbEntity
  8
0
100
AcDbCircle
 62
7
  6
CONTINUOUS
 10
9.4700593729
 20
11.3538975238
 40
0.01
100
AcDbArc
 50
155.8869005304
 51
235.8869005301
  0
ARC
  5
31B
100
AcDbEntity
  8
0
100
AcDbCircle
 62
7
  6
CONTINUOUS
 10
9.4549046525
 20
11.3689944085
 40
0.01
100
AcDbArc
 50
335.8869005304
 51
55.8869005324
  0
ARC
  5
31C
100
AcDbEntity
  8
0
100
AcDbCircle
 62
7
  6
CONTINUOUS
 10
9.4599600422
 20
11.879243975
 40
0.5
100
AcDbArc
 50
86.7639810873
 51
142.3730464454
  0
ARC
  5
31D
100
AcDbEntity
  8
0
100
AcDbCircle
 62
7
  6
CONTINUOUS
 10
9.3950649534
 20
11.7334669079
 40
0.1771557888
100
AcDbArc
 50
237.7687192179
 51
241.0708159211
  0
ARC
  5
31E
100
AcDbEntity
  8
0
100
AcDbCircle
 62
7
  6
CONTINUOUS
 10
9.1831146884
 20
11.6062451383
 40
0.01
100
AcDbArc
 50
155.8869005304
 51
235.8869005301
  0
ARC
  5
31F
100
AcDbEntity
  8
0
100
AcDbCircle
 62
7
  6
CONTINUOUS
 10
9.3051270279
 20
11.4994393156
 40
0.01
100
AcDbArc
 50
335.8869005304
 51
55.8869005301
  0
ARC
  5
320
100
AcDbEntity
  8
0
100
AcDbCircle
 62
7
  6
CONTINUOUS
 10
9.3202817482
 20
11.4843424309
 40
0.01
100
AcDbArc
 50
155.8869005304
 51
235.8869005302
  0
ARC
  5
321
100
AcDbEntity
  8
0
100
AcDbCircle
 62
7
  6
CONTINUOUS
 10
9.167959968
 20
11.621342023
 40
0.01
100
AcDbArc
 50
335.8869005304
 51
55.886900531
  0
ARC
  5
322
100
AcDbEntity
  8
0
100
AcDbCircle
 62
7
  6
CONTINUOUS
 10
9.0291335421
 20
11.7395374452
 40
0.01
100
AcDbArc
 50
155.8869005304
 51
235.8869005311
  0
ARC
  5
323
100
AcDbEntity
  8
0
100
AcDbCircle
 62
7
  6
CONTINUOUS
 10
9.0130708356
 20
11.7526057459
 40
0.01
100
AcDbArc
 50
335.8869005304
 51
65.8869005304
  0
ARC
  5
324
100
AcDbEntity
  8
0
100
AcDbCircle
 62
7
  6
CONTINUOUS
 10
10.0146259618
 20
11.0028225068
 40
0.1861181089
100
AcDbArc
 50
70.4297622036
 51
73.6205112107
  0
ARC
  5
325
100
AcDbEntity
  8
0
100
AcDbCircle
 62
7
  6
CONTINUOUS
 10
10.038251184
 20
11.1020386297
 40
0.1447240066
100
AcDbArc
 50
70.0742602367
 51
74.1510935911
  0
ARC
  5
326
100
AcDbEntity
  8
0
100
AcDbCircle
 62
7
  6
CONTINUOUS
 10
9.8791246264
 20
11.1798168226
 40
0.1387477393
100
AcDbArc
 50
65.9542921248
 51
70.1946167126
  0
ARC
  5
327
100
AcDbEntity
  8
0
100
AcDbCircle
 62
7
  6
CONTINUOUS
 10
9.8831633005
 20
11.1172697242
 40
0.135132738
100
AcDbArc
 50
70.0253354455
 51
73.4309718768
  0
ARC
  5
328
100
AcDbEntity
  8
0
100
AcDbCircle
 62
7
  6
CONTINUOUS
 10
9.8103421692
 20
11.4238036787
 40
0.1229783196
100
AcDbArc
 50
245.8917840926
 51
247.2468369196
  0
ARC
  5
329
100
AcDbEntity
  8
0
100
AcDbCircle
 62
7
  6
CONTINUOUS
 10
10.314913277
 20
11.0996565923
 40
0.01
100
AcDbArc
 50
255.8869005307
 51
335.8869005304
  0
ARC
  5
32A
100
AcDbEntity
  8
0
100
AcDbCircle
 62
7
  6
CONTINUOUS
 10
10.1326210578
 20
11.1207425874
 40
0.01
100
AcDbArc
 50
255.8869005307
 51
335.8869005304
  0
ARC
  5
32B
100
AcDbEntity
  8
0
100
AcDbCircle
 62
7
  6
CONTINUOUS
 10
10.1539759693
 20
11.1194979062
 40
0.01
100
AcDbArc
 50
75.8869005307
 51
155.8869005304
  0
ARC
  5
32C
100
AcDbEntity
  8
0
100
AcDbCircle
 62
7
  6
CONTINUOUS
 10
9.956912091
 20
11.1442978761
 40
0.01
100
AcDbArc
 50
75.8869005311
 51
155.8869005304
  0
ARC
  5
32D
100
AcDbEntity
  8
0
100
AcDbCircle
 62
7
  6
CONTINUOUS
 10
9.9355571795
 20
11.1455425573
 40
0.01
100
AcDbArc
 50
255.8869005307
 51
335.8869005304
  0
ARC
  5
32E
100
AcDbEntity
  8
0
100
AcDbCircle
 62
7
  6
CONTINUOUS
 10
10.3362681885
 20
11.0984119111
 40
0.01
100
AcDbArc
 50
75.8869005298
 51
155.8869005304
  0
ARC
  5
32F
100
AcDbEntity
  8
0
100
AcDbCircle
 62
7
  6
CONTINUOUS
 10
10.5169010416
 20
11.0736186308
 40
0.01
100
AcDbArc
 50
255.8869005298
 51
335.8869005304
  0
ARC
  5
330
100
AcDbEntity
  8
0
100
AcDbCircle
 62
7
  6
CONTINUOUS
 10
10.537347967
 20
11.0703453655
 40
0.01
100
AcDbArc
 50
65.8869005304
 51
155.8869005304
  0
ARC
  5
331
100
AcDbEntity
  8
0
100
AcDbCircle
 62
7
  6
CONTINUOUS
 10
9.7791149202
 20
11.633223662
 40
0.9029695368
100
AcDbArc
 50
142.3731117341
 51
167.9678955891
  0
ARC
  5
332
100
AcDbEntity
  8
0
100
AcDbCircle
 62
7
  6
CONTINUOUS
 10
10.256265558
 20
11.4830470925
 40
0.3615011766
100
AcDbArc
 50
254.2833826712
 51
255.9454500303
  0
ARC
  5
333
100
AcDbEntity
  8
0
100
AcDbCircle
 62
7
  6
CONTINUOUS
 10
9.824367803
 20
11.5213031666
 40
0.3243652792
100
AcDbArc
 50
250.3072763711
 51
258.8191778028
  0
ARC
  5
334
100
AcDbEntity
  8
0
100
AcDbCircle
 62
7
  6
CONTINUOUS
 10
9.824367803
 20
11.5213031666
 40
0.3243652792
100
AcDbArc
 50
233.0199554439
 51
241.4665246899
  0
ARC
  5
335
100
AcDbEntity
  8
0
100
AcDbCircle
 62
7
  6
CONTINUOUS
 10
14.9493741703
 20
9.6255774689
 40
1.0
100
AcDbArc
 50
90.0
 51
124.9180935011
  0
ARC
  5
336
100
AcDbEntity
  8
0
100
AcDbCircle
 62
7
  6
CONTINUOUS
 10
13.7063934461
 20
9.5796736481
 40
0.938
100
AcDbArc
 50
13.6754181611
 51
44.3650233311
  0
ARC
  5
337
100
AcDbEntity
  8
0
100
AcDbCircle
 62
7
  6
CONTINUOUS
 10
14.6634693287
 20
9.8125486253
 40
0.047
100
AcDbArc
 50
193.6754181615
 51
270.0
  0
ARC
  5
338
100
AcDbEntity
  8
0
100
AcDbCircle
 62
7
  6
CONTINUOUS
 10
14.2180258588
 20
12.4352728671
 40
2.75
100
AcDbArc
 50
250.3809604242
 51
270.8114085621
  0
ARC
  5
339
100
AcDbEntity
  8
0
100
AcDbCircle
 62
7
  6
CONTINUOUS
 10
14.2507835718
 20
21.4143853374
 40
10.5435766984
100
AcDbArc
 50
250.3743295956
 51
251.2020062706
  0
ARC
  5
33A
100
AcDbEntity
  8
0
100
AcDbCircle
 62
9
  6
CONTINUOUS
 10
14.2470279391
 20
21.4014587997
 40
10.5300598126
100
AcDbArc
 50
249.8955664562
 51
250.1327292576
  0
ARC
  5
33B
100
AcDbEntity
  8
0
100
AcDbCircle
 62
9
  6
CONTINUOUS
 10
14.2450981844
 20
21.3982404646
 40
10.5264825923
100
AcDbArc
 50
245.8876333425
 51
249.8994683796
  0
ARC
  5
33C
100
AcDbEntity
  8
0
100
AcDbCircle
 62
9
  6
CONTINUOUS
 10
14.2448109128
 20
21.3972011249
 40
10.5253856288
100
AcDbArc
 50
250.1362404535
 51
250.3735344519
  0
ARC
  5
33D
100
AcDbEntity
  8
0
100
AcDbCircle
 62
7
  6
CONTINUOUS
 10
11.1344255666
 20
19.4254468714
 40
9.5588660925
100
AcDbArc
 50
245.1679644962
 51
245.4579252527
  0
ARC
  5
33E
100
AcDbEntity
  8
0
100
AcDbCircle
 62
9
  6
CONTINUOUS
 10
27.8960657981
 20
7.6593485049
 40
21.7515490584
100
AcDbArc
 50
172.7558724571
 51
173.0173784439
  0
ARC
  5
33F
100
AcDbEntity
  8
0
100
AcDbCircle
 62
7
  6
CONTINUOUS
 10
28.6467934007
 20
10.1998156547
 40
13.0
100
AcDbArc
 50
182.2671554514
 51
200.2712124655
  0
ARC
  5
340
100
AcDbEntity
  8
0
100
AcDbCircle
 62
7
  6
CONTINUOUS
 10
14.9569693332
 20
9.6640201553
 40
1.9860541692
100
AcDbArc
 50
270.5934830258
 51
277.6356090516
  0
ARC
  5
341
100
AcDbEntity
  8
0
100
AcDbCircle
 62
7
  6
CONTINUOUS
 10
14.9569693419
 20
6.141194653
 40
1.9856167035
100
AcDbArc
 50
82.3627111174
 51
97.6372891743
  0
ARC
  5
342
100
AcDbEntity
  8
0
100
AcDbCircle
 62
9
  6
CONTINUOUS
 10
14.9569693335
 20
9.6640181442
 40
1.9460498418
100
AcDbArc
 50
269.6178589028
 51
277.6354647386
  0
ARC
  5
343
100
AcDbEntity
  8
0
100
AcDbCircle
 62
9
  6
CONTINUOUS
 10
14.9569693422
 20
6.1411966105
 40
1.9456124186
100
AcDbArc
 50
82.362808651
 51
97.6371930677
  0
ARC
  5
344
100
AcDbEntity
  8
0
100
AcDbCircle
 62
9
  6
CONTINUOUS
 10
14.9577245646
 20
9.2990205929
 40
1.6643263083
100
AcDbArc
 50
271.9605325085
 51
278.1100460645
  0
ARC
  5
345
100
AcDbEntity
  8
0
100
AcDbCircle
 62
7
  6
CONTINUOUS
 10
15.119544265
 20
5.7409839993
 40
1.142
100
AcDbArc
 50
144.0754589751
 51
183.8723551757
  0
ARC
  5
346
100
AcDbEntity
  8
0
100
AcDbCircle
 62
7
  6
CONTINUOUS
 10
14.964564487
 20
9.6255774689
 40
1.0
100
AcDbArc
 50
55.0819064989
 51
90.0
  0
ARC
  5
347
100
AcDbEntity
  8
0
100
AcDbCircle
 62
7
  6
CONTINUOUS
 10
16.2075452112
 20
9.5796736481
 40
0.938
100
AcDbArc
 50
135.6349766689
 51
166.3245818389
  0
ARC
  5
348
100
AcDbEntity
  8
0
100
AcDbCircle
 62
7
  6
CONTINUOUS
 10
16.0095082308
 20
7.3515519538
 40
0.625
100
AcDbArc
 50
184.8096995456
 51
214.9889904701
  0
ARC
  5
349
100
AcDbEntity
  8
0
100
AcDbCircle
 62
9
  6
CONTINUOUS
 10
14.9571416819
 20
5.9295455132
 40
0.599213815
100
AcDbArc
 50
75.8382754526
 51
90.0164801132
  0
ARC
  5
34A
100
AcDbEntity
  8
0
100
AcDbCircle
 62
9
  6
CONTINUOUS
 10
14.9574494421
 20
5.9923938096
 40
0.5010102809
100
AcDbArc
 50
90.0549060127
 51
105.4955404644
  0
ARC
  5
34B
100
AcDbEntity
  8
0
100
AcDbCircle
 62
7
  6
CONTINUOUS
 10
15.4044942076
 20
6.7702842221
 40
0.2039751211
100
AcDbArc
 50
326.9521644937
 51
34.9889904702
  0
ARC
  5
34C
100
AcDbEntity
  8
0
100
AcDbCircle
 62
7
  6
CONTINUOUS
 10
15.9498332176
 20
5.6405486253
 40
0.1871361111
100
AcDbArc
 50
0.0
 51
87.8145949287
  0
ARC
  5
34D
100
AcDbEntity
  8
0
100
AcDbCircle
 62
7
  6
CONTINUOUS
 10
15.9499693746
 20
5.6406796856
 40
0.187
100
AcDbArc
 50
359.9598438511
 51
87.8547510776
  0
ARC
  5
34E
100
AcDbEntity
  8
0
100
AcDbCircle
 62
7
  6
CONTINUOUS
 10
15.7699720025
 20
5.8285486253
 40
0.187
100
AcDbArc
 50
359.6936039968
 51
39.8741167369
  0
ARC
  5
34F
100
AcDbEntity
  8
0
100
AcDbCircle
 62
7
  6
CONTINUOUS
 10
15.7192438623
 20
6.5655096007
 40
0.1715245336
100
AcDbArc
 50
146.9521644937
 51
225.0826423158
  0
ARC
  5
350
100
AcDbEntity
  8
0
100
AcDbCircle
 62
7
  6
CONTINUOUS
 10
15.4044693287
 20
6.5627200567
 40
0.1
100
AcDbArc
 50
0.0
 51
45.5729959992
  0
ARC
  5
351
100
AcDbEntity
  8
0
100
AcDbCircle
 62
7
  6
CONTINUOUS
 10
15.5444693287
 20
6.7055486253
 40
0.1
100
AcDbArc
 50
180.0
 51
225.5729959992
  0
ARC
  5
352
100
AcDbEntity
  8
0
100
AcDbCircle
 62
7
  6
CONTINUOUS
 10
15.3444693287
 20
8.1855486253
 40
0.075
100
AcDbArc
 50
180.0
 51
270.0
  0
ARC
  5
353
100
AcDbEntity
  8
0
100
AcDbCircle
 62
7
  6
CONTINUOUS
 10
15.2504693287
 20
9.8125486253
 40
0.047
100
AcDbArc
 50
270.0
 51
346.3245818385
  0
ARC
  5
354
100
AcDbEntity
  8
0
100
AcDbCircle
 62
7
  6
CONTINUOUS
 10
15.2155412045
 20
8.0695525664
 40
0.04
100
AcDbArc
 50
0.0007161529
 51
82.3576441033
  0
ARC
  5
355
100
AcDbEntity
  8
0
100
AcDbCircle
 62
7
  6
CONTINUOUS
 10
15.2155412045
 20
7.7352208656
 40
0.04
100
AcDbArc
 50
277.6425313947
 51
360.0
  0
ARC
  5
356
100
AcDbEntity
  8
0
100
AcDbCircle
 62
7
  6
CONTINUOUS
 10
15.6867834244
 20
6.3875486253
 40
0.04
100
AcDbArc
 50
35.9245410249
 51
90.0
  0
ARC
  5
357
100
AcDbEntity
  8
0
100
AcDbCircle
 62
7
  6
CONTINUOUS
 10
15.3558182172
 20
7.2965486253
 40
0.031
100
AcDbArc
 50
4.8096995456
 51
90.0
  0
ARC
  5
358
100
AcDbEntity
  8
0
100
AcDbCircle
 62
7
  6
CONTINUOUS
 10
15.9088442586
 20
5.6655486253
 40
0.025
100
AcDbArc
 50
270.0
 51
356.1276448243
  0
ARC
  5
359
100
AcDbEntity
  8
0
100
AcDbCircle
 62
7
  6
CONTINUOUS
 10
15.2394693287
 20
8.2055486253
 40
0.02
100
AcDbArc
 50
180.0
 51
270.0
  0
ARC
  5
35A
100
AcDbEntity
  8
0
100
AcDbCircle
 62
7
  6
CONTINUOUS
 10
15.2894693287
 20
7.6155486253
 40
0.02
100
AcDbArc
 50
90.0
 51
180.0
  0
ARC
  5
35B
100
AcDbEntity
  8
0
100
AcDbCircle
 62
7
  6
CONTINUOUS
 10
15.0201869149
 20
7.5979796907
 40
0.02
100
AcDbArc
 50
332.5
 51
40.0
  0
ARC
  5
35C
100
AcDbEntity
  8
0
100
AcDbCircle
 62
7
  6
CONTINUOUS
 10
180.753329386
 20
479.6282063824
 40
498.7371415634
100
AcDbArc
 50
249.6906437586
 51
250.132588909
  0
ARC
  5
35D
100
AcDbEntity
  8
0
100
AcDbCircle
 62
7
  6
CONTINUOUS
 10
180.753329386
 20
479.6282063824
 40
498.7371415634
100
AcDbArc
 50
250.3573677556
 51
250.3809141542
  0
LINE
  5
35E
100
AcDbEntity
  8
0
100
AcDbLine
 62
9
  6
CONTINUOUS
 10
15.2208606612
 20
8.1091971945
 11
15.2155411743
 21
8.0695512111
  0
SPLINE
  5
35F
100
AcDbEntity
  8
0
100
AcDbSpline
 62
9
  6
CONTINUOUS
 70
0
 71
3
 72
11
 73
7
 74
0
 42
0.0000001
 43
0.0000001
 44
0.0000000001
 40
0.0
 40
0.0
 40
0.0
 40
0.0
 40
0.2068794134
 40
0.4558338046
 40
0.7266766349
 40
1.0
 40
1.0
 40
1.0
 40
1.0
 10
15.0129760437
 20
7.6799300757
 30
0.0
 10
15.0125441608
 20
7.6771996569
 30
0.0
 10
15.0118623373
 20
7.6711415035
 30
0.0
 10
15.011253218
 20
7.6614487863
 30
0.0
 10
15.0109696896
 20
7.6508526187
 30
0.0
 10
15.0109976914
 20
7.6435803468
 30
0.0
 10
15.0110597229
 20
7.639928672
 30
0.0
  0
LINE
  5
360
100
AcDbEntity
  8
0
100
AcDbLine
 62
9
  6
CONTINUOUS
 10
14.6930779396
 20
8.109197006
 11
14.6983974669
 21
8.0695509268
  0
SPLINE
  5
361
100
AcDbEntity
  8
0
100
AcDbSpline
 62
9
  6
CONTINUOUS
 70
0
 71
3
 72
16
 73
12
 74
0
 42
0.0000001
 43
0.0000001
 44
0.0000000001
 40
0.0
 40
0.0
 40
0.0
 40
0.0
 40
0.0425078661
 40
0.0894695756
 40
0.1402716343
 40
0.1943687365
 40
0.3110577015
 40
0.436782849
 40
0.5695288891
 40
0.7082948119
 40
1.0
 40
1.0
 40
1.0
 40
1.0
 10
15.1430970119
 20
7.6888248769
 30
0.0
 10
15.1436489511
 20
7.6881374524
 30
0.0
 10
15.1448693434
 20
7.6867375303
 30
0.0
 10
15.1468989658
 20
7.6846521445
 30
0.0
 10
15.1491870721
 20
7.682486859
 30
0.0
 10
15.1526253966
 20
7.6794368074
 30
0.0
 10
15.1573873038
 20
7.6755422344
 30
0.0
 10
15.1635790698
 20
7.6708291003
 30
0.0
 10
15.1702647312
 20
7.6660137255
 30
0.0
 10
15.1798940152
 20
7.6594006856
 30
0.0
 10
15.1873949275
 20
7.6545553873
 30
0.0
 10
15.1925189891
 20
7.651339239
 30
0.0
  0
LINE
  5
362
100
AcDbEntity
  8
0
100
AcDbLine
 62
9
  6
CONTINUOUS
 10
15.2208608896
 20
7.6955761878
 11
15.2155411905
 21
7.7352220953
  0
SPLINE
  5
363
100
AcDbEntity
  8
0
100
AcDbSpline
 62
9
  6
CONTINUOUS
 70
0
 71
3
 72
10
 73
6
 74
0
 42
0.0000001
 43
0.0000001
 44
0.0000000001
 40
0.0
 40
0.0
 40
0.0
 40
0.0
 40
0.2415508218
 40
0.4895377055
 40
1.0
 40
1.0
 40
1.0
 40
1.0
 10
15.1766451478
 20
7.6916996999
 30
0.0
 10
15.177694653
 20
7.6883671405
 30
0.0
 10
15.1799594541
 20
7.6816560306
 30
0.0
 10
15.1850504024
 20
7.668115223
 30
0.0
 10
15.1894024059
 20
7.6580349812
 30
0.0
 10
15.1925189579
 20
7.6513413758
 30
0.0
  0
SPLINE
  5
364
100
AcDbEntity
  8
0
100
AcDbSpline
 62
7
  6
CONTINUOUS
 70
0
 71
3
 72
8
 73
4
 74
0
 42
0.0000001
 43
0.0000001
 44
0.0000000001
 40
0.0
 40
0.0
 40
0.0
 40
0.0
 40
1.0
 40
1.0
 40
1.0
 40
1.0
 10
12.6625374781
 20
8.1953517868
 30
0.0
 10
13.3249777516
 20
7.8870504189
 30
0.0
 10
13.8792849061
 20
6.9668432498
 30
0.0
 10
13.66226135
 20
6.2804921121
 30
0.0
  0
SPLINE
  5
365
100
AcDbEntity
  8
0
100
AcDbSpline
 62
7
  6
CONTINUOUS
 70
0
 71
3
 72
23
 73
19
 74
0
 42
0.0000001
 43
0.0000001
 44
0.0000000001
 40
0.0
 40
0.0
 40
0.0
 40
0.0
 40
0.0625018746
 40
0.1250081971
 40
0.1875105346
 40
0.2500003164
 40
0.3124922374
 40
0.3749981149
 40
0.4375049562
 40
0.5
 40
0.5624950438
 40
0.6250018851
 40
0.6875077626
 40
0.7499996836
 40
0.8124894654
 40
0.8749918029
 40
0.9374981254
 40
1.0
 40
1.0
 40
1.0
 40
1.0
 10
5.0446006923
 20
10.9739833591
 30
0.0
 10
5.054096081
 20
11.0278343845
 30
0.0
 10
5.0790947155
 20
11.1345751312
 30
0.0
 10
5.133780014
 20
11.2895665783
 30
0.0
 10
5.2049146608
 20
11.4377409475
 30
0.0
 10
5.2917589529
 20
11.5772829703
 30
0.0
 10
5.3935401291
 20
11.7063407838
 30
0.0
 10
5.5087674821
 20
11.8235534442
 30
0.0
 10
5.6359998286
 20
11.9276160391
 30
0.0
 10
5.7738083447
 20
12.0172085286
 30
0.0
 10
5.9207024098
 20
12.0909657989
 30
0.0
 10
6.0747512333
 20
12.1482899093
 30
0.0
 10
6.2340941244
 20
12.1886135214
 30
0.0
 10
6.3968772146
 20
12.2113509927
 30
0.0
 10
6.5611732696
 20
12.2159022029
 30
0.0
 10
6.7249935636
 20
12.2025345959
 30
0.0
 10
6.886397647
 20
12.1715256869
 30
0.0
 10
6.9911643377
 20
12.1392385493
 30
0.0
 10
7.0424466455
 20
12.1202590804
 30
0.0
  0
SPLINE
  5
366
100
AcDbEntity
  8
0
100
AcDbSpline
 62
9
  6
CONTINUOUS
 70
0
 71
3
 72
14
 73
10
 74
0
 42
0.0000001
 43
0.0000001
 44
0.0000000001
 40
0.0
 40
0.0
 40
0.0
 40
0.0
 40
0.1181296221
 40
0.239720624
 40
0.3642220735
 40
0.4910303799
 40
0.619374559
 40
0.7479471871
 40
1.0
 40
1.0
 40
1.0
 40
1.0
 10
6.9604652001
 20
10.8057006987
 30
0.0
 10
6.9654928798
 20
10.8314346051
 30
0.0
 10
6.9746357605
 20
10.8838667402
 30
0.0
 10
6.9859336112
 20
10.9639276387
 30
0.0
 10
6.9953620564
 20
11.0461669022
 30
0.0
 10
7.0032468309
 20
11.1300705981
 30
0.0
 10
7.0099064791
 20
11.2149859748
 30
0.0
 10
7.01712569
 20
11.3277300669
 30
0.0
 10
7.020825216
 20
11.4121476204
 30
0.0
 10
7.0224971275
 20
11.4680691067
 30
0.0
  0
SPLINE
  5
367
100
AcDbEntity
  8
0
100
AcDbSpline
 62
9
  6
CONTINUOUS
 70
0
 71
3
 72
12
 73
8
 74
0
 42
0.0000001
 43
0.0000001
 44
0.0000000001
 40
0.0
 40
0.0
 40
0.0
 40
0.0
 40
0.253492469
 40
0.5071781629
 40
0.7572492011
 40
0.8797616058
 40
1.0
 40
1.0
 40
1.0
 40
1.0
 10
7.0224971295
 20
11.468069112
 30
0.0
 10
7.0238497256
 20
11.5219874804
 30
0.0
 10
7.026932466
 20
11.6298591555
 30
0.0
 10
7.0352181809
 20
11.7907881863
 30
0.0
 10
7.0473566498
 20
11.9235412296
 30
0.0
 10
7.0610765316
 20
12.0275091341
 30
0.0
 10
7.0693998145
 20
12.0784954527
 30
0.0
 10
7.0739691533
 20
12.1036670833
 30
0.0
  0
SPLINE
  5
368
100
AcDbEntity
  8
0
100
AcDbSpline
 62
7
  6
CONTINUOUS
 70
0
 71
3
 72
13
 73
9
 74
0
 42
0.0000001
 43
0.0000001
 44
0.0000000001
 40
0.0
 40
0.0
 40
0.0
 40
0.0
 40
0.2578347778
 40
0.3849225185
 40
0.5106722424
 40
0.6350566608
 40
0.7580606159
 40
1.0
 40
1.0
 40
1.0
 40
1.0
 10
16.2516773073
 20
6.2804921121
 30
0.0
 10
16.2379523341
 20
6.2370859901
 30
0.0
 10
16.215349749
 20
6.1728994551
 30
0.0
 10
16.1799658599
 20
6.0899357264
 30
0.0
 10
16.1507981214
 20
6.0300253558
 30
0.0
 10
16.1185573545
 20
5.9725078772
 30
0.0
 10
16.0712905098
 20
5.9001643252
 30
0.0
 10
16.029571116
 20
5.850391885
 30
0.0
 10
15.998661404
 20
5.8209063019
 30
0.0
  0
SPLINE
  5
369
100
AcDbEntity
  8
0
100
AcDbSpline
 62
9
  6
CONTINUOUS
 70
0
 71
3
 72
10
 73
6
 74
0
 42
0.0000001
 43
0.0000001
 44
0.0000000001
 40
0.0
 40
0.0
 40
0.0
 40
0.0
 40
0.2486596612
 40
0.4992823073
 40
1.0
 40
1.0
 40
1.0
 40
1.0
 10
7.1200881967
 20
10.7503666726
 30
0.0
 10
7.1382449765
 20
10.8001010137
 30
0.0
 10
7.1737093689
 20
10.900325707
 30
0.0
 10
7.2419343109
 20
11.1020244887
 30
0.0
 10
7.2912971061
 20
11.2541995193
 30
0.0
 10
7.3239790382
 20
11.3556803026
 30
0.0
  0
SPLINE
  5
36A
100
AcDbEntity
  8
0
100
AcDbSpline
 62
7
  6
CONTINUOUS
 70
0
 71
3
 72
17
 73
13
 74
0
 42
0.0000001
 43
0.0000001
 44
0.0000000001
 40
0.0
 40
0.0
 40
0.0
 40
0.0
 40
0.0590612255
 40
0.1183573375
 40
0.1779776191
 40
0.2379975428
 40
0.3593629775
 40
0.4829939485
 40
0.6090324358
 40
0.7373992918
 40
0.8678501214
 40
1.0
 40
1.0
 40
1.0
 40
1.0
 10
6.3228237487
 20
10.4325906996
 30
0.0
 10
6.3257150568
 20
10.448575456
 30
0.0
 10
6.333344174
 20
10.4803058559
 30
0.0
 10
6.3500386702
 20
10.526421137
 30
0.0
 10
6.3717969009
 20
10.5706786381
 30
0.0
 10
6.4073812316
 20
10.6267362345
 30
0.0
 10
6.4637268785
 20
10.689811895
 30
0.0
 10
6.5464463486
 20
10.7507621977
 30
0.0
 10
6.6415345963
 20
10.7945029324
 30
0.0
 10
6.7450728485
 20
10.8195149111
 30
0.0
 10
6.8531127041
 20
10.8243053811
 30
0.0
 10
6.9251027581
 20
10.8141004823
 30
0.0
 10
6.9604652001
 20
10.8057006987
 30
0.0
  0
SPLINE
  5
36B
100
AcDbEntity
  8
0
100
AcDbSpline
 62
7
  6
CONTINUOUS
 70
0
 71
3
 72
23
 73
19
 74
0
 42
0.0000001
 43
0.0000001
 44
0.0000000001
 40
0.0
 40
0.0
 40
0.0
 40
0.0
 40
0.0634763453
 40
0.126833728
 40
0.1900492377
 40
0.2531042274
 40
0.3160048671
 40
0.3787599002
 40
0.4413605075
 40
0.5038018016
 40
0.5661045893
 40
0.6282946114
 40
0.6903789394
 40
0.7523667736
 40
0.8142917786
 40
0.8761928477
 40
0.9380890931
 40
1.0
 40
1.0
 40
1.0
 40
1.0
 10
5.7410491823
 20
10.6977276477
 30
0.0
 10
5.747801362
 20
10.7329001317
 30
0.0
 10
5.7649876814
 20
10.8025257057
 30
0.0
 10
5.8013602923
 20
10.9035905908
 30
0.0
 10
5.8478560393
 20
11.0001665553
 30
0.0
 10
5.9040241526
 20
11.091160068
 30
0.0
 10
5.9693966284
 20
11.1754574691
 30
0.0
 10
6.0430823419
 20
11.2522309891
 30
0.0
 10
6.1242173645
 20
11.3206856054
 30
0.0
 10
6.2119450874
 20
11.3800184934
 30
0.0
 10
6.3053752399
 20
11.4294003219
 30
0.0
 10
6.403351091
 20
11.4684474827
 30
0.0
 10
6.5047561318
 20
11.4967962512
 30
0.0
 10
6.6084785454
 20
11.5140728707
 30
0.0
 10
6.7133648688
 20
11.5198939763
 30
0.0
 10
6.8182127896
 20
11.5143845898
 30
0.0
 10
6.9218472111
 20
11.4976775571
 30
0.0
 10
6.9893684191
 20
11.4791463415
 30
0.0
 10
7.0224971391
 20
11.4680694941
 30
0.0
  0
SPLINE
  5
36C
100
AcDbEntity
  8
0
100
AcDbSpline
 62
9
  6
CONTINUOUS
 70
0
 71
3
 72
15
 73
11
 74
0
 42
0.0000001
 43
0.0000001
 44
0.0000000001
 40
0.0
 40
0.0
 40
0.0
 40
0.0
 40
0.0414202363
 40
0.0867756023
 40
0.1883664402
 40
0.3029035647
 40
0.4284921569
 40
0.7047767373
 40
0.851113629
 40
1.0
 40
1.0
 40
1.0
 40
1.0
 10
6.3228237487
 20
10.4325906996
 30
0.0
 10
6.3151429134
 20
10.4369524283
 30
0.0
 10
6.2989543936
 20
10.445919636
 30
0.0
 10
6.2635063966
 20
10.4648168324
 30
0.0
 10
6.2137789194
 20
10.4900577994
 30
0.0
 10
6.1482074768
 20
10.5218541877
 30
0.0
 10
6.0484493798
 20
10.5685034934
 30
0.0
 10
5.9416764473
 20
10.6161552763
 30
0.0
 10
5.8292365453
 20
10.6631857065
 30
0.0
 10
5.7706985619
 20
10.6863705744
 30
0.0
 10
5.7410491823
 20
10.6977276477
 30
0.0
  0
SPLINE
  5
36D
100
AcDbEntity
  8
0
100
AcDbSpline
 62
7
  6
CONTINUOUS
 70
0
 71
3
 72
25
 73
21
 74
0
 42
0.0000001
 43
0.0000001
 44
0.0000000001
 40
0.0
 40
0.0
 40
0.0
 40
0.0
 40
0.0638686913
 40
0.1276358562
 40
0.1912601859
 40
0.254705203
 40
0.3179611694
 40
0.3810218469
 40
0.443862873
 40
0.4752052607
 40
0.5064873425
 40
0.56885821
 40
0.6310146506
 40
0.6620231837
 40
0.6929768889
 40
0.7546998266
 40
0.8162342669
 40
0.8776173629
 40
0.9388664251
 40
1.0
 40
1.0
 40
1.0
 40
1.0
 10
5.1575421526
 20
10.9502826865
 30
0.0
 10
5.1676470277
 20
11.003350189
 30
0.0
 10
5.1934271348
 20
11.1084212328
 30
0.0
 10
5.2480985823
 20
11.2609634607
 30
0.0
 10
5.3180595864
 20
11.4067503714
 30
0.0
 10
5.4026180601
 20
11.544086058
 30
0.0
 10
5.5010582514
 20
11.6712438134
 30
0.0
 10
5.6119808514
 20
11.7869410376
 30
0.0
 10
5.7138298593
 20
11.8728941889
 30
0.0
 10
5.8001856445
 20
11.934648487
 30
0.0
 10
5.8894124864
 20
11.9914427896
 30
0.0
 10
6.0062495307
 20
12.0530010666
 30
0.0
 10
6.1288209408
 20
12.1015185838
 30
0.0
 10
6.2292811832
 20
12.1321506367
 30
0.0
 10
6.3308938656
 20
12.1572127151
 30
0.0
 10
6.4599442301
 20
12.1780544937
 30
0.0
 10
6.6162435878
 20
12.1856635655
 30
0.0
 10
6.7720382152
 20
12.1761026833
 30
0.0
 10
6.925498695
 20
12.1496234135
 30
0.0
 10
7.0251836678
 20
12.1208033787
 30
0.0
 10
7.0739691561
 20
12.1036670985
 30
0.0
  0
SPLINE
  5
36E
100
AcDbEntity
  8
0
100
AcDbSpline
 62
9
  6
CONTINUOUS
 70
0
 71
3
 72
15
 73
11
 74
0
 42
0.0000001
 43
0.0000001
 44
0.0000000001
 40
0.0
 40
0.0
 40
0.0
 40
0.0
 40
0.2939821872
 40
0.4353395561
 40
0.5698656483
 40
0.6953604636
 40
0.8100098317
 40
0.912110997
 40
0.9579343648
 40
1.0
 40
1.0
 40
1.0
 40
1.0
 10
5.7410491823
 20
10.6977276477
 30
0.0
 10
5.6828704395
 20
10.7201385854
 30
0.0
 10
5.5968861813
 20
10.7537720521
 30
0.0
 10
5.4849166742
 20
10.7992565452
 30
0.0
 10
5.4064126607
 20
10.832169123
 30
0.0
 10
5.3335860823
 20
10.8639560358
 30
0.0
 10
5.2675934264
 20
10.8941821085
 30
0.0
 10
5.2175042497
 20
10.918530007
 30
0.0
 10
5.1817142105
 20
10.9370411213
 30
0.0
 10
5.1653288204
 20
10.9459292468
 30
0.0
 10
5.1575421526
 20
10.9502826865
 30
0.0
  0
SPLINE
  5
36F
100
AcDbEntity
  8
0
100
AcDbSpline
 62
7
  6
CONTINUOUS
 70
0
 71
3
 72
13
 73
9
 74
0
 42
0.0000001
 43
0.0000001
 44
0.0000000001
 40
0.0
 40
0.0
 40
0.0
 40
0.0
 40
0.2419386341
 40
0.3649423046
 40
0.4893269464
 40
0.6150766086
 40
0.742164715
 40
1.0
 40
1.0
 40
1.0
 40
1.0
 10
13.9153090785
 20
5.8208758968
 30
0.0
 10
13.8843945957
 20
5.8503614168
 30
0.0
 10
13.8426692021
 20
5.900135848
 30
0.0
 10
13.7953957051
 20
5.9724834411
 30
0.0
 10
13.7631511118
 20
6.03000504
 30
0.0
 10
13.7339797862
 20
6.0899199139
 30
0.0
 10
13.6985922121
 20
6.1728903681
 30
0.0
 10
13.6759874879
 20
6.2370823066
 30
0.0
 10
13.66226135
 20
6.2804921121
 30
0.0
  0
LINE
  5
370
100
AcDbEntity
  8
0
100
AcDbLine
 62
7
  6
CONTINUOUS
 10
5.689348761
 20
10.4123522535
 11
5.7285947687
 21
10.6307408399
  0
SPLINE
  5
371
100
AcDbEntity
  8
0
100
AcDbSpline
 62
9
  6
CONTINUOUS
 70
0
 71
3
 72
14
 73
10
 74
0
 42
0.0000001
 43
0.0000001
 44
0.0000000001
 40
0.0
 40
0.0
 40
0.0
 40
0.0
 40
0.0862538507
 40
0.1874504489
 40
0.3017292319
 40
0.4272160339
 40
0.7038258604
 40
0.8505700466
 40
1.0
 40
1.0
 40
1.0
 40
1.0
 10
6.3181402414
 20
10.4021599844
 30
0.0
 10
6.301683322
 20
10.4099000715
 30
0.0
 10
6.2656372965
 20
10.4261226582
 30
0.0
 10
6.2071197038
 20
10.451087287
 30
0.0
 10
6.14059512
 20
10.4783457425
 30
0.0
 10
6.0393981839
 20
10.5185105776
 30
0.0
 10
5.9312420905
 20
10.5596940602
 30
0.0
 10
5.8175915524
 20
10.6005528562
 30
0.0
 10
5.7585112948
 20
10.6207911293
 30
0.0
 10
5.728614752
 20
10.6307341939
 30
0.0
  0
LINE
  5
372
100
AcDbEntity
  8
0
100
AcDbLine
 62
7
  6
CONTINUOUS
 10
5.1383852144
 20
10.849337208
 11
5.1575466516
 21
10.9502801712
  0
SPLINE
  5
373
100
AcDbEntity
  8
0
100
AcDbSpline
 62
9
  6
CONTINUOUS
 70
0
 71
3
 72
15
 73
11
 74
0
 42
0.0000001
 43
0.0000001
 44
0.0000000001
 40
0.0
 40
0.0
 40
0.0
 40
0.0
 40
0.2946734517
 40
0.4362882524
 40
0.5709674084
 40
0.6964748371
 40
0.8109683294
 40
0.9127134412
 40
0.9582698806
 40
1.0
 40
1.0
 40
1.0
 40
1.0
 10
5.7286147519
 20
10.6307341939
 30
0.0
 10
5.6699588372
 20
10.6503464383
 30
0.0
 10
5.5832310198
 20
10.6797396634
 30
0.0
 10
5.470131853
 20
10.7193628759
 30
0.0
 10
5.3907877213
 20
10.7479411259
 30
0.0
 10
5.3171079972
 20
10.775435107
 30
0.0
 10
5.2502649402
 20
10.8014588412
 30
0.0
 10
5.1994255448
 20
10.8223179416
 30
0.0
 10
5.1630224271
 20
10.8380982145
 30
0.0
 10
5.1463285266
 20
10.8456471749
 30
0.0
 10
5.1383852144
 20
10.849337208
 30
0.0
  0
SPLINE
  5
374
100
AcDbEntity
  8
0
100
AcDbSpline
 62
9
  6
CONTINUOUS
 70
0
 71
3
 72
9
 73
5
 74
0
 42
0.0000001
 43
0.0000001
 44
0.0000000001
 40
0.0
 40
0.0
 40
0.0
 40
0.0
 40
0.5001183926
 40
1.0
 40
1.0
 40
1.0
 40
1.0
 10
7.3239793547
 20
11.355681202
 30
0.0
 10
7.3554694668
 20
11.4540408934
 30
0.0
 10
7.4185465946
 20
11.6506789161
 30
0.0
 10
7.4854713264
 20
11.8460724655
 30
0.0
 10
7.5205403526
 20
11.943161712
 30
0.0
  0
SPLINE
  5
375
100
AcDbEntity
  8
0
100
AcDbSpline
 62
7
  6
CONTINUOUS
 70
0
 71
3
 72
10
 73
6
 74
0
 42
0.0000001
 43
0.0000001
 44
0.0000000001
 40
0.0
 40
0.0
 40
0.0
 40
0.0
 40
0.1857700013
 40
0.4228869998
 40
1.0
 40
1.0
 40
1.0
 40
1.0
 10
9.3165744155
 20
11.5189634224
 30
0.0
 10
9.317492819
 20
11.5185523486
 30
0.0
 10
9.319546234
 20
11.517534352
 30
0.0
 10
9.3243101694
 20
11.5149565267
 30
0.0
 10
9.3281003581
 20
11.5126971041
 30
0.0
 10
9.3307584099
 20
11.5110521593
 30
0.0
  0
LINE
  5
376
100
AcDbEntity
  8
0
100
AcDbLine
 62
7
  6
CONTINUOUS
 10
9.3393398291
 20
11.5055002825
 11
9.3478035711
 21
11.4994058633
  0
LINE
  5
377
100
AcDbEntity
  8
0
100
AcDbLine
 62
7
  6
CONTINUOUS
 10
9.3478035711
 20
11.4994058633
 11
9.3501954562
 21
11.4974472389
  0
SPLINE
  5
378
100
AcDbEntity
  8
0
100
AcDbSpline
 62
7
  6
CONTINUOUS
 70
0
 71
3
 72
13
 73
9
 74
0
 42
0.0000001
 43
0.0000001
 44
0.0000000001
 40
0.0
 40
0.0
 40
0.0
 40
0.0
 40
0.3996913125
 40
0.6990167774
 40
0.8100442463
 40
0.8956394997
 40
0.9572785666
 40
1.0
 40
1.0
 40
1.0
 40
1.0
 10
9.3501954562
 20
11.4974472389
 30
0.0
 10
9.3505839081
 20
11.4971101109
 30
0.0
 10
9.3512524903
 20
11.4965082105
 30
0.0
 10
9.3519841534
 20
11.4957629311
 30
0.0
 10
9.3523830923
 20
11.4952640435
 30
0.0
 10
9.3525619978
 20
11.4949824991
 30
0.0
 10
9.3526585774
 20
11.4947570107
 30
0.0
 10
9.3526599022
 20
11.4946135108
 30
0.0
 10
9.3526376042
 20
11.4945632595
 30
0.0
  0
LINE
  5
379
100
AcDbEntity
  8
0
100
AcDbLine
 62
7
  6
CONTINUOUS
 10
10.1811920563
 20
11.1230833961
 11
10.1889247153
 21
11.1213475927
  0
LINE
  5
37A
100
AcDbEntity
  8
0
100
AcDbLine
 62
7
  6
CONTINUOUS
 10
10.2170175969
 20
11.1142893685
 11
10.2237611977
 21
11.112485033
  0
LINE
  5
37B
100
AcDbEntity
  8
0
100
AcDbLine
 62
7
  6
CONTINUOUS
 10
10.2237611977
 20
11.112485033
 11
10.2264632541
 21
11.1117007978
  0
SPLINE
  5
37C
100
AcDbEntity
  8
0
100
AcDbSpline
 62
7
  6
CONTINUOUS
 70
0
 71
3
 72
15
 73
11
 74
0
 42
0.0000001
 43
0.0000001
 44
0.0000000001
 40
0.0
 40
0.0
 40
0.0
 40
0.0
 40
0.0116349686
 40
0.0288162833
 40
0.0844180327
 40
0.1696502166
 40
0.2839826596
 40
0.4263008406
 40
0.594634615
 40
1.0
 40
1.0
 40
1.0
 40
1.0
 10
10.1420675624
 20
11.1409855454
 30
0.0
 10
10.1420819806
 20
11.1410197483
 30
0.0
 10
10.1421564062
 20
11.1410848295
 30
0.0
 10
10.1424136497
 20
11.1411670742
 30
0.0
 10
10.1429223044
 20
11.1411986891
 30
0.0
 10
10.143734291
 20
11.1411668243
 30
0.0
 10
10.1448207292
 20
11.1410569582
 30
0.0
 10
10.146163464
 20
11.1408703075
 30
0.0
 10
10.1484171698
 20
11.1404961164
 30
0.0
 10
10.1502130747
 20
11.1401414194
 30
0.0
 10
10.1514788085
 20
11.1398763483
 30
0.0
  0
LINE
  5
37D
100
AcDbEntity
  8
0
100
AcDbLine
 62
7
  6
CONTINUOUS
 10
10.1514788085
 20
11.1398763483
 11
10.1607566339
 21
11.137707647
  0
SPLINE
  5
37E
100
AcDbEntity
  8
0
100
AcDbSpline
 62
7
  6
CONTINUOUS
 70
0
 71
3
 72
11
 73
7
 74
0
 42
0.0000001
 43
0.0000001
 44
0.0000000001
 40
0.0
 40
0.0
 40
0.0
 40
0.0
 40
0.3158284159
 40
0.5973709774
 40
0.8296405785
 40
1.0
 40
1.0
 40
1.0
 40
1.0
 10
10.1708020622
 20
11.1349752579
 30
0.0
 10
10.1723626916
 20
11.1345222179
 30
0.0
 10
10.1753073629
 20
11.1336405668
 30
0.0
 10
10.1793734831
 20
11.1323389443
 30
0.0
 10
10.1826967175
 20
11.1311777608
 30
0.0
 10
10.1846288951
 20
11.1304256904
 30
0.0
 10
10.1854289705
 20
11.1300675798
 30
0.0
  0
SPLINE
  5
37F
100
AcDbEntity
  8
0
100
AcDbSpline
 62
7
  6
CONTINUOUS
 70
0
 71
3
 72
15
 73
11
 74
0
 42
0.0000001
 43
0.0000001
 44
0.0000000001
 40
0.0
 40
0.0
 40
0.0
 40
0.0
 40
0.0393110624
 40
0.0666575319
 40
0.1002625823
 40
0.1872295683
 40
0.3008578341
 40
0.4405794645
 40
0.6051335519
 40
1.0
 40
1.0
 40
1.0
 40
1.0
 10
10.0463634669
 20
11.1847696106
 30
0.0
 10
10.0464166097
 20
11.1848889525
 30
0.0
 10
10.0466121971
 20
11.1850348537
 30
0.0
 10
10.0469233073
 20
11.1851446859
 30
0.0
 10
10.0474067531
 20
11.185247812
 30
0.0
 10
10.0481854704
 20
11.1852964009
 30
0.0
 10
10.0493168253
 20
11.1852636134
 30
0.0
 10
10.050700364
 20
11.1851351182
 30
0.0
 10
10.0530024874
 20
11.184818074
 30
0.0
 10
10.0548301234
 20
11.1844705632
 30
0.0
 10
10.056114451
 20
11.1842014074
 30
0.0
  0
SPLINE
  5
380
100
AcDbEntity
  8
0
100
AcDbSpline
 62
7
  6
CONTINUOUS
 70
0
 71
3
 72
9
 73
5
 74
0
 42
0.0000001
 43
0.0000001
 44
0.0000000001
 40
0.0
 40
0.0
 40
0.0
 40
0.0
 40
0.4742153184
 40
1.0
 40
1.0
 40
1.0
 40
1.0
 10
10.056114451
 20
11.1842014074
 30
0.0
 10
10.0578708812
 20
11.1838333134
 30
0.0
 10
10.0615537703
 20
11.1829568469
 30
0.0
 10
10.0652018919
 20
11.181948048
 30
0.0
 10
10.0671108992
 20
11.18138701
 30
0.0
  0
LINE
  5
381
100
AcDbEntity
  8
0
100
AcDbLine
 62
7
  6
CONTINUOUS
 10
10.0769684882
 20
11.1781888658
 11
10.0850572329
 21
11.1749935703
  0
SPLINE
  5
382
100
AcDbEntity
  8
0
100
AcDbSpline
 62
7
  6
CONTINUOUS
 70
0
 71
3
 72
17
 73
13
 74
0
 42
0.0000001
 43
0.0000001
 44
0.0000000001
 40
0.0
 40
0.0
 40
0.0
 40
0.0
 40
0.0187978362
 40
0.0411799539
 40
0.0690603138
 40
0.103351348
 40
0.1921340556
 40
0.307875037
 40
0.4494075979
 40
0.6141815198
 40
0.798870593
 40
1.0
 40
1.0
 40
1.0
 40
1.0
 10
9.9067913115
 20
11.2486068741
 30
0.0
 10
9.9068305595
 20
11.248695005
 30
0.0
 10
9.9069649209
 20
11.2488675027
 30
0.0
 10
9.9072726084
 20
11.249052555
 30
0.0
 10
9.9076874493
 20
11.2491875252
 30
0.0
 10
9.9084534965
 20
11.249314941
 30
0.0
 10
9.9096844794
 20
11.2493273065
 30
0.0
 10
9.9114542395
 20
11.2491677956
 30
0.0
 10
9.9135945032
 20
11.2488246032
 30
0.0
 10
9.916061187
 20
11.2483066031
 30
0.0
 10
9.918803713
 20
11.2476234033
 30
0.0
 10
9.9207095342
 20
11.2470849374
 30
0.0
 10
9.9216991431
 20
11.2467913275
 30
0.0
  0
LINE
  5
383
100
AcDbEntity
  8
0
100
AcDbLine
 62
7
  6
CONTINUOUS
 10
9.9293252641
 20
11.2442733856
 11
9.9386813371
 21
11.240510839
  0
SPLINE
  5
384
100
AcDbEntity
  8
0
100
AcDbSpline
 62
7
  6
CONTINUOUS
 70
0
 71
3
 72
10
 73
6
 74
0
 42
0.0000001
 43
0.0000001
 44
0.0000000001
 40
0.0
 40
0.0
 40
0.0
 40
0.0
 40
0.1967955545
 40
0.5437205665
 40
1.0
 40
1.0
 40
1.0
 40
1.0
 10
9.7418821374
 20
11.3240080645
 30
0.0
 10
9.7419201771
 20
11.3240926785
 30
0.0
 10
9.7420741046
 20
11.3243062711
 30
0.0
 10
9.7424975606
 20
11.3245428721
 30
0.0
 10
9.7428695682
 20
11.3246253127
 30
0.0
 10
9.7430823147
 20
11.3246570108
 30
0.0
  0
SPLINE
  5
385
100
AcDbEntity
  8
0
100
AcDbSpline
 62
7
  6
CONTINUOUS
 70
0
 71
3
 72
14
 73
10
 74
0
 42
0.0000001
 43
0.0000001
 44
0.0000000001
 40
0.0
 40
0.0
 40
0.0
 40
0.0
 40
0.063494108
 40
0.1480623169
 40
0.252859205
 40
0.3763324024
 40
0.515923475
 40
0.6687979772
 40
1.0
 40
1.0
 40
1.0
 40
1.0
 10
9.7430823147
 20
11.3246570108
 30
0.0
 10
9.743520214
 20
11.3247222553
 30
0.0
 10
9.7445604381
 20
11.3247268314
 30
0.0
 10
9.7463121317
 20
11.3245212618
 30
0.0
 10
9.7484538221
 20
11.3240950288
 30
0.0
 10
9.7509380696
 20
11.3234535329
 30
0.0
 10
9.7537140107
 20
11.3226107318
 30
0.0
 10
9.7578291028
 20
11.3212027537
 30
0.0
 10
9.7609716874
 20
11.3199646021
 30
0.0
 10
9.7630993322
 20
11.3190665393
 30
0.0
  0
SPLINE
  5
386
100
AcDbEntity
  8
0
100
AcDbSpline
 62
7
  6
CONTINUOUS
 70
0
 71
3
 72
18
 73
14
 74
0
 42
0.0000001
 43
0.0000001
 44
0.0000000001
 40
0.0
 40
0.0
 40
0.0
 40
0.0
 40
0.0181011288
 40
0.0392877749
 40
0.0658309908
 40
0.0988739499
 40
0.1389701455
 40
0.186287697
 40
0.3020863456
 40
0.4447367132
 40
0.61184304
 40
0.7987764222
 40
1.0
 40
1.0
 40
1.0
 40
1.0
 10
9.5735429783
 20
11.4009516557
 30
0.0
 10
9.5735844873
 20
11.4010430987
 30
0.0
 10
9.573727383
 20
11.4012195203
 30
0.0
 10
9.5740585095
 20
11.4013882541
 30
0.0
 10
9.5744987215
 20
11.4014855913
 30
0.0
 10
9.5750525531
 20
11.4015158102
 30
0.0
 10
9.5757207081
 20
11.4014788867
 30
0.0
 10
9.5768389151
 20
11.4013290038
 30
0.0
 10
9.5784964844
 20
11.4009558387
 30
0.0
 10
9.5807605233
 20
11.4002832231
 30
0.0
 10
9.5833603262
 20
11.3993668895
 30
0.0
 10
9.5862261794
 20
11.3982356557
 30
0.0
 10
9.5882040821
 20
11.3973830641
 30
0.0
 10
9.589223037
 20
11.396926984
 30
0.0
  0
SPLINE
  5
387
100
AcDbEntity
  8
0
100
AcDbSpline
 62
7
  6
CONTINUOUS
 70
0
 71
3
 72
17
 73
13
 74
0
 42
0.0000001
 43
0.0000001
 44
0.0000000001
 40
0.0
 40
0.0
 40
0.0
 40
0.0
 40
0.018959198
 40
0.0402100432
 40
0.066038532
 40
0.0977160278
 40
0.1808638161
 40
0.2921421992
 40
0.431778218
 40
0.5979408221
 40
0.7881972924
 40
1.0
 40
1.0
 40
1.0
 40
1.0
 10
9.4241361536
 20
11.469220864
 30
0.0
 10
9.4241592651
 20
11.4692726449
 30
0.0
 10
9.4242338272
 20
11.4693724092
 30
0.0
 10
9.4244078465
 20
11.4694731946
 30
0.0
 10
9.4246373604
 20
11.4695334394
 30
0.0
 10
9.4250581071
 20
11.469567036
 30
0.0
 10
9.4257347488
 20
11.4694956067
 30
0.0
 10
9.4267103411
 20
11.4692777922
 30
0.0
 10
9.4279050474
 20
11.468915316
 30
0.0
 10
9.4293022867
 20
11.4684155433
 30
0.0
 10
9.430880771
 20
11.4677848888
 30
0.0
 10
9.4319841774
 20
11.467306472
 30
0.0
 10
9.4325623751
 20
11.467047673
 30
0.0
  0
SPLINE
  5
388
100
AcDbEntity
  8
0
100
AcDbSpline
 62
7
  6
CONTINUOUS
 70
0
 71
3
 72
15
 73
11
 74
0
 42
0.0000001
 43
0.0000001
 44
0.0000000001
 40
0.0
 40
0.0
 40
0.0
 40
0.0
 40
0.020976817
 40
0.0506186986
 40
0.1340114713
 40
0.2458609881
 40
0.3801441617
 40
0.5302135774
 40
0.6886140273
 40
1.0
 40
1.0
 40
1.0
 40
1.0
 10
9.3968255047
 20
11.4220531168
 30
0.0
 10
9.3970319093
 20
11.421960731
 30
0.0
 10
9.3975192966
 20
11.4217144536
 30
0.0
 10
9.3987875941
 20
11.4210227882
 30
0.0
 10
9.4008785684
 20
11.4197948092
 30
0.0
 10
9.4039091523
 20
11.4179414872
 30
0.0
 10
9.4075227432
 20
11.4156641166
 30
0.0
 10
9.4115330897
 20
11.4130757559
 30
0.0
 10
9.4171112512
 20
11.4093964426
 30
0.0
 10
9.4212986776
 20
11.4065469625
 30
0.0
 10
9.4240501551
 20
11.4046240007
 30
0.0
  0
SPLINE
  5
389
100
AcDbEntity
  8
0
100
AcDbSpline
 62
7
  6
CONTINUOUS
 70
0
 71
3
 72
18
 73
14
 74
0
 42
0.0000001
 43
0.0000001
 44
0.0000000001
 40
0.0
 40
0.0
 40
0.0
 40
0.0
 40
0.2101773479
 40
0.4027264809
 40
0.5737873976
 40
0.7196231437
 40
0.8373297841
 40
0.884846048
 40
0.9243908222
 40
0.9556690109
 40
0.9785148214
 40
0.9930537017
 40
1.0
 40
1.0
 40
1.0
 40
1.0
 10
9.4240501551
 20
11.4046240007
 30
0.0
 10
9.4248507563
 20
11.4040644739
 30
0.0
 10
9.4263806336
 20
11.402986346
 30
0.0
 10
9.4285466067
 20
11.4014310139
 30
0.0
 10
9.4304553717
 20
11.4000302029
 30
0.0
 10
9.4320672772
 20
11.3988133681
 30
0.0
 10
9.4332055252
 20
11.3979215064
 30
0.0
 10
9.4339404768
 20
11.3973177265
 30
0.0
 10
9.4343587409
 20
11.3969589179
 30
0.0
 10
9.4346788647
 20
11.3966680344
 30
0.0
 10
9.4349078018
 20
11.3964358344
 30
0.0
 10
9.4350310376
 20
11.3962869084
 30
0.0
 10
9.4350863123
 20
11.3961820667
 30
0.0
 10
9.4350734529
 20
11.3961524574
 30
0.0
  0
LINE
  5
38A
100
AcDbEntity
  8
0
100
AcDbLine
 62
7
  6
CONTINUOUS
 10
9.4812757413
 20
11.3842535269
 11
9.4887897051
 21
11.3804920316
  0
SPLINE
  5
38B
100
AcDbEntity
  8
0
100
AcDbSpline
 62
7
  6
CONTINUOUS
 70
0
 71
3
 72
9
 73
5
 74
0
 42
0.0000001
 43
0.0000001
 44
0.0000000001
 40
0.0
 40
0.0
 40
0.0
 40
0.0
 40
0.5283047804
 40
1.0
 40
1.0
 40
1.0
 40
1.0
 10
9.4974619316
 20
11.3754773565
 30
0.0
 10
9.4993648107
 20
11.3743085643
 30
0.0
 10
9.5029283279
 20
11.3720332871
 30
0.0
 10
9.5063988171
 20
11.3696164832
 30
0.0
 10
9.5079984807
 20
11.3684262693
 30
0.0
  0
LINE
  5
38C
100
AcDbEntity
  8
0
100
AcDbLine
 62
7
  6
CONTINUOUS
 10
9.5079984807
 20
11.3684262693
 11
9.5118909302
 21
11.3653068193
  0
SPLINE
  5
38D
100
AcDbEntity
  8
0
100
AcDbSpline
 62
7
  6
CONTINUOUS
 70
0
 71
3
 72
13
 73
9
 74
0
 42
0.0000001
 43
0.0000001
 44
0.0000000001
 40
0.0
 40
0.0
 40
0.0
 40
0.0
 40
0.3879827938
 40
0.5473020494
 40
0.6829299666
 40
0.7947616677
 40
0.8832878703
 40
1.0
 40
1.0
 40
1.0
 40
1.0
 10
9.5118909302
 20
11.3653068193
 30
0.0
 10
9.5123285255
 20
11.364918665
 30
0.0
 10
9.5129334672
 20
11.3643563613
 30
0.0
 10
9.5136379908
 20
11.3636042694
 30
0.0
 10
9.5140304
 20
11.3631339215
 30
0.0
 10
9.5143228002
 20
11.3627149929
 30
0.0
 10
9.5145452043
 20
11.362302853
 30
0.0
 10
9.5146216936
 20
11.3619589513
 30
0.0
 10
9.5145494046
 20
11.3617985262
 30
0.0
  0
LINE
  5
38E
100
AcDbEntity
  8
0
100
AcDbLine
 62
7
  6
CONTINUOUS
 10
9.6478735873
 20
11.309108681
 11
9.6540615539
 21
11.3053839885
  0
SPLINE
  5
38F
100
AcDbEntity
  8
0
100
AcDbSpline
 62
7
  6
CONTINUOUS
 70
0
 71
3
 72
15
 73
11
 74
0
 42
0.0000001
 43
0.0000001
 44
0.0000000001
 40
0.0
 40
0.0
 40
0.0
 40
0.0
 40
0.204570166
 40
0.3889216518
 40
0.5510506965
 40
0.6891087973
 40
0.8019304208
 40
0.848944332
 40
0.8898587775
 40
1.0
 40
1.0
 40
1.0
 40
1.0
 10
9.6540615539
 20
11.3053839885
 30
0.0
 10
9.6546453709
 20
11.3050001411
 30
0.0
 10
9.6557449925
 20
11.3042544892
 30
0.0
 10
9.6572647323
 20
11.3031433358
 30
0.0
 10
9.6585568213
 20
11.3021085559
 30
0.0
 10
9.6596048825
 20
11.3011616773
 30
0.0
 10
9.6603009041
 20
11.3004197721
 30
0.0
 10
9.6607171972
 20
11.2998688533
 30
0.0
 10
9.6610713485
 20
11.2993102972
 30
0.0
 10
9.6612824144
 20
11.2987233521
 30
0.0
 10
9.661127894
 20
11.2983803705
 30
0.0
  0
SPLINE
  5
390
100
AcDbEntity
  8
0
100
AcDbSpline
 62
7
  6
CONTINUOUS
 70
0
 71
3
 72
11
 73
7
 74
0
 42
0.0000001
 43
0.0000001
 44
0.0000000001
 40
0.0
 40
0.0
 40
0.0
 40
0.0
 40
0.3099709051
 40
0.5879448399
 40
0.820542288
 40
1.0
 40
1.0
 40
1.0
 40
1.0
 10
9.8168335355
 20
11.234059193
 30
0.0
 10
9.8181281837
 20
11.2334797137
 30
0.0
 10
9.820565109
 20
11.2323382789
 30
0.0
 10
9.8239009364
 20
11.2306109423
 30
0.0
 10
9.8266220056
 20
11.2290074049
 30
0.0
 10
9.8281711984
 20
11.2279232108
 30
0.0
 10
9.8288012671
 20
11.2273965495
 30
0.0
  0
SPLINE
  5
391
100
AcDbEntity
  8
0
100
AcDbSpline
 62
7
  6
CONTINUOUS
 70
0
 71
3
 72
12
 73
8
 74
0
 42
0.0000001
 43
0.0000001
 44
0.0000000001
 40
0.0
 40
0.0
 40
0.0
 40
0.0
 40
0.3637287735
 40
0.642722961
 40
0.7530846814
 40
0.8467190748
 40
1.0
 40
1.0
 40
1.0
 40
1.0
 10
9.8288012671
 20
11.2273965495
 30
0.0
 10
9.8290645367
 20
11.2271764879
 30
0.0
 10
9.8295147931
 20
11.226769409
 30
0.0
 10
9.8299777637
 20
11.2262241246
 30
0.0
 10
9.8301992962
 20
11.2258233677
 30
0.0
 10
9.8303110683
 20
11.2255052843
 30
0.0
 10
9.8303026955
 20
11.2252537641
 30
0.0
 10
9.830244218
 20
11.2251215158
 30
0.0
  0
SPLINE
  5
392
100
AcDbEntity
  8
0
100
AcDbSpline
 62
7
  6
CONTINUOUS
 70
0
 71
3
 72
16
 73
12
 74
0
 42
0.0000001
 43
0.0000001
 44
0.0000000001
 40
0.0
 40
0.0
 40
0.0
 40
0.0
 40
0.2162057038
 40
0.407847882
 40
0.5735519754
 40
0.7120558662
 40
0.8223423256
 40
0.9042473715
 40
0.9353162869
 40
0.9606777454
 40
1.0
 40
1.0
 40
1.0
 40
1.0
 10
9.9659638018
 20
11.1673090791
 30
0.0
 10
9.9663336293
 20
11.1671435458
 30
0.0
 10
9.9670279536
 20
11.1668237836
 30
0.0
 10
9.9679916264
 20
11.1663472278
 30
0.0
 10
9.9688095209
 20
11.1659057579
 30
0.0
 10
9.9694750523
 20
11.1655039369
 30
0.0
 10
9.9699809275
 20
11.1651454447
 30
0.0
 10
9.9702945114
 20
11.1648646096
 30
0.0
 10
9.9704508882
 20
11.1646560796
 30
0.0
 10
9.9705331361
 20
11.1644968416
 30
0.0
 10
9.9705395323
 20
11.1643621053
 30
0.0
 10
9.9705094238
 20
11.1642948442
 30
0.0
  0
LINE
  5
393
100
AcDbEntity
  8
0
100
AcDbLine
 62
7
  6
CONTINUOUS
 10
10.3852239696
 20
11.0964144004
 11
10.3874040343
 21
11.0958789067
  0
LINE
  5
394
100
AcDbEntity
  8
0
100
AcDbLine
 62
7
  6
CONTINUOUS
 10
10.3874040343
 20
11.0958789067
 11
10.3938034592
 21
11.0942990778
  0
LINE
  5
395
100
AcDbEntity
  8
0
100
AcDbLine
 62
7
  6
CONTINUOUS
 10
10.3938034592
 20
11.0942990778
 11
10.3954961147
 21
11.0938793054
  0
LINE
  5
396
100
AcDbEntity
  8
0
100
AcDbLine
 62
7
  6
CONTINUOUS
 10
10.4127325872
 20
11.0895613773
 11
10.4188063522
 21
11.0880214406
  0
LINE
  5
397
100
AcDbEntity
  8
0
100
AcDbLine
 62
7
  6
CONTINUOUS
 10
10.4188063522
 20
11.0880214406
 11
10.422174375
 21
11.0871635908
  0
LINE
  5
398
100
AcDbEntity
  8
0
100
AcDbLine
 62
7
  6
CONTINUOUS
 10
10.422174375
 20
11.0871635908
 11
10.427605643
 21
11.0857742328
  0
LINE
  5
399
100
AcDbEntity
  8
0
100
AcDbLine
 62
7
  6
CONTINUOUS
 10
10.427605643
 20
11.0857742328
 11
10.4283657868
 21
11.0855792234
  0
LINE
  5
39A
100
AcDbEntity
  8
0
100
AcDbLine
 62
7
  6
CONTINUOUS
 10
10.4283657868
 20
11.0855792234
 11
10.4305237241
 21
11.0850248777
  0
LINE
  5
39B
100
AcDbEntity
  8
0
100
AcDbLine
 62
7
  6
CONTINUOUS
 10
9.0951839378
 20
11.682717654
 11
9.0970617404
 21
11.6814596706
  0
LINE
  5
39C
100
AcDbEntity
  8
0
100
AcDbLine
 62
7
  6
CONTINUOUS
 10
9.0970617404
 20
11.6814596706
 11
9.09767386
 21
11.6810493108
  0
LINE
  5
39D
100
AcDbEntity
  8
0
100
AcDbLine
 62
7
  6
CONTINUOUS
 10
9.09767386
 20
11.6810493108
 11
9.1023648065
 21
11.677899782
  0
LINE
  5
39E
100
AcDbEntity
  8
0
100
AcDbLine
 62
7
  6
CONTINUOUS
 10
9.1023648065
 20
11.677899782
 11
9.1052209724
 21
11.6759778473
  0
LINE
  5
39F
100
AcDbEntity
  8
0
100
AcDbLine
 62
7
  6
CONTINUOUS
 10
9.1186252946
 20
11.6669141842
 11
9.1251197003
 21
11.6624953814
  0
LINE
  5
3A0
100
AcDbEntity
  8
0
100
AcDbLine
 62
7
  6
CONTINUOUS
 10
9.1251197003
 20
11.6624953814
 11
9.1265684465
 21
11.6615071793
  0
LINE
  5
3A1
100
AcDbEntity
  8
0
100
AcDbLine
 62
7
  6
CONTINUOUS
 10
9.1265684465
 20
11.6615071793
 11
9.1319776171
 21
11.6578091749
  0
LINE
  5
3A2
100
AcDbEntity
  8
0
100
AcDbLine
 62
7
  6
CONTINUOUS
 10
9.1319776171
 20
11.6578091749
 11
9.1338563366
 21
11.656521575
  0
SPLINE
  5
3A3
100
AcDbEntity
  8
0
100
AcDbSpline
 62
7
  6
CONTINUOUS
 70
0
 71
3
 72
15
 73
11
 74
0
 42
0.0000001
 43
0.0000001
 44
0.0000000001
 40
0.0
 40
0.0
 40
0.0
 40
0.0
 40
0.0243609902
 40
0.0570288492
 40
0.1452220505
 40
0.2599714492
 40
0.3951635782
 40
0.5441391831
 40
0.6995447833
 40
1.0
 40
1.0
 40
1.0
 40
1.0
 10
9.1179342377
 20
11.6725347103
 30
0.0
 10
9.1181795553
 20
11.6724249071
 30
0.0
 10
9.1187435104
 20
11.6721451204
 30
0.0
 10
9.1201551489
 20
11.6713871971
 30
0.0
 10
9.1224040455
 20
11.6700822887
 30
0.0
 10
9.1255915385
 20
11.6681439067
 30
0.0
 10
9.1293173052
 20
11.6658007004
 30
0.0
 10
9.1333912948
 20
11.6631694486
 30
0.0
 10
9.1389573805
 20
11.6594885538
 30
0.0
 10
9.143109982
 20
11.6566500171
 30
0.0
 10
9.1458204765
 20
11.654741729
 30
0.0
  0
SPLINE
  5
3A4
100
AcDbEntity
  8
0
100
AcDbSpline
 62
7
  6
CONTINUOUS
 70
0
 71
3
 72
18
 73
14
 74
0
 42
0.0000001
 43
0.0000001
 44
0.0000000001
 40
0.0
 40
0.0
 40
0.0
 40
0.0
 40
0.2113415886
 40
0.4041090278
 40
0.5747710318
 40
0.719872142
 40
0.8367379096
 40
0.8839125772
 40
0.9232366658
 40
0.9544724337
 40
0.9774421665
 40
0.9922860527
 40
1.0
 40
1.0
 40
1.0
 40
1.0
 10
9.1458204765
 20
11.654741729
 30
0.0
 10
9.1465649415
 20
11.6542175982
 30
0.0
 10
9.1479843439
 20
11.6532095512
 30
0.0
 10
9.1499892771
 20
11.6517564276
 30
0.0
 10
9.151748248
 20
11.6504503411
 30
0.0
 10
9.1532273432
 20
11.6493163656
 30
0.0
 10
9.1542671125
 20
11.6484835657
 30
0.0
 10
9.1549352881
 20
11.6479172492
 30
0.0
 10
9.1553140174
 20
11.6475788556
 30
0.0
 10
9.1556042297
 20
11.6473015427
 30
0.0
 10
9.1558072266
 20
11.6470781614
 30
0.0
 10
9.1559208194
 20
11.6469278794
 30
0.0
 10
9.155958929
 20
11.6468224727
 30
0.0
 10
9.1559450442
 20
11.6467922806
 30
0.0
  0
SPLINE
  5
3A5
100
AcDbEntity
  8
0
100
AcDbSpline
 62
7
  6
CONTINUOUS
 70
0
 71
3
 72
10
 73
6
 74
0
 42
0.0000001
 43
0.0000001
 44
0.0000000001
 40
0.0
 40
0.0
 40
0.0
 40
0.0
 40
0.1853958733
 40
0.4223950594
 40
1.0
 40
1.0
 40
1.0
 40
1.0
 10
9.1846347421
 20
11.6426798299
 30
0.0
 10
9.1855499462
 20
11.6422701881
 30
0.0
 10
9.1875972722
 20
11.6412534069
 30
0.0
 10
9.192351404
 20
11.6386742367
 30
0.0
 10
9.1961346726
 20
11.6364119267
 30
0.0
 10
9.1987891802
 20
11.6347649506
 30
0.0
  0
LINE
  5
3A6
100
AcDbEntity
  8
0
100
AcDbLine
 62
7
  6
CONTINUOUS
 10
9.2073758382
 20
11.6291988487
 11
9.2159429403
 21
11.6230271982
  0
LINE
  5
3A7
100
AcDbEntity
  8
0
100
AcDbLine
 62
7
  6
CONTINUOUS
 10
9.2159429403
 20
11.6230271982
 11
9.2182946615
 21
11.6211037282
  0
SPLINE
  5
3A8
100
AcDbEntity
  8
0
100
AcDbSpline
 62
7
  6
CONTINUOUS
 70
0
 71
3
 72
13
 73
9
 74
0
 42
0.0000001
 43
0.0000001
 44
0.0000000001
 40
0.0
 40
0.0
 40
0.0
 40
0.0
 40
0.4002662786
 40
0.699781523
 40
0.8107835034
 40
0.8962570514
 40
0.9576541892
 40
1.0
 40
1.0
 40
1.0
 40
1.0
 10
9.2182946615
 20
11.6211037282
 30
0.0
 10
9.2186804657
 20
11.6207697923
 30
0.0
 10
9.2193444794
 20
11.6201739846
 30
0.0
 10
9.220071749
 20
11.6194368589
 30
0.0
 10
9.2204688164
 20
11.6189441159
 30
0.0
 10
9.220647045
 20
11.6186664302
 30
0.0
 10
9.2207436688
 20
11.618444596
 30
0.0
 10
9.2207457537
 20
11.6183031281
 30
0.0
 10
9.220723848
 20
11.6182537908
 30
0.0
  0
LINE
  5
3A9
100
AcDbEntity
  8
0
100
AcDbLine
 62
7
  6
CONTINUOUS
 10
9.2907399219
 20
11.5951875735
 11
9.2983440626
 21
11.5913714976
  0
SPLINE
  5
3AA
100
AcDbEntity
  8
0
100
AcDbSpline
 62
7
  6
CONTINUOUS
 70
0
 71
3
 72
9
 73
5
 74
0
 42
0.0000001
 43
0.0000001
 44
0.0000000001
 40
0.0
 40
0.0
 40
0.0
 40
0.0
 40
0.5262992669
 40
1.0
 40
1.0
 40
1.0
 40
1.0
 10
9.3070353708
 20
11.5863143863
 30
0.0
 10
9.308806597
 20
11.5852182779
 30
0.0
 10
9.3121375599
 20
11.583079451
 30
0.0
 10
9.3153870916
 20
11.5808174217
 30
0.0
 10
9.3168951091
 20
11.5797035578
 30
0.0
  0
LINE
  5
3AB
100
AcDbEntity
  8
0
100
AcDbLine
 62
7
  6
CONTINUOUS
 10
9.3168951091
 20
11.5797035578
 11
9.3212456138
 21
11.5762221353
  0
SPLINE
  5
3AC
100
AcDbEntity
  8
0
100
AcDbSpline
 62
7
  6
CONTINUOUS
 70
0
 71
3
 72
13
 73
9
 74
0
 42
0.0000001
 43
0.0000001
 44
0.0000000001
 40
0.0
 40
0.0
 40
0.0
 40
0.0
 40
0.3875196374
 40
0.5466001208
 40
0.6820496137
 40
0.7938172765
 40
0.8824532288
 40
1.0
 40
1.0
 40
1.0
 40
1.0
 10
9.3212456138
 20
11.5762221353
 30
0.0
 10
9.3216609225
 20
11.5758500047
 30
0.0
 10
9.3222349315
 20
11.5753111379
 30
0.0
 10
9.3229027529
 20
11.5745907306
 30
0.0
 10
9.323274385
 20
11.5741402232
 30
0.0
 10
9.323550866
 20
11.5737389162
 30
0.0
 10
9.3237613014
 20
11.573342762
 30
0.0
 10
9.3238315875
 20
11.573013082
 30
0.0
 10
9.3237620222
 20
11.5728588994
 30
0.0
  0
SPLINE
  5
3AD
100
AcDbEntity
  8
0
100
AcDbSpline
 62
7
  6
CONTINUOUS
 70
0
 71
3
 72
10
 73
6
 74
0
 42
0.0000001
 43
0.0000001
 44
0.0000000001
 40
0.0
 40
0.0
 40
0.0
 40
0.0
 40
0.2363757794
 40
0.4908225013
 40
1.0
 40
1.0
 40
1.0
 40
1.0
 10
9.4290188844
 20
11.5332944599
 30
0.0
 10
9.4304319887
 20
11.5326619601
 30
0.0
 10
9.4333364387
 20
11.5312815031
 30
0.0
 10
9.4391523751
 20
11.5282681097
 30
0.0
 10
9.4434835114
 20
11.5257564631
 30
0.0
 10
9.4463047004
 20
11.5239779884
 30
0.0
  0
LINE
  5
3AE
100
AcDbEntity
  8
0
100
AcDbLine
 62
7
  6
CONTINUOUS
 10
9.4479483593
 20
11.5229233325
 11
9.4533891405
 21
11.5190842733
  0
SPLINE
  5
3AF
100
AcDbEntity
  8
0
100
AcDbSpline
 62
7
  6
CONTINUOUS
 70
0
 71
3
 72
13
 73
9
 74
0
 42
0.0000001
 43
0.0000001
 44
0.0000000001
 40
0.0
 40
0.0
 40
0.0
 40
0.0
 40
0.3883960484
 40
0.5490422751
 40
0.6858932327
 40
0.7982273185
 40
0.8862664471
 40
1.0
 40
1.0
 40
1.0
 40
1.0
 10
9.4533891405
 20
11.5190842733
 30
0.0
 10
9.4541379317
 20
11.5185025708
 30
0.0
 10
9.4551772352
 20
11.5176541823
 30
0.0
 10
9.4563993107
 20
11.5165070647
 30
0.0
 10
9.4570874048
 20
11.5157828427
 30
0.0
 10
9.4576052361
 20
11.5151324621
 30
0.0
 10
9.4579999171
 20
11.5144966148
 30
0.0
 10
9.4581541023
 20
11.513948094
 30
0.0
 10
9.4580417204
 20
11.5136941963
 30
0.0
  0
LINE
  5
3B0
100
AcDbEntity
  8
0
100
AcDbLine
 62
7
  6
CONTINUOUS
 10
9.5999761108
 20
11.4562742209
 11
9.6071061944
 21
11.4520038794
  0
SPLINE
  5
3B1
100
AcDbEntity
  8
0
100
AcDbSpline
 62
7
  6
CONTINUOUS
 70
0
 71
3
 72
15
 73
11
 74
0
 42
0.0000001
 43
0.0000001
 44
0.0000000001
 40
0.0
 40
0.0
 40
0.0
 40
0.0
 40
0.2045373511
 40
0.3890897459
 40
0.5515471684
 40
0.6899477049
 40
0.8030452343
 40
0.8501323842
 40
0.8910481408
 40
1.0
 40
1.0
 40
1.0
 40
1.0
 10
9.6071061944
 20
11.4520038794
 30
0.0
 10
9.6077073597
 20
11.4516069733
 30
0.0
 10
9.6088403035
 20
11.4508356049
 30
0.0
 10
9.6104070908
 20
11.4496863849
 30
0.0
 10
9.6117409718
 20
11.4486163847
 30
0.0
 10
9.6128245781
 20
11.4476381301
 30
0.0
 10
9.6135456285
 20
11.4468732512
 30
0.0
 10
9.6139786708
 20
11.4463061905
 30
0.0
 10
9.6143448577
 20
11.4457364695
 30
0.0
 10
9.6145719219
 20
11.4451367186
 30
0.0
 10
9.6144137917
 20
11.4447870925
 30
0.0
  0
LINE
  5
3B2
100
AcDbEntity
  8
0
100
AcDbLine
 62
7
  6
CONTINUOUS
 10
9.762853831
 20
11.3838712658
 11
9.7716622294
 21
11.379516169
  0
SPLINE
  5
3B3
100
AcDbEntity
  8
0
100
AcDbSpline
 62
7
  6
CONTINUOUS
 70
0
 71
3
 72
9
 73
5
 74
0
 42
0.0000001
 43
0.0000001
 44
0.0000000001
 40
0.0
 40
0.0
 40
0.0
 40
0.0
 40
0.5421221652
 40
1.0
 40
1.0
 40
1.0
 40
1.0
 10
9.7716622294
 20
11.379516169
 30
0.0
 10
9.7729335816
 20
11.3788194129
 30
0.0
 10
9.7752510237
 20
11.3774830036
 30
0.0
 10
9.7774907051
 20
11.3760164637
 30
0.0
 10
9.7784814967
 20
11.3752969758
 30
0.0
  0
SPLINE
  5
3B4
100
AcDbEntity
  8
0
100
AcDbSpline
 62
7
  6
CONTINUOUS
 70
0
 71
3
 72
14
 73
10
 74
0
 42
0.0000001
 43
0.0000001
 44
0.0000000001
 40
0.0
 40
0.0
 40
0.0
 40
0.0
 40
0.3807122327
 40
0.5375172173
 40
0.6713072703
 40
0.7821050453
 40
0.8709209851
 40
0.9411601483
 40
1.0
 40
1.0
 40
1.0
 40
1.0
 10
9.7784814967
 20
11.3752969758
 30
0.0
 10
9.7791046912
 20
11.3748444277
 30
0.0
 10
9.7799668647
 20
11.3741784184
 30
0.0
 10
9.7809671336
 20
11.3732586341
 30
0.0
 10
9.7815234786
 20
11.3726658711
 30
0.0
 10
9.781933575
 20
11.372128157
 30
0.0
 10
9.7821944764
 20
11.3716451435
 30
0.0
 10
9.7823062063
 20
11.3712114045
 30
0.0
 10
9.7822635476
 20
11.3709427649
 30
0.0
 10
9.7822149895
 20
11.3708340874
 30
0.0
  0
SPLINE
  5
3B5
100
AcDbEntity
  8
0
100
AcDbSpline
 62
7
  6
CONTINUOUS
 70
0
 71
3
 72
11
 73
7
 74
0
 42
0.0000001
 43
0.0000001
 44
0.0000000001
 40
0.0
 40
0.0
 40
0.0
 40
0.0
 40
0.3094164279
 40
0.5880279764
 40
0.8210599055
 40
1.0
 40
1.0
 40
1.0
 40
1.0
 10
9.9356595152
 20
11.306524129
 30
0.0
 10
9.9370581116
 20
11.3058981228
 30
0.0
 10
9.9396940506
 20
11.3046587522
 30
0.0
 10
9.9432993863
 20
11.3027740289
 30
0.0
 10
9.9462340179
 20
11.3010161431
 30
0.0
 10
9.9478985779
 20
11.2998252663
 30
0.0
 10
9.9485690245
 20
11.2992458093
 30
0.0
  0
SPLINE
  5
3B6
100
AcDbEntity
  8
0
100
AcDbSpline
 62
7
  6
CONTINUOUS
 70
0
 71
3
 72
12
 73
8
 74
0
 42
0.0000001
 43
0.0000001
 44
0.0000000001
 40
0.0
 40
0.0
 40
0.0
 40
0.0
 40
0.3612833404
 40
0.6398796946
 40
0.7506747581
 40
0.8450307046
 40
1.0
 40
1.0
 40
1.0
 40
1.0
 10
9.9485690245
 20
11.2992458093
 30
0.0
 10
9.9488349336
 20
11.299015988
 30
0.0
 10
9.9492897435
 20
11.2985898713
 30
0.0
 10
9.9497551693
 20
11.2980207034
 30
0.0
 10
9.9499768925
 20
11.297602988
 30
0.0
 10
9.950087949
 20
11.2972706428
 30
0.0
 10
9.9500771798
 20
11.2970094422
 30
0.0
 10
9.9500159029
 20
11.2968717009
 30
0.0
  0
SPLINE
  5
3B7
100
AcDbEntity
  8
0
100
AcDbSpline
 62
7
  6
CONTINUOUS
 70
0
 71
3
 72
9
 73
5
 74
0
 42
0.0000001
 43
0.0000001
 44
0.0000000001
 40
0.0
 40
0.0
 40
0.0
 40
0.0
 40
0.5487341792
 40
1.0
 40
1.0
 40
1.0
 40
1.0
 10
10.0966887775
 20
11.2344480718
 30
0.0
 10
10.0979268509
 20
11.233893915
 30
0.0
 10
10.1001625799
 20
11.2328379654
 30
0.0
 10
10.1023397608
 20
11.2316612883
 30
0.0
 10
10.1032918708
 20
11.2310800607
 30
0.0
  0
SPLINE
  5
3B8
100
AcDbEntity
  8
0
100
AcDbSpline
 62
7
  6
CONTINUOUS
 70
0
 71
3
 72
14
 73
10
 74
0
 42
0.0000001
 43
0.0000001
 44
0.0000000001
 40
0.0
 40
0.0
 40
0.0
 40
0.0
 40
0.3892200748
 40
0.5470350351
 40
0.6802215612
 40
0.7892435778
 40
0.8755458156
 40
0.9429646735
 40
1.0
 40
1.0
 40
1.0
 40
1.0
 10
10.1032918708
 20
11.2310800607
 30
0.0
 10
10.1038017813
 20
11.2307687794
 30
0.0
 10
10.1045072675
 20
11.2303106293
 30
0.0
 10
10.1053315173
 20
11.229668718
 30
0.0
 10
10.1057871189
 20
11.2292560176
 30
0.0
 10
10.106124128
 20
11.2288790292
 30
0.0
 10
10.1063423005
 20
11.2285370082
 30
0.0
 10
10.1064408137
 20
11.2282218705
 30
0.0
 10
10.106410273
 20
11.2280240007
 30
0.0
 10
10.1063742643
 20
11.2279442056
 30
0.0
  0
SPLINE
  5
3B9
100
AcDbEntity
  8
0
100
AcDbSpline
 62
7
  6
CONTINUOUS
 70
0
 71
3
 72
16
 73
12
 74
0
 42
0.0000001
 43
0.0000001
 44
0.0000000001
 40
0.0
 40
0.0
 40
0.0
 40
0.0
 40
0.2141883867
 40
0.4051017764
 40
0.5708834262
 40
0.7097943193
 40
0.8204004373
 40
0.902812039
 40
0.9342367955
 40
0.9599815794
 40
1.0
 40
1.0
 40
1.0
 40
1.0
 10
10.23496774
 20
11.1725549582
 30
0.0
 10
10.2354271548
 20
11.172349326
 30
0.0
 10
10.2362916631
 20
11.1719504451
 30
0.0
 10
10.2374932776
 20
11.1713532895
 30
0.0
 10
10.2385165877
 20
11.1707966672
 30
0.0
 10
10.2393505039
 20
11.1702880834
 30
0.0
 10
10.2399840578
 20
11.1698323063
 30
0.0
 10
10.2403759121
 20
11.1694744816
 30
0.0
 10
10.2405714231
 20
11.1692089014
 30
0.0
 10
10.2406744304
 20
11.1690054294
 30
0.0
 10
10.2406823989
 20
11.1688339867
 30
0.0
 10
10.2406441604
 20
11.1687480699
 30
0.0
  0
SPLINE
  5
3BA
100
AcDbEntity
  8
0
100
AcDbSpline
 62
7
  6
CONTINUOUS
 70
0
 71
3
 72
14
 73
10
 74
0
 42
0.0000001
 43
0.0000001
 44
0.0000000001
 40
0.0
 40
0.0
 40
0.0
 40
0.0
 40
0.4101222245
 40
0.5746963881
 40
0.7116506306
 40
0.8208099216
 40
0.9026206182
 40
0.9593874732
 40
1.0
 40
1.0
 40
1.0
 40
1.0
 10
10.3410729198
 20
11.1250627018
 30
0.0
 10
10.3414756519
 20
11.1248824405
 30
0.0
 10
10.342035762
 20
11.1246195155
 30
0.0
 10
10.3427093253
 20
11.1242548296
 30
0.0
 10
10.3430865388
 20
11.1240246492
 30
0.0
 10
10.3433744275
 20
11.1238189821
 30
0.0
 10
10.343569415
 20
11.1236372987
 30
0.0
 10
10.343684728
 20
11.1234773606
 30
0.0
 10
10.3436885214
 20
11.1233621802
 30
0.0
 10
10.343670591
 20
11.1233223353
 30
0.0
  0
SPLINE
  5
3BB
100
AcDbEntity
  8
0
100
AcDbSpline
 62
7
  6
CONTINUOUS
 70
0
 71
3
 72
22
 73
18
 74
0
 42
0.0000001
 43
0.0000001
 44
0.0000000001
 40
0.0
 40
0.0
 40
0.0
 40
0.0
 40
0.002653317
 40
0.0075371003
 40
0.015004958
 40
0.0251362211
 40
0.0532216791
 40
0.0912753807
 40
0.1386839595
 40
0.1947720676
 40
0.2586168395
 40
0.3292085649
 40
0.4055342773
 40
0.4864981545
 40
0.6574173888
 40
0.832013169
 40
1.0
 40
1.0
 40
1.0
 40
1.0
 10
10.3632532107
 20
11.1064060458
 30
0.0
 10
10.363264803
 20
11.1064326098
 30
0.0
 10
10.3633493274
 20
11.1064726953
 30
0.0
 10
10.3635073475
 20
11.1064907093
 30
0.0
 10
10.3637557546
 20
11.106494741
 30
0.0
 10
10.3642526825
 20
11.1064643988
 30
0.0
 10
10.3650812925
 20
11.10636438
 30
0.0
 10
10.3663061853
 20
11.106171908
 30
0.0
 10
10.3678280044
 20
11.1058966298
 30
0.0
 10
10.3696212013
 20
11.1055420078
 30
0.0
 10
10.3716578288
 20
11.1051133833
 30
0.0
 10
10.3739059769
 20
11.1046171382
 30
0.0
 10
10.3763321034
 20
11.1040600204
 30
0.0
 10
10.3798201919
 20
11.1032312934
 30
0.0
 10
10.3843417389
 20
11.1021090078
 30
0.0
 10
10.3897691352
 20
11.1006920796
 30
0.0
 10
10.3933787205
 20
11.0997043389
 30
0.0
 10
10.3951451921
 20
11.0992075855
 30
0.0
  0
SPLINE
  5
3BC
100
AcDbEntity
  8
0
100
AcDbSpline
 62
7
  6
CONTINUOUS
 70
0
 71
3
 72
12
 73
8
 74
0
 42
0.0000001
 43
0.0000001
 44
0.0000000001
 40
0.0
 40
0.0
 40
0.0
 40
0.0
 40
0.3420995856
 40
0.6326746664
 40
0.855920911
 40
0.9385215039
 40
1.0
 40
1.0
 40
1.0
 40
1.0
 10
10.3951451921
 20
11.0992075855
 30
0.0
 10
10.396599983
 20
11.0987984806
 30
0.0
 10
10.3992862083
 20
11.0980264328
 30
0.0
 10
10.4029040013
 20
11.0969274302
 30
0.0
 10
10.405409224
 20
11.0961096739
 30
0.0
 10
10.4069343284
 20
11.0955554602
 30
0.0
 10
10.4075255419
 20
11.0953187726
 30
0.0
 10
10.4077734242
 20
11.0952078214
 30
0.0
  0
SPLINE
  5
3BD
100
AcDbEntity
  8
0
100
AcDbSpline
 62
7
  6
CONTINUOUS
 70
0
 71
3
 72
18
 73
14
 74
0
 42
0.0000001
 43
0.0000001
 44
0.0000000001
 40
0.0
 40
0.0
 40
0.0
 40
0.0
 40
0.0103133213
 40
0.0182687246
 40
0.0283707992
 40
0.0552319329
 40
0.0910227255
 40
0.1879393444
 40
0.3149359319
 40
0.4666761496
 40
0.6364038576
 40
0.8168728632
 40
1.0
 40
1.0
 40
1.0
 40
1.0
 10
10.2988139418
 20
11.1357049217
 30
0.0
 10
10.2988521854
 20
11.1357900909
 30
0.0
 10
10.2990188003
 20
11.1358783528
 30
0.0
 10
10.2992623828
 20
11.1359389711
 30
0.0
 10
10.2996688484
 20
11.1359928202
 30
0.0
 10
10.3003272464
 20
11.1359993299
 30
0.0
 10
10.3017703495
 20
11.1359094983
 30
0.0
 10
10.304101311
 20
11.1355894445
 30
0.0
 10
10.3074475636
 20
11.1349816144
 30
0.0
 10
10.3114170025
 20
11.1341271305
 30
0.0
 10
10.3158357167
 20
11.1330670345
 30
0.0
 10
10.3205063365
 20
11.131843468
 30
0.0
 10
10.3236746
 20
11.1309505629
 30
0.0
 10
10.3252657463
 20
11.1304853475
 30
0.0
  0
LINE
  5
3BE
100
AcDbEntity
  8
0
100
AcDbLine
 62
7
  6
CONTINUOUS
 10
10.3252657463
 20
11.1304853475
 11
10.3345352684
 21
11.1275596034
  0
LINE
  5
3BF
100
AcDbEntity
  8
0
100
AcDbLine
 62
7
  6
CONTINUOUS
 10
10.3345352684
 20
11.1275596034
 11
10.3410729198
 21
11.1250627018
  0
SPLINE
  5
3C0
100
AcDbEntity
  8
0
100
AcDbSpline
 62
7
  6
CONTINUOUS
 70
0
 71
3
 72
15
 73
11
 74
0
 42
0.0000001
 43
0.0000001
 44
0.0000000001
 40
0.0
 40
0.0
 40
0.0
 40
0.0
 40
0.0390636018
 40
0.0663399786
 40
0.0999033016
 40
0.1868527312
 40
0.300527898
 40
0.4403427296
 40
0.6049971466
 40
1.0
 40
1.0
 40
1.0
 40
1.0
 10
10.1963160795
 20
11.1823071436
 30
0.0
 10
10.1963692114
 20
11.1824265052
 30
0.0
 10
10.1965661608
 20
11.1825717886
 30
0.0
 10
10.1968785439
 20
11.1826804344
 30
0.0
 10
10.1973651161
 20
11.1827822248
 30
0.0
 10
10.1981488821
 20
11.1828286994
 30
0.0
 10
10.1992878563
 20
11.1827931665
 30
0.0
 10
10.200680874
 20
11.182661508
 30
0.0
 10
10.2029985581
 20
11.1823397467
 30
0.0
 10
10.204838528
 20
11.1819888672
 30
0.0
 10
10.206131469
 20
11.1817173874
 30
0.0
  0
SPLINE
  5
3C1
100
AcDbEntity
  8
0
100
AcDbSpline
 62
7
  6
CONTINUOUS
 70
0
 71
3
 72
9
 73
5
 74
0
 42
0.0000001
 43
0.0000001
 44
0.0000000001
 40
0.0
 40
0.0
 40
0.0
 40
0.0
 40
0.4745665553
 40
1.0
 40
1.0
 40
1.0
 40
1.0
 10
10.206131469
 20
11.1817173874
 30
0.0
 10
10.2078710788
 20
11.1813521202
 30
0.0
 10
10.2115164758
 20
11.1804856435
 30
0.0
 10
10.2151281037
 20
11.1794901961
 30
0.0
 10
10.2170168627
 20
11.1789371172
 30
0.0
  0
LINE
  5
3C2
100
AcDbEntity
  8
0
100
AcDbLine
 62
7
  6
CONTINUOUS
 10
10.2170168627
 20
11.1789371172
 11
10.2268707862
 21
11.1757497973
  0
LINE
  5
3C3
100
AcDbEntity
  8
0
100
AcDbLine
 62
7
  6
CONTINUOUS
 10
10.2268707862
 20
11.1757497973
 11
10.23496774
 21
11.1725549582
  0
SPLINE
  5
3C4
100
AcDbEntity
  8
0
100
AcDbSpline
 62
7
  6
CONTINUOUS
 70
0
 71
3
 72
16
 73
12
 74
0
 42
0.0000001
 43
0.0000001
 44
0.0000000001
 40
0.0
 40
0.0
 40
0.0
 40
0.0
 40
0.0391804445
 40
0.0667175947
 40
0.1008168489
 40
0.1897866645
 40
0.3060455846
 40
0.4479785357
 40
0.6133141443
 40
0.7985856494
 40
1.0
 40
1.0
 40
1.0
 40
1.0
 10
10.0627364999
 20
11.2430352212
 30
0.0
 10
10.0628197052
 20
11.2432194783
 30
0.0
 10
10.0631345759
 20
11.243437537
 30
0.0
 10
10.0636273293
 20
11.2435852816
 30
0.0
 10
10.0643995604
 20
11.2437081939
 30
0.0
 10
10.0656376708
 20
11.2437129203
 30
0.0
 10
10.0674235496
 20
11.2435560388
 30
0.0
 10
10.0695847518
 20
11.243223727
 30
0.0
 10
10.072076957
 20
11.2427223347
 30
0.0
 10
10.0748483982
 20
11.2420624095
 30
0.0
 10
10.0767754175
 20
11.2415437325
 30
0.0
 10
10.0777755238
 20
11.2412609866
 30
0.0
  0
LINE
  5
3C5
100
AcDbEntity
  8
0
100
AcDbLine
 62
7
  6
CONTINUOUS
 10
10.0875734054
 20
11.2380987508
 11
10.0966887775
 21
11.2344480718
  0
SPLINE
  5
3C6
100
AcDbEntity
  8
0
100
AcDbSpline
 62
7
  6
CONTINUOUS
 70
0
 71
3
 72
18
 73
14
 74
0
 42
0.0000001
 43
0.0000001
 44
0.0000000001
 40
0.0
 40
0.0
 40
0.0
 40
0.0
 40
0.0178931315
 40
0.0397275177
 40
0.0674843064
 40
0.1020130393
 40
0.1436470754
 40
0.1924841463
 40
0.3109918778
 40
0.4548509578
 40
0.6206773869
 40
0.8040903709
 40
1.0
 40
1.0
 40
1.0
 40
1.0
 10
9.9071728843
 20
11.3137492467
 30
0.0
 10
9.9072206976
 20
11.3138568324
 30
0.0
 10
9.9073957086
 20
11.3140659329
 30
0.0
 10
9.9077964362
 20
11.3142711855
 30
0.0
 10
9.9083354751
 20
11.314407985
 30
0.0
 10
9.9090172502
 20
11.3144782083
 30
0.0
 10
9.9098405862
 20
11.3144823835
 30
0.0
 10
9.9112134164
 20
11.3143907719
 30
0.0
 10
9.9132412217
 20
11.3140867442
 30
0.0
 10
9.9159964891
 20
11.3134936356
 30
0.0
 10
9.9191326382
 20
11.3126579995
 30
0.0
 10
9.922561844
 20
11.3116038874
 30
0.0
 10
9.9249230648
 20
11.3107937898
 30
0.0
 10
9.9261360123
 20
11.3103574858
 30
0.0
  0
SPLINE
  5
3C7
100
AcDbEntity
  8
0
100
AcDbSpline
 62
7
  6
CONTINUOUS
 70
0
 71
3
 72
14
 73
10
 74
0
 42
0.0000001
 43
0.0000001
 44
0.0000000001
 40
0.0
 40
0.0
 40
0.0
 40
0.0
 40
0.0600196419
 40
0.1310569255
 40
0.2202665595
 40
0.3310331629
 40
0.464444518
 40
0.6206528843
 40
1.0
 40
1.0
 40
1.0
 40
1.0
 10
9.740232487
 20
11.3896252878
 30
0.0
 10
9.7402794431
 20
11.3897303422
 30
0.0
 10
9.7404424384
 20
11.3899344625
 30
0.0
 10
9.7408201244
 20
11.3901380355
 30
0.0
 10
9.7413265681
 20
11.3902669825
 30
0.0
 10
9.7419647189
 20
11.3903259765
 30
0.0
 10
9.7427332294
 20
11.3903170406
 30
0.0
 10
9.7440117852
 20
11.3902060308
 30
0.0
 10
9.7450250239
 20
11.3900276922
 30
0.0
 10
9.7457371692
 20
11.3898800332
 30
0.0
  0
SPLINE
  5
3C8
100
AcDbEntity
  8
0
100
AcDbSpline
 62
7
  6
CONTINUOUS
 70
0
 71
3
 72
11
 73
7
 74
0
 42
0.0000001
 43
0.0000001
 44
0.0000000001
 40
0.0
 40
0.0
 40
0.0
 40
0.0
 40
0.2027767414
 40
0.4451027127
 40
0.7160966261
 40
1.0
 40
1.0
 40
1.0
 40
1.0
 10
9.7457371692
 20
11.3898800332
 30
0.0
 10
9.7469396531
 20
11.3896307056
 30
0.0
 10
9.7495503678
 20
11.3889462704
 30
0.0
 10
9.7536745509
 20
11.3876003823
 30
0.0
 10
9.758190114
 20
11.385886922
 30
0.0
 10
9.761284482
 20
11.3845737002
 30
0.0
 10
9.762853831
 20
11.3838712658
 30
0.0
  0
SPLINE
  5
3C9
100
AcDbEntity
  8
0
100
AcDbSpline
 62
7
  6
CONTINUOUS
 70
0
 71
3
 72
18
 73
14
 74
0
 42
0.0000001
 43
0.0000001
 44
0.0000000001
 40
0.0
 40
0.0
 40
0.0
 40
0.0
 40
0.0180196768
 40
0.0392824296
 40
0.0660373205
 40
0.099370818
 40
0.1397859434
 40
0.1874719318
 40
0.3040599654
 40
0.4472530567
 40
0.6143844213
 40
0.8006287853
 40
1.0
 40
1.0
 40
1.0
 40
1.0
 10
9.5732858524
 20
11.4654945882
 30
0.0
 10
9.5733299077
 20
11.4655918726
 30
0.0
 10
9.5734839723
 20
11.4657795411
 30
0.0
 10
9.5738402777
 20
11.4659571918
 30
0.0
 10
9.5743142668
 20
11.4660596429
 30
0.0
 10
9.5749107788
 20
11.4660910468
 30
0.0
 10
9.5756303136
 20
11.4660515471
 30
0.0
 10
9.5768336536
 20
11.4658912631
 30
0.0
 10
9.5786147805
 20
11.4654932175
 30
0.0
 10
9.5810425403
 20
11.464777387
 30
0.0
 10
9.5838209539
 20
11.4638039349
 30
0.0
 10
9.5868700535
 20
11.4626047457
 30
0.0
 10
9.5889696645
 20
11.4617011271
 30
0.0
 10
9.5900481468
 20
11.4612184027
 30
0.0
  0
SPLINE
  5
3CA
100
AcDbEntity
  8
0
100
AcDbSpline
 62
7
  6
CONTINUOUS
 70
0
 71
3
 72
15
 73
11
 74
0
 42
0.0000001
 43
0.0000001
 44
0.0000000001
 40
0.0
 40
0.0
 40
0.0
 40
0.0
 40
0.0941571355
 40
0.1332973805
 40
0.1793999041
 40
0.2927111482
 40
0.4339721845
 40
0.6013152427
 40
0.7912288855
 40
1.0
 40
1.0
 40
1.0
 40
1.0
 10
9.4177159414
 20
11.5361849718
 30
0.0
 10
9.4178678227
 20
11.5365284793
 30
0.0
 10
9.4185620391
 20
11.5366392922
 30
0.0
 10
9.419247924
 20
11.5366057127
 30
0.0
 10
9.4200432751
 20
11.5365084982
 30
0.0
 10
9.4212106942
 20
11.5362472655
 30
0.0
 10
9.4228261265
 20
11.5357651989
 30
0.0
 10
9.4246999479
 20
11.5350995804
 30
0.0
 10
9.4267989621
 20
11.5342661093
 30
0.0
 10
9.4282587772
 20
11.5336346809
 30
0.0
 10
9.4290188844
 20
11.5332944599
 30
0.0
  0
SPLINE
  5
3CB
100
AcDbEntity
  8
0
100
AcDbSpline
 62
7
  6
CONTINUOUS
 70
0
 71
3
 72
16
 73
12
 74
0
 42
0.0000001
 43
0.0000001
 44
0.0000000001
 40
0.0
 40
0.0
 40
0.0
 40
0.0
 40
0.0400200777
 40
0.0657611932
 40
0.097184559
 40
0.1796239647
 40
0.2903143109
 40
0.4292639949
 40
0.5950317214
 40
0.7858914486
 40
1.0
 40
1.0
 40
1.0
 40
1.0
 10
9.2841194383
 20
11.5968847015
 30
0.0
 10
9.2841580642
 20
11.5969704465
 30
0.0
 10
9.284291154
 20
11.5970787504
 30
0.0
 10
9.2845115002
 20
11.5971375539
 30
0.0
 10
9.2848398541
 20
11.5971687165
 30
0.0
 10
9.2853680145
 20
11.5971147557
 30
0.0
 10
9.2861302666
 20
11.5969456101
 30
0.0
 10
9.2870653246
 20
11.5966624375
 30
0.0
 10
9.2881620773
 20
11.5962701327
 30
0.0
 10
9.2894075896
 20
11.5957719845
 30
0.0
 10
9.2902806897
 20
11.595393124
 30
0.0
 10
9.2907399219
 20
11.5951875735
 30
0.0
  0
SPLINE
  5
3CC
100
AcDbEntity
  8
0
100
AcDbSpline
 62
7
  6
CONTINUOUS
 70
0
 71
3
 72
14
 73
10
 74
0
 42
0.0000001
 43
0.0000001
 44
0.0000000001
 40
0.0
 40
0.0
 40
0.0
 40
0.0
 40
0.0406382205
 40
0.0974901491
 40
0.1793565965
 40
0.288533185
 40
0.4254714496
 40
0.5900040587
 40
1.0
 40
1.0
 40
1.0
 40
1.0
 10
9.1816062371
 20
11.6434577032
 30
0.0
 10
9.181624038
 20
11.6434976337
 30
0.0
 10
9.1817127225
 20
11.6435714616
 30
0.0
 10
9.1819089747
 20
11.6435917798
 30
0.0
 10
9.1821745262
 20
11.6435673942
 30
0.0
 10
9.1825197358
 20
11.6434896841
 30
0.0
 10
9.1829426396
 20
11.6433617584
 30
0.0
 10
9.1836631233
 20
11.6431024905
 30
0.0
 10
9.1842321562
 20
11.6428600257
 30
0.0
 10
9.1846347421
 20
11.6426798299
 30
0.0
  0
SPLINE
  5
3CD
100
AcDbEntity
  8
0
100
AcDbSpline
 62
7
  6
CONTINUOUS
 70
0
 71
3
 72
25
 73
21
 74
0
 42
0.0000001
 43
0.0000001
 44
0.0000000001
 40
0.0
 40
0.0
 40
0.0
 40
0.0
 40
0.000749723
 40
0.0020878749
 40
0.0067944395
 40
0.0142884984
 40
0.0245791659
 40
0.0376571293
 40
0.0534761504
 40
0.0719345987
 40
0.0929246562
 40
0.1420655582
 40
0.200028047
 40
0.2658283547
 40
0.338273689
 40
0.4161477167
 40
0.4982079439
 40
0.6693415722
 40
0.8403750197
 40
1.0
 40
1.0
 40
1.0
 40
1.0
 10
9.9940551748
 20
11.1458964274
 30
0.0
 10
9.994059229
 20
11.1459042242
 30
0.0
 10
9.9940838928
 20
11.1459158166
 30
0.0
 10
9.9941610959
 20
11.1459264768
 30
0.0
 10
9.9943221508
 20
11.1459214526
 30
0.0
 10
9.9945833994
 20
11.1458960549
 30
0.0
 10
9.9949424475
 20
11.1458473169
 30
0.0
 10
9.9953959186
 20
11.1457752927
 30
0.0
 10
9.9959427902
 20
11.1456796973
 30
0.0
 10
9.9965796396
 20
11.1455610818
 30
0.0
 10
9.9975988281
 20
11.1453621706
 30
0.0
 10
9.9990693588
 20
11.1450589067
 30
0.0
 10
10.0010502502
 20
11.1446304038
 30
0.0
 10
10.003294261
 20
11.1441266202
 30
0.0
 10
10.0057623941
 20
11.1435559264
 30
0.0
 10
10.0084126748
 20
11.1429271688
 30
0.0
 10
10.0121835819
 20
11.1420109667
 30
0.0
 10
10.0170070484
 20
11.1408020963
 30
0.0
 10
10.0226994137
 20
11.1393213567
 30
0.0
 10
10.0264418684
 20
11.1383132019
 30
0.0
 10
10.0282459549
 20
11.137817161
 30
0.0
  0
LINE
  5
3CE
100
AcDbEntity
  8
0
100
AcDbLine
 62
7
  6
CONTINUOUS
 10
10.0282459549
 20
11.137817161
 11
10.039129055
 21
11.1345606028
  0
SPLINE
  5
3CF
100
AcDbEntity
  8
0
100
AcDbSpline
 62
7
  6
CONTINUOUS
 70
0
 71
3
 72
18
 73
14
 74
0
 42
0.0000001
 43
0.0000001
 44
0.0000000001
 40
0.0
 40
0.0
 40
0.0
 40
0.0
 40
0.012887677
 40
0.0319013753
 40
0.0586961738
 40
0.0935649083
 40
0.1363853125
 40
0.1869061787
 40
0.3096631777
 40
0.457750307
 40
0.6261170325
 40
0.8090652876
 40
1.0
 40
1.0
 40
1.0
 40
1.0
 10
9.9259883879
 20
11.1774215947
 30
0.0
 10
9.9260291902
 20
11.1775125149
 30
0.0
 10
9.926233736
 20
11.1776819941
 30
0.0
 10
9.9266714388
 20
11.1778071158
 30
0.0
 10
9.9272933093
 20
11.1778808674
 30
0.0
 10
9.9281018488
 20
11.1778896754
 30
0.0
 10
9.929092397
 20
11.1778376444
 30
0.0
 10
9.930755574
 20
11.1776716305
 30
0.0
 10
9.9332127296
 20
11.1772904869
 30
0.0
 10
9.9365444472
 20
11.1766287668
 30
0.0
 10
9.9403063869
 20
11.1757539213
 30
0.0
 10
9.9443642437
 20
11.1746963808
 30
0.0
 10
9.9471449656
 20
11.1739040942
 30
0.0
 10
9.9485604004
 20
11.1734840982
 30
0.0
  0
SPLINE
  5
3D0
100
AcDbEntity
  8
0
100
AcDbSpline
 62
7
  6
CONTINUOUS
 70
0
 71
3
 72
10
 73
6
 74
0
 42
0.0000001
 43
0.0000001
 44
0.0000000001
 40
0.0
 40
0.0
 40
0.0
 40
0.0
 40
0.5512934713
 40
0.7953573789
 40
1.0
 40
1.0
 40
1.0
 40
1.0
 10
9.9485604004
 20
11.1734840982
 30
0.0
 10
9.9518154028
 20
11.1725182552
 30
0.0
 10
9.9564809881
 20
11.1710155482
 30
0.0
 10
9.962256196
 20
11.1688747088
 30
0.0
 10
9.9648134368
 20
11.1678239779
 30
0.0
 10
9.9659638018
 20
11.1673090791
 30
0.0
  0
SPLINE
  5
3D1
100
AcDbEntity
  8
0
100
AcDbSpline
 62
7
  6
CONTINUOUS
 70
0
 71
3
 72
19
 73
15
 74
0
 42
0.0000001
 43
0.0000001
 44
0.0000000001
 40
0.0
 40
0.0
 40
0.0
 40
0.0
 40
0.0174924003
 40
0.0391203488
 40
0.0668954847
 40
0.1016137677
 40
0.1435473821
 40
0.1927410298
 40
0.249071331
 40
0.312169271
 40
0.4568567409
 40
0.6230118841
 40
0.8059016113
 40
1.0
 40
1.0
 40
1.0
 40
1.0
 10
9.7872377399
 20
11.2416309144
 30
0.0
 10
9.7872871096
 20
11.2417423943
 30
0.0
 10
9.7874721407
 20
11.2419594179
 30
0.0
 10
9.7878975524
 20
11.242166137
 30
0.0
 10
9.7884709181
 20
11.2423005603
 30
0.0
 10
9.7891976965
 20
11.2423641056
 30
0.0
 10
9.7900756736
 20
11.2423574092
 30
0.0
 10
9.791101066
 20
11.2422787277
 30
0.0
 10
9.7922670333
 20
11.2421277571
 30
0.0
 10
9.7940820361
 20
11.241817827
 30
0.0
 10
9.7966276053
 20
11.2412510173
 30
0.0
 10
9.7999494059
 20
11.2403487199
 30
0.0
 10
9.8035642745
 20
11.2392217944
 30
0.0
 10
9.8060475572
 20
11.2383614992
 30
0.0
 10
9.8073193157
 20
11.2379000928
 30
0.0
  0
LINE
  5
3D2
100
AcDbEntity
  8
0
100
AcDbLine
 62
7
  6
CONTINUOUS
 10
9.8073193157
 20
11.2379000928
 11
9.8168335355
 21
11.234059193
  0
SPLINE
  5
3D3
100
AcDbEntity
  8
0
100
AcDbSpline
 62
7
  6
CONTINUOUS
 70
0
 71
3
 72
18
 73
14
 74
0
 42
0.0000001
 43
0.0000001
 44
0.0000000001
 40
0.0
 40
0.0
 40
0.0
 40
0.0
 40
0.0177865728
 40
0.0388850655
 40
0.0655680152
 40
0.098906314
 40
0.1393816494
 40
0.1871757284
 40
0.3040844584
 40
0.4475983505
 40
0.6149138823
 40
0.8011000985
 40
1.0
 40
1.0
 40
1.0
 40
1.0
 10
9.6199420649
 20
11.3189600087
 30
0.0
 10
9.6199863816
 20
11.3190581397
 30
0.0
 10
9.6201434434
 20
11.3192473484
 30
0.0
 10
9.6205070301
 20
11.3194232115
 30
0.0
 10
9.6209908718
 20
11.319522106
 30
0.0
 10
9.621600392
 20
11.3195481923
 30
0.0
 10
9.6223360105
 20
11.3195017481
 30
0.0
 10
9.6235668878
 20
11.3193290176
 30
0.0
 10
9.625388294
 20
11.318911598
 30
0.0
 10
9.6278701018
 20
11.3181697602
 30
0.0
 10
9.6307082632
 20
11.3171679219
 30
0.0
 10
9.6338191856
 20
11.3159397667
 30
0.0
 10
9.6359605068
 20
11.3150172412
 30
0.0
 10
9.637059512
 20
11.3145253308
 30
0.0
  0
SPLINE
  5
3D4
100
AcDbEntity
  8
0
100
AcDbSpline
 62
7
  6
CONTINUOUS
 70
0
 71
3
 72
16
 73
12
 74
0
 42
0.0000001
 43
0.0000001
 44
0.0000000001
 40
0.0
 40
0.0
 40
0.0
 40
0.0
 40
0.0392394661
 40
0.0647007542
 40
0.09592115
 40
0.1781604002
 40
0.2888583657
 40
0.4278919713
 40
0.59387404
 40
0.7851615444
 40
1.0
 40
1.0
 40
1.0
 40
1.0
 10
9.4749455675
 20
11.3859100046
 30
0.0
 10
9.4749817744
 20
11.3859904174
 30
0.0
 10
9.4751085516
 20
11.3860912355
 30
0.0
 10
9.4753171685
 20
11.3861438895
 30
0.0
 10
9.4756300024
 20
11.3861699189
 30
0.0
 10
9.4761336109
 20
11.3861136479
 30
0.0
 10
9.4768612925
 20
11.3859472702
 30
0.0
 10
9.4777550552
 20
11.3856725166
 30
0.0
 10
9.478804479
 20
11.3852939243
 30
0.0
 10
9.4799978033
 20
11.3848145522
 30
0.0
 10
9.4808350375
 20
11.3844507842
 30
0.0
 10
9.4812757413
 20
11.3842535269
 30
0.0
  0
LINE
  5
3D5
100
AcDbEntity
  8
0
100
AcDbLine
 62
7
  6
CONTINUOUS
 10
14.3580357613
 20
7.6559103285
 11
14.3596325834
 21
7.6572512471
  0
SPLINE
  5
3D6
100
AcDbEntity
  8
0
100
AcDbSpline
 62
7
  6
CONTINUOUS
 70
0
 71
3
 72
14
 73
10
 74
0
 42
0.0000001
 43
0.0000001
 44
0.0000000001
 40
0.0
 40
0.0
 40
0.0
 40
0.0
 40
0.0402900664
 40
0.096972236
 40
0.1788091514
 40
0.2880404053
 40
0.4250827899
 40
0.5897446556
 40
1.0
 40
1.0
 40
1.0
 40
1.0
 10
9.3135147514
 20
11.5197553557
 30
0.0
 10
9.3135325657
 20
11.5197953594
 30
0.0
 10
9.3136221875
 20
11.5198691677
 30
0.0
 10
9.3138199088
 20
11.5198884321
 30
0.0
 10
9.3140879419
 20
11.51986294
 30
0.0
 10
9.3144366526
 20
11.5197835704
 30
0.0
 10
9.3148640206
 20
11.5196536156
 30
0.0
 10
9.3155921962
 20
11.5193908379
 30
0.0
 10
9.3161674215
 20
11.5191455913
 30
0.0
 10
9.3165744155
 20
11.5189634224
 30
0.0
  0
SPLINE
  5
3D7
100
AcDbEntity
  8
0
100
AcDbSpline
 62
7
  6
CONTINUOUS
 70
0
 71
3
 72
16
 73
12
 74
0
 42
0.0000001
 43
0.0000001
 44
0.0000000001
 40
0.0
 40
0.0
 40
0.0
 40
0.0
 40
0.2143868894
 40
0.4054379601
 40
0.5713080515
 40
0.7102677502
 40
0.8208841851
 40
0.9032388442
 40
0.9346007972
 40
0.9602542101
 40
1.0
 40
1.0
 40
1.0
 40
1.0
 10
10.0850572329
 20
11.1749935703
 30
0.0
 10
10.0855134733
 20
11.1747893589
 30
0.0
 10
10.0863719839
 20
11.1743934072
 30
0.0
 10
10.0875653759
 20
11.173801099
 30
0.0
 10
10.0885817441
 20
11.1732494734
 30
0.0
 10
10.0894101455
 20
11.1727459023
 30
0.0
 10
10.0900397208
 20
11.1722950745
 30
0.0
 10
10.090429442
 20
11.1719415339
 30
0.0
 10
10.0906242266
 20
11.1716792375
 30
0.0
 10
10.0907269523
 20
11.1714787971
 30
0.0
 10
10.0907355664
 20
11.1713094784
 30
0.0
 10
10.0906978917
 20
11.1712248123
 30
0.0
  0
SPLINE
  5
3D8
100
AcDbEntity
  8
0
100
AcDbSpline
 62
7
  6
CONTINUOUS
 70
0
 71
3
 72
10
 73
6
 74
0
 42
0.0000001
 43
0.0000001
 44
0.0000000001
 40
0.0
 40
0.0
 40
0.0
 40
0.0
 40
0.5776179744
 40
0.8117995491
 40
1.0
 40
1.0
 40
1.0
 40
1.0
 10
9.9386813371
 20
11.240510839
 30
0.0
 10
9.9406213269
 20
11.2396425073
 30
0.0
 10
9.943319641
 20
11.238351086
 30
0.0
 10
9.9465177178
 20
11.2365289984
 30
0.0
 10
9.9478157555
 20
11.2356694629
 30
0.0
 10
9.9483686478
 20
11.2352524579
 30
0.0
  0
SPLINE
  5
3D9
100
AcDbEntity
  8
0
100
AcDbSpline
 62
7
  6
CONTINUOUS
 70
0
 71
3
 72
13
 73
9
 74
0
 42
0.0000001
 43
0.0000001
 44
0.0000000001
 40
0.0
 40
0.0
 40
0.0
 40
0.0
 40
0.3717940891
 40
0.6540358776
 40
0.7633259014
 40
0.8541261172
 40
0.93070048
 40
1.0
 40
1.0
 40
1.0
 40
1.0
 10
9.9483686478
 20
11.2352524579
 30
0.0
 10
9.9486793439
 20
11.2350181233
 30
0.0
 10
9.9492111503
 20
11.2345864323
 30
0.0
 10
9.9497696452
 20
11.2340074927
 30
0.0
 10
9.9500449462
 20
11.2335821733
 30
0.0
 10
9.9501574753
 20
11.2333130135
 30
0.0
 10
9.9501923138
 20
11.2330639352
 30
0.0
 10
9.9501578434
 20
11.2329107822
 30
0.0
 10
9.9501283917
 20
11.2328444942
 30
0.0
  0
LINE
  5
3DA
100
AcDbEntity
  8
0
100
AcDbLine
 62
7
  6
CONTINUOUS
 10
9.7657457324
 20
11.3179161277
 11
9.7744282285
 21
11.3136223872
  0
SPLINE
  5
3DB
100
AcDbEntity
  8
0
100
AcDbSpline
 62
7
  6
CONTINUOUS
 70
0
 71
3
 72
9
 73
5
 74
0
 42
0.0000001
 43
0.0000001
 44
0.0000000001
 40
0.0
 40
0.0
 40
0.0
 40
0.0
 40
0.5469560903
 40
1.0
 40
1.0
 40
1.0
 40
1.0
 10
9.7744282285
 20
11.3136223872
 30
0.0
 10
9.7756534663
 20
11.3129487632
 30
0.0
 10
9.7778660815
 20
11.3116666439
 30
0.0
 10
9.7799988099
 20
11.3102510837
 30
0.0
 10
9.7809270199
 20
11.3095584802
 30
0.0
  0
SPLINE
  5
3DC
100
AcDbEntity
  8
0
100
AcDbSpline
 62
7
  6
CONTINUOUS
 70
0
 71
3
 72
14
 73
10
 74
0
 42
0.0000001
 43
0.0000001
 44
0.0000000001
 40
0.0
 40
0.0
 40
0.0
 40
0.0
 40
0.377621887
 40
0.5329972395
 40
0.6657981327
 40
0.7763586531
 40
0.8659616271
 40
0.9381094133
 40
1.0
 40
1.0
 40
1.0
 40
1.0
 10
9.7809270199
 20
11.3095584802
 30
0.0
 10
9.7814566033
 20
11.3091633203
 30
0.0
 10
9.7821880069
 20
11.3085814689
 30
0.0
 10
9.7830308862
 20
11.3077760881
 30
0.0
 10
9.7834970918
 20
11.3072557602
 30
0.0
 10
9.7838381008
 20
11.3067813805
 30
0.0
 10
9.7840521233
 20
11.3063523807
 30
0.0
 10
9.7841362262
 20
11.3059637357
 30
0.0
 10
9.7840921243
 20
11.3057245446
 30
0.0
 10
9.7840477088
 20
11.3056257753
 30
0.0
  0
LINE
  5
3DD
100
AcDbEntity
  8
0
100
AcDbLine
 62
7
  6
CONTINUOUS
 10
9.6011432347
 20
11.3908721783
 11
9.6064180651
 21
11.3876679942
  0
SPLINE
  5
3DE
100
AcDbEntity
  8
0
100
AcDbSpline
 62
7
  6
CONTINUOUS
 70
0
 71
3
 72
9
 73
5
 74
0
 42
0.0000001
 43
0.0000001
 44
0.0000000001
 40
0.0
 40
0.0
 40
0.0
 40
0.0
 40
0.5527866104
 40
1.0
 40
1.0
 40
1.0
 40
1.0
 10
9.6064180651
 20
11.3876679942
 30
0.0
 10
9.6075416075
 20
11.38693678
 30
0.0
 10
9.6095433244
 20
11.385566456
 30
0.0
 10
9.6114535702
 20
11.3840656752
 30
0.0
 10
9.6122611331
 20
11.3833417925
 30
0.0
  0
SPLINE
  5
3DF
100
AcDbEntity
  8
0
100
AcDbSpline
 62
7
  6
CONTINUOUS
 70
0
 71
3
 72
13
 73
9
 74
0
 42
0.0000001
 43
0.0000001
 44
0.0000000001
 40
0.0
 40
0.0
 40
0.0
 40
0.0
 40
0.3707793383
 40
0.6560176008
 40
0.76734354
 40
0.8592741235
 40
0.9348081185
 40
1.0
 40
1.0
 40
1.0
 40
1.0
 10
9.6122611331
 20
11.3833417925
 30
0.0
 10
9.6126559153
 20
11.3829879179
 30
0.0
 10
9.6133333394
 20
11.3823381812
 30
0.0
 10
9.6140412444
 20
11.3814926036
 30
0.0
 10
9.6143965092
 20
11.3808890929
 30
0.0
 10
9.6145442875
 20
11.3805164731
 30
0.0
 10
9.6145939434
 20
11.3801831356
 30
0.0
 10
9.6145513622
 20
11.3799802465
 30
0.0
 10
9.6145128829
 20
11.3798953426
 30
0.0
  0
LINE
  5
3E0
100
AcDbEntity
  8
0
100
AcDbLine
 62
7
  6
CONTINUOUS
 10
9.4325623751
 20
11.467047673
 11
9.4406486053
 21
11.4630208188
  0
SPLINE
  5
3E1
100
AcDbEntity
  8
0
100
AcDbSpline
 62
7
  6
CONTINUOUS
 70
0
 71
3
 72
10
 73
6
 74
0
 42
0.0000001
 43
0.0000001
 44
0.0000000001
 40
0.0
 40
0.0
 40
0.0
 40
0.0
 40
0.5228635842
 40
0.7729561726
 40
1.0
 40
1.0
 40
1.0
 40
1.0
 10
9.4406486053
 20
11.4630208188
 30
0.0
 10
9.4436348874
 20
11.4614088788
 30
0.0
 10
9.4479791105
 20
11.4588915687
 30
0.0
 10
9.4534420461
 20
11.4553860767
 30
0.0
 10
9.4559894789
 20
11.4536233181
 30
0.0
 10
9.457180317
 20
11.4527553489
 30
0.0
  0
LINE
  5
3E2
100
AcDbEntity
  8
0
100
AcDbLine
 62
7
  6
CONTINUOUS
 10
9.457180317
 20
11.4527553489
 11
9.4618378526
 21
11.4490111577
  0
LINE
  5
3E3
100
AcDbEntity
  8
0
100
AcDbLine
 62
7
  6
CONTINUOUS
 10
9.4618378526
 20
11.4490111577
 11
9.4625237464
 21
11.4483491552
  0
SPLINE
  5
3E4
100
AcDbEntity
  8
0
100
AcDbSpline
 62
7
  6
CONTINUOUS
 70
0
 71
3
 72
12
 73
8
 74
0
 42
0.0000001
 43
0.0000001
 44
0.0000000001
 40
0.0
 40
0.0
 40
0.0
 40
0.0
 40
0.3722053182
 40
0.6583554383
 40
0.7701141306
 40
0.8624012692
 40
1.0
 40
1.0
 40
1.0
 40
1.0
 10
9.4625237464
 20
11.4483491552
 30
0.0
 10
9.462792482
 20
11.4480773238
 30
0.0
 10
9.4632527759
 20
11.4475811899
 30
0.0
 10
9.4637312504
 20
11.4469481672
 30
0.0
 10
9.4639695659
 20
11.4465017617
 30
0.0
 10
9.4640906319
 20
11.446175133
 30
0.0
 10
9.4641035133
 20
11.4459178512
 30
0.0
 10
9.4640458349
 20
11.4457888482
 30
0.0
  0
SPLINE
  5
3E5
100
AcDbEntity
  8
0
100
AcDbSpline
 62
7
  6
CONTINUOUS
 70
0
 71
3
 72
16
 73
12
 74
0
 42
0.0000001
 43
0.0000001
 44
0.0000000001
 40
0.0
 40
0.0
 40
0.0
 40
0.0
 40
0.01761771
 40
0.04425182
 40
0.0794768768
 40
0.1228531543
 40
0.2317676769
 40
0.3650808633
 40
0.5161810425
 40
0.677537889
 40
1.0
 40
1.0
 40
1.0
 40
1.0
 10
9.2566668997
 20
11.5457777881
 30
0.0
 10
9.2568356332
 20
11.5457022637
 30
0.0
 10
9.2572475367
 20
11.5454868442
 30
0.0
 10
9.257974625
 20
11.5450786986
 30
0.0
 10
9.2589262966
 20
11.5445183448
 30
0.0
 10
9.2606094021
 20
11.5434992036
 30
0.0
 10
9.2631506509
 20
11.5419104146
 30
0.0
 10
9.2666269164
 20
11.5396855845
 30
0.0
 10
9.2705443218
 20
11.5371294641
 30
0.0
 10
9.2760960601
 20
11.5334464606
 30
0.0
 10
9.2802959651
 20
11.53059387
 30
0.0
 10
9.2830782262
 20
11.5286682561
 30
0.0
  0
SPLINE
  5
3E6
100
AcDbEntity
  8
0
100
AcDbSpline
 62
7
  6
CONTINUOUS
 70
0
 71
3
 72
20
 73
16
 74
0
 42
0.0000001
 43
0.0000001
 44
0.0000000001
 40
0.0
 40
0.0
 40
0.0
 40
0.0
 40
0.2090120688
 40
0.4014120508
 40
0.5729469843
 40
0.7195558532
 40
0.7825049795
 40
0.8380651829
 40
0.8858744073
 40
0.9255737115
 40
0.9568358798
 40
0.9795514492
 40
0.9937623586
 40
0.9977746568
 40
1.0
 40
1.0
 40
1.0
 40
1.0
 10
9.2830782262
 20
11.5286682561
 30
0.0
 10
9.2839365813
 20
11.5280741853
 30
0.0
 10
9.2855817596
 20
11.5269284649
 30
0.0
 10
9.2879193105
 20
11.5252779431
 30
0.0
 10
9.2899910579
 20
11.5237914294
 30
0.0
 10
9.2915267077
 20
11.5226669008
 30
0.0
 10
9.2925866792
 20
11.5218733228
 30
0.0
 10
9.2932473637
 20
11.5213698823
 30
0.0
 10
9.293811036
 20
11.5209305572
 30
0.0
 10
9.2942731774
 20
11.5205590744
 30
0.0
 10
9.2946317862
 20
11.5202573648
 30
0.0
 10
9.2948828004
 20
11.5200295246
 30
0.0
 10
9.2950270498
 20
11.519880032
 30
0.0
 10
9.2950834633
 20
11.5197977352
 30
0.0
 10
9.2950935099
 20
11.5197643131
 30
0.0
 10
9.2950893815
 20
11.5197539941
 30
0.0
  0
SPLINE
  5
3E7
100
AcDbEntity
  8
0
100
AcDbSpline
 62
9
  6
CONTINUOUS
 70
0
 71
3
 72
31
 73
27
 74
0
 42
0.0000001
 43
0.0000001
 44
0.0000000001
 40
0.0
 40
0.0
 40
0.0
 40
0.0
 40
0.0006837817
 40
0.0019676962
 40
0.0038541107
 40
0.0063385993
 40
0.00941527
 40
0.0130777341
 40
0.0173193932
 40
0.0221335483
 40
0.0334522682
 40
0.0469797127
 40
0.0626615396
 40
0.0804434686
 40
0.1002713517
 40
0.1220912122
 40
0.1714916657
 40
0.2282175883
 40
0.2918454894
 40
0.3619558896
 40
0.4381322441
 40
0.5199630599
 40
0.6070430581
 40
0.6989738937
 40
0.7953649678
 40
1.0
 40
1.0
 40
1.0
 40
1.0
 10
10.6804578979
 20
12.0530633034
 30
0.0
 10
10.6804951959
 20
12.0530142998
 30
0.0
 10
10.6805509672
 20
12.0528412308
 30
0.0
 10
10.6806445184
 20
12.052510147
 30
0.0
 10
10.6807524182
 20
12.0520106311
 30
0.0
 10
10.6808810882
 20
12.0513530012
 30
0.0
 10
10.6810254008
 20
12.0505346338
 30
0.0
 10
10.6811855988
 20
12.0495588094
 30
0.0
 10
10.681360103
 20
12.0484266913
 30
0.0
 10
10.681625312
 20
12.0466109693
 30
0.0
 10
10.6819836143
 20
12.0439637379
 30
0.0
 10
10.6824354957
 20
12.040341709
 30
0.0
 10
10.6829214133
 20
12.0361374867
 30
0.0
 10
10.6834335303
 20
12.0313652482
 30
0.0
 10
10.6839639711
 20
12.0260391478
 30
0.0
 10
10.684716886
 20
12.0178736757
 30
0.0
 10
10.6856481646
 20
12.0063877646
 30
0.0
 10
10.6866735324
 20
11.9911331858
 30
0.0
 10
10.6875858387
 20
11.9740031656
 30
0.0
 10
10.6883228135
 20
11.9551113949
 30
0.0
 10
10.6888225308
 20
11.9345718208
 30
0.0
 10
10.6890231139
 20
11.912498615
 30
0.0
 10
10.6888626967
 20
11.88900605
 30
0.0
 10
10.6882794575
 20
11.8642081104
 30
0.0
 10
10.6868262491
 20
11.8288460445
 30
0.0
 10
10.6849470323
 20
11.8017907724
 30
0.0
 10
10.6833028442
 20
11.7834342729
 30
0.0
  0
SPLINE
  5
3E8
100
AcDbEntity
  8
0
100
AcDbSpline
 62
9
  6
CONTINUOUS
 70
0
 71
3
 72
13
 73
9
 74
0
 42
0.0000001
 43
0.0000001
 44
0.0000000001
 40
0.0
 40
0.0
 40
0.0
 40
0.0
 40
0.1116250177
 40
0.2287081259
 40
0.3504021281
 40
0.4756280614
 40
0.7348602734
 40
1.0
 40
1.0
 40
1.0
 40
1.0
 10
10.6833028442
 20
11.7834342729
 30
0.0
 10
10.6608747834
 20
11.7949256739
 30
0.0
 10
10.6147988292
 20
11.8182302146
 30
0.0
 10
10.5439437239
 20
11.8534093697
 30
0.0
 10
10.4701498965
 20
11.8895714421
 30
0.0
 10
10.3673818616
 20
11.9395342638
 30
0.0
 10
10.2352704199
 20
12.0032055213
 30
0.0
 10
10.1285992287
 20
12.0545450073
 30
0.0
 10
10.074678486
 20
12.0805366508
 30
0.0
  0
SPLINE
  5
3E9
100
AcDbEntity
  8
0
100
AcDbSpline
 62
9
  6
CONTINUOUS
 70
0
 71
3
 72
16
 73
12
 74
0
 42
0.0000001
 43
0.0000001
 44
0.0000000001
 40
0.0
 40
0.0
 40
0.0
 40
0.0
 40
0.1533253212
 40
0.3060740886
 40
0.5937594982
 40
0.7208445058
 40
0.8323246204
 40
0.8814458058
 40
0.9258508928
 40
0.9653899634
 40
1.0
 40
1.0
 40
1.0
 40
1.0
 10
10.074678486
 20
12.0805366508
 30
0.0
 10
10.0444417117
 20
12.0951336085
 30
0.0
 10
9.9841144616
 20
12.1243403335
 30
0.0
 10
9.8671238667
 20
12.1810788676
 30
0.0
 10
9.7551397293
 20
12.2349795088
 30
0.0
 10
9.6506780123
 20
12.2836466729
 30
0.0
 10
9.5932632102
 20
12.309582819
 30
0.0
 10
9.5521172357
 20
12.3275397547
 30
0.0
 10
9.525297628
 20
12.338934248
 30
0.0
 10
9.501285149
 20
12.3488049579
 30
0.0
 10
9.4861803627
 20
12.3547655485
 30
0.0
 10
9.4791037457
 20
12.3574791065
 30
0.0
  0
SPLINE
  5
3EA
100
AcDbEntity
  8
0
100
AcDbSpline
 62
9
  6
CONTINUOUS
 70
0
 71
3
 72
15
 73
11
 74
0
 42
0.0000001
 43
0.0000001
 44
0.0000000001
 40
0.0
 40
0.0
 40
0.0
 40
0.0
 40
0.3862488668
 40
0.5439346257
 40
0.6785137039
 40
0.7904555807
 40
0.8805744419
 40
0.9499414329
 40
0.977273162
 40
1.0
 40
1.0
 40
1.0
 40
1.0
 10
9.4791037457
 20
12.3574791065
 30
0.0
 10
9.4707646993
 20
12.3606767482
 30
0.0
 10
9.4589704533
 20
12.3650537463
 30
0.0
 10
9.4441024046
 20
12.370066181
 30
0.0
 10
9.4351739325
 20
12.3728330396
 30
0.0
 10
9.4276654436
 20
12.3748948132
 30
0.0
 10
9.4215412038
 20
12.3762749289
 30
0.0
 10
9.4172646246
 20
12.3769385174
 30
0.0
 10
9.4145059661
 20
12.3770987156
 30
0.0
 10
9.4133463095
 20
12.3770673041
 30
0.0
 10
9.4128231448
 20
12.3770177631
 30
0.0
  0
SPLINE
  5
3EB
100
AcDbEntity
  8
0
100
AcDbSpline
 62
7
  6
CONTINUOUS
 70
0
 71
3
 72
18
 73
14
 74
0
 42
0.0000001
 43
0.0000001
 44
0.0000000001
 40
0.0
 40
0.0
 40
0.0
 40
0.0
 40
0.200724369
 40
0.3871351432
 40
0.5537462273
 40
0.6959998106
 40
0.811626485
 40
0.8589890765
 40
0.89924526
 40
0.9325869688
 40
0.9595666465
 40
0.9813078859
 40
1.0
 40
1.0
 40
1.0
 40
1.0
 10
9.8005454465
 20
11.2324632097
 30
0.0
 10
9.7995289897
 20
11.2329181718
 30
0.0
 10
9.797582116
 20
11.233826464
 30
0.0
 10
9.7948440825
 20
11.2352212635
 30
0.0
 10
9.7924476699
 20
11.2365681394
 30
0.0
 10
9.7904596748
 20
11.2378328615
 30
0.0
 10
9.7890975463
 20
11.238844132
 30
0.0
 10
9.7882571982
 20
11.2395973195
 30
0.0
 10
9.7877944567
 20
11.2400846785
 30
0.0
 10
9.7874567179
 20
11.2405309606
 30
0.0
 10
9.7872436228
 20
11.2409364979
 30
0.0
 10
9.7871559913
 20
11.2413064933
 30
0.0
 10
9.787195747
 20
11.2415360918
 30
0.0
 10
9.7872377399
 20
11.2416309144
 30
0.0
  0
SPLINE
  5
3EC
100
AcDbEntity
  8
0
100
AcDbSpline
 62
9
  6
CONTINUOUS
 70
0
 71
3
 72
35
 73
31
 74
0
 42
0.0000001
 43
0.0000001
 44
0.0000000001
 40
0.0
 40
0.0
 40
0.0
 40
0.0
 40
0.0050499906
 40
0.0092350127
 40
0.0126996349
 40
0.0156528714
 40
0.0183796692
 40
0.0211952507
 40
0.0243568427
 40
0.0280213496
 40
0.0370281893
 40
0.0481497006
 40
0.0611177495
 40
0.0757998
 40
0.0923334025
 40
0.1109244673
 40
0.1315859966
 40
0.1542327597
 40
0.178761796
 40
0.2051261326
 40
0.2333596689
 40
0.2634898385
 40
0.2955360653
 40
0.3295125591
 40
0.4032094443
 40
0.4844420386
 40
0.5730732637
 40
0.6690236091
 40
0.7722236887
 40
1.0
 40
1.0
 40
1.0
 40
1.0
 10
10.1563543069
 20
12.2630132972
 30
0.0
 10
10.1560880227
 20
12.263091504
 30
0.0
 10
10.1555951778
 20
12.2632165281
 30
0.0
 10
10.1549008499
 20
12.2633069969
 30
0.0
 10
10.1543145676
 20
12.2632809979
 30
0.0
 10
10.1538269722
 20
12.2631320752
 30
0.0
 10
10.1534410861
 20
12.2628535971
 30
0.0
 10
10.1531614613
 20
12.262456724
 30
0.0
 10
10.1529751557
 20
12.2619564375
 30
0.0
 10
10.1528178364
 20
12.2610981592
 30
0.0
 10
10.1527687705
 20
12.2597885035
 30
0.0
 10
10.1527322719
 20
12.2579711271
 30
0.0
 10
10.1525669568
 20
12.2558440285
 30
0.0
 10
10.1521020768
 20
12.2534520961
 30
0.0
 10
10.1511706952
 20
12.250869727
 30
0.0
 10
10.1498812393
 20
12.2480870599
 30
0.0
 10
10.1483288338
 20
12.2450597579
 30
0.0
 10
10.1466072559
 20
12.2417530571
 30
0.0
 10
10.1448162588
 20
12.2381291871
 30
0.0
 10
10.1430356921
 20
12.2341610877
 30
0.0
 10
10.141211664
 20
12.2298767889
 30
0.0
 10
10.1393018277
 20
12.2252898494
 30
0.0
 10
10.1372593043
 20
12.2204162584
 30
0.0
 10
10.1342171084
 20
12.2133659332
 30
0.0
 10
10.1299967727
 20
12.2038805836
 30
0.0
 10
10.1244898676
 20
12.1916805887
 30
0.0
 10
10.1184890434
 20
12.1783617062
 30
0.0
 10
10.1120023063
 20
12.1639376278
 30
0.0
 10
10.1024039652
 20
12.1425282352
 30
0.0
 10
10.094994605
 20
12.1259162952
 30
0.0
 10
10.0899088353
 20
12.1144781293
 30
0.0
  0
SPLINE
  5
3ED
100
AcDbEntity
  8
0
100
AcDbSpline
 62
9
  6
CONTINUOUS
 70
0
 71
3
 72
36
 73
32
 74
0
 42
0.0000001
 43
0.0000001
 44
0.0000000001
 40
0.0
 40
0.0
 40
0.0
 40
0.0
 40
0.1892917074
 40
0.284257763
 40
0.3776950512
 40
0.468267811
 40
0.5546952197
 40
0.6357495241
 40
0.7103611101
 40
0.7775595006
 40
0.836612981
 40
0.8628829408
 40
0.8869111395
 40
0.9086602269
 40
0.9280926492
 40
0.9451785543
 40
0.9599194589
 40
0.9723244777
 40
0.9776537991
 40
0.9824024217
 40
0.9865721598
 40
0.9901678712
 40
0.9931951604
 40
0.9956596117
 40
0.9975667889
 40
0.9983131331
 40
0.9989222357
 40
0.9993947862
 40
0.9997314727
 40
0.9999329822
 40
1.0
 40
1.0
 40
1.0
 40
1.0
 10
10.0899088353
 20
12.1144781293
 30
0.0
 10
10.0528981098
 20
12.1332316996
 30
0.0
 10
9.9970201654
 20
12.1608060432
 30
0.0
 10
9.9223351805
 20
12.196525795
 30
0.0
 10
9.866949734
 20
12.2224435819
 30
0.0
 10
9.8130383535
 20
12.2470898249
 30
0.0
 10
9.761385965
 20
12.270143919
 30
0.0
 10
9.7127242166
 20
12.2913088565
 30
0.0
 10
9.667736643
 20
12.3103480609
 30
0.0
 10
9.6270059008
 20
12.3270657611
 30
0.0
 10
9.5959381188
 20
12.3394147646
 30
0.0
 10
9.5735822517
 20
12.3480590839
 30
0.0
 10
9.5588181481
 20
12.3536638007
 30
0.0
 10
9.5454238063
 20
12.3586531035
 30
0.0
 10
9.5334270378
 20
12.36303426
 30
0.0
 10
9.5228474472
 20
12.3668172367
 30
0.0
 10
9.5136963398
 20
12.3700195823
 30
0.0
 10
9.5069617296
 20
12.3723250889
 30
0.0
 10
9.5022907833
 20
12.3738960522
 30
0.0
 10
9.4993273429
 20
12.3748813797
 30
0.0
 10
9.4967215142
 20
12.375737835
 30
0.0
 10
9.4944715598
 20
12.3764686336
 30
0.0
 10
9.4925749657
 20
12.3770773609
 30
0.0
 10
9.4910290079
 20
12.377567372
 30
0.0
 10
9.489958501
 20
12.3779028535
 30
0.0
 10
9.4892753588
 20
12.3781141962
 30
0.0
 10
9.4888925645
 20
12.3782329067
 30
0.0
 10
9.4885949284
 20
12.3783218494
 30
0.0
 10
9.4883837603
 20
12.3783908365
 30
0.0
 10
9.4882553736
 20
12.3784212442
 30
0.0
 10
9.4882004463
 20
12.3784463904
 30
0.0
 10
9.4881857807
 20
12.3784472307
 30
0.0
  0
SPLINE
  5
3EE
100
AcDbEntity
  8
0
100
AcDbSpline
 62
7
  6
CONTINUOUS
 70
0
 71
3
 72
15
 73
11
 74
0
 42
0.0000001
 43
0.0000001
 44
0.0000000001
 40
0.0
 40
0.0
 40
0.0
 40
0.0
 40
0.2144327485
 40
0.4045322434
 40
0.5690098528
 40
0.7067131346
 40
0.8167847587
 40
0.8992656874
 40
0.9572213707
 40
1.0
 40
1.0
 40
1.0
 40
1.0
 10
9.9304869232
 20
11.1743019217
 30
0.0
 10
9.9301170423
 20
11.1744674789
 30
0.0
 10
9.9294230662
 20
11.1747885067
 30
0.0
 10
9.9284618371
 20
11.1752709605
 30
0.0
 10
9.9276475084
 20
11.175721756
 30
0.0
 10
9.9269876836
 20
11.1761364302
 30
0.0
 10
9.9264855081
 20
11.1765100222
 30
0.0
 10
9.9261477917
 20
11.1768426774
 30
0.0
 10
9.9259553712
 20
11.1771402619
 30
0.0
 10
9.9259552877
 20
11.177347837
 30
0.0
 10
9.9259883879
 20
11.1774215947
 30
0.0
  0
SPLINE
  5
3EF
100
AcDbEntity
  8
0
100
AcDbSpline
 62
7
  6
CONTINUOUS
 70
0
 71
3
 72
27
 73
23
 74
0
 42
0.0000001
 43
0.0000001
 44
0.0000000001
 40
0.0
 40
0.0
 40
0.0
 40
0.0
 40
0.031289954
 40
0.0775913649
 40
0.1372775099
 40
0.2082849279
 40
0.3743476478
 40
0.4640942144
 40
0.5545765188
 40
0.6430179757
 40
0.7266749877
 40
0.802901999
 40
0.8693661777
 40
0.8982293224
 40
0.9238276924
 40
0.945975899
 40
0.9645036155
 40
0.9792452044
 40
0.9900471688
 40
0.9968377162
 40
0.9988040063
 40
1.0
 40
1.0
 40
1.0
 40
1.0
 10
9.1551759957
 20
11.6469789804
 30
0.0
 10
9.1547380197
 20
11.6471750167
 30
0.0
 10
9.1536848423
 20
11.6477319957
 30
0.0
 10
9.1518578031
 20
11.6487770738
 30
0.0
 10
9.1495345613
 20
11.6501814767
 30
0.0
 10
9.1456747825
 20
11.6525924137
 30
0.0
 10
9.1414686027
 20
11.6553184425
 30
0.0
 10
9.1370424883
 20
11.6582529686
 30
0.0
 10
9.1336246936
 20
11.6605540647
 30
0.0
 10
9.1303001306
 20
11.6628262229
 30
0.0
 10
9.1271722015
 20
11.6649984908
 30
0.0
 10
9.124338798
 20
11.6670037661
 30
0.0
 10
9.1222080232
 20
11.6685470518
 30
0.0
 10
9.1207197857
 20
11.6696535309
 30
0.0
 10
9.1197843054
 20
11.6703642584
 30
0.0
 10
9.1189831947
 20
11.6709899275
 30
0.0
 10
9.1183232853
 20
11.6715251137
 30
0.0
 10
9.1178093483
 20
11.671965321
 30
0.0
 10
9.1174488418
 20
11.672303741
 30
0.0
 10
9.1172455414
 20
11.6725291803
 30
0.0
 10
9.1171691204
 20
11.6726598618
 30
0.0
 10
9.1171615582
 20
11.6727127102
 30
0.0
 10
9.1171692145
 20
11.6727293769
 30
0.0
  0
SPLINE
  5
3F0
100
AcDbEntity
  8
0
100
AcDbSpline
 62
7
  6
CONTINUOUS
 70
0
 71
3
 72
9
 73
5
 74
0
 42
0.0000001
 43
0.0000001
 44
0.0000000001
 40
0.0
 40
0.0
 40
0.0
 40
0.0
 40
0.5003065065
 40
1.0
 40
1.0
 40
1.0
 40
1.0
 10
12.0111705572
 20
10.5362446806
 30
0.0
 10
12.0275061175
 20
10.5195394532
 30
0.0
 10
12.0592201427
 20
10.4852338477
 30
0.0
 10
12.089788033
 20
10.4499187992
 30
0.0
 10
12.1047882525
 20
10.4320422337
 30
0.0
  0
SPLINE
  5
3F1
100
AcDbEntity
  8
0
100
AcDbSpline
 62
7
  6
CONTINUOUS
 70
0
 71
3
 72
10
 73
6
 74
0
 42
0.0000001
 43
0.0000001
 44
0.0000000001
 40
0.0
 40
0.0
 40
0.0
 40
0.0
 40
0.5025468674
 40
0.7515405278
 40
1.0
 40
1.0
 40
1.0
 40
1.0
 10
12.0907700331
 20
10.6030365715
 30
0.0
 10
12.1095260499
 20
10.5887067428
 30
0.0
 10
12.1358881341
 20
10.5650457485
 30
0.0
 10
12.1684925282
 20
10.531238951
 30
0.0
 10
12.1839135524
 20
10.5136698994
 30
0.0
 10
12.1914146635
 20
10.5047304233
 30
0.0
  0
SPLINE
  5
3F2
100
AcDbEntity
  8
0
100
AcDbSpline
 62
7
  6
CONTINUOUS
 70
0
 71
3
 72
14
 73
10
 74
0
 42
0.0000001
 43
0.0000001
 44
0.0000000001
 40
0.0
 40
0.0
 40
0.0
 40
0.0
 40
0.1292333549
 40
0.2564002816
 40
0.382077228
 40
0.5067216942
 40
0.6306473243
 40
0.7540553041
 40
1.0
 40
1.0
 40
1.0
 40
1.0
 10
12.1627861028
 20
10.663465229
 30
0.0
 10
12.1680808989
 20
10.6603676134
 30
0.0
 10
12.178407661
 20
10.6539121144
 30
0.0
 10
12.1932436193
 20
10.6434673778
 30
0.0
 10
12.2073735554
 20
10.6324381949
 30
0.0
 10
12.2209000592
 20
10.6209156764
 30
0.0
 10
12.2339020822
 20
10.6089630341
 30
0.0
 10
12.2505292804
 20
10.5924718804
 30
0.0
 10
12.2622841267
 20
10.5794366664
 30
0.0
 10
12.2697882154
 20
10.5704936418
 30
0.0
  0
SPLINE
  5
3F3
100
AcDbEntity
  8
0
100
AcDbSpline
 62
7
  6
CONTINUOUS
 70
0
 71
3
 72
10
 73
6
 74
0
 42
0.0000001
 43
0.0000001
 44
0.0000000001
 40
0.0
 40
0.0
 40
0.0
 40
0.0
 40
0.1851315347
 40
0.4223494235
 40
1.0
 40
1.0
 40
1.0
 40
1.0
 10
9.2176820733
 20
11.6190015087
 30
0.0
 10
9.216749867
 20
11.6194187606
 30
0.0
 10
9.2146651684
 20
11.6204631687
 30
0.0
 10
9.2098307133
 20
11.623121315
 30
0.0
 10
9.2059877105
 20
11.6254586121
 30
0.0
 10
9.2032912276
 20
11.62715697
 30
0.0
  0
SPLINE
  5
3F4
100
AcDbEntity
  8
0
100
AcDbSpline
 62
7
  6
CONTINUOUS
 70
0
 71
3
 72
19
 73
15
 74
0
 42
0.0000001
 43
0.0000001
 44
0.0000000001
 40
0.0
 40
0.0
 40
0.0
 40
0.0
 40
0.182807591
 40
0.3632209688
 40
0.5331562898
 40
0.6852477071
 40
0.8125852571
 40
0.8652333454
 40
0.9097282237
 40
0.9455079185
 40
0.9722613909
 40
0.9822666907
 40
0.9900895914
 40
1.0
 40
1.0
 40
1.0
 40
1.0
 10
9.2032912276
 20
11.62715697
 30
0.0
 10
9.2018835015
 20
11.6280436149
 30
0.0
 10
9.1991029503
 20
11.6298315534
 30
0.0
 10
9.1950674852
 20
11.6325260249
 30
0.0
 10
9.1913120698
 20
11.6351352669
 30
0.0
 10
9.1880038244
 20
11.6375399155
 30
0.0
 10
9.185608843
 20
11.6393843023
 30
0.0
 10
9.1840343671
 20
11.6406865513
 30
0.0
 10
9.1831256019
 20
11.6414850504
 30
0.0
 10
9.1824230586
 20
11.6421612781
 30
0.0
 10
9.181979446
 20
11.6426493176
 30
0.0
 10
9.1817412377
 20
11.6429823502
 30
0.0
 10
9.1816208298
 20
11.6431966764
 30
0.0
 10
9.1815695138
 20
11.6433753263
 30
0.0
 10
9.1816062371
 20
11.6434577032
 30
0.0
  0
SPLINE
  5
3F5
100
AcDbEntity
  8
0
100
AcDbSpline
 62
7
  6
CONTINUOUS
 70
0
 71
3
 72
17
 73
13
 74
0
 42
0.0000001
 43
0.0000001
 44
0.0000000001
 40
0.0
 40
0.0
 40
0.0
 40
0.0
 40
0.0131966074
 40
0.0322341858
 40
0.0587403108
 40
0.0930714769
 40
0.1352135197
 40
0.1850175573
 40
0.3063544154
 40
0.453294446
 40
0.6214529634
 40
1.0
 40
1.0
 40
1.0
 40
1.0
 10
10.0906978917
 20
11.1712248123
 30
0.0
 10
10.090659751
 20
11.1711390988
 30
0.0
 10
10.0904748248
 20
11.170977199
 30
0.0
 10
10.0900736139
 20
11.1708536674
 30
0.0
 10
10.089509055
 20
11.1707771184
 30
0.0
 10
10.0887763897
 20
11.170759249
 30
0.0
 10
10.0878789977
 20
11.1707963825
 30
0.0
 10
10.0863684321
 20
11.1709325139
 30
0.0
 10
10.0841294645
 20
11.1712590971
 30
0.0
 10
10.0810801761
 20
11.171834869
 30
0.0
 10
10.076266113
 20
11.1729062595
 30
0.0
 10
10.0725065368
 20
11.1738992803
 30
0.0
 10
10.069919096
 20
11.1746391307
 30
0.0
  0
SPLINE
  5
3F6
100
AcDbEntity
  8
0
100
AcDbSpline
 62
7
  6
CONTINUOUS
 70
0
 71
3
 72
10
 73
6
 74
0
 42
0.0000001
 43
0.0000001
 44
0.0000000001
 40
0.0
 40
0.0
 40
0.0
 40
0.0
 40
0.5401650006
 40
0.787007099
 40
1.0
 40
1.0
 40
1.0
 40
1.0
 10
10.069919096
 20
11.1746391307
 30
0.0
 10
10.0666245743
 20
11.1755811633
 30
0.0
 10
10.0618569814
 20
11.1770753466
 30
0.0
 10
10.0559002301
 20
11.1792585556
 30
0.0
 10
10.0532001887
 20
11.1803661894
 30
0.0
 10
10.0519669584
 20
11.1809181784
 30
0.0
  0
SPLINE
  5
3F7
100
AcDbEntity
  8
0
100
AcDbSpline
 62
7
  6
CONTINUOUS
 70
0
 71
3
 72
18
 73
14
 74
0
 42
0.0000001
 43
0.0000001
 44
0.0000000001
 40
0.0
 40
0.0
 40
0.0
 40
0.0
 40
0.0358671635
 40
0.063635144
 40
0.0989525294
 40
0.1418757808
 40
0.1922648278
 40
0.2498881336
 40
0.3143469268
 40
0.4614124931
 40
0.628590427
 40
0.8102857621
 40
1.0
 40
1.0
 40
1.0
 40
1.0
 10
9.9501283917
 20
11.2328444942
 30
0.0
 10
9.9500140922
 20
11.2325872367
 30
0.0
 10
9.9494963755
 20
11.2323291067
 30
0.0
 10
9.948749123
 20
11.2322009444
 30
0.0
 10
9.9479104569
 20
11.2321531729
 30
0.0
 10
9.9469028794
 20
11.2321849103
 30
0.0
 10
9.9457216995
 20
11.2322905019
 30
0.0
 10
9.9443802405
 20
11.2324727494
 30
0.0
 10
9.9422981241
 20
11.2328318805
 30
0.0
 10
9.9393931819
 20
11.2334673563
 30
0.0
 10
9.9356285385
 20
11.2344599453
 30
0.0
 10
9.9315817413
 20
11.2356842354
 30
0.0
 10
9.9288196256
 20
11.2366178229
 30
0.0
 10
9.9274169466
 20
11.2371173974
 30
0.0
  0
LINE
  5
3F8
100
AcDbEntity
  8
0
100
AcDbLine
 62
7
  6
CONTINUOUS
 10
9.9274169466
 20
11.2371173974
 11
9.9181766536
 21
11.2408021866
  0
LINE
  5
3F9
100
AcDbEntity
  8
0
100
AcDbLine
 62
7
  6
CONTINUOUS
 10
9.3171148836
 20
11.5744957784
 11
9.3093696945
 21
11.5784169285
  0
SPLINE
  5
3FA
100
AcDbEntity
  8
0
100
AcDbSpline
 62
7
  6
CONTINUOUS
 70
0
 71
3
 72
17
 73
13
 74
0
 42
0.0000001
 43
0.0000001
 44
0.0000000001
 40
0.0
 40
0.0
 40
0.0
 40
0.0
 40
0.378072614
 40
0.546134122
 40
0.6930867502
 40
0.8144629247
 40
0.8643103524
 40
0.9065322842
 40
0.9409602823
 40
0.9675632452
 40
0.9866894263
 40
1.0
 40
1.0
 40
1.0
 40
1.0
 10
9.3005810078
 20
11.5836104514
 30
0.0
 10
9.2982954846
 20
11.5850476938
 30
0.0
 10
9.2950354845
 20
11.5871919695
 30
0.0
 10
9.2910117598
 20
11.5900751797
 30
0.0
 10
9.2885390986
 20
11.591972707
 30
0.0
 10
9.2867958329
 20
11.5934322143
 30
0.0
 10
9.2856831445
 20
11.5944746115
 30
0.0
 10
9.2850545137
 20
11.5951239503
 30
0.0
 10
9.2845773509
 20
11.5956871521
 30
0.0
 10
9.2842568387
 20
11.5961636874
 30
0.0
 10
9.2840816165
 20
11.5965498184
 30
0.0
 10
9.2840803979
 20
11.5967980363
 30
0.0
 10
9.2841194383
 20
11.5968847015
 30
0.0
  0
SPLINE
  5
3FB
100
AcDbEntity
  8
0
100
AcDbSpline
 62
7
  6
CONTINUOUS
 70
0
 71
3
 72
11
 73
7
 74
0
 42
0.0000001
 43
0.0000001
 44
0.0000000001
 40
0.0
 40
0.0
 40
0.0
 40
0.0
 40
0.2536836624
 40
0.5247027987
 40
0.7822981762
 40
1.0
 40
1.0
 40
1.0
 40
1.0
 10
9.4466982449
 20
11.5164947814
 30
0.0
 10
9.4445039528
 20
11.5174769377
 30
0.0
 10
9.4400395021
 20
11.5196743887
 30
0.0
 10
9.433560428
 20
11.5232835396
 30
0.0
 10
9.4275610098
 20
11.5270334531
 30
0.0
 10
9.4238788917
 20
11.5296368015
 30
0.0
 10
9.4222578075
 20
11.530912887
 30
0.0
  0
SPLINE
  5
3FC
100
AcDbEntity
  8
0
100
AcDbSpline
 62
7
  6
CONTINUOUS
 70
0
 71
3
 72
13
 73
9
 74
0
 42
0.0000001
 43
0.0000001
 44
0.0000000001
 40
0.0
 40
0.0
 40
0.0
 40
0.0
 40
0.3893599742
 40
0.5503019153
 40
0.6873145568
 40
0.7996532233
 40
0.8875014401
 40
1.0
 40
1.0
 40
1.0
 40
1.0
 10
9.4222578075
 20
11.530912887
 30
0.0
 10
9.4215286927
 20
11.5314868318
 30
0.0
 10
9.4205165515
 20
11.5323225055
 30
0.0
 10
9.4193250565
 20
11.5334488599
 30
0.0
 10
9.4186540691
 20
11.5341578218
 30
0.0
 10
9.4181481719
 20
11.534792632
 30
0.0
 10
9.4177634902
 20
11.5354086657
 30
0.0
 10
9.4176075246
 20
11.5359397672
 30
0.0
 10
9.4177159414
 20
11.5361849718
 30
0.0
  0
SPLINE
  5
3FD
100
AcDbEntity
  8
0
100
AcDbSpline
 62
7
  6
CONTINUOUS
 70
0
 71
3
 72
11
 73
7
 74
0
 42
0.0000001
 43
0.0000001
 44
0.0000000001
 40
0.0
 40
0.0
 40
0.0
 40
0.0
 40
0.2588703904
 40
0.5212567948
 40
0.7722027353
 40
1.0
 40
1.0
 40
1.0
 40
1.0
 10
9.5976012652
 20
11.4489511898
 30
0.0
 10
9.5960516835
 20
11.4496447763
 30
0.0
 10
9.5929619203
 20
11.4511099849
 30
0.0
 10
9.5884695782
 20
11.4534504826
 30
0.0
 10
9.584251649
 20
11.4558682201
 30
0.0
 10
9.5815968527
 20
11.4575473608
 30
0.0
 10
9.580358568
 20
11.4583831284
 30
0.0
  0
SPLINE
  5
3FE
100
AcDbEntity
  8
0
100
AcDbSpline
 62
7
  6
CONTINUOUS
 70
0
 71
3
 72
14
 73
10
 74
0
 42
0.0000001
 43
0.0000001
 44
0.0000000001
 40
0.0
 40
0.0
 40
0.0
 40
0.0
 40
0.2046750844
 40
0.3892259381
 40
0.5516299804
 40
0.6900040379
 40
0.8031280495
 40
0.8911025661
 40
1.0
 40
1.0
 40
1.0
 40
1.0
 10
9.580358568
 20
11.4583831284
 30
0.0
 10
9.5797754651
 20
11.4587766878
 30
0.0
 10
9.5786771794
 20
11.4595412429
 30
0.0
 10
9.5771598993
 20
11.4606781875
 30
0.0
 10
9.5758685766
 20
11.4617375476
 30
0.0
 10
9.5748226671
 20
11.4626968999
 30
0.0
 10
9.5740247319
 20
11.4635680012
 30
0.0
 10
9.5734162989
 20
11.4643989937
 30
0.0
 10
9.5731314485
 20
11.4651536279
 30
0.0
 10
9.5732858524
 20
11.4654945882
 30
0.0
  0
SPLINE
  5
3FF
100
AcDbEntity
  8
0
100
AcDbSpline
 62
7
  6
CONTINUOUS
 70
0
 71
3
 72
14
 73
10
 74
0
 42
0.0000001
 43
0.0000001
 44
0.0000000001
 40
0.0
 40
0.0
 40
0.0
 40
0.0
 40
0.1292333549
 40
0.2564002816
 40
0.382077228
 40
0.5067216942
 40
0.6306473243
 40
0.7540553041
 40
1.0
 40
1.0
 40
1.0
 40
1.0
 10
11.7773736574
 20
10.3400657882
 30
0.0
 10
11.7795047816
 20
10.3343135367
 30
0.0
 10
11.7840689836
 20
10.3230226757
 30
0.0
 10
11.7917788041
 20
10.3065983994
 30
0.0
 10
11.8001867913
 20
10.2907679312
 30
0.0
 10
11.8091854041
 20
10.2754460611
 30
0.0
 10
11.8186986813
 20
10.2605660135
 30
0.0
 10
11.8320520146
 20
10.241327761
 30
0.0
 10
11.8428479868
 20
10.227487956
 30
0.0
 10
11.8503520754
 20
10.2185449314
 30
0.0
  0
SPLINE
  5
400
100
AcDbEntity
  8
0
100
AcDbSpline
 62
7
  6
CONTINUOUS
 70
0
 71
3
 72
10
 73
6
 74
0
 42
0.0000001
 43
0.0000001
 44
0.0000000001
 40
0.0
 40
0.0
 40
0.0
 40
0.0
 40
0.5025468674
 40
0.7515405278
 40
1.0
 40
1.0
 40
1.0
 40
1.0
 10
11.8493897271
 20
10.4004944457
 30
0.0
 10
11.8602449053
 20
10.3795350263
 30
0.0
 10
11.8789687081
 20
10.3494647529
 30
0.0
 10
11.9066002107
 20
10.311485204
 30
0.0
 10
11.9212245162
 20
10.293247626
 30
0.0
 10
11.9287256273
 20
10.2843081499
 30
0.0
  0
SPLINE
  5
401
100
AcDbEntity
  8
0
100
AcDbSpline
 62
7
  6
CONTINUOUS
 70
0
 71
3
 72
9
 73
5
 74
0
 42
0.0000001
 43
0.0000001
 44
0.0000000001
 40
0.0
 40
0.0
 40
0.0
 40
0.0
 40
0.5003065065
 40
1.0
 40
1.0
 40
1.0
 40
1.0
 10
11.928989203
 20
10.4672863366
 30
0.0
 10
11.9426040002
 20
10.4482981179
 30
0.0
 10
11.9708813438
 20
10.4111087941
 30
0.0
 10
12.0003518189
 20
10.3748729049
 30
0.0
 10
12.0153520384
 20
10.3569963394
 30
0.0
  0
SPLINE
  5
402
100
AcDbEntity
  8
0
100
AcDbSpline
 62
7
  6
CONTINUOUS
 70
0
 71
3
 72
9
 73
5
 74
0
 42
0.0000001
 43
0.0000001
 44
0.0000000001
 40
0.0
 40
0.0
 40
0.0
 40
0.0
 40
0.4995934375
 40
1.0
 40
1.0
 40
1.0
 40
1.0
 10
14.1365511503
 20
7.8290496771
 30
0.0
 10
14.1531705988
 20
7.8092433897
 30
0.0
 10
14.187100757
 20
7.7701556388
 30
0.0
 10
14.2224946173
 20
7.7323589377
 30
0.0
 10
14.2408355916
 20
7.7140755689
 30
0.0
  0
SPLINE
  5
403
100
AcDbEntity
  8
0
100
AcDbSpline
 62
7
  6
CONTINUOUS
 70
0
 71
3
 72
19
 73
15
 74
0
 42
0.0000001
 43
0.0000001
 44
0.0000000001
 40
0.0
 40
0.0
 40
0.0
 40
0.0
 40
0.1882545831
 40
0.3703022937
 40
0.5377898948
 40
0.6846152181
 40
0.7487848102
 40
0.8060560055
 40
0.856108568
 40
0.8987378444
 40
0.9338522324
 40
0.9616137467
 40
0.9828954957
 40
1.0
 40
1.0
 40
1.0
 40
1.0
 10
9.7595401531
 20
11.3764679877
 30
0.0
 10
9.7581684691
 20
11.377081948
 30
0.0
 10
9.7554922668
 20
11.3783392221
 30
0.0
 10
9.7516732784
 20
11.3803026652
 30
0.0
 10
9.7482259393
 20
11.3822586199
 30
0.0
 10
9.7456726132
 20
11.383877531
 30
0.0
 10
9.7439249044
 20
11.3851159725
 30
0.0
 10
9.7428413619
 20
11.3859534913
 30
0.0
 10
9.7419327948
 20
11.3867339732
 30
0.0
 10
9.741205235
 20
11.3874504931
 30
0.0
 10
9.7406622549
 20
11.3880969308
 30
0.0
 10
9.740307839
 20
11.3886713457
 30
0.0
 10
9.7401393205
 20
11.3891808102
 30
0.0
 10
9.7401767686
 20
11.3895006297
 30
0.0
 10
9.740232487
 20
11.3896252878
 30
0.0
  0
SPLINE
  5
404
100
AcDbEntity
  8
0
100
AcDbSpline
 62
7
  6
CONTINUOUS
 70
0
 71
3
 72
18
 73
14
 74
0
 42
0.0000001
 43
0.0000001
 44
0.0000000001
 40
0.0
 40
0.0
 40
0.0
 40
0.0
 40
0.1990778102
 40
0.385042254
 40
0.5519147353
 40
0.6949146139
 40
0.8114357899
 40
0.8591547659
 40
0.8996664209
 40
0.9331669107
 40
0.9601523666
 40
0.9816946596
 40
1.0
 40
1.0
 40
1.0
 40
1.0
 10
9.921479041
 20
11.3039847857
 30
0.0
 10
9.9203998224
 20
11.3044678397
 30
0.0
 10
9.9183267477
 20
11.3054345372
 30
0.0
 10
9.9154037035
 20
11.3069195571
 30
0.0
 10
9.9128323867
 20
11.3083575966
 30
0.0
 10
9.9106893555
 20
11.3097090498
 30
0.0
 10
9.909214503
 20
11.3107887229
 30
0.0
 10
9.9083006781
 20
11.3115924582
 30
0.0
 10
9.9077963452
 20
11.3121118524
 30
0.0
 10
9.9074263626
 20
11.3125862014
 30
0.0
 10
9.9071906274
 20
11.313015831
 30
0.0
 10
9.9070894035
 20
11.3134065467
 30
0.0
 10
9.9071287301
 20
11.3136498946
 30
0.0
 10
9.9071728843
 20
11.3137492467
 30
0.0
  0
SPLINE
  5
405
100
AcDbEntity
  8
0
100
AcDbSpline
 62
7
  6
CONTINUOUS
 70
0
 71
3
 72
19
 73
15
 74
0
 42
0.0000001
 43
0.0000001
 44
0.0000000001
 40
0.0
 40
0.0
 40
0.0
 40
0.0
 40
0.017440599
 40
0.0389085525
 40
0.0666012774
 40
0.1014681134
 40
0.1437110287
 40
0.1932415257
 40
0.2498530074
 40
0.3132788858
 40
0.4588494184
 40
0.625495575
 40
0.8081800522
 40
1.0
 40
1.0
 40
1.0
 40
1.0
 10
9.7840477088
 20
11.3056257753
 30
0.0
 10
9.7839944239
 20
11.3055072827
 30
0.0
 10
9.7837960876
 20
11.3052776593
 30
0.0
 10
9.7833399581
 20
11.3050637925
 30
0.0
 10
9.7827242608
 20
11.3049350074
 30
0.0
 10
9.7819429625
 20
11.3048898421
 30
0.0
 10
9.7809993323
 20
11.3049258778
 30
0.0
 10
9.7798996342
 20
11.3050442134
 30
0.0
 10
9.7786520204
 20
11.3052447304
 30
0.0
 10
9.776712935
 20
11.3056405993
 30
0.0
 10
9.7740028755
 20
11.3063451248
 30
0.0
 10
9.7704829338
 20
11.307444994
 30
0.0
 10
9.7666876311
 20
11.3088069383
 30
0.0
 10
9.7640965422
 20
11.3098428054
 30
0.0
 10
9.762778844
 20
11.3103955785
 30
0.0
  0
SPLINE
  5
406
100
AcDbEntity
  8
0
100
AcDbSpline
 62
7
  6
CONTINUOUS
 70
0
 71
3
 72
17
 73
13
 74
0
 42
0.0000001
 43
0.0000001
 44
0.0000000001
 40
0.0
 40
0.0
 40
0.0
 40
0.0
 40
0.2073069882
 40
0.3958880737
 40
0.5620697107
 40
0.7023930846
 40
0.8150759377
 40
0.9000123577
 40
0.9325063861
 40
0.9589887871
 40
0.9807156644
 40
1.0
 40
1.0
 40
1.0
 40
1.0
 10
10.0723820614
 20
11.2364411941
 30
0.0
 10
10.0716215202
 20
11.2367816093
 30
0.0
 10
10.0701778432
 20
11.2374514302
 30
0.0
 10
10.0681596404
 20
11.238467802
 30
0.0
 10
10.0664184074
 20
11.2394321636
 30
0.0
 10
10.0649883069
 20
11.2403259566
 30
0.0
 10
10.063894959
 20
11.241133199
 30
0.0
 10
10.0632144412
 20
11.2417678224
 30
0.0
 10
10.0628689942
 20
11.2422341283
 30
0.0
 10
10.062723326
 20
11.2425266418
 30
0.0
 10
10.0626700181
 20
11.2427975657
 30
0.0
 10
10.0627045996
 20
11.2429645785
 30
0.0
 10
10.0627364999
 20
11.2430352212
 30
0.0
  0
SPLINE
  5
407
100
AcDbEntity
  8
0
100
AcDbSpline
 62
7
  6
CONTINUOUS
 70
0
 71
3
 72
16
 73
12
 74
0
 42
0.0000001
 43
0.0000001
 44
0.0000000001
 40
0.0
 40
0.0
 40
0.0
 40
0.0
 40
0.2133699672
 40
0.4035761128
 40
0.5688061873
 40
0.7073759136
 40
0.8179120139
 40
0.9005547767
 40
0.9322775054
 40
0.9584899735
 40
1.0
 40
1.0
 40
1.0
 40
1.0
 10
10.2019654226
 20
11.178440197
 30
0.0
 10
10.201506011
 20
11.1786458279
 30
0.0
 10
10.2006417758
 20
11.1790454534
 30
0.0
 10
10.1994415968
 20
11.1796460878
 30
0.0
 10
10.1984204937
 20
11.1802082516
 30
0.0
 10
10.197589375
 20
11.180724326
 30
0.0
 10
10.1969590583
 20
11.1811890206
 30
0.0
 10
10.1965712424
 20
11.1815562277
 30
0.0
 10
10.1963799824
 20
11.1818293018
 30
0.0
 10
10.1962800141
 20
11.1820414766
 30
0.0
 10
10.1962762586
 20
11.1822176855
 30
0.0
 10
10.1963160795
 20
11.1823071436
 30
0.0
  0
SPLINE
  5
408
100
AcDbEntity
  8
0
100
AcDbSpline
 62
7
  6
CONTINUOUS
 70
0
 71
3
 72
18
 73
14
 74
0
 42
0.0000001
 43
0.0000001
 44
0.0000000001
 40
0.0
 40
0.0
 40
0.0
 40
0.0
 40
0.0185763212
 40
0.0402088089
 40
0.0671079952
 40
0.1004100741
 40
0.1406757573
 40
0.1880849482
 40
0.3038568732
 40
0.4462324268
 40
0.6128871416
 40
0.7993092227
 40
1.0
 40
1.0
 40
1.0
 40
1.0
 10
9.6145128829
 20
11.3798953426
 30
0.0
 10
9.6144702044
 20
11.3798011732
 30
0.0
 10
9.6143253349
 20
11.3796192392
 30
0.0
 10
9.6139905064
 20
11.3794399989
 30
0.0
 10
9.6135453011
 20
11.3793312952
 30
0.0
 10
9.612986064
 20
11.3792890435
 30
0.0
 10
9.6123122421
 20
11.3793133651
 30
0.0
 10
9.6111867016
 20
11.3794446072
 30
0.0
 10
9.6095196202
 20
11.3797951543
 30
0.0
 10
9.6072451665
 20
11.3804445452
 30
0.0
 10
9.6046368908
 20
11.381342852
 30
0.0
 10
9.6017648714
 20
11.3824628116
 30
0.0
 10
9.5997847426
 20
11.3833131394
 30
0.0
 10
9.5987652354
 20
11.3837694668
 30
0.0
  0
SPLINE
  5
409
100
AcDbEntity
  8
0
100
AcDbSpline
 62
7
  6
CONTINUOUS
 70
0
 71
3
 72
14
 73
10
 74
0
 42
0.0000001
 43
0.0000001
 44
0.0000000001
 40
0.0
 40
0.0
 40
0.0
 40
0.0
 40
0.4082659291
 40
0.5721531737
 40
0.708647609
 40
0.8176545799
 40
0.8997569321
 40
0.9575100194
 40
1.0
 40
1.0
 40
1.0
 40
1.0
 10
10.301398233
 20
11.1339344667
 30
0.0
 10
10.3009955718
 20
11.1341146962
 30
0.0
 10
10.300435783
 20
11.1343783724
 30
0.0
 10
10.2997640114
 20
11.1347466032
 30
0.0
 10
10.2993882163
 20
11.1349801764
 30
0.0
 10
10.2991020489
 20
11.1351903258
 30
0.0
 10
10.2989085201
 20
11.1353771773
 30
0.0
 10
10.2987957566
 20
11.1355445958
 30
0.0
 10
10.2987951346
 20
11.1356630374
 30
0.0
 10
10.2988139418
 20
11.1357049217
 30
0.0
  0
SPLINE
  5
40A
100
AcDbEntity
  8
0
100
AcDbSpline
 62
7
  6
CONTINUOUS
 70
0
 71
3
 72
27
 73
23
 74
0
 42
0.0000001
 43
0.0000001
 44
0.0000000001
 40
0.0
 40
0.0
 40
0.0
 40
0.0
 40
0.0011948086
 40
0.0031597678
 40
0.0099489025
 40
0.020744126
 40
0.0354682268
 40
0.0539730143
 40
0.0760982603
 40
0.101679033
 40
0.1305226757
 40
0.1969314398
 40
0.2731266596
 40
0.3567832398
 40
0.4452366996
 40
0.5357542525
 40
0.6255504854
 40
0.7917020946
 40
0.8627394635
 40
0.9224353046
 40
0.9687220832
 40
1.0
 40
1.0
 40
1.0
 40
1.0
 10
10.408428704
 20
11.0947668538
 30
0.0
 10
10.408421406
 20
11.0947500468
 30
0.0
 10
10.4083769983
 20
11.0947204652
 30
0.0
 10
10.4082286813
 20
11.0946904275
 30
0.0
 10
10.4079252594
 20
11.0946919132
 30
0.0
 10
10.4074330933
 20
11.0947352682
 30
0.0
 10
10.4067631149
 20
11.0948251199
 30
0.0
 10
10.4059252964
 20
11.0949605058
 30
0.0
 10
10.404925928
 20
11.0951409104
 30
0.0
 10
10.4037735603
 20
11.0953648985
 30
0.0
 10
10.4019582776
 20
11.0957373291
 30
0.0
 10
10.3993893587
 20
11.0962977932
 30
0.0
 10
10.3960075379
 20
11.0970746548
 30
0.0
 10
10.3923039637
 20
11.0979601823
 30
0.0
 10
10.3883938832
 20
11.0989260012
 30
0.0
 10
10.384399379
 20
11.0999423162
 30
0.0
 10
10.379259563
 20
11.1012888352
 30
0.0
 10
10.3744218755
 20
11.1026103481
 30
0.0
 10
10.3700505623
 20
11.1038833354
 30
0.0
 10
10.3674550525
 20
11.104680429
 30
0.0
 10
10.3654587205
 20
11.1053467065
 30
0.0
 10
10.3643421225
 20
11.1057610321
 30
0.0
 10
10.3639043106
 20
11.105956995
 30
0.0
  0
SPLINE
  5
40B
100
AcDbEntity
  8
0
100
AcDbSpline
 62
7
  6
CONTINUOUS
 70
0
 71
3
 72
19
 73
15
 74
0
 42
0.0000001
 43
0.0000001
 44
0.0000000001
 40
0.0
 40
0.0
 40
0.0
 40
0.0
 40
0.0099071947
 40
0.01771178
 40
0.0276905102
 40
0.0543763239
 40
0.0900748208
 40
0.1344498274
 40
0.1869618787
 40
0.3140900349
 40
0.466057638
 40
0.636022005
 40
0.8166897034
 40
1.0
 40
1.0
 40
1.0
 40
1.0
 10
10.343670591
 20
11.1233223353
 30
0.0
 10
10.3436338225
 20
11.1232406287
 30
0.0
 10
10.343468118
 20
11.1231599885
 30
0.0
 10
10.3432299923
 20
11.1231069104
 30
0.0
 10
10.3428266135
 20
11.1230623821
 30
0.0
 10
10.3421727714
 20
11.1230672762
 30
0.0
 10
10.3412088878
 20
11.1231392523
 30
0.0
 10
10.3400183742
 20
11.1232826791
 30
0.0
 10
10.3380148462
 20
11.1235852707
 30
0.0
 10
10.3350662906
 20
11.1241369132
 30
0.0
 10
10.3310962763
 20
11.1249941166
 30
0.0
 10
10.326674441
 20
11.1260481402
 30
0.0
 10
10.3219984533
 20
11.1272544604
 30
0.0
 10
10.3188254817
 20
11.1281314735
 30
0.0
 10
10.3172317656
 20
11.1285880159
 30
0.0
  0
SPLINE
  5
40C
100
AcDbEntity
  8
0
100
AcDbSpline
 62
7
  6
CONTINUOUS
 70
0
 71
3
 72
10
 73
6
 74
0
 42
0.0000001
 43
0.0000001
 44
0.0000000001
 40
0.0
 40
0.0
 40
0.0
 40
0.0
 40
0.5778311657
 40
0.8150750913
 40
1.0
 40
1.0
 40
1.0
 40
1.0
 10
10.3172317656
 20
11.1285880159
 30
0.0
 10
10.3141356264
 20
11.1294749486
 30
0.0
 10
10.3097860787
 20
11.1307954215
 30
0.0
 10
10.3045284274
 20
11.1326465269
 30
0.0
 10
10.3023390137
 20
11.133513377
 30
0.0
 10
10.301398233
 20
11.1339344667
 30
0.0
  0
SPLINE
  5
40D
100
AcDbEntity
  8
0
100
AcDbSpline
 62
7
  6
CONTINUOUS
 70
0
 71
3
 72
17
 73
13
 74
0
 42
0.0000001
 43
0.0000001
 44
0.0000000001
 40
0.0
 40
0.0
 40
0.0
 40
0.0
 40
0.0133366871
 40
0.0324626151
 40
0.0590121684
 40
0.0933540181
 40
0.1354820731
 40
0.1852531834
 40
0.3064840625
 40
0.4533063417
 40
0.6213837189
 40
1.0
 40
1.0
 40
1.0
 40
1.0
 10
10.2406441604
 20
11.1687480699
 30
0.0
 10
10.240605745
 20
11.1686617558
 30
0.0
 10
10.2404214327
 20
11.1684983212
 30
0.0
 10
10.2400204591
 20
11.1683718921
 30
0.0
 10
10.2394572776
 20
11.1682928029
 30
0.0
 10
10.2387269556
 20
11.1682722352
 30
0.0
 10
10.2378328863
 20
11.1683067244
 30
0.0
 10
10.236328448
 20
11.1684391368
 30
0.0
 10
10.2340987745
 20
11.168761691
 30
0.0
 10
10.2310621289
 20
11.1693337173
 30
0.0
 10
10.2262661494
 20
11.1704019428
 30
0.0
 10
10.222520711
 20
11.1713944749
 30
0.0
 10
10.2199426384
 20
11.1721342422
 30
0.0
  0
SPLINE
  5
40E
100
AcDbEntity
  8
0
100
AcDbSpline
 62
7
  6
CONTINUOUS
 70
0
 71
3
 72
10
 73
6
 74
0
 42
0.0000001
 43
0.0000001
 44
0.0000000001
 40
0.0
 40
0.0
 40
0.0
 40
0.0
 40
0.53977473
 40
0.7867236979
 40
1.0
 40
1.0
 40
1.0
 40
1.0
 10
10.2199426384
 20
11.1721342422
 30
0.0
 10
10.2166457674
 20
11.1730802658
 30
0.0
 10
10.2118736313
 20
11.1745823731
 30
0.0
 10
10.2059087422
 20
11.1767747269
 30
0.0
 10
10.2032023976
 20
11.177886532
 30
0.0
 10
10.2019654226
 20
11.178440197
 30
0.0
  0
SPLINE
  5
40F
100
AcDbEntity
  8
0
100
AcDbSpline
 62
7
  6
CONTINUOUS
 70
0
 71
3
 72
17
 73
13
 74
0
 42
0.0000001
 43
0.0000001
 44
0.0000000001
 40
0.0
 40
0.0
 40
0.0
 40
0.0
 40
0.034532797
 40
0.0623953042
 40
0.0982785421
 40
0.1420963737
 40
0.1935595047
 40
0.2523001714
 40
0.3178831783
 40
0.4668816166
 40
0.6346976066
 40
1.0
 40
1.0
 40
1.0
 40
1.0
 10
10.1063742643
 20
11.2279442056
 30
0.0
 10
10.1062517516
 20
11.2276727186
 30
0.0
 10
10.1056669952
 20
11.2274302321
 30
0.0
 10
10.1048530391
 20
11.227318567
 30
0.0
 10
10.1039149128
 20
11.2272931369
 30
0.0
 10
10.1027877856
 20
11.2273532547
 30
0.0
 10
10.1014651955
 20
11.227493786
 30
0.0
 10
10.0999654502
 20
11.2277163615
 30
0.0
 10
10.0976457795
 20
11.2281392277
 30
0.0
 10
10.0944267619
 20
11.228863759
 30
0.0
 10
10.0887417755
 20
11.2303818317
 30
0.0
 10
10.0843613947
 20
11.231794838
 30
0.0
 10
10.0813938983
 20
11.2328537925
 30
0.0
  0
LINE
  5
410
100
AcDbEntity
  8
0
100
AcDbLine
 62
7
  6
CONTINUOUS
 10
10.0813938983
 20
11.2328537925
 11
10.0723820614
 21
11.2364411941
  0
SPLINE
  5
411
100
AcDbEntity
  8
0
100
AcDbSpline
 62
7
  6
CONTINUOUS
 70
0
 71
3
 72
18
 73
14
 74
0
 42
0.0000001
 43
0.0000001
 44
0.0000000001
 40
0.0
 40
0.0
 40
0.0
 40
0.0
 40
0.017632821
 40
0.0393422977
 40
0.0670761729
 40
0.1016479659
 40
0.1433662549
 40
0.1923101419
 40
0.3110252097
 40
0.4550431407
 40
0.6209566763
 40
0.8043243215
 40
1.0
 40
1.0
 40
1.0
 40
1.0
 10
9.9500159029
 20
11.2968717009
 30
0.0
 10
9.9499684326
 20
11.2967649945
 30
0.0
 10
9.9497921909
 20
11.296557682
 30
0.0
 10
9.949389945
 20
11.2963553566
 30
0.0
 10
9.9488476342
 20
11.2962196719
 30
0.0
 10
9.9481606664
 20
11.2961493553
 30
0.0
 10
9.9473303631
 20
11.2961438546
 30
0.0
 10
9.9459455396
 20
11.2962318344
 30
0.0
 10
9.9438997644
 20
11.2965280282
 30
0.0
 10
9.9411198821
 20
11.297109745
 30
0.0
 10
9.9379567934
 20
11.2979328953
 30
0.0
 10
9.9345003881
 20
11.29897515
 30
0.0
 10
9.9321216886
 20
11.2997797041
 30
0.0
 10
9.9309005837
 20
11.3002140015
 30
0.0
  0
LINE
  5
412
100
AcDbEntity
  8
0
100
AcDbLine
 62
7
  6
CONTINUOUS
 10
9.9309005837
 20
11.3002140015
 11
9.921479041
 21
11.3039847857
  0
SPLINE
  5
413
100
AcDbEntity
  8
0
100
AcDbSpline
 62
7
  6
CONTINUOUS
 70
0
 71
3
 72
10
 73
6
 74
0
 42
0.0000001
 43
0.0000001
 44
0.0000000001
 40
0.0
 40
0.0
 40
0.0
 40
0.0
 40
0.1855089696
 40
0.4228618076
 40
1.0
 40
1.0
 40
1.0
 40
1.0
 10
9.3495592991
 20
11.4953130525
 30
0.0
 10
9.3486234929
 20
11.4957319156
 30
0.0
 10
9.3465328332
 20
11.4967802918
 30
0.0
 10
9.3416916161
 20
11.4994469891
 30
0.0
 10
9.3378459979
 20
11.501791746
 30
0.0
 10
9.3351486849
 20
11.5034943476
 30
0.0
  0
SPLINE
  5
414
100
AcDbEntity
  8
0
100
AcDbSpline
 62
7
  6
CONTINUOUS
 70
0
 71
3
 72
19
 73
15
 74
0
 42
0.0000001
 43
0.0000001
 44
0.0000000001
 40
0.0
 40
0.0
 40
0.0
 40
0.0
 40
0.1829750867
 40
0.3634707824
 40
0.5334341382
 40
0.6855128617
 40
0.812802018
 40
0.8654161558
 40
0.9098748655
 40
0.9456184886
 40
0.9723348603
 40
0.98232162
 40
0.9901261445
 40
1.0
 40
1.0
 40
1.0
 40
1.0
 10
9.3351486849
 20
11.5034943476
 30
0.0
 10
9.3337440246
 20
11.5043809992
 30
0.0
 10
9.330970063
 20
11.5061682684
 30
0.0
 10
9.3269443391
 20
11.5088602664
 30
0.0
 10
9.3231983809
 20
11.5114648531
 30
0.0
 10
9.319898511
 20
11.5138633096
 30
0.0
 10
9.3175092815
 20
11.5157014765
 30
0.0
 10
9.3159384316
 20
11.5169984959
 30
0.0
 10
9.3150317704
 20
11.5177933886
 30
0.0
 10
9.3143307389
 20
11.5184662839
 30
0.0
 10
9.3138879616
 20
11.51895172
 30
0.0
 10
9.3136500544
 20
11.5192829151
 30
0.0
 10
9.313529817
 20
11.519495834
 30
0.0
 10
9.3134782867
 20
11.5196734707
 30
0.0
 10
9.3135147514
 20
11.5197553557
 30
0.0
  0
SPLINE
  5
415
100
AcDbEntity
  8
0
100
AcDbSpline
 62
7
  6
CONTINUOUS
 70
0
 71
3
 72
19
 73
15
 74
0
 42
0.0000001
 43
0.0000001
 44
0.0000000001
 40
0.0
 40
0.0
 40
0.0
 40
0.0
 40
0.0170991214
 40
0.038383345
 40
0.066168567
 40
0.1012949245
 40
0.1439296912
 40
0.193992355
 40
0.2512901381
 40
0.3154970303
 40
0.4623786805
 40
0.6298459892
 40
0.8118171598
 40
1.0
 40
1.0
 40
1.0
 40
1.0
 10
9.7822149895
 20
11.3708340874
 30
0.0
 10
9.7821593055
 20
11.3707094614
 30
0.0
 10
9.7819460057
 20
11.3704682056
 30
0.0
 10
9.7814534848
 20
11.3702545598
 30
0.0
 10
9.7807886381
 20
11.3701366225
 30
0.0
 10
9.7799444995
 20
11.3701107885
 30
0.0
 10
9.77892521
 20
11.3701760039
 30
0.0
 10
9.7777375249
 20
11.3703336444
 30
0.0
 10
9.7763905171
 20
11.3705840256
 30
0.0
 10
9.7743017272
 20
11.3710628456
 30
0.0
 10
9.7713928648
 20
11.3718888831
 30
0.0
 10
9.7676378525
 20
11.3731566183
 30
0.0
 10
9.7636306864
 20
11.374696356
 30
0.0
 10
9.7609113115
 20
11.3758542627
 30
0.0
 10
9.7595401531
 20
11.3764679877
 30
0.0
  0
SPLINE
  5
416
100
AcDbEntity
  8
0
100
AcDbSpline
 62
7
  6
CONTINUOUS
 70
0
 71
3
 72
18
 73
14
 74
0
 42
0.0000001
 43
0.0000001
 44
0.0000000001
 40
0.0
 40
0.0
 40
0.0
 40
0.0
 40
0.0183127833
 40
0.0398591025
 40
0.0668454881
 40
0.1003526431
 40
0.1408876708
 40
0.188645122
 40
0.305238947
 40
0.4482638961
 40
0.6150881413
 40
0.8009844304
 40
1.0
 40
1.0
 40
1.0
 40
1.0
 10
9.6144137917
 20
11.4447870925
 30
0.0
 10
9.6143689705
 20
11.4446879929
 30
0.0
 10
9.6142135904
 20
11.4444966042
 30
0.0
 10
9.6138547861
 20
11.4443116424
 30
0.0
 10
9.61337729
 20
11.4442010962
 30
0.0
 10
9.6127768736
 20
11.4441609733
 30
0.0
 10
9.6120531434
 20
11.4441912386
 30
0.0
 10
9.610844215
 20
11.4443377012
 30
0.0
 10
9.609055769
 20
11.4447187052
 30
0.0
 10
9.6066199825
 20
11.4454167185
 30
0.0
 10
9.6038350748
 20
11.4463761136
 30
0.0
 10
9.600781364
 20
11.4475665019
 30
0.0
 10
9.5986801287
 20
11.4484682947
 30
0.0
 10
9.5976012652
 20
11.4489511898
 30
0.0
  0
SPLINE
  5
417
100
AcDbEntity
  8
0
100
AcDbSpline
 62
7
  6
CONTINUOUS
 70
0
 71
3
 72
17
 73
13
 74
0
 42
0.0000001
 43
0.0000001
 44
0.0000000001
 40
0.0
 40
0.0
 40
0.0
 40
0.0
 40
0.019289574
 40
0.0410269634
 40
0.0675357457
 40
0.1000626658
 40
0.1850638499
 40
0.2977789844
 40
0.4380736339
 40
0.6042073773
 40
0.7927393456
 40
1.0
 40
1.0
 40
1.0
 40
1.0
 10
9.4580417204
 20
11.5136941963
 30
0.0
 10
9.4580103391
 20
11.5136232984
 30
0.0
 10
9.4579088546
 20
11.5134861139
 30
0.0
 10
9.4576710627
 20
11.5133453798
 30
0.0
 10
9.4573555283
 20
11.513259333
 30
0.0
 10
9.4567771217
 20
11.5132065174
 30
0.0
 10
9.4558499812
 20
11.51329148
 30
0.0
 10
9.4545193169
 20
11.5135691814
 30
0.0
 10
9.452900169
 20
11.5140401507
 30
0.0
 10
9.451021474
 20
11.5146961903
 30
0.0
 10
9.4489195509
 20
11.515524118
 30
0.0
 10
9.447458616
 20
11.5161544423
 30
0.0
 10
9.4466982449
 20
11.5164947814
 30
0.0
  0
SPLINE
  5
418
100
AcDbEntity
  8
0
100
AcDbSpline
 62
7
  6
CONTINUOUS
 70
0
 71
3
 72
16
 73
12
 74
0
 42
0.0000001
 43
0.0000001
 44
0.0000000001
 40
0.0
 40
0.0
 40
0.0
 40
0.0
 40
0.0415394394
 40
0.0677696582
 40
0.0995068495
 40
0.1821558417
 40
0.2926612468
 40
0.4312096152
 40
0.5964307218
 40
0.7866339546
 40
1.0
 40
1.0
 40
1.0
 40
1.0
 10
9.3237620222
 20
11.5728588994
 30
0.0
 10
9.3237217247
 20
11.5727695851
 30
0.0
 10
9.3235876434
 20
11.5726550526
 30
0.0
 10
9.3233626762
 20
11.5725882692
 30
0.0
 10
9.3230315346
 20
11.5725489937
 30
0.0
 10
9.3224993735
 20
11.5725935055
 30
0.0
 10
9.3217330243
 20
11.5727538742
 30
0.0
 10
9.320794664
 20
11.5730298861
 30
0.0
 10
9.3196953228
 20
11.5734169114
 30
0.0
 10
9.3184479658
 20
11.57391187
 30
0.0
 10
9.3175742603
 20
11.5742901632
 30
0.0
 10
9.3171148836
 20
11.5744957784
 30
0.0
  0
SPLINE
  5
419
100
AcDbEntity
  8
0
100
AcDbSpline
 62
7
  6
CONTINUOUS
 70
0
 71
3
 72
12
 73
8
 74
0
 42
0.0000001
 43
0.0000001
 44
0.0000000001
 40
0.0
 40
0.0
 40
0.0
 40
0.0
 40
0.2478834681
 40
0.4964324643
 40
0.6212189444
 40
0.7465591513
 40
1.0
 40
1.0
 40
1.0
 40
1.0
 10
14.0499247393
 20
7.7563614876
 30
0.0
 10
14.0582357953
 20
7.7464567567
 30
0.0
 10
14.0753670612
 20
7.7270226295
 30
0.0
 10
14.0980527716
 20
7.7038631667
 30
0.0
 10
14.1170102116
 20
7.6860473289
 30
0.0
 10
14.1367236199
 20
7.6686858078
 30
0.0
 10
14.1523032241
 20
7.6564831228
 30
0.0
 10
14.1630870698
 20
7.648836813
 30
0.0
  0
SPLINE
  5
41A
100
AcDbEntity
  8
0
100
AcDbSpline
 62
7
  6
CONTINUOUS
 70
0
 71
3
 72
17
 73
13
 74
0
 42
0.0000001
 43
0.0000001
 44
0.0000000001
 40
0.0
 40
0.0
 40
0.0
 40
0.0
 40
0.0199429849
 40
0.0420262077
 40
0.068463951
 40
0.1005437412
 40
0.1839976981
 40
0.2950868168
 40
0.4342119763
 40
0.5996817057
 40
0.7891147158
 40
1.0
 40
1.0
 40
1.0
 40
1.0
 10
9.4640458349
 20
11.4457888482
 30
0.0
 10
9.4640213714
 20
11.4457341334
 30
0.0
 10
9.4639446995
 20
11.44562873
 30
0.0
 10
9.4637670483
 20
11.4455181281
 30
0.0
 10
9.4635331798
 20
11.4454482565
 30
0.0
 10
9.4631075989
 20
11.4454012378
 30
0.0
 10
9.4624242387
 20
11.4454570442
 30
0.0
 10
9.461441491
 20
11.4456595837
 30
0.0
 10
9.4602409817
 20
11.4460094595
 30
0.0
 10
9.4588392198
 20
11.4464998539
 30
0.0
 10
9.4572574477
 20
11.4471247865
 30
0.0
 10
9.4561529338
 20
11.4476021657
 30
0.0
 10
9.4555744622
 20
11.4478610873
 30
0.0
  0
SPLINE
  5
41B
100
AcDbEntity
  8
0
100
AcDbSpline
 62
7
  6
CONTINUOUS
 70
0
 71
3
 72
14
 73
10
 74
0
 42
0.0000001
 43
0.0000001
 44
0.0000000001
 40
0.0
 40
0.0
 40
0.0
 40
0.0
 40
0.0424807088
 40
0.100178469
 40
0.1822463867
 40
0.2912473173
 40
0.4277581231
 40
0.5916750659
 40
1.0
 40
1.0
 40
1.0
 40
1.0
 10
9.220723848
 20
11.6182537908
 30
0.0
 10
9.2207052204
 20
11.6182118363
 30
0.0
 10
9.2206167195
 20
11.6181332174
 30
0.0
 10
9.220416817
 20
11.6181056065
 30
0.0
 10
9.2201486449
 20
11.6181254436
 30
0.0
 10
9.2198012937
 20
11.6181988697
 30
0.0
 10
9.2193767114
 20
11.6183235835
 30
0.0
 10
9.218654462
 20
11.6185793669
 30
0.0
 10
9.2180848008
 20
11.6188212495
 30
0.0
 10
9.2176820733
 20
11.6190015087
 30
0.0
  0
SPLINE
  5
41C
100
AcDbEntity
  8
0
100
AcDbSpline
 62
7
  6
CONTINUOUS
 70
0
 71
3
 72
13
 73
9
 74
0
 42
0.0000001
 43
0.0000001
 44
0.0000000001
 40
0.0
 40
0.0
 40
0.0
 40
0.0
 40
0.244557716
 40
0.3684029028
 40
0.493179036
 40
0.6188161408
 40
0.7452351024
 40
1.0
 40
1.0
 40
1.0
 40
1.0
 10
10.9609447372
 20
11.3906637116
 30
0.0
 10
10.9731698804
 20
11.3851993811
 30
0.0
 10
10.9914458142
 20
11.3766475064
 30
0.0
 10
11.0155685278
 20
11.3645073425
 30
0.0
 10
11.0336918311
 20
11.3549395213
 30
0.0
 10
11.0517658123
 20
11.3449839104
 30
0.0
 10
11.075854388
 20
11.3312034601
 30
0.0
 10
11.0937200064
 20
11.3204025087
 30
0.0
 10
11.1055331152
 20
11.3129833478
 30
0.0
  0
SPLINE
  5
41D
100
AcDbEntity
  8
0
100
AcDbSpline
 62
7
  6
CONTINUOUS
 70
0
 71
3
 72
20
 73
16
 74
0
 42
0.0000001
 43
0.0000001
 44
0.0000000001
 40
0.0
 40
0.0
 40
0.0
 40
0.0
 40
0.1504367661
 40
0.2984821719
 40
0.4415132809
 40
0.5103397296
 40
0.576936086
 40
0.6409954116
 40
0.7022300298
 40
0.7603806461
 40
0.8152292088
 40
0.8666174927
 40
0.9144743302
 40
0.958855444
 40
1.0
 40
1.0
 40
1.0
 40
1.0
 10
11.1055331152
 20
11.3129833478
 30
0.0
 10
11.0898840486
 20
11.292180057
 30
0.0
 10
11.0572031028
 20
11.2521057462
 30
0.0
 10
11.0046121206
 20
11.1966000821
 30
0.0
 10
10.9584877211
 20
11.1546507044
 30
0.0
 10
10.9209394669
 20
11.1244346869
 30
0.0
 10
10.8931450596
 20
11.1039450343
 30
0.0
 10
10.8655362755
 20
11.0854740041
 30
0.0
 10
10.8382891179
 20
11.0691582344
 30
0.0
 10
10.8115793324
 20
11.0551338021
 30
0.0
 10
10.7855801107
 20
11.0435363767
 30
0.0
 10
10.7604623518
 20
11.0345016248
 30
0.0
 10
10.736388686
 20
11.0281673207
 30
0.0
 10
10.7135257786
 20
11.0246755704
 30
0.0
 10
10.6986693242
 20
11.02433789
 30
0.0
 10
10.6915615572
 20
11.024751593
 30
0.0
  0
SPLINE
  5
41E
100
AcDbEntity
  8
0
100
AcDbSpline
 62
9
  6
CONTINUOUS
 70
0
 71
3
 72
17
 73
13
 74
0
 42
0.0000001
 43
0.0000001
 44
0.0000000001
 40
0.0
 40
0.0
 40
0.0
 40
0.0
 40
0.1490011078
 40
0.2930229444
 40
0.4320581663
 40
0.5654108827
 40
0.6918145575
 40
0.7515975491
 40
0.8086011007
 40
0.912608243
 40
0.9586312176
 40
1.0
 40
1.0
 40
1.0
 40
1.0
 10
10.8533000288
 20
11.4331975369
 30
0.0
 10
10.8432287851
 20
11.413181531
 30
0.0
 10
10.8220461672
 20
11.3745013973
 30
0.0
 10
10.7877980971
 20
11.3192662578
 30
0.0
 10
10.7529623323
 20
11.2672202073
 30
0.0
 10
10.7184993044
 20
11.2181382459
 30
0.0
 10
10.6905377382
 20
11.1790589311
 30
0.0
 10
10.6693694352
 20
11.1492366199
 30
0.0
 10
10.650334601
 20
11.1220313048
 30
0.0
 10
10.6329064819
 20
11.0962269795
 30
0.0
 10
10.6173493503
 20
11.0720096241
 30
0.0
 10
10.6104480785
 20
11.0608240587
 30
0.0
 10
10.6072473096
 20
11.05548956
 30
0.0
  0
SPLINE
  5
41F
100
AcDbEntity
  8
0
100
AcDbSpline
 62
9
  6
CONTINUOUS
 70
0
 71
3
 72
14
 73
10
 74
0
 42
0.0000001
 43
0.0000001
 44
0.0000000001
 40
0.0
 40
0.0
 40
0.0
 40
0.0
 40
0.1291920497
 40
0.257545885
 40
0.5124548257
 40
0.638542206
 40
0.7626376385
 40
0.8835980741
 40
1.0
 40
1.0
 40
1.0
 40
1.0
 10
10.7094740719
 20
11.4833151029
 30
0.0
 10
10.7028482359
 20
11.4658924647
 30
0.0
 10
10.6885667024
 20
11.4315630746
 30
0.0
 10
10.6569743361
 20
11.3646955913
 30
0.0
 10
10.6224615001
 20
11.2997863586
 30
0.0
 10
10.5876096768
 20
11.235789372
 30
0.0
 10
10.5622913124
 20
11.1886011132
 30
0.0
 10
10.5385476326
 20
11.142163373
 30
0.0
 10
10.52384621
 20
11.111222907
 30
0.0
 10
10.5169566991
 20
11.0959064328
 30
0.0
  0
SPLINE
  5
420
100
AcDbEntity
  8
0
100
AcDbSpline
 62
9
  6
CONTINUOUS
 70
0
 71
3
 72
12
 73
8
 74
0
 42
0.0000001
 43
0.0000001
 44
0.0000000001
 40
0.0
 40
0.0
 40
0.0
 40
0.0
 40
0.2458684662
 40
0.3705841655
 40
0.4961937917
 40
0.7486469279
 40
1.0
 40
1.0
 40
1.0
 40
1.0
 10
10.6684451827
 20
11.4980408626
 30
0.0
 10
10.6569771141
 20
11.4647629564
 30
0.0
 10
10.6365946948
 20
11.4156606406
 30
0.0
 10
10.6058148775
 20
11.3516445939
 30
0.0
 10
10.5729883469
 20
11.2875779641
 30
0.0
 10
10.5301962693
 20
11.2082856829
 30
0.0
 10
10.4968314148
 20
11.1443194379
 30
0.0
 10
10.4811243697
 20
11.1119448347
 30
0.0
  0
SPLINE
  5
421
100
AcDbEntity
  8
0
100
AcDbSpline
 62
9
  6
CONTINUOUS
 70
0
 71
3
 72
13
 73
9
 74
0
 42
0.0000001
 43
0.0000001
 44
0.0000000001
 40
0.0
 40
0.0
 40
0.0
 40
0.0
 40
0.2457399506
 40
0.3706072545
 40
0.4964668871
 40
0.7493610163
 40
0.8752617585
 40
1.0
 40
1.0
 40
1.0
 40
1.0
 10
10.6274845981
 20
11.5129372048
 30
0.0
 10
10.6161724977
 20
11.4799139758
 30
0.0
 10
10.5962507132
 20
11.4310823937
 30
0.0
 10
10.566382489
 20
11.3672012695
 30
0.0
 10
10.5346081889
 20
11.303098728
 30
0.0
 10
10.5015768369
 20
11.239476135
 30
0.0
 10
10.469324854
 20
11.1756329134
 30
0.0
 10
10.4538330645
 20
11.1435727832
 30
0.0
 10
10.4463536668
 20
11.1275098718
 30
0.0
  0
SPLINE
  5
422
100
AcDbEntity
  8
0
100
AcDbSpline
 62
9
  6
CONTINUOUS
 70
0
 71
3
 72
46
 73
42
 74
0
 42
0.0000001
 43
0.0000001
 44
0.0000000001
 40
0.0
 40
0.0
 40
0.0
 40
0.0
 40
0.000115868
 40
0.0003634145
 40
0.0007546807
 40
0.0012916969
 40
0.0019748627
 40
0.0028041228
 40
0.0049031807
 40
0.0075958549
 40
0.0108897587
 40
0.0147897719
 40
0.0192891422
 40
0.0243782794
 40
0.0300479577
 40
0.0362944626
 40
0.0431170953
 40
0.0584874336
 40
0.0761384517
 40
0.0960327392
 40
0.1181201315
 40
0.1423318708
 40
0.1685989849
 40
0.1968576885
 40
0.2270451696
 40
0.2590948255
 40
0.292936789
 40
0.3656815563
 40
0.4043936972
 40
0.4445342271
 40
0.4860030442
 40
0.5287007958
 40
0.5725303919
 40
0.6173925176
 40
0.6631781503
 40
0.7097764211
 40
0.7570773711
 40
0.8049660768
 40
0.8533209213
 40
0.9020216044
 40
1.0
 40
1.0
 40
1.0
 40
1.0
 10
9.0639582788
 20
12.1845032658
 30
0.0
 10
9.0639810332
 20
12.1845327864
 30
0.0
 10
9.0641221125
 20
12.1845283856
 30
0.0
 10
9.064341305
 20
12.1844736349
 30
0.0
 10
9.0647079777
 20
12.1843483145
 30
0.0
 10
9.0651844961
 20
12.1841537844
 30
0.0
 10
9.06578834
 20
12.1838854316
 30
0.0
 10
9.06683708
 20
12.1833870449
 30
0.0
 10
9.0684538876
 20
12.1825763776
 30
0.0
 10
9.0707840394
 20
12.1814211474
 30
0.0
 10
9.073657686
 20
12.1800578266
 30
0.0
 10
9.0770903408
 20
12.1785194161
 30
0.0
 10
9.0810637839
 20
12.176776337
 30
0.0
 10
9.0855615818
 20
12.1748114739
 30
0.0
 10
9.0905650269
 20
12.1726002779
 30
0.0
 10
9.0960699109
 20
12.1701443283
 30
0.0
 10
9.1044179529
 20
12.1664022627
 30
0.0
 10
9.1161103286
 20
12.1611522051
 30
0.0
 10
9.131644499
 20
12.1541928344
 30
0.0
 10
9.1491513489
 20
12.1463518142
 30
0.0
 10
9.1685849125
 20
12.1376495395
 30
0.0
 10
9.1898897513
 20
12.1281101003
 30
0.0
 10
9.2130067366
 20
12.1177600638
 30
0.0
 10
9.2378799412
 20
12.1066284679
 30
0.0
 10
9.2644549357
 20
12.0947458389
 30
0.0
 10
9.2926705083
 20
12.0821323312
 30
0.0
 10
9.3333762981
 20
12.0639148124
 30
0.0
 10
9.3760165085
 20
12.0447731899
 30
0.0
 10
9.420524629
 20
12.024845297
 30
0.0
 10
9.45586128
 20
12.0090532347
 30
0.0
 10
9.4923694771
 20
11.9927403753
 30
0.0
 10
9.5299558067
 20
11.975931489
 30
0.0
 10
9.5685331304
 20
11.958664785
 30
0.0
 10
9.6080111878
 20
11.9409791007
 30
0.0
 10
9.6482854873
 20
11.9228923868
 30
0.0
 10
9.689254992
 20
11.9044387964
 30
0.0
 10
9.7308883581
 20
11.8858119442
 30
0.0
 10
9.7730994871
 20
11.8670935907
 30
0.0
 10
9.8157438009
 20
11.8482414881
 30
0.0
 10
9.8730895959
 20
11.8227946373
 30
0.0
 10
9.9161091606
 20
11.8034111015
 30
0.0
 10
9.9447532513
 20
11.7902629423
 30
0.0
  0
SPLINE
  5
423
100
AcDbEntity
  8
0
100
AcDbSpline
 62
7
  6
CONTINUOUS
 70
0
 71
3
 72
31
 73
27
 74
0
 42
0.0000001
 43
0.0000001
 44
0.0000000001
 40
0.0
 40
0.0
 40
0.0
 40
0.0
 40
0.0008557664
 40
0.0027084706
 40
0.0056309054
 40
0.0096344915
 40
0.0147206381
 40
0.0208877641
 40
0.0364350917
 40
0.0561055959
 40
0.0796709151
 40
0.1069010602
 40
0.1375653529
 40
0.1714073259
 40
0.2081003027
 40
0.2886841593
 40
0.3765813749
 40
0.4687944639
 40
0.6535710163
 40
0.739914253
 40
0.8181606718
 40
0.8855941866
 40
0.9396588541
 40
0.9782585276
 40
0.9913168653
 40
1.0
 40
1.0
 40
1.0
 40
1.0
 10
10.0393144775
 20
11.1344364988
 30
0.0
 10
10.0393083418
 20
11.1344247366
 30
0.0
 10
10.0392585391
 20
11.1344171701
 30
0.0
 10
10.0391774466
 20
11.1344169515
 30
0.0
 10
10.0390384918
 20
11.1344292132
 30
0.0
 10
10.038855268
 20
11.1344534838
 30
0.0
 10
10.0386211385
 20
11.1344907478
 30
0.0
 10
10.0382123185
 20
11.134563446
 30
0.0
 10
10.0375828044
 20
11.1346883029
 30
0.0
 10
10.0366914574
 20
11.1348775505
 30
0.0
 10
10.035624945
 20
11.1351140791
 30
0.0
 10
10.0343938277
 20
11.1353952385
 30
0.0
 10
10.0330088939
 20
11.1357183983
 30
0.0
 10
10.0314824133
 20
11.1360804459
 30
0.0
 10
10.0292044997
 20
11.1366275764
 30
0.0
 10
10.0261143856
 20
11.1373812188
 30
0.0
 10
10.0221910618
 20
11.1383508898
 30
0.0
 10
10.0167031534
 20
11.1397220488
 30
0.0
 10
10.0112429009
 20
11.1411044759
 30
0.0
 10
10.0059982383
 20
11.1424560539
 30
0.0
 10
10.0025188444
 20
11.1433678899
 30
0.0
 10
9.9995278573
 20
11.1441697776
 30
0.0
 10
9.9971373421
 20
11.1448365161
 30
0.0
 10
9.9955648939
 20
11.1453004355
 30
0.0
 10
9.9946772785
 20
11.1455951504
 30
0.0
 10
9.9943607692
 20
11.1457122423
 30
0.0
 10
9.9942379061
 20
11.1457672353
 30
0.0
  0
SPLINE
  5
424
100
AcDbEntity
  8
0
100
AcDbSpline
 62
7
  6
CONTINUOUS
 70
0
 71
3
 72
19
 73
15
 74
0
 42
0.0000001
 43
0.0000001
 44
0.0000000001
 40
0.0
 40
0.0
 40
0.0
 40
0.0
 40
0.0118459999
 40
0.0200837307
 40
0.0302290882
 40
0.0566292903
 40
0.0912919239
 40
0.1340539349
 40
0.1846418828
 40
0.307821235
 40
0.456491863
 40
0.6254239821
 40
0.8087987394
 40
1.0
 40
1.0
 40
1.0
 40
1.0
 10
9.9705094238
 20
11.1642948442
 30
0.0
 10
9.9704719166
 20
11.1642110547
 30
0.0
 10
9.9703351262
 20
11.1641083864
 30
0.0
 10
9.9701172113
 20
11.1640288354
 30
0.0
 10
9.9697766733
 20
11.163952492
 30
0.0
 10
9.9692250536
 20
11.1639116415
 30
0.0
 10
9.9684199826
 20
11.1639226196
 30
0.0
 10
9.9674301658
 20
11.163995151
 30
0.0
 10
9.9657626865
 20
11.1641854857
 30
0.0
 10
9.9632950363
 20
11.1645858127
 30
0.0
 10
9.9599445711
 20
11.1652528925
 30
0.0
 10
9.9561588081
 20
11.1661155786
 30
0.0
 10
9.952074137
 20
11.1671443404
 30
0.0
 10
9.9492741154
 20
11.1679108568
 30
0.0
 10
9.9478490822
 20
11.1683168014
 30
0.0
  0
SPLINE
  5
425
100
AcDbEntity
  8
0
100
AcDbSpline
 62
7
  6
CONTINUOUS
 70
0
 71
3
 72
10
 73
6
 74
0
 42
0.0000001
 43
0.0000001
 44
0.0000000001
 40
0.0
 40
0.0
 40
0.0
 40
0.0
 40
0.5514001621
 40
0.7953618066
 40
1.0
 40
1.0
 40
1.0
 40
1.0
 10
9.9478490822
 20
11.1683168014
 30
0.0
 10
9.9446007384
 20
11.1692421467
 30
0.0
 10
9.9399416475
 20
11.1706780176
 30
0.0
 10
9.9341789236
 20
11.1727564969
 30
0.0
 10
9.9316310445
 20
11.1737898175
 30
0.0
 10
9.9304869232
 20
11.1743019217
 30
0.0
  0
SPLINE
  5
426
100
AcDbEntity
  8
0
100
AcDbSpline
 62
7
  6
CONTINUOUS
 70
0
 71
3
 72
19
 73
15
 74
0
 42
0.0000001
 43
0.0000001
 44
0.0000000001
 40
0.0
 40
0.0
 40
0.0
 40
0.0
 40
0.0168831868
 40
0.0382045683
 40
0.0659015925
 40
0.1006871932
 40
0.1427759517
 40
0.1921718337
 40
0.2487183506
 40
0.3120242297
 40
0.4570511635
 40
0.6233839753
 40
0.8062264069
 40
1.0
 40
1.0
 40
1.0
 40
1.0
 10
9.830244218
 20
11.2251215158
 30
0.0
 10
9.8301961959
 20
11.2250129124
 30
0.0
 10
9.8300097105
 20
11.2248016187
 30
0.0
 10
9.8295836497
 20
11.2246039321
 30
0.0
 10
9.8290063464
 20
11.2244737605
 30
0.0
 10
9.828271921
 20
11.2244114657
 30
0.0
 10
9.8273830522
 20
11.2244161556
 30
0.0
 10
9.826343914
 20
11.2244896989
 30
0.0
 10
9.8251617233
 20
11.2246323172
 30
0.0
 10
9.8233217593
 20
11.2249267108
 30
0.0
 10
9.8207413613
 20
11.2254684769
 30
0.0
 10
9.8173749267
 20
11.2263375582
 30
0.0
 10
9.8137152736
 20
11.2274312476
 30
0.0
 10
9.8112034354
 20
11.2282740428
 30
0.0
 10
9.8099184967
 20
11.2287283726
 30
0.0
  0
SPLINE
  5
427
100
AcDbEntity
  8
0
100
AcDbSpline
 62
7
  6
CONTINUOUS
 70
0
 71
3
 72
9
 73
5
 74
0
 42
0.0000001
 43
0.0000001
 44
0.0000000001
 40
0.0
 40
0.0
 40
0.0
 40
0.0
 40
0.252997474
 40
1.0
 40
1.0
 40
1.0
 40
1.0
 10
9.8099184967
 20
11.2287283726
 30
0.0
 10
9.8091161561
 20
11.2290120649
 30
0.0
 10
9.8059564803
 20
11.2301658946
 30
0.0
 10
9.8028389116
 20
11.2314366639
 30
0.0
 10
9.8005454465
 20
11.2324632097
 30
0.0
  0
SPLINE
  5
428
100
AcDbEntity
  8
0
100
AcDbSpline
 62
7
  6
CONTINUOUS
 70
0
 71
3
 72
31
 73
27
 74
0
 42
0.0000001
 43
0.0000001
 44
0.0000000001
 40
0.0
 40
0.0
 40
0.0
 40
0.0
 40
0.0115897674
 40
0.0273140086
 40
0.0704290493
 40
0.1277924572
 40
0.1973268612
 40
0.2765268744
 40
0.3627757424
 40
0.4532029388
 40
0.544893788
 40
0.6349241196
 40
0.7203662984
 40
0.7984348703
 40
0.8339168978
 40
0.8666172986
 40
0.8962297834
 40
0.9225055031
 40
0.9452433286
 40
0.9642449173
 40
0.9793149246
 40
0.9902735969
 40
0.9941912349
 40
0.9970806551
 40
0.9989737057
 40
1.0
 40
1.0
 40
1.0
 40
1.0
 10
9.434580407
 20
11.3962677056
 30
0.0
 10
9.4344173064
 20
11.3963407088
 30
0.0
 10
9.4340408384
 20
11.3965301285
 30
0.0
 10
9.4330886078
 20
11.3970520765
 30
0.0
 10
9.4315481102
 20
11.3979677743
 30
0.0
 10
9.4293218597
 20
11.39935156
 30
0.0
 10
9.42664557
 20
11.4010649341
 30
0.0
 10
9.4236110247
 20
11.4030443032
 30
0.0
 10
9.420320739
 20
11.4052210945
 30
0.0
 10
9.4168815692
 20
11.40752176
 30
0.0
 10
9.413404319
 20
11.4098702848
 30
0.0
 10
9.4100007991
 20
11.412190584
 30
0.0
 10
9.4067812934
 20
11.414407862
 30
0.0
 10
9.4042643126
 20
11.4161623607
 30
0.0
 10
9.4024221167
 20
11.4174627584
 30
0.0
 10
9.4011943703
 20
11.4183380802
 30
0.0
 10
9.4000868702
 20
11.4191375026
 30
0.0
 10
9.3991092431
 20
11.4198543833
 30
0.0
 10
9.3982697449
 20
11.4204828006
 30
0.0
 10
9.3975756812
 20
11.4210173664
 30
0.0
 10
9.3970347693
 20
11.4214522187
 30
0.0
 10
9.3966844419
 20
11.4217542664
 30
0.0
 10
9.3964884028
 20
11.4219446062
 30
0.0
 10
9.3963983503
 20
11.4220461521
 30
0.0
 10
9.3963472473
 20
11.4221163463
 30
0.0
 10
9.3963316002
 20
11.4221649891
 30
0.0
 10
9.3963378409
 20
11.4221795301
 30
0.0
  0
SPLINE
  5
429
100
AcDbEntity
  8
0
100
AcDbSpline
 62
7
  6
CONTINUOUS
 70
0
 71
3
 72
18
 73
14
 74
0
 42
0.0000001
 43
0.0000001
 44
0.0000000001
 40
0.0
 40
0.0
 40
0.0
 40
0.0
 40
0.0183670205
 40
0.0400398714
 40
0.067197544
 40
0.1008906703
 40
0.1416012522
 40
0.1895207334
 40
0.3064012153
 40
0.4495613339
 40
0.616281855
 40
0.8017951841
 40
1.0
 40
1.0
 40
1.0
 40
1.0
 10
9.661127894
 20
11.2983803705
 30
0.0
 10
9.6610820219
 20
11.2982785505
 30
0.0
 10
9.6609221566
 20
11.2980817711
 30
0.0
 10
9.6605533129
 20
11.2978909072
 30
0.0
 10
9.6600620983
 20
11.2977751517
 30
0.0
 10
9.6594444318
 20
11.2977306777
 30
0.0
 10
9.6587001741
 20
11.2977574073
 30
0.0
 10
9.6574578923
 20
11.2979003712
 30
0.0
 10
9.6556213215
 20
11.2982809506
 30
0.0
 10
9.6531224325
 20
11.2989842248
 30
0.0
 10
9.6502699185
 20
11.2999556408
 30
0.0
 10
9.6471483964
 20
11.3011647024
 30
0.0
 10
9.6450031617
 20
11.3020833177
 30
0.0
 10
9.6439031854
 20
11.3025756627
 30
0.0
  0
SPLINE
  5
42A
100
AcDbEntity
  8
0
100
AcDbSpline
 62
7
  6
CONTINUOUS
 70
0
 71
3
 72
16
 73
12
 74
0
 42
0.0000001
 43
0.0000001
 44
0.0000000001
 40
0.0
 40
0.0
 40
0.0
 40
0.0
 40
0.0424914692
 40
0.0689923719
 40
0.1008777148
 40
0.1835649109
 40
0.2938972346
 40
0.4320895503
 40
0.596899749
 40
0.7867682626
 40
1.0
 40
1.0
 40
1.0
 40
1.0
 10
9.5145494046
 20
11.3617985262
 30
0.0
 10
9.5145098487
 20
11.3617107431
 30
0.0
 10
9.5143811396
 20
11.3615970236
 30
0.0
 10
9.514163102
 20
11.3615279402
 30
0.0
 10
9.5138445786
 20
11.3614852758
 30
0.0
 10
9.5133326874
 20
11.3615223075
 30
0.0
 10
9.5125964939
 20
11.3616709557
 30
0.0
 10
9.5116958067
 20
11.361931143
 30
0.0
 10
9.5106409847
 20
11.3622989783
 30
0.0
 10
9.5094438284
 20
11.3627718297
 30
0.0
 10
9.5086053312
 20
11.363134444
 30
0.0
 10
9.5081643195
 20
11.3633318391
 30
0.0
  0
SPLINE
  5
42B
100
AcDbEntity
  8
0
100
AcDbSpline
 62
9
  6
CONTINUOUS
 70
0
 71
3
 72
22
 73
18
 74
0
 42
0.0000001
 43
0.0000001
 44
0.0000000001
 40
0.0
 40
0.0
 40
0.0
 40
0.0
 40
0.1571008818
 40
0.2348546116
 40
0.3114758991
 40
0.3865167132
 40
0.4595441433
 40
0.5301391703
 40
0.597890168
 40
0.6623971807
 40
0.7232931868
 40
0.7802665027
 40
0.8330475268
 40
0.8814258664
 40
0.925290256
 40
0.964711786
 40
1.0
 40
1.0
 40
1.0
 40
1.0
 10
11.1637355487
 20
11.2739698612
 30
0.0
 10
11.1479082629
 20
11.2558607469
 30
0.0
 10
11.1234368492
 20
11.2294832042
 30
0.0
 10
11.0895512799
 20
11.195928117
 30
0.0
 10
11.063903131
 20
11.171926696
 30
0.0
 10
11.0381193765
 20
11.149150517
 30
0.0
 10
11.012378086
 20
11.1277414679
 30
0.0
 10
10.9868555309
 20
11.1078390059
 30
0.0
 10
10.9617264716
 20
11.0895809513
 30
0.0
 10
10.9371633737
 20
11.0731033054
 30
0.0
 10
10.9133323594
 20
11.0585377337
 30
0.0
 10
10.8903939204
 20
11.0460086389
 30
0.0
 10
10.8685018789
 20
11.0356365821
 30
0.0
 10
10.8478061816
 20
11.0275394355
 30
0.0
 10
10.8284389246
 20
11.0218357797
 30
0.0
 10
10.8105291957
 20
11.0186359293
 30
0.0
 10
10.7990367501
 20
11.0182372363
 30
0.0
 10
10.7936449099
 20
11.018573776
 30
0.0
  0
SPLINE
  5
42C
100
AcDbEntity
  8
0
100
AcDbSpline
 62
7
  6
CONTINUOUS
 70
0
 71
3
 72
18
 73
14
 74
0
 42
0.0000001
 43
0.0000001
 44
0.0000000001
 40
0.0
 40
0.0
 40
0.0
 40
0.0
 40
0.1844870281
 40
0.363684335
 40
0.5320311627
 40
0.6836667438
 40
0.8125290187
 40
0.8664875496
 40
0.9124185718
 40
0.9495318521
 40
0.977032722
 40
0.994122698
 40
1.0
 40
1.0
 40
1.0
 40
1.0
 10
11.1055330517
 20
11.3129833878
 30
0.0
 10
11.1196593968
 20
11.3317624308
 30
0.0
 10
11.1462046332
 20
11.3697728553
 30
0.0
 10
11.1818659638
 20
11.4274277099
 30
0.0
 10
11.2128665712
 20
11.4829621716
 30
0.0
 10
11.2388899168
 20
11.5338793052
 30
0.0
 10
11.257120319
 20
11.572389715
 30
0.0
 10
11.2690479778
 20
11.5989744539
 30
0.0
 10
11.2760019983
 20
11.6149802329
 30
0.0
 10
11.2814707905
 20
11.6279558018
 30
0.0
 10
11.2854179099
 20
11.6375855267
 30
0.0
 10
11.2877986379
 20
11.6435568676
 30
0.0
 10
11.2888650378
 20
11.6462810875
 30
0.0
 10
11.2891325405
 20
11.6469802853
 30
0.0
  0
SPLINE
  5
42D
100
AcDbEntity
  8
0
100
AcDbSpline
 62
7
  6
CONTINUOUS
 70
0
 71
3
 72
26
 73
22
 74
0
 42
0.0000001
 43
0.0000001
 44
0.0000000001
 40
0.0
 40
0.0
 40
0.0
 40
0.0
 40
0.015613674
 40
0.0312453998
 40
0.0468770847
 40
0.0625081237
 40
0.0781385673
 40
0.0937675651
 40
0.1250129833
 40
0.1562617691
 40
0.1875116793
 40
0.2187619872
 40
0.2500124367
 40
0.3125085175
 40
0.3750067882
 40
0.437505918
 40
0.50000549
 40
0.6250021765
 40
0.7500010292
 40
0.8750004615
 40
1.0
 40
1.0
 40
1.0
 40
1.0
 10
14.477037834
 20
7.7296567774
 30
0.0
 10
14.4765751203
 20
7.7302082181
 30
0.0
 10
14.4754204664
 20
7.7311330541
 30
0.0
 10
14.473366249
 20
7.7318786498
 30
0.0
 10
14.4712124414
 20
7.7321661486
 30
0.0
 10
14.4690454656
 20
7.7321363474
 30
0.0
 10
14.4668957125
 20
7.7318828202
 30
0.0
 10
14.4640664871
 20
7.7313244444
 30
0.0
 10
14.4606025964
 20
7.7303136066
 30
0.0
 10
14.4565593401
 20
7.7287790856
 30
0.0
 10
14.4526117824
 20
7.7270141992
 30
0.0
 10
14.448747095
 20
7.7250762027
 30
0.0
 10
14.4436900619
 20
7.7223107297
 30
0.0
 10
14.4375234179
 20
7.7185809535
 30
0.0
 10
14.4303163563
 20
7.7138051647
 30
0.0
 10
14.4232601696
 20
7.7088097534
 30
0.0
 10
14.4140113099
 20
7.7019307565
 30
0.0
 10
14.4026819316
 20
7.6930270201
 30
0.0
 10
14.3893009745
 20
7.6820787588
 30
0.0
 10
14.3760245146
 20
7.6710041359
 30
0.0
 10
14.367194663
 20
7.6635959197
 30
0.0
 10
14.3627797012
 20
7.6598918404
 30
0.0
  0
LINE
  5
42E
100
AcDbEntity
  8
0
100
AcDbLine
 62
7
  6
CONTINUOUS
 10
14.3627797012
 20
7.6598918404
 11
14.3596325834
 21
7.6572512471
  0
SPLINE
  5
42F
100
AcDbEntity
  8
0
100
AcDbSpline
 62
7
  6
CONTINUOUS
 70
0
 71
3
 72
26
 73
22
 74
0
 42
0.0000001
 43
0.0000001
 44
0.0000000001
 40
0.0
 40
0.0
 40
0.0
 40
0.0
 40
0.1250012739
 40
0.2500024916
 40
0.3750032509
 40
0.5000020473
 40
0.5625025106
 40
0.6250025561
 40
0.6875016879
 40
0.7499988603
 40
0.7812496742
 40
0.81250033
 40
0.8437505993
 40
0.8749998027
 40
0.906245529
 40
0.9218744214
 40
0.9375038838
 40
0.9531336874
 40
0.9687644277
 40
0.9843933367
 40
1.0
 40
1.0
 40
1.0
 40
1.0
 10
14.3580357613
 20
7.6559103285
 30
0.0
 10
14.3534233827
 20
7.6520400833
 30
0.0
 10
14.3441973267
 20
7.6443011654
 30
0.0
 10
14.3303775618
 20
7.6326696816
 30
0.0
 10
14.3166473103
 20
7.6209326467
 30
0.0
 10
14.3053792107
 20
7.6109495057
 30
0.0
 10
14.2965690014
 20
7.602739435
 30
0.0
 10
14.2901012444
 20
7.5964343669
 30
0.0
 10
14.2838244302
 20
7.5899386962
 30
0.0
 10
14.2788141427
 20
7.5843183075
 30
0.0
 10
14.2750022003
 20
7.5796565814
 30
0.0
 10
14.2722666036
 20
7.5760622864
 30
0.0
 10
14.2696895355
 20
7.5723517763
 30
0.0
 10
14.2673260949
 20
7.5685010505
 30
0.0
 10
14.2656081876
 20
7.5651455909
 30
0.0
 10
14.2644747077
 20
7.5623541687
 30
0.0
 10
14.2637861244
 20
7.5602002208
 30
0.0
 10
14.2633202141
 20
7.5579847672
 30
0.0
 10
14.2631798253
 20
7.5557193223
 30
0.0
 10
14.2635312878
 20
7.5534631407
 30
0.0
 10
14.2642621626
 20
7.5520981145
 30
0.0
 10
14.2647453705
 20
7.5515222497
 30
0.0
  0
SPLINE
  5
430
100
AcDbEntity
  8
0
100
AcDbSpline
 62
7
  6
CONTINUOUS
 70
0
 71
3
 72
13
 73
9
 74
0
 42
0.0000001
 43
0.0000001
 44
0.0000000001
 40
0.0
 40
0.0
 40
0.0
 40
0.0
 40
0.0428473337
 40
0.1007260894
 40
0.1828628384
 40
0.291865781
 40
0.5920251032
 40
1.0
 40
1.0
 40
1.0
 40
1.0
 10
9.3526376042
 20
11.4945632595
 30
0.0
 10
9.3526186017
 20
11.4945204353
 30
0.0
 10
9.3525291426
 20
11.494440004
 30
0.0
 10
9.3523263052
 20
11.4944105943
 30
0.0
 10
9.3520545471
 20
11.4944296741
 30
0.0
 10
9.3515272725
 20
11.4945401759
 30
0.0
 10
9.3506800379
 20
11.4948296193
 30
0.0
 10
9.3499664688
 20
11.495130805
 30
0.0
 10
9.3495592991
 20
11.4953130525
 30
0.0
  0
SPLINE
  5
431
100
AcDbEntity
  8
0
100
AcDbSpline
 62
9
  6
CONTINUOUS
 70
0
 71
3
 72
17
 73
13
 74
0
 42
0.0000001
 43
0.0000001
 44
0.0000000001
 40
0.0
 40
0.0
 40
0.0
 40
0.0
 40
0.1677295498
 40
0.3306206909
 40
0.4853199515
 40
0.6281430514
 40
0.7551701809
 40
0.8623115569
 40
0.9071127376
 40
0.9453546765
 40
0.9764977088
 40
1.0
 40
1.0
 40
1.0
 40
1.0
 10
10.960943337
 20
11.3906641006
 30
0.0
 10
10.9726983193
 20
11.4104501992
 30
0.0
 10
10.9943660262
 20
11.4503587911
 30
0.0
 10
11.0223616815
 20
11.5108168678
 30
0.0
 10
11.0458714222
 20
11.5694805213
 30
0.0
 10
11.0651797333
 20
11.6244567059
 30
0.0
 10
11.0805706607
 20
11.6738512144
 30
0.0
 10
11.0909022038
 20
11.710713035
 30
0.0
 10
11.0975187154
 20
11.735956213
 30
0.0
 10
11.1013676332
 20
11.7511439897
 30
0.0
 10
11.1044430402
 20
11.7635125682
 30
0.0
 10
11.1062584415
 20
11.7707876423
 30
0.0
 10
11.1070678342
 20
11.7739092172
 30
0.0
  0
SPLINE
  5
432
100
AcDbEntity
  8
0
100
AcDbSpline
 62
9
  6
CONTINUOUS
 70
0
 71
3
 72
19
 73
15
 74
0
 42
0.0000001
 43
0.0000001
 44
0.0000000001
 40
0.0
 40
0.0
 40
0.0
 40
0.0
 40
0.2329366826
 40
0.4356302993
 40
0.607545128
 40
0.7481711141
 40
0.8066081013
 40
0.8570631384
 40
0.8995060449
 40
0.9339367845
 40
0.9604225885
 40
0.9792125194
 40
0.991204053
 40
1.0
 40
1.0
 40
1.0
 40
1.0
 10
11.1070678342
 20
11.7739092172
 30
0.0
 10
11.1072480916
 20
11.7746044137
 30
0.0
 10
11.1075884104
 20
11.7759037201
 30
0.0
 10
11.1080773113
 20
11.7777119973
 30
0.0
 10
11.1085103589
 20
11.7792404389
 30
0.0
 10
11.1088422875
 20
11.7803351371
 30
0.0
 10
11.1090839524
 20
11.7810655857
 30
0.0
 10
11.109240236
 20
11.7815051961
 30
0.0
 10
11.1093830463
 20
11.7818712137
 30
0.0
 10
11.1095121108
 20
11.7821620784
 30
0.0
 10
11.1096278779
 20
11.7823809599
 30
0.0
 10
11.1097293497
 20
11.7825223443
 30
0.0
 10
11.1098262127
 20
11.7826099074
 30
0.0
 10
11.1098995751
 20
11.7825976253
 30
0.0
 10
11.1099212276
 20
11.7825812963
 30
0.0
  0
SPLINE
  5
433
100
AcDbEntity
  8
0
100
AcDbSpline
 62
9
  6
CONTINUOUS
 70
0
 71
3
 72
36
 73
32
 74
0
 42
0.0000001
 43
0.0000001
 44
0.0000000001
 40
0.0
 40
0.0
 40
0.0
 40
0.0
 40
0.0940863866
 40
0.1869105811
 40
0.2779686841
 40
0.366698882
 40
0.4524917352
 40
0.53469856
 40
0.6126382439
 40
0.685602795
 40
0.7528618881
 40
0.8136666373
 40
0.8414104797
 40
0.8672530692
 40
0.891096973
 40
0.9128441809
 40
0.9323962331
 40
0.9496544001
 40
0.9645199779
 40
0.9768948579
 40
0.982118149
 40
0.9866830442
 40
0.9905784829
 40
0.9937945044
 40
0.9963235254
 40
0.9973297738
 40
0.9981648988
 40
0.9988321954
 40
0.9993399734
 40
0.9997099238
 40
1.0
 40
1.0
 40
1.0
 40
1.0
 10
10.853300068
 20
11.4331975135
 30
0.0
 10
10.859829884
 20
11.4461660352
 30
0.0
 10
10.872163025
 20
11.4722552948
 30
0.0
 10
10.8887504928
 20
11.5118282578
 30
0.0
 10
10.9034538755
 20
11.5512564921
 30
0.0
 10
10.9163938536
 20
11.5901535761
 30
0.0
 10
10.9276913733
 20
11.6281342946
 30
0.0
 10
10.9374667893
 20
11.6648126766
 30
0.0
 10
10.94584023
 20
11.699802544
 30
0.0
 10
10.9529315168
 20
11.7327174607
 30
0.0
 10
10.9588603151
 20
11.7631707341
 30
0.0
 10
10.9630504726
 20
11.7868485587
 30
0.0
 10
10.9659377719
 20
11.8042641066
 30
0.0
 10
10.9678200654
 20
11.816064261
 30
0.0
 10
10.969501126
 20
11.8269592194
 30
0.0
 10
10.9709958097
 20
11.8369005794
 30
0.0
 10
10.9723189061
 20
11.8458399428
 30
0.0
 10
10.9734848365
 20
11.8537290146
 30
0.0
 10
10.9745082426
 20
11.8605194806
 30
0.0
 10
10.9752912439
 20
11.8654679545
 30
0.0
 10
10.9758690353
 20
11.8688391289
 30
0.0
 10
10.9762509967
 20
11.8709160498
 30
0.0
 10
10.9766078051
 20
11.8726824778
 30
0.0
 10
10.9769412555
 20
11.8741325179
 30
0.0
 10
10.9772164423
 20
11.8751381366
 30
0.0
 10
10.9774343317
 20
11.8757767381
 30
0.0
 10
10.9775802176
 20
11.8761355397
 30
0.0
 10
10.977721287
 20
11.8764127883
 30
0.0
 10
10.9778587427
 20
11.8766082937
 30
0.0
 10
10.9779975597
 20
11.8767300461
 30
0.0
 10
10.9781056246
 20
11.8767485107
 30
0.0
 10
10.9781495381
 20
11.8767398191
 30
0.0
  0
SPLINE
  5
434
100
AcDbEntity
  8
0
100
AcDbSpline
 62
7
  6
CONTINUOUS
 70
0
 71
3
 72
16
 73
12
 74
0
 42
0.0000001
 43
0.0000001
 44
0.0000000001
 40
0.0
 40
0.0
 40
0.0
 40
0.0
 40
0.2132691205
 40
0.4033499221
 40
0.5684560396
 40
0.706931193
 40
0.817430609
 40
0.9001029056
 40
0.9318801356
 40
0.9581842677
 40
1.0
 40
1.0
 40
1.0
 40
1.0
 10
10.0519669584
 20
11.1809181784
 30
0.0
 10
10.0515106788
 20
11.1811224073
 30
0.0
 10
10.0506524715
 20
11.1815194135
 30
0.0
 10
10.0494609726
 20
11.1821165361
 30
0.0
 10
10.0484476236
 20
11.1826757872
 30
0.0
 10
10.047623118
 20
11.1831896315
 30
0.0
 10
10.0469980784
 20
11.1836527261
 30
0.0
 10
10.0466139475
 20
11.1840191464
 30
0.0
 10
10.0464249922
 20
11.1842917486
 30
0.0
 10
10.0463264225
 20
11.1845041672
 30
0.0
 10
10.0463235951
 20
11.1846800712
 30
0.0
 10
10.0463634669
 20
11.1847696106
 30
0.0
  0
LINE
  5
435
100
AcDbEntity
  8
0
100
AcDbLine
 62
7
  6
CONTINUOUS
 10
9.5081643195
 20
11.3633318391
 11
9.5004859992
 21
11.3672427168
  0
LINE
  5
436
100
AcDbEntity
  8
0
100
AcDbLine
 62
7
  6
CONTINUOUS
 10
9.5004859992
 20
11.3672427168
 11
9.4917743709
 21
11.3724313954
  0
SPLINE
  5
437
100
AcDbEntity
  8
0
100
AcDbSpline
 62
7
  6
CONTINUOUS
 70
0
 71
3
 72
18
 73
14
 74
0
 42
0.0000001
 43
0.0000001
 44
0.0000000001
 40
0.0
 40
0.0
 40
0.0
 40
0.0
 40
0.193525201
 40
0.3775032505
 40
0.5458614194
 40
0.6933095502
 40
0.8151496136
 40
0.8651660472
 40
0.9074932429
 40
0.9419300636
 40
0.9684039741
 40
0.9872113582
 40
1.0
 40
1.0
 40
1.0
 40
1.0
 10
9.4917743709
 20
11.3724313954
 30
0.0
 10
9.4905848968
 20
11.3731839503
 30
0.0
 10
9.4882803626
 20
11.3746769952
 30
0.0
 10
9.4849965405
 20
11.3769088485
 30
0.0
 10
9.4820414246
 20
11.3790265057
 30
0.0
 10
9.4795114513
 20
11.3809588693
 30
0.0
 10
9.4777225091
 20
11.3824418149
 30
0.0
 10
9.4765766013
 20
11.3834976794
 30
0.0
 10
9.4759277098
 20
11.3841534275
 30
0.0
 10
9.4754335738
 20
11.3847196773
 30
0.0
 10
9.475099993
 20
11.3851963753
 30
0.0
 10
9.4749149292
 20
11.3855778245
 30
0.0
 10
9.4749073792
 20
11.3858251912
 30
0.0
 10
9.4749455675
 20
11.3859100046
 30
0.0
  0
SPLINE
  5
438
100
AcDbEntity
  8
0
100
AcDbSpline
 62
7
  6
CONTINUOUS
 70
0
 71
3
 72
16
 73
12
 74
0
 42
0.0000001
 43
0.0000001
 44
0.0000000001
 40
0.0
 40
0.0
 40
0.0
 40
0.0
 40
0.2052297959
 40
0.3937035933
 40
0.5608781159
 40
0.7026783203
 40
0.7634275091
 40
0.8172388005
 40
0.8640435227
 40
0.9038572158
 40
1.0
 40
1.0
 40
1.0
 40
1.0
 10
9.9181766536
 20
11.2408021866
 30
0.0
 10
9.9172919215
 20
11.2411981892
 30
0.0
 10
9.915605498
 20
11.2419824189
 30
0.0
 10
9.9132412575
 20
11.2431784987
 30
0.0
 10
9.9111880246
 20
11.2443224155
 30
0.0
 10
9.9097091299
 20
11.2452525788
 30
0.0
 10
9.9087240257
 20
11.2459589509
 30
0.0
 10
9.9081278425
 20
11.2464302926
 30
0.0
 10
9.9076290721
 20
11.2468799786
 30
0.0
 10
9.9070558008
 20
11.2474790905
 30
0.0
 10
9.906606579
 20
11.2481920604
 30
0.0
 10
9.9067913115
 20
11.2486068741
 30
0.0
  0
SPLINE
  5
439
100
AcDbEntity
  8
0
100
AcDbSpline
 62
7
  6
CONTINUOUS
 70
0
 71
3
 72
17
 73
13
 74
0
 42
0.0000001
 43
0.0000001
 44
0.0000000001
 40
0.0
 40
0.0
 40
0.0
 40
0.0
 40
0.0089936872
 40
0.0252825415
 40
0.0498610122
 40
0.0827835184
 40
0.1730415207
 40
0.2937819155
 40
0.4412584608
 40
0.6114545131
 40
0.7994976941
 40
1.0
 40
1.0
 40
1.0
 40
1.0
 10
10.1870825695
 20
11.1289641699
 30
0.0
 10
10.187060355
 20
11.1289116637
 30
0.0
 10
10.1868963537
 20
11.1288316632
 30
0.0
 10
10.1865910087
 20
11.1287988417
 30
0.0
 10
10.1861180507
 20
11.1287939001
 30
0.0
 10
10.185185661
 20
11.1288589223
 30
0.0
 10
10.1836501829
 20
11.1290634147
 30
0.0
 10
10.1814116786
 20
11.1294507293
 30
0.0
 10
10.1786852156
 20
11.1299922023
 30
0.0
 10
10.1755525536
 20
11.1306731256
 30
0.0
 10
10.172102159
 20
11.1314737517
 30
0.0
 10
10.1697095724
 20
11.1320588695
 30
0.0
 10
10.1684765945
 20
11.1323674687
 30
0.0
  0
SPLINE
  5
43A
100
AcDbEntity
  8
0
100
AcDbSpline
 62
7
  6
CONTINUOUS
 70
0
 71
3
 72
11
 73
7
 74
0
 42
0.0000001
 43
0.0000001
 44
0.0000000001
 40
0.0
 40
0.0
 40
0.0
 40
0.0
 40
0.3158604943
 40
0.5974182228
 40
0.829659684
 40
1.0
 40
1.0
 40
1.0
 40
1.0
 10
10.1583422489
 20
11.1350612792
 30
0.0
 10
10.1567809631
 20
11.1355016515
 30
0.0
 10
10.1538343643
 20
11.1363573127
 30
0.0
 10
10.1497645522
 20
11.13762138
 30
0.0
 10
10.1464392713
 20
11.1387559431
 30
0.0
 10
10.1445071022
 20
11.1394975782
 30
0.0
 10
10.1437086027
 20
11.1398549834
 30
0.0
  0
SPLINE
  5
43B
100
AcDbEntity
  8
0
100
AcDbSpline
 62
7
  6
CONTINUOUS
 70
0
 71
3
 72
19
 73
15
 74
0
 42
0.0000001
 43
0.0000001
 44
0.0000000001
 40
0.0
 40
0.0
 40
0.0
 40
0.0
 40
0.1907448975
 40
0.3737129207
 40
0.5410363295
 40
0.6869528324
 40
0.7505597173
 40
0.807264949
 40
0.8567562054
 40
0.8988943933
 40
0.9336596967
 40
0.9612839887
 40
0.9826292726
 40
1.0
 40
1.0
 40
1.0
 40
1.0
 10
9.7601102785
 20
11.3115520673
 30
0.0
 10
9.7587958201
 20
11.3121404137
 30
0.0
 10
9.756240921
 20
11.3133393212
 30
0.0
 10
9.7526062809
 20
11.3152056493
 30
0.0
 10
9.7493463265
 20
11.3170540173
 30
0.0
 10
9.7469431219
 20
11.3185806099
 30
0.0
 10
9.7453052077
 20
11.3197464893
 30
0.0
 10
9.7442928938
 20
11.320533887
 30
0.0
 10
9.7434463963
 20
11.3212682154
 30
0.0
 10
9.7427704513
 20
11.3219432085
 30
0.0
 10
9.7422676918
 20
11.3225540075
 30
0.0
 10
9.7419405099
 20
11.3230985175
 30
0.0
 10
9.741788389
 20
11.3235845305
 30
0.0
 10
9.7418283615
 20
11.3238884477
 30
0.0
 10
9.7418821374
 20
11.3240080645
 30
0.0
  0
SPLINE
  5
43C
100
AcDbEntity
  8
0
100
AcDbSpline
 62
9
  6
CONTINUOUS
 70
0
 71
3
 72
37
 73
33
 74
0
 42
0.0000001
 43
0.0000001
 44
0.0000000001
 40
0.0
 40
0.0
 40
0.0
 40
0.0
 40
0.093453527
 40
0.1856701285
 40
0.2761956766
 40
0.3645018894
 40
0.4499994504
 40
0.532048796
 40
0.6099689182
 40
0.6830445252
 40
0.7505318645
 40
0.78194135
 40
0.8116642669
 40
0.8396016212
 40
0.8656533862
 40
0.8897185913
 40
0.9116954068
 40
0.9314812274
 40
0.9489727594
 40
0.9640661249
 40
0.9706809087
 40
0.9766570129
 40
0.981981379
 40
0.9866409777
 40
0.9906228568
 40
0.9939142394
 40
0.99650276
 40
0.9983771635
 40
0.9990441181
 40
0.9995309393
 40
0.9998415269
 40
1.0
 40
1.0
 40
1.0
 40
1.0
 10
10.7094742787
 20
11.4833162161
 30
0.0
 10
10.7152986586
 20
11.4985652839
 30
0.0
 10
10.7260106147
 20
11.5291963409
 30
0.0
 10
10.7395864251
 20
11.5755082658
 30
0.0
 10
10.7508057268
 20
11.6215194654
 30
0.0
 10
10.7598853821
 20
11.6668001872
 30
0.0
 10
10.7670423752
 20
11.7109225844
 30
0.0
 10
10.7724928887
 20
11.7534576501
 30
0.0
 10
10.7764528004
 20
11.7939761129
 30
0.0
 10
10.7791376925
 20
11.8320480917
 30
0.0
 10
10.7805234879
 20
11.8620573819
 30
0.0
 10
10.7811858163
 20
11.8845139537
 30
0.0
 10
10.7814855498
 20
11.9000691479
 30
0.0
 10
10.7816272745
 20
11.9146906449
 30
0.0
 10
10.7816379406
 20
11.9283245553
 30
0.0
 10
10.7815444814
 20
11.9409169566
 30
0.0
 10
10.7813738089
 20
11.952413931
 30
0.0
 10
10.781152748
 20
11.9627615557
 30
0.0
 10
10.7809081409
 20
11.9719059103
 30
0.0
 10
10.7806982999
 20
11.9787497106
 30
0.0
 10
10.7805440667
 20
11.9835828563
 30
0.0
 10
10.7804445626
 20
11.9867105347
 30
0.0
 10
10.780359287
 20
11.9894969646
 30
0.0
 10
10.7802915208
 20
11.9919354783
 30
0.0
 10
10.7802443919
 20
11.9940191669
 30
0.0
 10
10.7802209936
 20
11.9957419001
 30
0.0
 10
10.7802235749
 20
11.9970956535
 30
0.0
 10
10.7802515566
 20
11.9979931153
 30
0.0
 10
10.780294164
 20
11.9985184404
 30
0.0
 10
10.7803354542
 20
11.9987749439
 30
0.0
 10
10.7803717942
 20
11.9989304036
 30
0.0
 10
10.7804272387
 20
11.9990103187
 30
0.0
 10
10.7804547439
 20
11.9990134288
 30
0.0
  0
SPLINE
  5
43D
100
AcDbEntity
  8
0
100
AcDbSpline
 62
7
  6
CONTINUOUS
 70
0
 71
3
 72
11
 73
7
 74
0
 42
0.0000001
 43
0.0000001
 44
0.0000000001
 40
0.0
 40
0.0
 40
0.0
 40
0.0
 40
0.2546068937
 40
0.5155475146
 40
0.7679644069
 40
1.0
 40
1.0
 40
1.0
 40
1.0
 10
9.5987652354
 20
11.3837694668
 30
0.0
 10
9.5972291993
 20
11.3844569904
 30
0.0
 10
9.5941502743
 20
11.385919759
 30
0.0
 10
9.5896493803
 20
11.3882692487
 30
0.0
 10
9.585373779
 20
11.3907197582
 30
0.0
 10
9.5826628341
 20
11.3924265326
 30
0.0
 10
9.5813877052
 20
11.3932787417
 30
0.0
  0
SPLINE
  5
43E
100
AcDbEntity
  8
0
100
AcDbSpline
 62
7
  6
CONTINUOUS
 70
0
 71
3
 72
16
 73
12
 74
0
 42
0.0000001
 43
0.0000001
 44
0.0000000001
 40
0.0
 40
0.0
 40
0.0
 40
0.0
 40
0.2039746011
 40
0.3885123708
 40
0.5512727415
 40
0.6900556608
 40
0.803473257
 40
0.8913035699
 40
0.9259686876
 40
0.9549743173
 40
1.0
 40
1.0
 40
1.0
 40
1.0
 10
9.5813877052
 20
11.3932787417
 30
0.0
 10
9.5807494381
 20
11.3937053158
 30
0.0
 10
9.579544953
 20
11.3945348421
 30
0.0
 10
9.5778764053
 20
11.3957688495
 30
0.0
 10
9.5764512694
 20
11.3969168608
 30
0.0
 10
9.5752888303
 20
11.3979618123
 30
0.0
 10
9.5744058265
 20
11.3988897455
 30
0.0
 10
9.5738671883
 20
11.3996007997
 30
0.0
 10
9.5736043378
 20
11.4001098632
 30
0.0
 10
9.5734719832
 20
11.4004954594
 30
0.0
 10
9.5734729331
 20
11.400797348
 30
0.0
 10
9.5735429783
 20
11.4009516557
 30
0.0
  0
LINE
  5
43F
100
AcDbEntity
  8
0
100
AcDbLine
 62
7
  6
CONTINUOUS
 10
9.4555744622
 20
11.4478610873
 11
9.4473323683
 21
11.4520113175
  0
SPLINE
  5
440
100
AcDbEntity
  8
0
100
AcDbSpline
 62
7
  6
CONTINUOUS
 70
0
 71
3
 72
12
 73
8
 74
0
 42
0.0000001
 43
0.0000001
 44
0.0000000001
 40
0.0
 40
0.0
 40
0.0
 40
0.0
 40
0.2942742721
 40
0.5779941179
 40
0.8214929618
 40
0.9201245502
 40
1.0
 40
1.0
 40
1.0
 40
1.0
 10
9.4473323683
 20
11.4520113175
 30
0.0
 10
9.445076596
 20
11.4532508353
 30
0.0
 10
9.4407059607
 20
11.4557962418
 30
0.0
 10
9.4346607825
 20
11.4596828316
 30
0.0
 10
9.4302004594
 20
11.4628641358
 30
0.0
 10
9.4273300193
 20
11.4651858609
 30
0.0
 10
9.4261694959
 20
11.466232972
 30
0.0
 10
9.4256755286
 20
11.4667270256
 30
0.0
  0
SPLINE
  5
441
100
AcDbEntity
  8
0
100
AcDbSpline
 62
7
  6
CONTINUOUS
 70
0
 71
3
 72
12
 73
8
 74
0
 42
0.0000001
 43
0.0000001
 44
0.0000000001
 40
0.0
 40
0.0
 40
0.0
 40
0.0
 40
0.3756537626
 40
0.6632884342
 40
0.7749001111
 40
0.8663457661
 40
1.0
 40
1.0
 40
1.0
 40
1.0
 10
9.4256755286
 20
11.4667270256
 30
0.0
 10
9.42540756
 20
11.466995041
 30
0.0
 10
9.4249482955
 20
11.4674826154
 30
0.0
 10
9.4244672186
 20
11.4681016156
 30
0.0
 10
9.42422454
 20
11.468536229
 30
0.0
 10
9.4241004141
 20
11.4688491898
 30
0.0
 10
9.4240811943
 20
11.4690977284
 30
0.0
 10
9.4241361536
 20
11.469220864
 30
0.0
  0
SPLINE
  5
442
100
AcDbEntity
  8
0
100
AcDbSpline
 62
7
  6
CONTINUOUS
 70
0
 71
3
 72
32
 73
28
 74
0
 42
0.0000001
 43
0.0000001
 44
0.0000000001
 40
0.0
 40
0.0
 40
0.0
 40
0.0
 40
0.0095488605
 40
0.0234031289
 40
0.0633457325
 40
0.1183724133
 40
0.1864045312
 40
0.2649057158
 40
0.3511878911
 40
0.4422637762
 40
0.5351010237
 40
0.6266326741
 40
0.7137828103
 40
0.793642651
 40
0.8299951691
 40
0.8635157248
 40
0.8938851136
 40
0.9208563799
 40
0.9442034643
 40
0.9637011816
 40
0.9791262842
 40
0.9852500691
 40
0.9903042883
 40
0.9942893309
 40
0.997209582
 40
0.9990825309
 40
1.0
 40
1.0
 40
1.0
 40
1.0
 10
9.2948027099
 20
11.519821884
 30
0.0
 10
9.2946677721
 20
11.5198822817
 30
0.0
 10
9.2943457419
 20
11.5200491544
 30
0.0
 10
9.2934909824
 20
11.5205298338
 30
0.0
 10
9.2920506183
 20
11.5214048114
 30
0.0
 10
9.2899157584
 20
11.5227504114
 30
0.0
 10
9.2872946615
 20
11.5244441269
 30
0.0
 10
9.2842809886
 20
11.5264215703
 30
0.0
 10
9.2809807905
 20
11.5286126028
 30
0.0
 10
9.2775054852
 20
11.530941078
 30
0.0
 10
9.2739714772
 20
11.5333279009
 30
0.0
 10
9.2704963315
 20
11.5356932344
 30
0.0
 10
9.2671960633
 20
11.5379583646
 30
0.0
 10
9.2646083415
 20
11.5397519477
 30
0.0
 10
9.2627093048
 20
11.5410815181
 30
0.0
 10
9.2614412786
 20
11.5419763736
 30
0.0
 10
9.2602956922
 20
11.5427928097
 30
0.0
 10
9.2592826464
 20
11.5435237791
 30
0.0
 10
9.2584109471
 20
11.5441629888
 30
0.0
 10
9.2576892972
 20
11.5447043085
 30
0.0
 10
9.2571869223
 20
11.5450938102
 30
0.0
 10
9.2568674898
 20
11.5453535541
 30
0.0
 10
9.2566882795
 20
11.5455058588
 30
0.0
 10
9.256551523
 20
11.5456291535
 30
0.0
 10
9.2564539254
 20
11.5457275047
 30
0.0
 10
9.2564004788
 20
11.5457917682
 30
0.0
 10
9.2563772164
 20
11.5458367157
 30
0.0
 10
9.2563823967
 20
11.5458499419
 30
0.0
  0
SPLINE
  5
443
100
AcDbEntity
  8
0
100
AcDbSpline
 62
9
  6
CONTINUOUS
 70
0
 71
3
 72
11
 73
7
 74
0
 42
0.0000001
 43
0.0000001
 44
0.0000000001
 40
0.0
 40
0.0
 40
0.0
 40
0.0
 40
0.2676209379
 40
0.5337597381
 40
0.7822676981
 40
1.0
 40
1.0
 40
1.0
 40
1.0
 10
15.1037450292
 20
6.5105486354
 30
0.0
 10
15.1028996326
 20
6.5072752937
 30
0.0
 10
15.1010360701
 20
6.5007916042
 30
0.0
 10
15.0978220188
 20
6.4914412632
 30
0.0
 10
15.0942875805
 20
6.4828854265
 30
0.0
 10
15.0916785743
 20
6.4775966724
 30
0.0
 10
15.0903410105
 20
6.4751932762
 30
0.0
  0
SPLINE
  5
444
100
AcDbEntity
  8
0
100
AcDbSpline
 62
9
  6
CONTINUOUS
 70
0
 71
3
 72
17
 73
13
 74
0
 42
0.0000001
 43
0.0000001
 44
0.0000000001
 40
0.0
 40
0.0
 40
0.0
 40
0.0
 40
0.1249670659
 40
0.2491762775
 40
0.3727463905
 40
0.4959641596
 40
0.6193588193
 40
0.7438156036
 40
0.8069206462
 40
0.8707107831
 40
0.9351500581
 40
1.0
 40
1.0
 40
1.0
 40
1.0
 10
15.1037451601
 20
6.5105486253
 30
0.0
 10
15.108585844
 20
6.509325205
 30
0.0
 10
15.1181794383
 20
6.5066436042
 30
0.0
 10
15.1322590638
 20
6.5017557203
 30
0.0
 10
15.1458611723
 20
6.4958195086
 30
0.0
 10
15.1587910894
 20
6.4885722962
 30
0.0
 10
15.1707113138
 20
6.4796727051
 30
0.0
 10
15.1792732346
 20
6.4705291426
 30
0.0
 10
15.184716218
 20
6.4620577516
 30
0.0
 10
15.1879114483
 20
6.4550793717
 30
0.0
 10
15.1899592024
 20
6.4476060711
 30
0.0
 10
15.1904406237
 20
6.4424289383
 30
0.0
 10
15.1904373768
 20
6.4398379472
 30
0.0
  0
SPLINE
  5
445
100
AcDbEntity
  8
0
100
AcDbSpline
 62
9
  6
CONTINUOUS
 70
0
 71
3
 72
20
 73
16
 74
0
 42
0.0000001
 43
0.0000001
 44
0.0000000001
 40
0.0
 40
0.0
 40
0.0
 40
0.0
 40
0.1422023829
 40
0.2822191475
 40
0.4194073044
 40
0.5528976637
 40
0.6179476264
 40
0.6812231665
 40
0.7421871359
 40
0.8005457301
 40
0.8560400408
 40
0.9076653966
 40
0.9550952226
 40
0.9776827166
 40
1.0
 40
1.0
 40
1.0
 40
1.0
 10
15.0903409638
 20
6.4751932881
 30
0.0
 10
15.0946098127
 20
6.4745994717
 30
0.0
 10
15.1030668851
 20
6.4733071833
 30
0.0
 10
15.1155593632
 20
6.4709389086
 30
0.0
 10
15.1276768746
 20
6.468068584
 30
0.0
 10
15.1374261377
 20
6.4651221063
 30
0.0
 10
15.1448732024
 20
6.4623743162
 30
0.0
 10
15.1501428316
 20
6.4600964696
 30
0.0
 10
15.155055882
 20
6.4575350835
 30
0.0
 10
15.1595086836
 20
6.4546451609
 30
0.0
 10
15.1633666369
 20
6.4514153708
 30
0.0
 10
15.1664621678
 20
6.4478690587
 30
0.0
 10
15.1682488067
 20
6.4445889969
 30
0.0
 10
15.1689893709
 20
6.44187842
 30
0.0
 10
15.169116162
 20
6.4405143526
 30
0.0
 10
15.1691155557
 20
6.4398379477
 30
0.0
  0
SPLINE
  5
446
100
AcDbEntity
  8
0
100
AcDbSpline
 62
9
  6
CONTINUOUS
 70
0
 71
3
 72
20
 73
16
 74
0
 42
0.0000001
 43
0.0000001
 44
0.0000000001
 40
0.0
 40
0.0
 40
0.0
 40
0.0
 40
0.022317382
 40
0.0449049027
 40
0.0923346922
 40
0.1439600389
 40
0.1994544396
 40
0.257813106
 40
0.3187770315
 40
0.3820524674
 40
0.4471023318
 40
0.580592584
 40
0.7177807121
 40
0.8577975242
 40
1.0
 40
1.0
 40
1.0
 40
1.0
 10
14.7448231049
 20
6.4398379477
 30
0.0
 10
14.7448224936
 20
6.4405143557
 30
0.0
 10
14.7449492759
 20
6.4418784281
 30
0.0
 10
14.7456898302
 20
6.4445890112
 30
0.0
 10
14.7474764714
 20
6.4478690735
 30
0.0
 10
14.7505720165
 20
6.4514153761
 30
0.0
 10
14.7544299837
 20
6.4546451569
 30
0.0
 10
14.7588827896
 20
6.4575350798
 30
0.0
 10
14.7637958368
 20
6.4600964684
 30
0.0
 10
14.7690654576
 20
6.4623743168
 30
0.0
 10
14.7765125134
 20
6.4651221068
 30
0.0
 10
14.7862617708
 20
6.4680685829
 30
0.0
 10
14.7983792807
 20
6.4709389079
 30
0.0
 10
14.8108717638
 20
6.4733071817
 30
0.0
 10
14.8193288415
 20
6.47459947
 30
0.0
 10
14.8235976937
 20
6.4751932868
 30
0.0
  0
SPLINE
  5
447
100
AcDbEntity
  8
0
100
AcDbSpline
 62
9
  6
CONTINUOUS
 70
0
 71
3
 72
17
 73
13
 74
0
 42
0.0000001
 43
0.0000001
 44
0.0000000001
 40
0.0
 40
0.0
 40
0.0
 40
0.0
 40
0.0648504553
 40
0.1292902644
 40
0.1930803408
 40
0.256185316
 40
0.3806418182
 40
0.504036235
 40
0.6272538485
 40
0.7508238384
 40
0.8750329688
 40
1.0
 40
1.0
 40
1.0
 40
1.0
 10
14.7235012805
 20
6.4398379472
 30
0.0
 10
14.7234980435
 20
6.4424289587
 30
0.0
 10
14.7239794245
 20
6.4476061394
 30
0.0
 10
14.7260272836
 20
6.4550794549
 30
0.0
 10
14.7292224928
 20
6.4620578561
 30
0.0
 10
14.7346654659
 20
6.4705292387
 30
0.0
 10
14.7432274116
 20
6.4796727448
 30
0.0
 10
14.7551476172
 20
6.4885723102
 30
0.0
 10
14.7680775174
 20
6.4958195102
 30
0.0
 10
14.7816796118
 20
6.5017557165
 30
0.0
 10
14.7957592263
 20
6.5066436017
 30
0.0
 10
14.8053528151
 20
6.5093252043
 30
0.0
 10
14.8101934972
 20
6.5105486253
 30
0.0
  0
SPLINE
  5
448
100
AcDbEntity
  8
0
100
AcDbSpline
 62
9
  6
CONTINUOUS
 70
0
 71
3
 72
11
 73
7
 74
0
 42
0.0000001
 43
0.0000001
 44
0.0000000001
 40
0.0
 40
0.0
 40
0.0
 40
0.0
 40
0.2676210221
 40
0.5337598346
 40
0.7822677789
 40
1.0
 40
1.0
 40
1.0
 40
1.0
 10
14.810193378
 20
6.5105486023
 30
0.0
 10
14.8110387881
 20
6.5072752634
 30
0.0
 10
14.8129023769
 20
6.5007915809
 30
0.0
 10
14.8161164672
 20
6.4914412533
 30
0.0
 10
14.8196509433
 20
6.4828854346
 30
0.0
 10
14.8222599759
 20
6.4775966953
 30
0.0
 10
14.823597553
 20
6.4751933081
 30
0.0
  0
SPLINE
  5
449
100
AcDbEntity
  8
0
100
AcDbSpline
 62
9
  6
CONTINUOUS
 70
0
 71
3
 72
30
 73
26
 74
0
 42
0.0000001
 43
0.0000001
 44
0.0000000001
 40
0.0
 40
0.0
 40
0.0
 40
0.0
 40
0.0002690679
 40
0.0006049538
 40
0.0010746754
 40
0.0024144289
 40
0.0042859364
 40
0.0066868068
 40
0.0096146501
 40
0.0170417017
 40
0.0265479971
 40
0.0381144618
 40
0.0517220411
 40
0.0673517013
 40
0.0849844295
 40
0.104601234
 40
0.1497111954
 40
0.2025301105
 40
0.2629068563
 40
0.3306906917
 40
0.4057312718
 40
0.4878786634
 40
0.5769833609
 40
0.7754684302
 40
1.0
 40
1.0
 40
1.0
 40
1.0
 10
10.7168090982
 20
12.0339863755
 30
0.0
 10
10.7168130575
 20
12.0339848758
 30
0.0
 10
10.7168090897
 20
12.0339712059
 30
0.0
 10
10.7168141952
 20
12.0339566548
 30
0.0
 10
10.7168173432
 20
12.0339219781
 30
0.0
 10
10.7168265391
 20
12.0338655434
 30
0.0
 10
10.7168381638
 20
12.0337776322
 30
0.0
 10
10.7168539128
 20
12.0336655753
 30
0.0
 10
10.7168811594
 20
12.0334666473
 30
0.0
 10
10.7169233804
 20
12.033157031
 30
0.0
 10
10.7169830753
 20
12.032712544
 30
0.0
 10
10.7170548133
 20
12.0321715746
 30
0.0
 10
10.7171380741
 20
12.0315349272
 30
0.0
 10
10.7172324078
 20
12.0308034638
 30
0.0
 10
10.7173373407
 20
12.0299780264
 30
0.0
 10
10.7174984216
 20
12.028692109
 30
0.0
 10
10.7177230164
 20
12.0268561525
 30
0.0
 10
10.7180162304
 20
12.0243824483
 30
0.0
 10
10.7183406213
 20
12.021553177
 30
0.0
 10
10.7186924478
 20
12.0183751153
 30
0.0
 10
10.7190679643
 20
12.0148550387
 30
0.0
 10
10.7194634296
 20
12.0109997229
 30
0.0
 10
10.7200331348
 20
12.0052096751
 30
0.0
 10
10.7207697137
 20
11.9971848279
 30
0.0
 10
10.7213200823
 20
11.9905511447
 30
0.0
 10
10.7215969829
 20
11.9870288993
 30
0.0
  0
SPLINE
  5
44A
100
AcDbEntity
  8
0
100
AcDbSpline
 62
7
  6
CONTINUOUS
 70
0
 71
3
 72
9
 73
5
 74
0
 42
0.0000001
 43
0.0000001
 44
0.0000000001
 40
0.0
 40
0.0
 40
0.0
 40
0.0
 40
0.4995934375
 40
1.0
 40
1.0
 40
1.0
 40
1.0
 10
14.2259873645
 20
7.9040955714
 30
0.0
 10
14.2426068129
 20
7.884289284
 30
0.0
 10
14.275208823
 20
7.8440870845
 30
0.0
 10
14.3062852279
 20
7.8026676081
 30
0.0
 10
14.3211059544
 20
7.7814304008
 30
0.0
  0
SPLINE
  5
44B
100
AcDbEntity
  8
0
100
AcDbSpline
 62
7
  6
CONTINUOUS
 70
0
 71
3
 72
12
 73
8
 74
0
 42
0.0000001
 43
0.0000001
 44
0.0000000001
 40
0.0
 40
0.0
 40
0.0
 40
0.0
 40
0.2478834681
 40
0.4964324643
 40
0.6212189444
 40
0.7465591513
 40
1.0
 40
1.0
 40
1.0
 40
1.0
 10
14.3126137755
 20
7.976783761
 30
0.0
 10
14.3209248315
 20
7.9668790301
 30
0.0
 10
14.3370888976
 20
7.9466333259
 30
0.0
 10
14.3559571838
 20
7.9202706639
 30
0.0
 10
14.3702104341
 20
7.8985075422
 30
0.0
 10
14.3838849972
 20
7.8760788283
 30
0.0
 10
14.3931969262
 20
7.8586169393
 30
0.0
 10
14.3988544762
 20
7.8466691568
 30
0.0
  0
SPLINE
  5
44C
100
AcDbEntity
  8
0
100
AcDbSpline
 62
7
  6
CONTINUOUS
 70
0
 71
3
 72
11
 73
7
 74
0
 42
0.0000001
 43
0.0000001
 44
0.0000000001
 40
0.0
 40
0.0
 40
0.0
 40
0.0
 40
0.1879892797
 40
0.4225927641
 40
0.6958131324
 40
1.0
 40
1.0
 40
1.0
 40
1.0
 10
10.7215969829
 20
11.9870288993
 30
0.0
 10
10.7226937917
 20
11.9730772172
 30
0.0
 10
10.7246307428
 20
11.9416713536
 30
0.0
 10
10.7261000229
 20
11.8898818803
 30
0.0
 10
10.7254861688
 20
11.829419232
 30
0.0
 10
10.7231256644
 20
11.7864788633
 30
0.0
 10
10.7213135234
 20
11.7639065119
 30
0.0
  0
LINE
  5
44D
100
AcDbEntity
  8
0
100
AcDbLine
 62
9
  6
CONTINUOUS
 10
10.7213135234
 20
11.7639065119
 11
10.683302411
 21
11.7834294364
  0
SPLINE
  5
44E
100
AcDbEntity
  8
0
100
AcDbSpline
 62
7
  6
CONTINUOUS
 70
0
 71
3
 72
13
 73
9
 74
0
 42
0.0000001
 43
0.0000001
 44
0.0000000001
 40
0.0
 40
0.0
 40
0.0
 40
0.0
 40
0.2447129374
 40
0.4910958373
 40
0.6155653411
 40
0.7414083159
 40
0.8692770798
 40
1.0
 40
1.0
 40
1.0
 40
1.0
 10
14.3909873274
 20
8.0425469795
 30
0.0
 10
14.3993024048
 20
8.0326374561
 30
0.0
 10
14.4152217602
 20
8.0120902185
 30
0.0
 10
14.432950933
 20
7.9847549009
 30
0.0
 10
14.4457832587
 20
7.9618390913
 30
0.0
 10
14.4546652477
 20
7.9439176629
 30
0.0
 10
14.4626155366
 20
7.9252023198
 30
0.0
 10
14.4671377818
 20
7.912289277
 30
0.0
 10
14.4691959314
 20
7.9056926459
 30
0.0
  0
SPLINE
  5
44F
100
AcDbEntity
  8
0
100
AcDbSpline
 62
9
  6
CONTINUOUS
 70
0
 71
3
 72
11
 73
7
 74
0
 42
0.0000001
 43
0.0000001
 44
0.0000000001
 40
0.0
 40
0.0
 40
0.0
 40
0.0
 40
0.2639333255
 40
0.5208090964
 40
0.7673517676
 40
1.0
 40
1.0
 40
1.0
 40
1.0
 10
10.6274844333
 20
11.5129372926
 30
0.0
 10
10.6353610153
 20
11.5359807308
 30
0.0
 10
10.6491982378
 20
11.5820497874
 30
0.0
 10
10.6650434093
 20
11.6510991531
 30
0.0
 10
10.676337415
 20
11.7181030955
 30
0.0
 10
10.6813873059
 20
11.762049204
 30
0.0
 10
10.683302411
 20
11.7834294364
 30
0.0
  0
SPLINE
  5
450
100
AcDbEntity
  8
0
100
AcDbSpline
 62
7
  6
CONTINUOUS
 70
0
 71
3
 72
11
 73
7
 74
0
 42
0.0000001
 43
0.0000001
 44
0.0000000001
 40
0.0
 40
0.0
 40
0.0
 40
0.0
 40
0.2360454706
 40
0.4834947008
 40
0.7390638902
 40
1.0
 40
1.0
 40
1.0
 40
1.0
 10
10.7213135662
 20
11.7639064899
 30
0.0
 10
10.7196026078
 20
11.742594484
 30
0.0
 10
10.7150581364
 20
11.6990161998
 30
0.0
 10
10.7045803458
 20
11.6328614751
 30
0.0
 10
10.6895576548
 20
11.5652659516
 30
0.0
 10
10.6761458065
 20
11.5203863194
 30
0.0
 10
10.6684452202
 20
11.4980408487
 30
0.0
  0
SPLINE
  5
451
100
AcDbEntity
  8
0
100
AcDbSpline
 62
7
  6
CONTINUOUS
 70
0
 71
3
 72
18
 73
14
 74
0
 42
0.0000001
 43
0.0000001
 44
0.0000000001
 40
0.0
 40
0.0
 40
0.0
 40
0.0
 40
0.1988902218
 40
0.3830715469
 40
0.5481737596
 40
0.6907153532
 40
0.8077775679
 40
0.8560141396
 40
0.897262551
 40
0.931635368
 40
0.9594768232
 40
0.9816321753
 40
1.0
 40
1.0
 40
1.0
 40
1.0
 10
9.6330298631
 20
11.3081086371
 30
0.0
 10
9.6320273514
 20
11.3086832515
 30
0.0
 10
9.6301129507
 20
11.3098191458
 30
0.0
 10
9.6274292982
 20
11.3115351794
 30
0.0
 10
9.625083655
 20
11.313168787
 30
0.0
 10
9.6231301531
 20
11.3146776373
 30
0.0
 10
9.6217868371
 20
11.315862381
 30
0.0
 10
9.6209564633
 20
11.3167297492
 30
0.0
 10
9.6204972107
 20
11.3172847649
 30
0.0
 10
9.6201606559
 20
11.3177845266
 30
0.0
 10
9.619947938
 20
11.3182287838
 30
0.0
 10
9.6198588406
 20
11.318621279
 30
0.0
 10
9.6198981434
 20
11.318862753
 30
0.0
 10
9.6199420649
 20
11.3189600087
 30
0.0
  0
SPLINE
  5
452
100
AcDbEntity
  8
0
100
AcDbSpline
 62
7
  6
CONTINUOUS
 70
0
 71
3
 72
13
 73
9
 74
0
 42
0.0000001
 43
0.0000001
 44
0.0000000001
 40
0.0
 40
0.0
 40
0.0
 40
0.0
 40
0.2447129374
 40
0.4910958373
 40
0.6155653411
 40
0.7414083159
 40
0.8692770798
 40
1.0
 40
1.0
 40
1.0
 40
1.0
 10
13.9715511874
 20
7.6905982691
 30
0.0
 10
13.9798662648
 20
7.6806887457
 30
0.0
 10
13.9973369767
 20
7.6614432507
 30
0.0
 10
14.0211783708
 20
7.6392366958
 30
0.0
 10
14.0415177278
 20
7.6226200334
 30
0.0
 10
14.0576245482
 20
7.6107609584
 30
0.0
 10
14.0746750101
 20
7.5996815671
 30
0.0
 10
14.086606595
 20
7.5929856985
 30
0.0
 10
14.0927456146
 20
7.5898133239
 30
0.0
  0
ENDSEC
  0
SECTION
  2
OBJECTS
  0
DICTIONARY
  5
C
100
AcDbDictionary
280
0
281
1
  3
ACAD_GROUP
350
D
  3
ACAD_MLINESTYLE
350
17
  3
ACAD_LAYOUT
350
1A
  3
ACAD_PLOTSETTINGS
350
19
  3
ACAD_PLOTSTYLENAME
350
E
  0
DICTIONARY
  5
D
102
{ACAD_REACTORS
330
C
102
}
100
AcDbDictionary
280
0
281
1
  0
ACDBDICTIONARYWDFLT
  5
E
102
{ACAD_REACTORS
330
C
102
}
100
AcDbDictionary
281
1
  3
Normal
350
F
100
AcDbDictionaryWithDefault
340
F
  0
DICTIONARY
  5
17
102
{ACAD_REACTORS
330
C
102
}
100
AcDbDictionary
280
0
281
1
  3
Standard
350
18
  0
DICTIONARY
  5
19
102
{ACAD_REACTORS
330
C
102
}
100
AcDbDictionary
281
1
  0
DICTIONARY
  5
1A
102
{ACAD_REACTORS
330
C
102
}
100
AcDbDictionary
281
1
  3
Model
350
453
  3
Layout1
350
454
  0
ACDBPLACEHOLDER
  5
F
102
{ACAD_REACTORS
330
E
102
}
  0
MLINESTYLE
  5
18
102
{ACAD_REACTORS
330
17
102
}
100
AcDbMlineStyle
  2
STANDARD
 70
0
  3

 62
256
 51
90.0
 52
90.0
 71
2
 49
0.5
 62
256
  6
BYLAYER
 49
-0.5
 62
256
  6
BYLAYER
  0
LAYOUT
  5
453
102
{ACAD_REACTORS
330
1A
102
}
100
AcDbPlotSettings
  1

  2
none_device
  4
ANSI_C_(22.00_x_17.00_Inches)
  6

 40
0.0
 41
0.0
 42
0.0
 43
0.0
 44
558.8
 45
431.8
 46
0.0
 47
0.0
 48
0.0
 49
0.0
140
0.0
141
0.0
142
1.0
143
1.0
 70
1024
 72
0
 73
0
 74
0
  7

 75
0
147
1.0
148
0.0
149
0.0
100
AcDbLayout
  1
Model
 70
0
 71
0
 10
0.0
 20
0.0
 11
22.0
 21
17.0
 12
0.0
 22
0.0
 32
0.0
 14
0.0
 24
0.0
 34
0.0
 15
0.0
 25
0.0
 35
0.0
146
0.0
 13
0.0
 23
0.0
 33
0.0
 16
1.0
 26
0.0
 36
0.0
 17
0.0
 27
1.0
 37
0.0
 76
0
330
202
345
0
346
0
  0
LAYOUT
  5
454
102
{ACAD_REACTORS
330
1A
102
}
100
AcDbPlotSettings
  1

  2
none_device
  4
ANSI_C_(22.00_x_17.00_Inches)
  6

 40
0.0
 41
0.0
 42
0.0
 43
0.0
 44
558.8
 45
431.8
 46
0.0
 47
0.0
 48
0.0
 49
0.0
140
0.0
141
0.0
142
1.0
143
1.0
 70
0
 72
0
 73
0
 74
0
  7

 75
0
147
1.0
148
0.0
149
0.0
100
AcDbLayout
  1
Layout1
 70
0
 71
1
 10
0.0
 20
0.0
 11
22.0
 21
17.0
 12
0.0
 22
0.0
 32
0.0
 14
0.0
 24
0.0
 34
0.0
 15
0.0
 25
0.0
 35
0.0
146
0.0
 13
0.0
 23
0.0
 33
0.0
 16
1.0
 26
0.0
 36
0.0
 17
0.0
 27
1.0
 37
0.0
 76
0
330
203
345
0
346
0
  0
ENDSEC
  0
EOF
