999
DXF file: 3-921_front.dxf
999
Pro/ENGINEER 2018400 by Parametric Technology Corporation
  0
SECTION
  2
HEADER
  9
$ACADVER
  1
AC1027
  9
$DWGCODEPAGE
  3
ANSI_1252
  9
$EXTMAX
 10
11.0
 20
8.5
 30
0.0
  9
$EXTMIN
 10
0.0
 20
0.0
 30
0.0
  9
$LIMMIN
 10
0.0
 20
0.0
  9
$LIMMAX
 10
11.0
 20
8.5
  9
$VIEWCTR
 10
5.5
 20
4.25
  9
$VIEWSIZE
 40
8.5
  9
$CLAYER
  8
0
  9
$LTSCALE
 40
0.605
  9
$CELTYPE
  6
BYLAYER
  9
$DIMSCALE
 40
1.0
  9
$DIMASZ
 40
0.1
  9
$DIMEXO
 40
0.0625
  9
$DIMDLI
 40
0.418
  9
$DIMEXE
 40
0.125
  9
$DIMCEN
 40
0.099
  9
$DIMLFAC
 40
1.0
  9
$DIMBLK
  1
_FILLED
  9
$DIMALT
 70
1
  9
$DIMALTD
 70
2
  9
$DIMALTTD
 70
2
  9
$DIMALTF
 40
25.4
  9
$DIMTXT
 40
0.08
  9
$DIMTOL
 70
1
  9
$DIMLIM
 70
0
  9
$DIMTFAC
 40
1.0
  9
$DIMTP
 40
0.001
  9
$DIMTM
 40
0.001
  9
$DIMGAP
 40
0.09
  9
$DIMDSEP
 70
46
  9
$AUNITS
 70
0
  9
$PDMODE
 70
3
  9
$PDSIZE
 40
0.3125
  9
$HANDSEED
  5
392
  9
$TILEMODE
 70
1
  9
$MEASUREMENT
 70
0
  9
$INSUNITS
 70
1
  0
ENDSEC
  0
SECTION
  2
CLASSES
  0
CLASS
  1
ACDBDICTIONARYWDFLT
  2
AcDbDictionaryWithDefault
  3
AutoCAD 2000
 90
0
 91
1
280
0
281
0
  0
CLASS
  1
ACDBPLACEHOLDER
  2
AcDbPlaceHolder
  3
AutoCAD 2000
 90
0
 91
1
280
0
281
0
  0
CLASS
  1
LAYOUT
  2
AcDbLayout
  3
AutoCAD 2000
 90
0
 91
0
280
0
281
0
  0
ENDSEC
  0
SECTION
  2
TABLES
  0
TABLE
  2
VPORT
  5
8
100
AcDbSymbolTable
 70
2
  0
VPORT
  5
1F4
100
AcDbSymbolTableRecord
100
AcDbViewportTableRecord
  2
*ACTIVE
 70
0
 10
0.0
 20
0.0
 11
1.0
 21
1.0
 12
5.5
 22
4.25
 13
0.0
 23
0.0
 14
1.0
 24
1.0
 15
0.0
 25
0.0
 16
0.0
 26
0.0
 36
1.0
 17
0.0
 27
0.0
 37
0.0
 40
8.5
 41
1.2941176471
 42
50.0
 43
0.0
 44
0.0
 50
0.0
 51
0.0
 71
0
 72
100
 73
1
 74
1
 75
0
 76
0
 77
0
 78
0
  0
ENDTAB
  0
TABLE
  2
LTYPE
  5
5
100
AcDbSymbolTable
 70
6
  0
LTYPE
  5
14
100
AcDbSymbolTableRecord
100
AcDbLinetypeTableRecord
  2
BYBLOCK
 70
0
  3

 72
65
 73
0
 40
0.0
  0
LTYPE
  5
15
100
AcDbSymbolTableRecord
100
AcDbLinetypeTableRecord
  2
BYLAYER
 70
0
  3

 72
65
 73
0
 40
0.0
  0
LTYPE
  5
16
100
AcDbSymbolTableRecord
100
AcDbLinetypeTableRecord
  2
CONTINUOUS
 70
64
  3
Solid line
 72
65
 73
0
 40
0.0
  0
LTYPE
  5
1F5
100
AcDbSymbolTableRecord
100
AcDbLinetypeTableRecord
  2
CENTER
 70
64
  3
____ _ ____ _ ____ _ ____ _ ____ _ ____ _ ____
 72
65
 73
4
 40
0.6
 49
0.375
 74
0
 49
-0.075
 74
0
 49
0.075
 74
0
 49
-0.075
 74
0
  0
LTYPE
  5
1F6
100
AcDbSymbolTableRecord
100
AcDbLinetypeTableRecord
  2
HIDDEN
 70
64
  3
- - - - - - - - - - - - - - - - - - - -
 72
65
 73
2
 40
0.2
 49
0.1
 74
0
 49
-0.1
 74
0
  0
LTYPE
  5
1F7
100
AcDbSymbolTableRecord
100
AcDbLinetypeTableRecord
  2
PHANTOM
 70
64
  3
_____ _ _ _____ _ _ _____ _ _ _____
 72
65
 73
6
 40
0.8
 49
0.45
 74
0
 49
-0.05
 74
0
 49
0.1
 74
0
 49
-0.05
 74
0
 49
0.1
 74
0
 49
-0.05
 74
0
  0
LTYPE
  5
1F8
100
AcDbSymbolTableRecord
100
AcDbLinetypeTableRecord
  2
DOT
 70
64
  3
. . . . . . . . . . . . . . . . . . . .
 72
65
 73
2
 40
0.2
 49
0.1
 74
0
 49
-0.1
 74
0
  0
LTYPE
  5
1F9
100
AcDbSymbolTableRecord
100
AcDbLinetypeTableRecord
  2
DASHED
 70
64
  3
- - - - - - - - - - - - - - - - - - - -
 72
65
 73
2
 40
0.2
 49
0.1
 74
0
 49
-0.1
 74
0
  0
ENDTAB
  0
TABLE
  2
LAYER
  5
2
100
AcDbSymbolTable
 70
36
  0
LAYER
  5
10
100
AcDbSymbolTableRecord
100
AcDbLayerTableRecord
  2
0
 70
0
 62
7
  6
CONTINUOUS
370
-3
390
F
  0
LAYER
  5
1FA
100
AcDbSymbolTableRecord
100
AcDbLayerTableRecord
  2
DEFAULT_1
 70
0
 62
7
  6
CENTER
370
-3
390
F
  0
LAYER
  5
1FB
100
AcDbSymbolTableRecord
100
AcDbLayerTableRecord
  2
DEFAULT_2
 70
0
 62
8
  6
HIDDEN
370
-3
390
F
  0
LAYER
  5
1FC
100
AcDbSymbolTableRecord
100
AcDbLayerTableRecord
  2
DEFAULT_3
 70
0
 62
7
  6
PHANTOM
370
-3
390
F
  0
LAYER
  5
1FD
100
AcDbSymbolTableRecord
100
AcDbLayerTableRecord
  2
2-141_ASSY_DATUMS
 70
0
 62
7
  6
CONTINUOUS
370
-3
390
F
  0
LAYER
  5
1FE
100
AcDbSymbolTableRecord
100
AcDbLayerTableRecord
  2
2-142_ASSY_DATUMS
 70
0
 62
7
  6
CONTINUOUS
370
-3
390
F
  0
LAYER
  5
1FF
100
AcDbSymbolTableRecord
100
AcDbLayerTableRecord
  2
3-163C
 70
0
 62
7
  6
CONTINUOUS
370
-3
390
F
  0
LAYER
  5
200
100
AcDbSymbolTableRecord
100
AcDbLayerTableRecord
  2
3-163H
 70
0
 62
7
  6
CONTINUOUS
370
-3
390
F
  0
LAYER
  5
201
100
AcDbSymbolTableRecord
100
AcDbLayerTableRecord
  2
ALL_ASSEMBLY_MEMBERS
 70
0
 62
7
  6
CONTINUOUS
370
-3
390
F
  0
LAYER
  5
202
100
AcDbSymbolTableRecord
100
AcDbLayerTableRecord
  2
ALL_FEATURES
 70
0
 62
7
  6
CONTINUOUS
370
-3
390
F
  0
LAYER
  5
203
100
AcDbSymbolTableRecord
100
AcDbLayerTableRecord
  2
AXES_FEATURES
 70
0
 62
7
  6
CONTINUOUS
370
-3
390
F
  0
LAYER
  5
204
100
AcDbSymbolTableRecord
100
AcDbLayerTableRecord
  2
CHAMFER_FEATURES
 70
0
 62
7
  6
CONTINUOUS
370
-3
390
F
  0
LAYER
  5
205
100
AcDbSymbolTableRecord
100
AcDbLayerTableRecord
  2
CURVE
 70
0
 62
7
  6
CONTINUOUS
370
-3
390
F
  0
LAYER
  5
206
100
AcDbSymbolTableRecord
100
AcDbLayerTableRecord
  2
CUT_FEATURES
 70
0
 62
7
  6
CONTINUOUS
370
-3
390
F
  0
LAYER
  5
207
100
AcDbSymbolTableRecord
100
AcDbLayerTableRecord
  2
DATUM_CURVES
 70
0
 62
7
  6
CONTINUOUS
370
-3
390
F
  0
LAYER
  5
208
100
AcDbSymbolTableRecord
100
AcDbLayerTableRecord
  2
DATUM_PLANES
 70
0
 62
7
  6
CONTINUOUS
370
-3
390
F
  0
LAYER
  5
209
100
AcDbSymbolTableRecord
100
AcDbLayerTableRecord
  2
DATUM_SHAPER
 70
0
 62
7
  6
CONTINUOUS
370
-3
390
F
  0
LAYER
  5
20A
100
AcDbSymbolTableRecord
100
AcDbLayerTableRecord
  2
DEFAULT_COORDINATE_SYSTEM
 70
0
 62
7
  6
CONTINUOUS
370
-3
390
F
  0
LAYER
  5
20B
100
AcDbSymbolTableRecord
100
AcDbLayerTableRecord
  2
DEFAULT_DATUM_AXES
 70
0
 62
7
  6
CONTINUOUS
370
-3
390
F
  0
LAYER
  5
20C
100
AcDbSymbolTableRecord
100
AcDbLayerTableRecord
  2
DEFAULT_DATUM_CURVES
 70
0
 62
7
  6
CONTINUOUS
370
-3
390
F
  0
LAYER
  5
20D
100
AcDbSymbolTableRecord
100
AcDbLayerTableRecord
  2
DEFAULT_DATUM_PLANES
 70
0
 62
7
  6
CONTINUOUS
370
-3
390
F
  0
LAYER
  5
20E
100
AcDbSymbolTableRecord
100
AcDbLayerTableRecord
  2
DEFAULT_SURFACES
 70
0
 62
7
  6
CONTINUOUS
370
-3
390
F
  0
LAYER
  5
20F
100
AcDbSymbolTableRecord
100
AcDbLayerTableRecord
  2
DIMENSIONS
 70
0
 62
7
  6
CONTINUOUS
370
-3
390
F
  0
LAYER
  5
210
100
AcDbSymbolTableRecord
100
AcDbLayerTableRecord
  2
LAY0001
 70
0
 62
7
  6
CONTINUOUS
370
-3
390
F
  0
LAYER
  5
211
100
AcDbSymbolTableRecord
100
AcDbLayerTableRecord
  2
PART_REFERENCE_DIMENSIONS
 70
0
 62
7
  6
CONTINUOUS
370
-3
390
F
  0
LAYER
  5
212
100
AcDbSymbolTableRecord
100
AcDbLayerTableRecord
  2
PLATED_SURAFCE
 70
0
 62
7
  6
CONTINUOUS
370
-3
390
F
  0
LAYER
  5
213
100
AcDbSymbolTableRecord
100
AcDbLayerTableRecord
  2
PLATED_SURFACE_AREA
 70
0
 62
7
  6
CONTINUOUS
370
-3
390
F
  0
LAYER
  5
214
100
AcDbSymbolTableRecord
100
AcDbLayerTableRecord
  2
PROTRUSION_FEATURES
 70
0
 62
7
  6
CONTINUOUS
370
-3
390
F
  0
LAYER
  5
215
100
AcDbSymbolTableRecord
100
AcDbLayerTableRecord
  2
QUILT
 70
0
 62
7
  6
CONTINUOUS
370
-3
390
F
  0
LAYER
  5
216
100
AcDbSymbolTableRecord
100
AcDbLayerTableRecord
  2
QUILTS
 70
0
 62
7
  6
CONTINUOUS
370
-3
390
F
  0
LAYER
  5
217
100
AcDbSymbolTableRecord
100
AcDbLayerTableRecord
  2
REFERENCE_DIMENSIONS
 70
0
 62
7
  6
CONTINUOUS
370
-3
390
F
  0
LAYER
  5
218
100
AcDbSymbolTableRecord
100
AcDbLayerTableRecord
  2
ROUND_FEATURES
 70
0
 62
7
  6
CONTINUOUS
370
-3
390
F
  0
LAYER
  5
219
100
AcDbSymbolTableRecord
100
AcDbLayerTableRecord
  2
XSEC_DATUMS
 70
0
 62
7
  6
CONTINUOUS
370
-3
390
F
  0
ENDTAB
  0
TABLE
  2
STYLE
  5
3
100
AcDbSymbolTable
 70
1
  0
STYLE
  5
11
100
AcDbSymbolTableRecord
100
AcDbTextStyleTableRecord
  2
STANDARD
 70
0
 40
0.0
 41
0.8
 50
0.0
 71
0
 42
0.2
  3
txt
  4

  0
STYLE
  5
21A
100
AcDbSymbolTableRecord
100
AcDbTextStyleTableRecord
  2
TEXTSTYLE_1
 70
0
 40
0.0
 41
0.8
 50
0.0
 71
0
 42
0.2
  3
gdt
  4

  0
ENDTAB
  0
TABLE
  2
VIEW
  5
6
100
AcDbSymbolTable
 70
0
  0
ENDTAB
  0
TABLE
  2
UCS
  5
7
100
AcDbSymbolTable
 70
0
  0
ENDTAB
  0
TABLE
  2
APPID
  5
9
100
AcDbSymbolTable
 70
1
  0
APPID
  5
21B
100
AcDbSymbolTableRecord
100
AcDbRegAppTableRecord
  2
ACAD
 70
0
  0
ENDTAB
  0
TABLE
  2
BLOCK_RECORD
  5
1
100
AcDbSymbolTable
 70
0
  0
BLOCK_RECORD
  5
21C
100
AcDbSymbolTableRecord
100
AcDbBlockTableRecord
  2
*Model_Space
  0
BLOCK_RECORD
  5
21D
100
AcDbSymbolTableRecord
100
AcDbBlockTableRecord
  2
*Paper_Space
  0
BLOCK_RECORD
  5
21E
100
AcDbSymbolTableRecord
100
AcDbBlockTableRecord
  2
_FILLED
  0
ENDTAB
  0
TABLE
  2
DIMSTYLE
  5
A
100
AcDbSymbolTable
 70
1
100
AcDbDimStyleTable
 71
0
  0
DIMSTYLE
105
21F
100
AcDbSymbolTableRecord
100
AcDbDimStyleTableRecord
  2
STANDARD
 70
0
  3

  4

 40
1.0
 41
0.1
 42
0.0625
 43
0.38
 44
0.125
 45
0.0
 46
0.0
 47
0.001
 48
0.001
140
0.08
141
0.09
142
0.0
143
25.4
144
1.0
145
0.0
146
1.0
147
0.09
 71
1.0
 72
0.0
 73
1
 74
1
 75
0
 76
0
 77
0
 78
4
 79
1
170
1
171
2
172
0
173
0
174
0
175
0
176
0
177
0
178
0
270
2
179
3
271
3
272
3
273
2
274
2
275
0
280
0
281
0
282
0
283
1
284
4
285
0
286
0
287
3
288
0
340
11
278
46
341
21E
342
21E
343
21E
344
21E
  0
ENDTAB
  0
ENDSEC
  0
SECTION
  2
BLOCKS
  0
BLOCK
  5
20
100
AcDbEntity
  8
0
100
AcDbBlockBegin
  2
*Model_Space
 70
0
 10
0.0
 20
0.0
 30
0.0
  3
*Model_Space
  1

  0
ENDBLK
  5
21
100
AcDbEntity
  8
0
100
AcDbBlockEnd
  0
BLOCK
  5
1C
100
AcDbEntity
  8
0
100
AcDbBlockBegin
  2
*Paper_Space
 70
0
 10
0.0
 20
0.0
 30
0.0
  3
*Paper_Space
  1

  0
ENDBLK
  5
1D
100
AcDbEntity
  8
0
100
AcDbBlockEnd
  0
BLOCK
  5
220
100
AcDbEntity
  8
0
100
AcDbBlockBegin
  2
_FILLED
 70
64
 10
0.0
 20
0.0
  3
_FILLED
  1

  0
SOLID
  5
221
100
AcDbEntity
  8
0
  6
BYBLOCK
 62
0
100
AcDbTrace
 10
0.0
 20
0.0
 11
-1.0
 21
0.2
 12
-1.0
 22
-0.2
 13
-1.0
 23
-0.2
  0
ENDBLK
  5
222
100
AcDbEntity
  8
0
  6
BYBLOCK
 62
0
100
AcDbBlockEnd
  0
ENDSEC
  0
SECTION
  2
ENTITIES
  0
MTEXT
  5
223
100
AcDbEntity
  8
0
100
AcDbMText
 62
2
  6
CONTINUOUS
  7
STANDARD
 71
3
 72
1
 10
1.516556677
 20
0.6764635093
 30
0.0
 11
1.0
 21
0.0
 31
0.0
 73
2
 44
0.9
  1
SCALE  .500
 40
0.08
 41
0.704
  0
LINE
  5
224
100
AcDbEntity
  8
0
100
AcDbLine
 62
7
  6
CONTINUOUS
 10
0.0
 20
0.0
 11
0.0
 21
8.5
  0
LINE
  5
225
100
AcDbEntity
  8
0
100
AcDbLine
 62
7
  6
CONTINUOUS
 10
0.0
 20
0.0
 11
11.0
 21
0.0
  0
LINE
  5
226
100
AcDbEntity
  8
0
100
AcDbLine
 62
7
  6
CONTINUOUS
 10
0.0
 20
8.5
 11
11.0
 21
8.5
  0
LINE
  5
227
100
AcDbEntity
  8
0
100
AcDbLine
 62
7
  6
CONTINUOUS
 10
11.0
 20
0.0
 11
11.0
 21
8.5
  0
LINE
  5
228
100
AcDbEntity
  8
ALL_ASSEMBLY_MEMBERS
100
AcDbLine
 62
7
  6
CONTINUOUS
 10
2.6890259215
 20
4.1085428361
 11
2.6890259215
 21
4.3338096483
  0
LINE
  5
229
100
AcDbEntity
  8
ALL_ASSEMBLY_MEMBERS
100
AcDbLine
 62
7
  6
CONTINUOUS
 10
2.73007055
 20
4.1372825944
 11
2.73007055
 21
4.30506989
  0
LINE
  5
22A
100
AcDbEntity
  8
ALL_ASSEMBLY_MEMBERS
100
AcDbLine
 62
7
  6
CONTINUOUS
 10
2.7426591615
 20
4.1266307974
 11
2.7426591615
 21
4.3157216871
  0
LINE
  5
22B
100
AcDbEntity
  8
ALL_ASSEMBLY_MEMBERS
100
AcDbLine
 62
7
  6
CONTINUOUS
 10
2.7550907408
 20
4.1257175956
 11
2.7550907408
 21
4.3166348889
  0
LINE
  5
22C
100
AcDbEntity
  8
ALL_ASSEMBLY_MEMBERS
100
AcDbLine
 62
7
  6
CONTINUOUS
 10
2.8731591615
 20
4.0316610164
 11
2.8731591615
 21
4.1625129593
  0
LINE
  5
22D
100
AcDbEntity
  8
ALL_ASSEMBLY_MEMBERS
100
AcDbLine
 62
7
  6
CONTINUOUS
 10
2.8731591615
 20
4.2798395252
 11
2.8731591615
 21
4.4106914681
  0
LINE
  5
22E
100
AcDbEntity
  8
ALL_ASSEMBLY_MEMBERS
100
AcDbLine
 62
7
  6
CONTINUOUS
 10
2.9358261566
 20
4.3145152102
 11
2.935826153
 21
4.3055767638
  0
LINE
  5
22F
100
AcDbEntity
  8
ALL_ASSEMBLY_MEMBERS
100
AcDbLine
 62
7
  6
CONTINUOUS
 10
2.9358261527
 20
4.1367757242
 11
2.9358261566
 21
4.1278372743
  0
LINE
  5
230
100
AcDbEntity
  8
ALL_ASSEMBLY_MEMBERS
100
AcDbLine
 62
7
  6
CONTINUOUS
 10
3.0689091615
 20
4.1786762422
 11
3.0689091615
 21
4.1906762422
  0
LINE
  5
231
100
AcDbEntity
  8
ALL_ASSEMBLY_MEMBERS
100
AcDbLine
 62
7
  6
CONTINUOUS
 10
3.0689091615
 20
4.2541762422
 11
3.0689091615
 21
4.2631762422
  0
LINE
  5
232
100
AcDbEntity
  8
ALL_ASSEMBLY_MEMBERS
100
AcDbLine
 62
7
  6
CONTINUOUS
 10
3.0771591615
 20
4.2020752554
 11
3.0771591615
 21
4.2427772291
  0
LINE
  5
233
100
AcDbEntity
  8
ALL_ASSEMBLY_MEMBERS
100
AcDbLine
 62
7
  6
CONTINUOUS
 10
3.0971591615
 20
4.2161762422
 11
3.0971591615
 21
4.2020752554
  0
LINE
  5
234
100
AcDbEntity
  8
ALL_ASSEMBLY_MEMBERS
100
AcDbLine
 62
7
  6
CONTINUOUS
 10
3.0976591615
 20
4.2429540544
 11
3.0976591615
 21
4.2309540544
  0
LINE
  5
235
100
AcDbEntity
  8
ALL_ASSEMBLY_MEMBERS
100
AcDbLine
 62
7
  6
CONTINUOUS
 10
3.1054091615
 20
4.2631762422
 11
3.1054091615
 21
4.2541762422
  0
LINE
  5
236
100
AcDbEntity
  8
ALL_ASSEMBLY_MEMBERS
100
AcDbLine
 62
7
  6
CONTINUOUS
 10
3.1054091615
 20
4.1906762422
 11
3.1054091615
 21
4.1786762422
  0
LINE
  5
237
100
AcDbEntity
  8
ALL_ASSEMBLY_MEMBERS
100
AcDbLine
 62
7
  6
CONTINUOUS
 10
3.1139091615
 20
4.1786762422
 11
3.1139091615
 21
4.1906762422
  0
LINE
  5
238
100
AcDbEntity
  8
ALL_ASSEMBLY_MEMBERS
100
AcDbLine
 62
7
  6
CONTINUOUS
 10
3.1139091615
 20
4.2541762422
 11
3.1139091615
 21
4.2631762422
  0
LINE
  5
239
100
AcDbEntity
  8
ALL_ASSEMBLY_MEMBERS
100
AcDbLine
 62
7
  6
CONTINUOUS
 10
3.1216591615
 20
4.2309540544
 11
3.1216591615
 21
4.2429540544
  0
LINE
  5
23A
100
AcDbEntity
  8
ALL_ASSEMBLY_MEMBERS
100
AcDbLine
 62
7
  6
CONTINUOUS
 10
3.1221591615
 20
4.2020752554
 11
3.1221591615
 21
4.2161762422
  0
LINE
  5
23B
100
AcDbEntity
  8
ALL_ASSEMBLY_MEMBERS
100
AcDbLine
 62
7
  6
CONTINUOUS
 10
3.1421591615
 20
4.2427772291
 11
3.1421591615
 21
4.2020752554
  0
LINE
  5
23C
100
AcDbEntity
  8
ALL_ASSEMBLY_MEMBERS
100
AcDbLine
 62
7
  6
CONTINUOUS
 10
3.1504091615
 20
4.2631762422
 11
3.1504091615
 21
4.2541762422
  0
LINE
  5
23D
100
AcDbEntity
  8
ALL_ASSEMBLY_MEMBERS
100
AcDbLine
 62
7
  6
CONTINUOUS
 10
3.1504091615
 20
4.1906762422
 11
3.1504091615
 21
4.1786762422
  0
LINE
  5
23E
100
AcDbEntity
  8
ALL_ASSEMBLY_MEMBERS
100
AcDbLine
 62
7
  6
CONTINUOUS
 10
3.2704091615
 20
4.1786762422
 11
3.2704091615
 21
4.1906762422
  0
LINE
  5
23F
100
AcDbEntity
  8
ALL_ASSEMBLY_MEMBERS
100
AcDbLine
 62
7
  6
CONTINUOUS
 10
3.2796591615
 20
4.2064063885
 11
3.2796591615
 21
4.2527262422
  0
LINE
  5
240
100
AcDbEntity
  8
ALL_ASSEMBLY_MEMBERS
100
AcDbLine
 62
7
  6
CONTINUOUS
 10
3.2976591615
 20
4.2527262422
 11
3.2976591615
 21
4.2064063885
  0
LINE
  5
241
100
AcDbEntity
  8
ALL_ASSEMBLY_MEMBERS
100
AcDbLine
 62
7
  6
CONTINUOUS
 10
3.3069091615
 20
4.1906762422
 11
3.3069091615
 21
4.1786762422
  0
LINE
  5
242
100
AcDbEntity
  8
ALL_ASSEMBLY_MEMBERS
100
AcDbLine
 62
7
  6
CONTINUOUS
 10
3.4669921664
 20
4.1278372743
 11
3.46699217
 21
4.1365720776
  0
LINE
  5
243
100
AcDbEntity
  8
ALL_ASSEMBLY_MEMBERS
100
AcDbLine
 62
7
  6
CONTINUOUS
 10
3.4669921703
 20
4.3055767602
 11
3.4669921664
 21
4.3145152102
  0
LINE
  5
244
100
AcDbEntity
  8
ALL_ASSEMBLY_MEMBERS
100
AcDbLine
 62
7
  6
CONTINUOUS
 10
3.2464091615
 20
4.2524188829
 11
3.2509091615
 21
4.2631762422
  0
LINE
  5
245
100
AcDbEntity
  8
ALL_ASSEMBLY_MEMBERS
100
AcDbLine
 62
7
  6
CONTINUOUS
 10
3.2853028093
 20
4.6925148537
 11
3.3140425676
 21
4.7335594822
  0
LINE
  5
246
100
AcDbEntity
  8
ALL_ASSEMBLY_MEMBERS
100
AcDbLine
 62
7
  6
CONTINUOUS
 10
3.2853028093
 20
3.7498376307
 11
3.3140425676
 21
3.7087930022
  0
LINE
  5
247
100
AcDbEntity
  8
ALL_ASSEMBLY_MEMBERS
100
AcDbLine
 62
7
  6
CONTINUOUS
 10
3.3264091615
 20
4.2631762422
 11
3.3309091615
 21
4.2524188829
  0
LINE
  5
248
100
AcDbEntity
  8
ALL_ASSEMBLY_MEMBERS
100
AcDbLine
 62
7
  6
CONTINUOUS
 10
3.5296591615
 20
4.4106914681
 11
3.5296591615
 21
4.2798395252
  0
LINE
  5
249
100
AcDbEntity
  8
ALL_ASSEMBLY_MEMBERS
100
AcDbLine
 62
7
  6
CONTINUOUS
 10
3.5296591615
 20
4.1625129593
 11
3.5296591615
 21
4.0316610164
  0
LINE
  5
24A
100
AcDbEntity
  8
ALL_ASSEMBLY_MEMBERS
100
AcDbLine
 62
7
  6
CONTINUOUS
 10
3.6477275822
 20
4.3166348889
 11
3.6477275822
 21
4.1257175956
  0
LINE
  5
24B
100
AcDbEntity
  8
ALL_ASSEMBLY_MEMBERS
100
AcDbLine
 62
7
  6
CONTINUOUS
 10
3.6601591615
 20
4.3157216871
 11
3.6601591615
 21
4.1266307974
  0
LINE
  5
24C
100
AcDbEntity
  8
ALL_ASSEMBLY_MEMBERS
100
AcDbLine
 62
7
  6
CONTINUOUS
 10
3.672747773
 20
4.30506989
 11
3.672747773
 21
4.1372825944
  0
LINE
  5
24D
100
AcDbEntity
  8
ALL_ASSEMBLY_MEMBERS
100
AcDbLine
 62
7
  6
CONTINUOUS
 10
3.7137924015
 20
4.3338096483
 11
3.7137924015
 21
4.1085428361
  0
LINE
  5
24E
100
AcDbEntity
  8
ALL_ASSEMBLY_MEMBERS
100
AcDbLine
 62
7
  6
CONTINUOUS
 10
3.1175155137
 20
3.7498376307
 11
3.0887757554
 21
3.7087930022
  0
LINE
  5
24F
100
AcDbEntity
  8
ALL_ASSEMBLY_MEMBERS
100
AcDbLine
 62
7
  6
CONTINUOUS
 10
3.3309091615
 20
4.2524188829
 11
3.3266665208
 21
4.2481762422
  0
LINE
  5
250
100
AcDbEntity
  8
ALL_ASSEMBLY_MEMBERS
100
AcDbLine
 62
7
  6
CONTINUOUS
 10
2.6890259215
 20
4.1085428361
 11
2.73007055
 21
4.1372825944
  0
LINE
  5
251
100
AcDbEntity
  8
ALL_ASSEMBLY_MEMBERS
100
AcDbLine
 62
7
  6
CONTINUOUS
 10
2.8731591615
 20
4.4106914681
 11
3.1453397116
 21
4.567834982
  0
LINE
  5
252
100
AcDbEntity
  8
ALL_ASSEMBLY_MEMBERS
100
AcDbLine
 62
7
  6
CONTINUOUS
 10
3.1453397116
 20
3.8745175025
 11
2.8731591615
 21
4.0316610164
  0
LINE
  5
253
100
AcDbEntity
  8
ALL_ASSEMBLY_MEMBERS
100
AcDbLine
 62
7
  6
CONTINUOUS
 10
2.6890259215
 20
4.3338096483
 11
2.73007055
 21
4.30506989
  0
LINE
  5
254
100
AcDbEntity
  8
ALL_ASSEMBLY_MEMBERS
100
AcDbLine
 62
7
  6
CONTINUOUS
 10
3.2506518022
 20
4.2481762422
 11
3.2464091615
 21
4.2524188829
  0
LINE
  5
255
100
AcDbEntity
  8
ALL_ASSEMBLY_MEMBERS
100
AcDbLine
 62
7
  6
CONTINUOUS
 10
3.1175155137
 20
4.6925148537
 11
3.0887757554
 21
4.7335594822
  0
LINE
  5
256
100
AcDbEntity
  8
ALL_ASSEMBLY_MEMBERS
100
AcDbLine
 62
7
  6
CONTINUOUS
 10
3.7137924015
 20
4.3338096483
 11
3.672747773
 21
4.30506989
  0
LINE
  5
257
100
AcDbEntity
  8
ALL_ASSEMBLY_MEMBERS
100
AcDbLine
 62
7
  6
CONTINUOUS
 10
3.7137924015
 20
4.1085428361
 11
3.672747773
 21
4.1372825944
  0
LINE
  5
258
100
AcDbEntity
  8
ALL_ASSEMBLY_MEMBERS
100
AcDbLine
 62
7
  6
CONTINUOUS
 10
3.5296591615
 20
4.0316610164
 11
3.2574786114
 21
3.8745175025
  0
LINE
  5
259
100
AcDbEntity
  8
0
100
AcDbLine
 62
7
  6
CONTINUOUS
 10
5.4135046162
 20
3.5960194292
 11
4.9285047177
 21
3.596333317
  0
LINE
  5
25A
100
AcDbEntity
  8
ALL_ASSEMBLY_MEMBERS
100
AcDbLine
 62
7
  6
CONTINUOUS
 10
3.2574786114
 20
4.567834982
 11
3.5296591615
 21
4.4106914681
  0
LINE
  5
25B
100
AcDbEntity
  8
0
100
AcDbLine
 62
7
  6
CONTINUOUS
 10
4.9695631265
 20
4.5713069486
 11
4.7672640577
 21
4.2214378015
  0
LINE
  5
25C
100
AcDbEntity
  8
ALL_ASSEMBLY_MEMBERS
100
AcDbLine
 62
7
  6
CONTINUOUS
 10
3.0887757554
 20
3.7087930022
 11
3.3140425676
 21
3.7087930022
  0
LINE
  5
25D
100
AcDbEntity
  8
ALL_ASSEMBLY_MEMBERS
100
AcDbLine
 62
7
  6
CONTINUOUS
 10
7.0287757554
 20
3.7087930022
 11
7.2540425676
 21
3.7087930022
  0
LINE
  5
25E
100
AcDbEntity
  8
ALL_ASSEMBLY_MEMBERS
100
AcDbLine
 62
7
  6
CONTINUOUS
 10
3.1175155137
 20
3.7498376307
 11
3.2853028093
 21
3.7498376307
  0
LINE
  5
25F
100
AcDbEntity
  8
ALL_ASSEMBLY_MEMBERS
100
AcDbLine
 62
7
  6
CONTINUOUS
 10
7.0575155137
 20
3.7498376307
 11
7.2253028093
 21
3.7498376307
  0
LINE
  5
260
100
AcDbEntity
  8
ALL_ASSEMBLY_MEMBERS
100
AcDbLine
 62
7
  6
CONTINUOUS
 10
3.1068637166
 20
3.7624262422
 11
3.2959546063
 21
3.7624262422
  0
LINE
  5
261
100
AcDbEntity
  8
ALL_ASSEMBLY_MEMBERS
100
AcDbLine
 62
7
  6
CONTINUOUS
 10
7.0468637166
 20
3.7624262422
 11
7.2359546063
 21
3.7624262422
  0
LINE
  5
262
100
AcDbEntity
  8
ALL_ASSEMBLY_MEMBERS
100
AcDbLine
 62
7
  6
CONTINUOUS
 10
3.1059505149
 20
3.7748578215
 11
3.2968678081
 21
3.7748578215
  0
LINE
  5
263
100
AcDbEntity
  8
ALL_ASSEMBLY_MEMBERS
100
AcDbLine
 62
7
  6
CONTINUOUS
 10
7.0459505149
 20
3.7748578215
 11
7.2368678081
 21
3.7748578215
  0
LINE
  5
264
100
AcDbEntity
  8
0
100
AcDbLine
 62
7
  6
CONTINUOUS
 10
5.4136421443
 20
3.8085193847
 11
4.9286422459
 21
3.8088332725
  0
LINE
  5
265
100
AcDbEntity
  8
0
100
AcDbLine
 62
7
  6
CONTINUOUS
 10
4.7672640577
 20
4.2214378015
 11
4.9243352574
 21
3.9489754263
  0
LINE
  5
266
100
AcDbEntity
  8
0
100
AcDbLine
 62
7
  6
CONTINUOUS
 10
4.9286426453
 20
3.8105042585
 11
4.9285047177
 21
3.596333317
  0
LINE
  5
267
100
AcDbEntity
  8
0
100
AcDbLine
 62
7
  6
CONTINUOUS
 10
5.0272334222
 20
4.4712696039
 11
4.8827340874
 21
4.2213630703
  0
LINE
  5
268
100
AcDbEntity
  8
ALL_ASSEMBLY_MEMBERS
100
AcDbLine
 62
7
  6
CONTINUOUS
 10
3.1080701941
 20
3.9555932368
 11
3.1170086403
 21
3.9555932332
  0
LINE
  5
269
100
AcDbEntity
  8
ALL_ASSEMBLY_MEMBERS
100
AcDbLine
 62
7
  6
CONTINUOUS
 10
7.2260133162
 20
3.9555932367
 11
7.2347481289
 21
3.9555932368
  0
LINE
  5
26A
100
AcDbEntity
  8
ALL_ASSEMBLY_MEMBERS
100
AcDbLine
 62
7
  6
CONTINUOUS
 10
3.2860133162
 20
3.9555932367
 11
3.2947481289
 21
3.9555932368
  0
LINE
  5
26B
100
AcDbEntity
  8
ALL_ASSEMBLY_MEMBERS
100
AcDbLine
 62
7
  6
CONTINUOUS
 10
7.0480701941
 20
3.9555932368
 11
7.0570086403
 21
3.9555932332
  0
LINE
  5
26C
100
AcDbEntity
  8
0
100
AcDbLine
 62
7
  6
CONTINUOUS
 10
4.8827340874
 20
4.2213630703
 11
4.8894656817
 21
4.2096861608
  0
LINE
  5
26D
100
AcDbEntity
  8
0
100
AcDbLine
 62
7
  6
CONTINUOUS
 10
5.0498922205
 20
3.8087548006
 11
5.0497546923
 21
3.5962548451
  0
LINE
  5
26E
100
AcDbEntity
  8
0
100
AcDbLine
 62
7
  6
CONTINUOUS
 10
5.4686168867
 20
4.7351865831
 11
5.3159084964
 21
4.4710827759
  0
LINE
  5
26F
100
AcDbEntity
  8
0
100
AcDbLine
 62
7
  6
CONTINUOUS
 10
4.8742014362
 20
3.7071659013
 11
4.9286373775
 21
3.8013109532
  0
LINE
  5
270
100
AcDbEntity
  8
ALL_ASSEMBLY_MEMBERS
100
AcDbLine
 62
7
  6
CONTINUOUS
 10
7.2786591615
 20
4.1786762422
 11
7.2364091615
 21
4.1786762422
  0
LINE
  5
271
100
AcDbEntity
  8
ALL_ASSEMBLY_MEMBERS
100
AcDbLine
 62
7
  6
CONTINUOUS
 10
7.221148333
 20
4.1786762422
 11
7.1464091615
 21
4.1786762422
  0
LINE
  5
272
100
AcDbEntity
  8
ALL_ASSEMBLY_MEMBERS
100
AcDbLine
 62
7
  6
CONTINUOUS
 10
3.3069091615
 20
4.1786762422
 11
3.2704091615
 21
4.1786762422
  0
LINE
  5
273
100
AcDbEntity
  8
ALL_ASSEMBLY_MEMBERS
100
AcDbLine
 62
7
  6
CONTINUOUS
 10
3.1504091615
 20
4.1786762422
 11
3.1139091615
 21
4.1786762422
  0
LINE
  5
274
100
AcDbEntity
  8
ALL_ASSEMBLY_MEMBERS
100
AcDbLine
 62
7
  6
CONTINUOUS
 10
3.1054091615
 20
4.1786762422
 11
3.0689091615
 21
4.1786762422
  0
LINE
  5
275
100
AcDbEntity
  8
ALL_ASSEMBLY_MEMBERS
100
AcDbLine
 62
7
  6
CONTINUOUS
 10
7.1901591615
 20
4.1900615646
 11
7.2021591615
 21
4.1900615646
  0
LINE
  5
276
100
AcDbEntity
  8
ALL_ASSEMBLY_MEMBERS
100
AcDbLine
 62
7
  6
CONTINUOUS
 10
7.2625501017
 20
4.1906762422
 11
7.2764815556
 21
4.1906762422
  0
LINE
  5
277
100
AcDbEntity
  8
ALL_ASSEMBLY_MEMBERS
100
AcDbLine
 62
7
  6
CONTINUOUS
 10
3.1191591615
 20
4.2191762422
 11
3.1001591615
 21
4.2191762422
  0
LINE
  5
278
100
AcDbEntity
  8
ALL_ASSEMBLY_MEMBERS
100
AcDbLine
 62
7
  6
CONTINUOUS
 10
3.1006591615
 20
4.2279540544
 11
3.1186591615
 21
4.2279540544
  0
LINE
  5
279
100
AcDbEntity
  8
0
100
AcDbLine
 62
7
  6
CONTINUOUS
 10
5.7651590371
 20
4.2207919724
 11
5.4600842356
 21
4.2209894142
  0
LINE
  5
27A
100
AcDbEntity
  8
0
100
AcDbLine
 62
7
  6
CONTINUOUS
 10
4.5776592858
 20
4.2215605121
 11
4.8827340874
 21
4.2213630703
  0
LINE
  5
27B
100
AcDbEntity
  8
0
100
AcDbLine
 62
7
  6
CONTINUOUS
 10
4.8748670111
 20
4.735570853
 11
5.0272334222
 21
4.4712696039
  0
LINE
  5
27C
100
AcDbEntity
  8
0
100
AcDbLine
 62
7
  6
CONTINUOUS
 10
5.4679513119
 20
3.7067816315
 11
5.4136372759
 21
3.8009970655
  0
LINE
  5
27D
100
AcDbEntity
  8
0
100
AcDbLine
 62
7
  6
CONTINUOUS
 10
5.2923921697
 20
3.8085978567
 11
5.2922546415
 21
3.5960979012
  0
LINE
  5
27E
100
AcDbEntity
  8
ALL_ASSEMBLY_MEMBERS
100
AcDbLine
 62
7
  6
CONTINUOUS
 10
7.2764815556
 20
4.2541762422
 11
7.2625501017
 21
4.2541762422
  0
LINE
  5
27F
100
AcDbEntity
  8
ALL_ASSEMBLY_MEMBERS
100
AcDbLine
 62
7
  6
CONTINUOUS
 10
3.3120605288
 20
4.2542262422
 11
3.2991591615
 21
4.2542262422
  0
LINE
  5
280
100
AcDbEntity
  8
ALL_ASSEMBLY_MEMBERS
100
AcDbLine
 62
7
  6
CONTINUOUS
 10
3.2781591615
 20
4.2542262422
 11
3.2652577942
 21
4.2542262422
  0
LINE
  5
281
100
AcDbEntity
  8
ALL_ASSEMBLY_MEMBERS
100
AcDbLine
 62
7
  6
CONTINUOUS
 10
3.0689091615
 20
4.2631762422
 11
3.1054091615
 21
4.2631762422
  0
LINE
  5
282
100
AcDbEntity
  8
ALL_ASSEMBLY_MEMBERS
100
AcDbLine
 62
7
  6
CONTINUOUS
 10
3.1139091615
 20
4.2631762422
 11
3.1504091615
 21
4.2631762422
  0
LINE
  5
283
100
AcDbEntity
  8
ALL_ASSEMBLY_MEMBERS
100
AcDbLine
 62
7
  6
CONTINUOUS
 10
3.2509091615
 20
4.2631762422
 11
3.3264091615
 21
4.2631762422
  0
LINE
  5
284
100
AcDbEntity
  8
ALL_ASSEMBLY_MEMBERS
100
AcDbLine
 62
7
  6
CONTINUOUS
 10
7.0339091615
 20
4.2631762422
 11
7.0429091615
 21
4.2631762422
  0
LINE
  5
285
100
AcDbEntity
  8
ALL_ASSEMBLY_MEMBERS
100
AcDbLine
 62
7
  6
CONTINUOUS
 10
7.1464091615
 20
4.2631762422
 11
7.1859091615
 21
4.2631762422
  0
LINE
  5
286
100
AcDbEntity
  8
ALL_ASSEMBLY_MEMBERS
100
AcDbLine
 62
7
  6
CONTINUOUS
 10
7.2364091615
 20
4.2631762422
 11
7.2786591615
 21
4.2631762422
  0
LINE
  5
287
100
AcDbEntity
  8
ALL_ASSEMBLY_MEMBERS
100
AcDbLine
 62
7
  6
CONTINUOUS
 10
7.2395094611
 20
3.85506094
 11
7.1971925115
 21
3.8663997324
  0
LINE
  5
288
100
AcDbEntity
  8
ALL_ASSEMBLY_MEMBERS
100
AcDbLine
 62
7
  6
CONTINUOUS
 10
7.0817082685
 20
3.8973436421
 11
6.8733941588
 21
3.9531612395
  0
LINE
  5
289
100
AcDbEntity
  8
0
100
AcDbLine
 62
7
  6
CONTINUOUS
 10
5.4136421443
 20
3.8085193847
 11
5.4135046162
 21
3.5960194292
  0
LINE
  5
28A
100
AcDbEntity
  8
0
100
AcDbLine
 62
7
  6
CONTINUOUS
 10
5.4533375326
 20
4.2093212278
 11
5.4600842356
 21
4.2209894142
  0
LINE
  5
28B
100
AcDbEntity
  8
0
100
AcDbLine
 62
7
  6
CONTINUOUS
 10
5.4181305267
 20
3.9486558462
 11
5.5755542653
 21
4.220914683
  0
LINE
  5
28C
100
AcDbEntity
  8
ALL_ASSEMBLY_MEMBERS
100
AcDbLine
 62
7
  6
CONTINUOUS
 10
3.2947481289
 20
4.4867592477
 11
3.2858096828
 21
4.4867592513
  0
LINE
  5
28D
100
AcDbEntity
  8
ALL_ASSEMBLY_MEMBERS
100
AcDbLine
 62
7
  6
CONTINUOUS
 10
7.0570086333
 20
4.4867592478
 11
7.0480701941
 21
4.4867592477
  0
LINE
  5
28E
100
AcDbEntity
  8
ALL_ASSEMBLY_MEMBERS
100
AcDbLine
 62
7
  6
CONTINUOUS
 10
3.1170086333
 20
4.4867592478
 11
3.1080701941
 21
4.4867592477
  0
LINE
  5
28F
100
AcDbEntity
  8
ALL_ASSEMBLY_MEMBERS
100
AcDbLine
 62
7
  6
CONTINUOUS
 10
7.2347481289
 20
4.4867592477
 11
7.2258096828
 21
4.4867592513
  0
LINE
  5
290
100
AcDbEntity
  8
0
100
AcDbLine
 62
7
  6
CONTINUOUS
 10
5.3159084964
 20
4.4710827759
 11
5.0272334222
 21
4.4712696039
  0
LINE
  5
291
100
AcDbEntity
  8
0
100
AcDbLine
 62
7
  6
CONTINUOUS
 10
5.3737082303
 20
4.5710453893
 11
4.9695631265
 21
4.5713069486
  0
LINE
  5
292
100
AcDbEntity
  8
0
100
AcDbLine
 62
7
  6
CONTINUOUS
 10
5.4600842356
 20
4.2209894142
 11
5.3159084964
 21
4.4710827759
  0
LINE
  5
293
100
AcDbEntity
  8
0
100
AcDbLine
 62
7
  6
CONTINUOUS
 10
5.5755542653
 20
4.220914683
 11
5.3737082303
 21
4.5710453893
  0
LINE
  5
294
100
AcDbEntity
  8
ALL_ASSEMBLY_MEMBERS
100
AcDbLine
 62
7
  6
CONTINUOUS
 10
7.0509091615
 20
4.2351462894
 11
7.0422547483
 21
4.2326762422
  0
LINE
  5
295
100
AcDbEntity
  8
ALL_ASSEMBLY_MEMBERS
100
AcDbLine
 62
7
  6
CONTINUOUS
 10
3.1059505149
 20
4.6674946629
 11
3.2968678081
 21
4.6674946629
  0
LINE
  5
296
100
AcDbEntity
  8
ALL_ASSEMBLY_MEMBERS
100
AcDbLine
 62
7
  6
CONTINUOUS
 10
7.0459505149
 20
4.6674946629
 11
7.2368678081
 21
4.6674946629
  0
LINE
  5
297
100
AcDbEntity
  8
ALL_ASSEMBLY_MEMBERS
100
AcDbLine
 62
7
  6
CONTINUOUS
 10
3.1068637166
 20
4.6799262422
 11
3.2959546063
 21
4.6799262422
  0
LINE
  5
298
100
AcDbEntity
  8
ALL_ASSEMBLY_MEMBERS
100
AcDbLine
 62
7
  6
CONTINUOUS
 10
7.0468637166
 20
4.6799262422
 11
7.2359546063
 21
4.6799262422
  0
LINE
  5
299
100
AcDbEntity
  8
ALL_ASSEMBLY_MEMBERS
100
AcDbLine
 62
7
  6
CONTINUOUS
 10
3.1175155137
 20
4.6925148537
 11
3.2853028093
 21
4.6925148537
  0
LINE
  5
29A
100
AcDbEntity
  8
ALL_ASSEMBLY_MEMBERS
100
AcDbLine
 62
7
  6
CONTINUOUS
 10
7.0575155137
 20
4.6925148537
 11
7.2253028093
 21
4.6925148537
  0
LINE
  5
29B
100
AcDbEntity
  8
ALL_ASSEMBLY_MEMBERS
100
AcDbLine
 62
7
  6
CONTINUOUS
 10
3.0887757554
 20
4.7335594822
 11
3.3140425676
 21
4.7335594822
  0
LINE
  5
29C
100
AcDbEntity
  8
ALL_ASSEMBLY_MEMBERS
100
AcDbLine
 62
7
  6
CONTINUOUS
 10
7.0287757554
 20
4.7335594822
 11
7.2540425676
 21
4.7335594822
  0
LINE
  5
29D
100
AcDbEntity
  8
ALL_ASSEMBLY_MEMBERS
100
AcDbLine
 62
7
  6
CONTINUOUS
 10
7.0426341057
 20
4.2091762422
 11
7.0509091615
 21
4.2056373933
  0
LINE
  5
29E
100
AcDbEntity
  8
ALL_ASSEMBLY_MEMBERS
100
AcDbLine
 62
7
  6
CONTINUOUS
 10
6.6290259215
 20
4.1085428361
 11
6.67007055
 21
4.1372825944
  0
LINE
  5
29F
100
AcDbEntity
  8
ALL_ASSEMBLY_MEMBERS
100
AcDbLine
 62
7
  6
CONTINUOUS
 10
7.0433088619
 20
4.5872915445
 11
7.0856258115
 21
4.575952752
  0
LINE
  5
2A0
100
AcDbEntity
  8
ALL_ASSEMBLY_MEMBERS
100
AcDbLine
 62
7
  6
CONTINUOUS
 10
7.2011100545
 20
4.5450088424
 11
7.4094241642
 21
4.4891912449
  0
LINE
  5
2A1
100
AcDbEntity
  8
ALL_ASSEMBLY_MEMBERS
100
AcDbLine
 62
7
  6
CONTINUOUS
 10
6.6290259215
 20
4.3338096483
 11
6.67007055
 21
4.30506989
  0
LINE
  5
2A2
100
AcDbEntity
  8
ALL_ASSEMBLY_MEMBERS
100
AcDbLine
 62
7
  6
CONTINUOUS
 10
6.7752938592
 20
4.3192765418
 11
7.0433088619
 21
4.5872915445
  0
LINE
  5
2A3
100
AcDbEntity
  8
ALL_ASSEMBLY_MEMBERS
100
AcDbLine
 62
7
  6
CONTINUOUS
 10
7.2216316298
 20
4.208265204
 11
7.2259091615
 21
4.2056762422
  0
LINE
  5
2A4
100
AcDbEntity
  8
ALL_ASSEMBLY_MEMBERS
100
AcDbLine
 62
7
  6
CONTINUOUS
 10
6.6290259215
 20
4.1085428361
 11
6.6290259215
 21
4.3338096483
  0
LINE
  5
2A5
100
AcDbEntity
  8
ALL_ASSEMBLY_MEMBERS
100
AcDbLine
 62
7
  6
CONTINUOUS
 10
6.67007055
 20
4.1372825944
 11
6.67007055
 21
4.30506989
  0
LINE
  5
2A6
100
AcDbEntity
  8
ALL_ASSEMBLY_MEMBERS
100
AcDbLine
 62
7
  6
CONTINUOUS
 10
6.6826591615
 20
4.1266307974
 11
6.6826591615
 21
4.3157216871
  0
LINE
  5
2A7
100
AcDbEntity
  8
ALL_ASSEMBLY_MEMBERS
100
AcDbLine
 62
7
  6
CONTINUOUS
 10
7.2253028093
 20
4.6925148537
 11
7.2540425676
 21
4.7335594822
  0
LINE
  5
2A8
100
AcDbEntity
  8
ALL_ASSEMBLY_MEMBERS
100
AcDbLine
 62
7
  6
CONTINUOUS
 10
7.6537924015
 20
4.3338096483
 11
7.612747773
 21
4.30506989
  0
LINE
  5
2A9
100
AcDbEntity
  8
ALL_ASSEMBLY_MEMBERS
100
AcDbLine
 62
7
  6
CONTINUOUS
 10
7.6537924015
 20
4.1085428361
 11
7.612747773
 21
4.1372825944
  0
LINE
  5
2AA
100
AcDbEntity
  8
ALL_ASSEMBLY_MEMBERS
100
AcDbLine
 62
7
  6
CONTINUOUS
 10
7.2253028093
 20
3.7498376307
 11
7.2540425676
 21
3.7087930022
  0
LINE
  5
2AB
100
AcDbEntity
  8
ALL_ASSEMBLY_MEMBERS
100
AcDbLine
 62
7
  6
CONTINUOUS
 10
6.6950907408
 20
4.1257175956
 11
6.6950907408
 21
4.3166348889
  0
LINE
  5
2AC
100
AcDbEntity
  8
ALL_ASSEMBLY_MEMBERS
100
AcDbLine
 62
7
  6
CONTINUOUS
 10
6.8733941588
 20
3.9531612395
 11
6.8175765613
 21
4.1614753492
  0
LINE
  5
2AD
100
AcDbEntity
  8
ALL_ASSEMBLY_MEMBERS
100
AcDbLine
 62
7
  6
CONTINUOUS
 10
6.7866326517
 20
4.2769595922
 11
6.7752938592
 21
4.3192765418
  0
LINE
  5
2AE
100
AcDbEntity
  8
ALL_ASSEMBLY_MEMBERS
100
AcDbLine
 62
7
  6
CONTINUOUS
 10
6.8758261566
 20
4.3145152102
 11
6.875826153
 21
4.3055767638
  0
LINE
  5
2AF
100
AcDbEntity
  8
ALL_ASSEMBLY_MEMBERS
100
AcDbLine
 62
7
  6
CONTINUOUS
 10
6.8758261527
 20
4.1367757242
 11
6.8758261566
 21
4.1278372743
  0
LINE
  5
2B0
100
AcDbEntity
  8
ALL_ASSEMBLY_MEMBERS
100
AcDbLine
 62
7
  6
CONTINUOUS
 10
7.2149917565
 20
4.1972946794
 11
7.2216316298
 21
4.208265204
  0
LINE
  5
2B1
100
AcDbEntity
  8
ALL_ASSEMBLY_MEMBERS
100
AcDbLine
 62
7
  6
CONTINUOUS
 10
7.0575155137
 20
3.7498376307
 11
7.0287757554
 21
3.7087930022
  0
LINE
  5
2B2
100
AcDbEntity
  8
ALL_ASSEMBLY_MEMBERS
100
AcDbLine
 62
7
  6
CONTINUOUS
 10
7.5075244638
 20
4.1230759427
 11
7.2395094611
 21
3.85506094
  0
LINE
  5
2B3
100
AcDbEntity
  8
ALL_ASSEMBLY_MEMBERS
100
AcDbLine
 62
7
  6
CONTINUOUS
 10
7.0575155137
 20
4.6925148537
 11
7.0287757554
 21
4.7335594822
  0
LINE
  5
2B4
100
AcDbEntity
  8
ALL_ASSEMBLY_MEMBERS
100
AcDbLine
 62
7
  6
CONTINUOUS
 10
7.0429091615
 20
4.2631762422
 11
7.0509091615
 21
4.2351462894
  0
LINE
  5
2B5
100
AcDbEntity
  8
ALL_ASSEMBLY_MEMBERS
100
AcDbLine
 62
7
  6
CONTINUOUS
 10
7.1464091615
 20
4.1786762422
 11
7.1464091615
 21
4.1906762422
  0
LINE
  5
2B6
100
AcDbEntity
  8
ALL_ASSEMBLY_MEMBERS
100
AcDbLine
 62
7
  6
CONTINUOUS
 10
7.1464091615
 20
4.2541762422
 11
7.1464091615
 21
4.2631762422
  0
LINE
  5
2B7
100
AcDbEntity
  8
ALL_ASSEMBLY_MEMBERS
100
AcDbLine
 62
7
  6
CONTINUOUS
 10
7.1571591615
 20
4.2050615646
 11
7.1571591615
 21
4.2397909199
  0
LINE
  5
2B8
100
AcDbEntity
  8
ALL_ASSEMBLY_MEMBERS
100
AcDbLine
 62
7
  6
CONTINUOUS
 10
7.1751591615
 20
4.2397909199
 11
7.1751591615
 21
4.2050615646
  0
LINE
  5
2B9
100
AcDbEntity
  8
ALL_ASSEMBLY_MEMBERS
100
AcDbLine
 62
7
  6
CONTINUOUS
 10
7.1859091615
 20
4.2631762422
 11
7.1859091615
 21
4.2541762422
  0
LINE
  5
2BA
100
AcDbEntity
  8
ALL_ASSEMBLY_MEMBERS
100
AcDbLine
 62
7
  6
CONTINUOUS
 10
7.2364091615
 20
4.1786762422
 11
7.2364091615
 21
4.1906762422
  0
LINE
  5
2BB
100
AcDbEntity
  8
ALL_ASSEMBLY_MEMBERS
100
AcDbLine
 62
7
  6
CONTINUOUS
 10
7.2364091615
 20
4.2541762422
 11
7.2364091615
 21
4.2631762422
  0
LINE
  5
2BC
100
AcDbEntity
  8
ALL_ASSEMBLY_MEMBERS
100
AcDbLine
 62
7
  6
CONTINUOUS
 10
7.2414091615
 20
4.1987385
 11
7.2414091615
 21
4.2461139845
  0
LINE
  5
2BD
100
AcDbEntity
  8
ALL_ASSEMBLY_MEMBERS
100
AcDbLine
 62
7
  6
CONTINUOUS
 10
7.2259091615
 20
4.2056762422
 11
7.221148333
 21
4.1786762422
  0
LINE
  5
2BE
100
AcDbEntity
  8
ALL_ASSEMBLY_MEMBERS
100
AcDbLine
 62
7
  6
CONTINUOUS
 10
7.2595501017
 20
4.1936762422
 11
7.2595501017
 21
4.2511762422
  0
LINE
  5
2BF
100
AcDbEntity
  8
ALL_ASSEMBLY_MEMBERS
100
AcDbLine
 62
7
  6
CONTINUOUS
 10
7.4069921664
 20
4.1278372743
 11
7.40699217
 21
4.1365720776
  0
LINE
  5
2C0
100
AcDbEntity
  8
ALL_ASSEMBLY_MEMBERS
100
AcDbLine
 62
7
  6
CONTINUOUS
 10
7.4069921703
 20
4.3055767602
 11
7.4069921664
 21
4.3145152102
  0
LINE
  5
2C1
100
AcDbEntity
  8
ALL_ASSEMBLY_MEMBERS
100
AcDbLine
 62
7
  6
CONTINUOUS
 10
7.4094241642
 20
4.4891912449
 11
7.4652417616
 21
4.2808771352
  0
LINE
  5
2C2
100
AcDbEntity
  8
ALL_ASSEMBLY_MEMBERS
100
AcDbLine
 62
7
  6
CONTINUOUS
 10
7.4961856713
 20
4.1653928923
 11
7.5075244638
 21
4.1230759427
  0
LINE
  5
2C3
100
AcDbEntity
  8
ALL_ASSEMBLY_MEMBERS
100
AcDbLine
 62
7
  6
CONTINUOUS
 10
7.5877275822
 20
4.3166348889
 11
7.5877275822
 21
4.1257175956
  0
LINE
  5
2C4
100
AcDbEntity
  8
ALL_ASSEMBLY_MEMBERS
100
AcDbLine
 62
7
  6
CONTINUOUS
 10
7.6001591615
 20
4.3157216871
 11
7.6001591615
 21
4.1266307974
  0
LINE
  5
2C5
100
AcDbEntity
  8
ALL_ASSEMBLY_MEMBERS
100
AcDbLine
 62
7
  6
CONTINUOUS
 10
7.612747773
 20
4.30506989
 11
7.612747773
 21
4.1372825944
  0
LINE
  5
2C6
100
AcDbEntity
  8
ALL_ASSEMBLY_MEMBERS
100
AcDbLine
 62
7
  6
CONTINUOUS
 10
7.6537924015
 20
4.3338096483
 11
7.6537924015
 21
4.1085428361
  0
ARC
  5
2C7
100
AcDbEntity
  8
ALL_ASSEMBLY_MEMBERS
100
AcDbCircle
 62
7
  6
CONTINUOUS
 10
3.2014091615
 20
3.6299262422
 40
0.1375
100
AcDbArc
 50
145.0
 51
35.0
  0
ARC
  5
2C8
100
AcDbEntity
  8
ALL_ASSEMBLY_MEMBERS
100
AcDbCircle
 62
7
  6
CONTINUOUS
 10
3.556347141
 20
4.0404262422
 40
0.125
100
AcDbArc
 50
43.0260516848
 51
135.6300714454
  0
ARC
  5
2C9
100
AcDbEntity
  8
ALL_ASSEMBLY_MEMBERS
100
AcDbCircle
 62
7
  6
CONTINUOUS
 10
2.846471182
 20
4.0404262422
 40
0.125
100
AcDbArc
 50
44.3699285546
 51
136.9739483152
  0
ARC
  5
2CA
100
AcDbEntity
  8
ALL_ASSEMBLY_MEMBERS
100
AcDbCircle
 62
7
  6
CONTINUOUS
 10
3.0206591615
 20
3.8662382628
 40
0.125
100
AcDbArc
 50
313.0260516848
 51
45.6300714454
  0
ARC
  5
2CB
100
AcDbEntity
  8
ALL_ASSEMBLY_MEMBERS
100
AcDbCircle
 62
7
  6
CONTINUOUS
 10
3.3821591615
 20
3.8662382628
 40
0.125
100
AcDbArc
 50
134.3699285546
 51
226.9739483152
  0
ARC
  5
2CC
100
AcDbEntity
  8
ALL_ASSEMBLY_MEMBERS
100
AcDbCircle
 62
7
  6
CONTINUOUS
 10
3.3156591615
 20
4.2064063885
 40
0.018
100
AcDbArc
 50
180.0
 51
240.9147049393
  0
ARC
  5
2CD
100
AcDbEntity
  8
ALL_ASSEMBLY_MEMBERS
100
AcDbCircle
 62
7
  6
CONTINUOUS
 10
3.2616591615
 20
4.2064063885
 40
0.018
100
AcDbArc
 50
299.0852950607
 51
360.0
  0
ARC
  5
2CE
100
AcDbEntity
  8
ALL_ASSEMBLY_MEMBERS
100
AcDbCircle
 62
7
  6
CONTINUOUS
 10
3.4559121496
 20
4.1386762422
 40
0.0155
100
AcDbArc
 50
297.1688835585
 51
315.6300714454
  0
ARC
  5
2CF
100
AcDbEntity
  8
ALL_ASSEMBLY_MEMBERS
100
AcDbCircle
 62
7
  6
CONTINUOUS
 10
2.9469061734
 20
4.1386762422
 40
0.0155
100
AcDbArc
 50
224.3699285546
 51
243.1436647045
  0
ARC
  5
2D0
100
AcDbEntity
  8
ALL_ASSEMBLY_MEMBERS
100
AcDbCircle
 62
7
  6
CONTINUOUS
 10
3.1189091615
 20
3.9666732542
 40
0.0155
100
AcDbArc
 50
206.8563505138
 51
225.6300714454
  0
ARC
  5
2D1
100
AcDbEntity
  8
ALL_ASSEMBLY_MEMBERS
100
AcDbCircle
 62
7
  6
CONTINUOUS
 10
3.2839091615
 20
3.9666732542
 40
0.0155
100
AcDbArc
 50
314.3699285546
 51
332.8311494163
  0
ARC
  5
2D2
100
AcDbEntity
  8
ALL_ASSEMBLY_MEMBERS
100
AcDbCircle
 62
7
  6
CONTINUOUS
 10
3.1541591615
 20
4.2020752554
 40
0.012
100
AcDbArc
 50
180.0
 51
251.7900431357
  0
ARC
  5
2D3
100
AcDbEntity
  8
ALL_ASSEMBLY_MEMBERS
100
AcDbCircle
 62
7
  6
CONTINUOUS
 10
3.1101591615
 20
4.2020752554
 40
0.012
100
AcDbArc
 50
288.2099568643
 51
360.0
  0
ARC
  5
2D4
100
AcDbEntity
  8
ALL_ASSEMBLY_MEMBERS
100
AcDbCircle
 62
7
  6
CONTINUOUS
 10
3.1091591615
 20
4.2020752554
 40
0.012
100
AcDbArc
 50
180.0
 51
251.7900431357
  0
ARC
  5
2D5
100
AcDbEntity
  8
ALL_ASSEMBLY_MEMBERS
100
AcDbCircle
 62
7
  6
CONTINUOUS
 10
3.0651591615
 20
4.2020752554
 40
0.012
100
AcDbArc
 50
288.2099568643
 51
360.0
  0
ARC
  5
2D6
100
AcDbEntity
  8
ALL_ASSEMBLY_MEMBERS
100
AcDbCircle
 62
7
  6
CONTINUOUS
 10
3.6535759304
 20
4.1311762422
 40
0.008
100
AcDbArc
 50
223.0260516848
 51
325.3765489003
  0
ARC
  5
2D7
100
AcDbEntity
  8
ALL_ASSEMBLY_MEMBERS
100
AcDbCircle
 62
7
  6
CONTINUOUS
 10
3.6681591615
 20
4.1307293781
 40
0.008
100
AcDbArc
 50
55.0
 51
180.0
  0
ARC
  5
2D8
100
AcDbEntity
  8
ALL_ASSEMBLY_MEMBERS
100
AcDbCircle
 62
7
  6
CONTINUOUS
 10
2.7492423925
 20
4.1311762422
 40
0.008
100
AcDbArc
 50
214.6234510997
 51
316.9739483152
  0
ARC
  5
2D9
100
AcDbEntity
  8
ALL_ASSEMBLY_MEMBERS
100
AcDbCircle
 62
7
  6
CONTINUOUS
 10
2.7346591615
 20
4.1307293781
 40
0.008
100
AcDbArc
 50
0.0
 51
125.0
  0
ARC
  5
2DA
100
AcDbEntity
  8
ALL_ASSEMBLY_MEMBERS
100
AcDbCircle
 62
7
  6
CONTINUOUS
 10
3.1114091615
 20
3.7690094733
 40
0.008
100
AcDbArc
 50
133.0260516848
 51
235.3765489003
  0
ARC
  5
2DB
100
AcDbEntity
  8
ALL_ASSEMBLY_MEMBERS
100
AcDbCircle
 62
7
  6
CONTINUOUS
 10
3.2914091615
 20
3.7690094733
 40
0.008
100
AcDbArc
 50
304.6234510997
 51
46.9739483152
  0
ARC
  5
2DC
100
AcDbEntity
  8
ALL_ASSEMBLY_MEMBERS
100
AcDbCircle
 62
7
  6
CONTINUOUS
 10
3.1109622973
 20
3.7544262422
 40
0.008
100
AcDbArc
 50
325.0
 51
90.0
  0
ARC
  5
2DD
100
AcDbEntity
  8
ALL_ASSEMBLY_MEMBERS
100
AcDbCircle
 62
7
  6
CONTINUOUS
 10
3.2918560256
 20
3.7544262422
 40
0.008
100
AcDbArc
 50
90.0
 51
215.0
  0
ARC
  5
2DE
100
AcDbEntity
  8
ALL_ASSEMBLY_MEMBERS
100
AcDbCircle
 62
7
  6
CONTINUOUS
 10
3.1191591615
 20
4.2161762422
 40
0.003
100
AcDbArc
 50
0.0
 51
90.0
  0
ARC
  5
2DF
100
AcDbEntity
  8
ALL_ASSEMBLY_MEMBERS
100
AcDbCircle
 62
7
  6
CONTINUOUS
 10
3.1001591615
 20
4.2161762422
 40
0.003
100
AcDbArc
 50
90.0
 51
180.0
  0
ARC
  5
2E0
100
AcDbEntity
  8
ALL_ASSEMBLY_MEMBERS
100
AcDbCircle
 62
7
  6
CONTINUOUS
 10
2.6101591615
 20
4.2211762422
 40
0.1375
100
AcDbArc
 50
55.0
 51
305.0
  0
ARC
  5
2E1
100
AcDbEntity
  8
ALL_ASSEMBLY_MEMBERS
100
AcDbCircle
 62
7
  6
CONTINUOUS
 10
2.846471182
 20
4.4019262422
 40
0.125
100
AcDbArc
 50
223.0260516848
 51
315.6300714454
  0
ARC
  5
2E2
100
AcDbEntity
  8
ALL_ASSEMBLY_MEMBERS
100
AcDbCircle
 62
7
  6
CONTINUOUS
 10
2.9469061734
 20
4.3036762422
 40
0.0155
100
AcDbArc
 50
116.8563471109
 51
135.6300714454
  0
ARC
  5
2E3
100
AcDbEntity
  8
ALL_ASSEMBLY_MEMBERS
100
AcDbCircle
 62
7
  6
CONTINUOUS
 10
3.1189091615
 20
4.4756792303
 40
0.0155
100
AcDbArc
 50
134.3699285546
 51
153.1436644189
  0
ARC
  5
2E4
100
AcDbEntity
  8
ALL_ASSEMBLY_MEMBERS
100
AcDbCircle
 62
7
  6
CONTINUOUS
 10
3.0651591615
 20
4.2427772291
 40
0.012
100
AcDbArc
 50
0.0
 51
71.7900431357
  0
ARC
  5
2E5
100
AcDbEntity
  8
ALL_ASSEMBLY_MEMBERS
100
AcDbCircle
 62
7
  6
CONTINUOUS
 10
3.1096591615
 20
4.2429540544
 40
0.012
100
AcDbArc
 50
110.7423799545
 51
180.0
  0
ARC
  5
2E6
100
AcDbEntity
  8
ALL_ASSEMBLY_MEMBERS
100
AcDbCircle
 62
7
  6
CONTINUOUS
 10
3.1096591615
 20
4.2429540544
 40
0.012
100
AcDbArc
 50
0.0
 51
69.2576200455
  0
ARC
  5
2E7
100
AcDbEntity
  8
ALL_ASSEMBLY_MEMBERS
100
AcDbCircle
 62
7
  6
CONTINUOUS
 10
3.1541591615
 20
4.2427772291
 40
0.012
100
AcDbArc
 50
108.2099568643
 51
180.0
  0
ARC
  5
2E8
100
AcDbEntity
  8
ALL_ASSEMBLY_MEMBERS
100
AcDbCircle
 62
7
  6
CONTINUOUS
 10
2.7492423925
 20
4.3111762422
 40
0.008
100
AcDbArc
 50
43.0260516848
 51
145.3765489003
  0
ARC
  5
2E9
100
AcDbEntity
  8
ALL_ASSEMBLY_MEMBERS
100
AcDbCircle
 62
7
  6
CONTINUOUS
 10
2.7346591615
 20
4.3116231064
 40
0.008
100
AcDbArc
 50
235.0
 51
360.0
  0
ARC
  5
2EA
100
AcDbEntity
  8
ALL_ASSEMBLY_MEMBERS
100
AcDbCircle
 62
7
  6
CONTINUOUS
 10
3.1006591615
 20
4.2309540544
 40
0.003
100
AcDbArc
 50
180.0
 51
270.0
  0
ARC
  5
2EB
100
AcDbEntity
  8
ALL_ASSEMBLY_MEMBERS
100
AcDbCircle
 62
7
  6
CONTINUOUS
 10
3.1186591615
 20
4.2309540544
 40
0.003
100
AcDbArc
 50
270.0
 51
360.0
  0
ARC
  5
2EC
100
AcDbEntity
  8
ALL_ASSEMBLY_MEMBERS
100
AcDbCircle
 62
7
  6
CONTINUOUS
 10
3.0206591615
 20
4.5761142217
 40
0.125
100
AcDbArc
 50
314.3699285546
 51
46.9739483152
  0
ARC
  5
2ED
100
AcDbEntity
  8
ALL_ASSEMBLY_MEMBERS
100
AcDbCircle
 62
7
  6
CONTINUOUS
 10
3.1114091615
 20
4.6733430112
 40
0.008
100
AcDbArc
 50
124.6234510997
 51
226.9739483152
  0
ARC
  5
2EE
100
AcDbEntity
  8
ALL_ASSEMBLY_MEMBERS
100
AcDbCircle
 62
7
  6
CONTINUOUS
 10
3.1109622973
 20
4.6879262422
 40
0.008
100
AcDbArc
 50
270.0
 51
35.0
  0
ARC
  5
2EF
100
AcDbEntity
  8
ALL_ASSEMBLY_MEMBERS
100
AcDbCircle
 62
7
  6
CONTINUOUS
 10
3.2014091615
 20
4.2211762422
 40
0.59
100
AcDbArc
 50
193.3645021647
 51
256.6348277137
  0
ARC
  5
2F0
100
AcDbEntity
  8
ALL_ASSEMBLY_MEMBERS
100
AcDbCircle
 62
7
  6
CONTINUOUS
 10
3.2014091615
 20
4.2211762422
 40
0.59
100
AcDbArc
 50
103.3651722863
 51
166.6354978353
  0
ARC
  5
2F1
100
AcDbEntity
  8
ALL_ASSEMBLY_MEMBERS
100
AcDbCircle
 62
7
  6
CONTINUOUS
 10
3.2014091615
 20
4.2211762422
 40
0.59
100
AcDbArc
 50
283.3651722863
 51
346.6354978353
  0
ARC
  5
2F2
100
AcDbEntity
  8
ALL_ASSEMBLY_MEMBERS
100
AcDbCircle
 62
7
  6
CONTINUOUS
 10
3.2014091615
 20
4.2211762422
 40
0.59
100
AcDbArc
 50
13.3645021647
 51
76.6348277137
  0
ARC
  5
2F3
100
AcDbEntity
  8
ALL_ASSEMBLY_MEMBERS
100
AcDbCircle
 62
7
  6
CONTINUOUS
 10
3.2014091615
 20
4.2211762422
 40
0.5000013369
100
AcDbArc
 50
11.2155259073
 51
78.7844740927
  0
ARC
  5
2F4
100
AcDbEntity
  8
ALL_ASSEMBLY_MEMBERS
100
AcDbCircle
 62
7
  6
CONTINUOUS
 10
3.2014091615
 20
4.2211762422
 40
0.5000013369
100
AcDbArc
 50
281.2155259073
 51
348.7844740927
  0
ARC
  5
2F5
100
AcDbEntity
  8
ALL_ASSEMBLY_MEMBERS
100
AcDbCircle
 62
7
  6
CONTINUOUS
 10
3.2014091615
 20
4.2211762422
 40
0.5000013369
100
AcDbArc
 50
191.2155259073
 51
258.7844740927
  0
ARC
  5
2F6
100
AcDbEntity
  8
ALL_ASSEMBLY_MEMBERS
100
AcDbCircle
 62
7
  6
CONTINUOUS
 10
3.2014091615
 20
4.2211762422
 40
0.5000013369
100
AcDbArc
 50
101.2155259073
 51
168.7844740927
  0
ARC
  5
2F7
100
AcDbEntity
  8
ALL_ASSEMBLY_MEMBERS
100
AcDbCircle
 62
7
  6
CONTINUOUS
 10
3.2014091615
 20
4.2211762422
 40
0.4065013369
100
AcDbArc
 50
279.1563815576
 51
350.8420549967
  0
ARC
  5
2F8
100
AcDbEntity
  8
ALL_ASSEMBLY_MEMBERS
100
AcDbCircle
 62
7
  6
CONTINUOUS
 10
3.2014091615
 20
4.2211762422
 40
0.4065013369
100
AcDbArc
 50
9.1579450033
 51
80.8436184424
  0
ARC
  5
2F9
100
AcDbEntity
  8
ALL_ASSEMBLY_MEMBERS
100
AcDbCircle
 62
7
  6
CONTINUOUS
 10
3.2014091615
 20
4.2211762422
 40
0.4065013369
100
AcDbArc
 50
189.1579450033
 51
260.8436184424
  0
ARC
  5
2FA
100
AcDbEntity
  8
ALL_ASSEMBLY_MEMBERS
100
AcDbCircle
 62
7
  6
CONTINUOUS
 10
3.2014091615
 20
4.2211762422
 40
0.4065013369
100
AcDbArc
 50
99.1563815576
 51
170.8420549967
  0
ARC
  5
2FB
100
AcDbEntity
  8
ALL_ASSEMBLY_MEMBERS
100
AcDbCircle
 62
7
  6
CONTINUOUS
 10
3.2014091615
 20
4.2211762422
 40
0.3705
100
AcDbArc
 50
278.7408227595
 51
327.6237776714
  0
ARC
  5
2FC
100
AcDbEntity
  8
ALL_ASSEMBLY_MEMBERS
100
AcDbCircle
 62
7
  6
CONTINUOUS
 10
3.2014091615
 20
4.2211762422
 40
0.3705
100
AcDbArc
 50
332.3762223286
 51
351.2576807926
  0
ARC
  5
2FD
100
AcDbEntity
  8
ALL_ASSEMBLY_MEMBERS
100
AcDbCircle
 62
7
  6
CONTINUOUS
 10
3.2014091615
 20
4.2211762422
 40
0.3705
100
AcDbArc
 50
8.7423192074
 51
27.6237776714
  0
ARC
  5
2FE
100
AcDbEntity
  8
ALL_ASSEMBLY_MEMBERS
100
AcDbCircle
 62
7
  6
CONTINUOUS
 10
3.2014091615
 20
4.2211762422
 40
0.3705
100
AcDbArc
 50
32.3762223286
 51
81.2591772405
  0
ARC
  5
2FF
100
AcDbEntity
  8
ALL_ASSEMBLY_MEMBERS
100
AcDbCircle
 62
7
  6
CONTINUOUS
 10
3.2014091615
 20
4.2211762422
 40
0.3705
100
AcDbArc
 50
212.3762223286
 51
261.2591772405
  0
ARC
  5
300
100
AcDbEntity
  8
ALL_ASSEMBLY_MEMBERS
100
AcDbCircle
 62
7
  6
CONTINUOUS
 10
3.2014091615
 20
4.2211762422
 40
0.3705
100
AcDbArc
 50
188.7423192074
 51
207.6237776714
  0
ARC
  5
301
100
AcDbEntity
  8
ALL_ASSEMBLY_MEMBERS
100
AcDbCircle
 62
7
  6
CONTINUOUS
 10
3.2014091615
 20
4.2211762422
 40
0.3705
100
AcDbArc
 50
152.3762223286
 51
171.2576807926
  0
ARC
  5
302
100
AcDbEntity
  8
ALL_ASSEMBLY_MEMBERS
100
AcDbCircle
 62
7
  6
CONTINUOUS
 10
3.2014091615
 20
4.2211762422
 40
0.3705
100
AcDbArc
 50
98.7408227595
 51
147.6237776714
  0
ARC
  5
303
100
AcDbEntity
  8
ALL_ASSEMBLY_MEMBERS
100
AcDbCircle
 62
7
  6
CONTINUOUS
 10
3.2014091615
 20
4.2211762422
 40
0.32575
100
AcDbArc
 50
10.7534680923
 51
79.2465319077
  0
ARC
  5
304
100
AcDbEntity
  8
ALL_ASSEMBLY_MEMBERS
100
AcDbCircle
 62
7
  6
CONTINUOUS
 10
3.2014091615
 20
4.2211762422
 40
0.32575
100
AcDbArc
 50
280.7534680923
 51
349.2465319077
  0
ARC
  5
305
100
AcDbEntity
  8
ALL_ASSEMBLY_MEMBERS
100
AcDbCircle
 62
7
  6
CONTINUOUS
 10
3.2014091615
 20
4.2211762422
 40
0.32575
100
AcDbArc
 50
190.7534680923
 51
259.2465319077
  0
ARC
  5
306
100
AcDbEntity
  8
ALL_ASSEMBLY_MEMBERS
100
AcDbCircle
 62
7
  6
CONTINUOUS
 10
3.2014091615
 20
4.2211762422
 40
0.32575
100
AcDbArc
 50
100.7534680923
 51
169.2465319077
  0
ARC
  5
307
100
AcDbEntity
  8
ALL_ASSEMBLY_MEMBERS
100
AcDbCircle
 62
7
  6
CONTINUOUS
 10
3.2014091615
 20
4.2211762422
 40
0.3073169971
100
AcDbArc
 50
282.9347710886
 51
347.0652289121
  0
ARC
  5
308
100
AcDbEntity
  8
ALL_ASSEMBLY_MEMBERS
100
AcDbCircle
 62
7
  6
CONTINUOUS
 10
3.2014091615
 20
4.2211762422
 40
0.3073169971
100
AcDbArc
 50
12.9347710879
 51
77.0652289114
  0
ARC
  5
309
100
AcDbEntity
  8
ALL_ASSEMBLY_MEMBERS
100
AcDbCircle
 62
7
  6
CONTINUOUS
 10
3.2014091615
 20
4.2211762422
 40
0.3073169971
100
AcDbArc
 50
192.9347710879
 51
257.0652289114
  0
ARC
  5
30A
100
AcDbEntity
  8
ALL_ASSEMBLY_MEMBERS
100
AcDbCircle
 62
7
  6
CONTINUOUS
 10
3.2014091615
 20
4.2211762422
 40
0.3073169971
100
AcDbArc
 50
102.9347710886
 51
167.0652289121
  0
CIRCLE
  5
30B
100
AcDbEntity
  8
ALL_ASSEMBLY_MEMBERS
100
AcDbCircle
 62
7
  6
CONTINUOUS
 10
3.2014091615
 20
4.2211762422
 40
0.27875
  0
CIRCLE
  5
30C
100
AcDbEntity
  8
ALL_ASSEMBLY_MEMBERS
100
AcDbCircle
 62
7
  6
CONTINUOUS
 10
3.2014091615
 20
4.2211762422
 40
0.26375
  0
CIRCLE
  5
30D
100
AcDbEntity
  8
ALL_ASSEMBLY_MEMBERS
100
AcDbCircle
 62
7
  6
CONTINUOUS
 10
3.2014091615
 20
4.2211762422
 40
0.2566170761
  0
CIRCLE
  5
30E
100
AcDbEntity
  8
ALL_ASSEMBLY_MEMBERS
100
AcDbCircle
 62
7
  6
CONTINUOUS
 10
3.2014091615
 20
4.2211762422
 40
0.2272549781
  0
CIRCLE
  5
30F
100
AcDbEntity
  8
ALL_ASSEMBLY_MEMBERS
100
AcDbCircle
 62
7
  6
CONTINUOUS
 10
3.2014091615
 20
4.2211762422
 40
0.21375
  0
CIRCLE
  5
310
100
AcDbEntity
  8
ALL_ASSEMBLY_MEMBERS
100
AcDbCircle
 62
7
  6
CONTINUOUS
 10
3.2014091615
 20
4.2211762422
 40
0.20875
  0
CIRCLE
  5
311
100
AcDbEntity
  8
ALL_ASSEMBLY_MEMBERS
100
AcDbCircle
 62
7
  6
CONTINUOUS
 10
3.2014091615
 20
4.2211762422
 40
0.1975723198
  0
ARC
  5
312
100
AcDbEntity
  8
ALL_ASSEMBLY_MEMBERS
100
AcDbCircle
 62
7
  6
CONTINUOUS
 10
3.2652577942
 20
4.2335702502
 40
0.0206559921
100
AcDbArc
 50
90.0
 51
135.0
  0
ARC
  5
313
100
AcDbEntity
  8
ALL_ASSEMBLY_MEMBERS
100
AcDbCircle
 62
7
  6
CONTINUOUS
 10
3.3120605288
 20
4.2335702502
 40
0.0206559921
100
AcDbArc
 50
45.0
 51
90.0
  0
ARC
  5
314
100
AcDbEntity
  8
ALL_ASSEMBLY_MEMBERS
100
AcDbCircle
 62
7
  6
CONTINUOUS
 10
3.2781591615
 20
4.2527262422
 40
0.0015
100
AcDbArc
 50
0.0
 51
90.0
  0
ARC
  5
315
100
AcDbEntity
  8
ALL_ASSEMBLY_MEMBERS
100
AcDbCircle
 62
7
  6
CONTINUOUS
 10
3.2991591615
 20
4.2527262422
 40
0.0015
100
AcDbArc
 50
90.0
 51
180.0
  0
ARC
  5
316
100
AcDbEntity
  8
ALL_ASSEMBLY_MEMBERS
100
AcDbCircle
 62
7
  6
CONTINUOUS
 10
3.4559121496
 20
4.3036762422
 40
0.0155
100
AcDbArc
 50
44.3699285546
 51
63.1436650029
  0
ARC
  5
317
100
AcDbEntity
  8
ALL_ASSEMBLY_MEMBERS
100
AcDbCircle
 62
7
  6
CONTINUOUS
 10
3.2839091615
 20
4.4756792303
 40
0.0155
100
AcDbArc
 50
26.8563510653
 51
45.6300714454
  0
ARC
  5
318
100
AcDbEntity
  8
ALL_ASSEMBLY_MEMBERS
100
AcDbCircle
 62
7
  6
CONTINUOUS
 10
3.7926591615
 20
4.2211762422
 40
0.1375
100
AcDbArc
 50
235.0
 51
125.0
  0
ARC
  5
319
100
AcDbEntity
  8
ALL_ASSEMBLY_MEMBERS
100
AcDbCircle
 62
7
  6
CONTINUOUS
 10
3.6535759304
 20
4.3111762422
 40
0.008
100
AcDbArc
 50
34.6234510997
 51
136.9739483152
  0
ARC
  5
31A
100
AcDbEntity
  8
ALL_ASSEMBLY_MEMBERS
100
AcDbCircle
 62
7
  6
CONTINUOUS
 10
3.6681591615
 20
4.3116231064
 40
0.008
100
AcDbArc
 50
180.0
 51
305.0
  0
ARC
  5
31B
100
AcDbEntity
  8
ALL_ASSEMBLY_MEMBERS
100
AcDbCircle
 62
7
  6
CONTINUOUS
 10
3.556347141
 20
4.4019262422
 40
0.125
100
AcDbArc
 50
224.3699285546
 51
316.9739483152
  0
ARC
  5
31C
100
AcDbEntity
  8
ALL_ASSEMBLY_MEMBERS
100
AcDbCircle
 62
7
  6
CONTINUOUS
 10
3.2014091615
 20
4.8124262422
 40
0.1375
100
AcDbArc
 50
325.0
 51
215.0
  0
ARC
  5
31D
100
AcDbEntity
  8
ALL_ASSEMBLY_MEMBERS
100
AcDbCircle
 62
7
  6
CONTINUOUS
 10
3.3821591615
 20
4.5761142217
 40
0.125
100
AcDbArc
 50
133.0260516848
 51
225.6300714454
  0
ARC
  5
31E
100
AcDbEntity
  8
ALL_ASSEMBLY_MEMBERS
100
AcDbCircle
 62
7
  6
CONTINUOUS
 10
3.2914091615
 20
4.6733430112
 40
0.008
100
AcDbArc
 50
313.0260516848
 51
55.3765489003
  0
ARC
  5
31F
100
AcDbEntity
  8
ALL_ASSEMBLY_MEMBERS
100
AcDbCircle
 62
7
  6
CONTINUOUS
 10
3.2918560256
 20
4.6879262422
 40
0.008
100
AcDbArc
 50
145.0
 51
270.0
  0
ARC
  5
320
100
AcDbEntity
  8
ALL_ASSEMBLY_MEMBERS
100
AcDbCircle
 62
7
  6
CONTINUOUS
 10
7.1414091615
 20
3.6299262422
 40
0.1375
100
AcDbArc
 50
145.0
 51
35.0
  0
ARC
  5
321
100
AcDbEntity
  8
ALL_ASSEMBLY_MEMBERS
100
AcDbCircle
 62
7
  6
CONTINUOUS
 10
6.786471182
 20
4.0404262422
 40
0.125
100
AcDbArc
 50
44.3699285546
 51
136.9739483152
  0
ARC
  5
322
100
AcDbEntity
  8
ALL_ASSEMBLY_MEMBERS
100
AcDbCircle
 62
7
  6
CONTINUOUS
 10
7.496347141
 20
4.0404262422
 40
0.125
100
AcDbArc
 50
43.0260516848
 51
135.6300714454
  0
ARC
  5
323
100
AcDbEntity
  8
ALL_ASSEMBLY_MEMBERS
100
AcDbCircle
 62
7
  6
CONTINUOUS
 10
6.9606591615
 20
3.8662382628
 40
0.125
100
AcDbArc
 50
313.0260516848
 51
45.6300714454
  0
ARC
  5
324
100
AcDbEntity
  8
ALL_ASSEMBLY_MEMBERS
100
AcDbCircle
 62
7
  6
CONTINUOUS
 10
7.3221591615
 20
3.8662382628
 40
0.125
100
AcDbArc
 50
134.3699285546
 51
226.9739483152
  0
ARC
  5
325
100
AcDbEntity
  8
ALL_ASSEMBLY_MEMBERS
100
AcDbCircle
 62
7
  6
CONTINUOUS
 10
7.01162186
 20
4.2026762422
 40
0.0605
100
AcDbArc
 50
72.3178031512
 51
100.863388708
  0
ARC
  5
326
100
AcDbEntity
  8
ALL_ASSEMBLY_MEMBERS
100
AcDbCircle
 62
7
  6
CONTINUOUS
 10
7.1183826958
 20
4.221128076
 40
0.0569735547
100
AcDbArc
 50
179.9515613656
 51
187.0787597455
  0
ARC
  5
327
100
AcDbEntity
  8
ALL_ASSEMBLY_MEMBERS
100
AcDbCircle
 62
7
  6
CONTINUOUS
 10
7.2786591615
 20
4.2209262422
 40
0.04225
100
AcDbArc
 50
270.0
 51
90.0
  0
ARC
  5
328
100
AcDbEntity
  8
ALL_ASSEMBLY_MEMBERS
100
AcDbCircle
 62
7
  6
CONTINUOUS
 10
7.0127083006
 20
4.2146762422
 40
0.024
100
AcDbArc
 50
201.6000344342
 51
256.3709027892
  0
ARC
  5
329
100
AcDbEntity
  8
ALL_ASSEMBLY_MEMBERS
100
AcDbCircle
 62
7
  6
CONTINUOUS
 10
7.2764815556
 20
4.2146762422
 40
0.024
100
AcDbArc
 50
270.0
 51
341.5590861804
  0
ARC
  5
32A
100
AcDbEntity
  8
ALL_ASSEMBLY_MEMBERS
100
AcDbCircle
 62
7
  6
CONTINUOUS
 10
6.8869061734
 20
4.1386762422
 40
0.0155
100
AcDbArc
 50
224.3699285546
 51
243.1436647045
  0
ARC
  5
32B
100
AcDbEntity
  8
ALL_ASSEMBLY_MEMBERS
100
AcDbCircle
 62
7
  6
CONTINUOUS
 10
7.3959121496
 20
4.1386762422
 40
0.0155
100
AcDbArc
 50
297.1688835585
 51
315.6300714454
  0
ARC
  5
32C
100
AcDbEntity
  8
ALL_ASSEMBLY_MEMBERS
100
AcDbCircle
 62
7
  6
CONTINUOUS
 10
7.0589091615
 20
3.9666732542
 40
0.0155
100
AcDbArc
 50
206.8563505138
 51
225.6300714454
  0
ARC
  5
32D
100
AcDbEntity
  8
ALL_ASSEMBLY_MEMBERS
100
AcDbCircle
 62
7
  6
CONTINUOUS
 10
7.2239091615
 20
3.9666732542
 40
0.0155
100
AcDbArc
 50
314.3699285546
 51
332.8311494163
  0
ARC
  5
32E
100
AcDbEntity
  8
ALL_ASSEMBLY_MEMBERS
100
AcDbCircle
 62
7
  6
CONTINUOUS
 10
7.1421591615
 20
4.2050615646
 40
0.015
100
AcDbArc
 50
286.4592496283
 51
360.0
  0
ARC
  5
32F
100
AcDbEntity
  8
ALL_ASSEMBLY_MEMBERS
100
AcDbCircle
 62
7
  6
CONTINUOUS
 10
7.2021591615
 20
4.2050615646
 40
0.015
100
AcDbArc
 50
270.0
 51
328.815717175
  0
ARC
  5
330
100
AcDbEntity
  8
ALL_ASSEMBLY_MEMBERS
100
AcDbCircle
 62
7
  6
CONTINUOUS
 10
7.1901591615
 20
4.2050615646
 40
0.015
100
AcDbArc
 50
180.0
 51
270.0
  0
ARC
  5
331
100
AcDbEntity
  8
ALL_ASSEMBLY_MEMBERS
100
AcDbCircle
 62
7
  6
CONTINUOUS
 10
7.2324091615
 20
4.1987385
 40
0.009
100
AcDbArc
 50
296.3877999612
 51
360.0
  0
ARC
  5
332
100
AcDbEntity
  8
ALL_ASSEMBLY_MEMBERS
100
AcDbCircle
 62
7
  6
CONTINUOUS
 10
6.6892423925
 20
4.1311762422
 40
0.008
100
AcDbArc
 50
214.6234510997
 51
316.9739483152
  0
ARC
  5
333
100
AcDbEntity
  8
ALL_ASSEMBLY_MEMBERS
100
AcDbCircle
 62
7
  6
CONTINUOUS
 10
6.6746591615
 20
4.1307293781
 40
0.008
100
AcDbArc
 50
0.0
 51
125.0
  0
ARC
  5
334
100
AcDbEntity
  8
ALL_ASSEMBLY_MEMBERS
100
AcDbCircle
 62
7
  6
CONTINUOUS
 10
7.5935759304
 20
4.1311762422
 40
0.008
100
AcDbArc
 50
223.0260516848
 51
325.3765489003
  0
ARC
  5
335
100
AcDbEntity
  8
ALL_ASSEMBLY_MEMBERS
100
AcDbCircle
 62
7
  6
CONTINUOUS
 10
7.6081591615
 20
4.1307293781
 40
0.008
100
AcDbArc
 50
55.0
 51
180.0
  0
ARC
  5
336
100
AcDbEntity
  8
ALL_ASSEMBLY_MEMBERS
100
AcDbCircle
 62
7
  6
CONTINUOUS
 10
7.0514091615
 20
3.7690094733
 40
0.008
100
AcDbArc
 50
133.0260516849
 51
235.3765489003
  0
ARC
  5
337
100
AcDbEntity
  8
ALL_ASSEMBLY_MEMBERS
100
AcDbCircle
 62
7
  6
CONTINUOUS
 10
7.2314091615
 20
3.7690094733
 40
0.008
100
AcDbArc
 50
304.6234510997
 51
46.9739483151
  0
ARC
  5
338
100
AcDbEntity
  8
ALL_ASSEMBLY_MEMBERS
100
AcDbCircle
 62
7
  6
CONTINUOUS
 10
7.0509622973
 20
3.7544262422
 40
0.008
100
AcDbArc
 50
325.0
 51
90.0
  0
ARC
  5
339
100
AcDbEntity
  8
ALL_ASSEMBLY_MEMBERS
100
AcDbCircle
 62
7
  6
CONTINUOUS
 10
7.2318560256
 20
3.7544262422
 40
0.008
100
AcDbArc
 50
90.0
 51
215.0
  0
ARC
  5
33A
100
AcDbEntity
  8
ALL_ASSEMBLY_MEMBERS
100
AcDbCircle
 62
7
  6
CONTINUOUS
 10
7.2625501017
 20
4.1936762422
 40
0.003
100
AcDbArc
 50
180.0
 51
270.0
  0
ARC
  5
33B
100
AcDbEntity
  8
0
100
AcDbCircle
 62
7
  6
CONTINUOUS
 10
5.1714091615
 20
4.2211762422
 40
0.59375
100
AcDbArc
 50
294.0769172297
 51
245.8489625609
  0
ARC
  5
33C
100
AcDbEntity
  8
ALL_ASSEMBLY_MEMBERS
100
AcDbCircle
 62
7
  6
CONTINUOUS
 10
6.5501591615
 20
4.2211762422
 40
0.1375
100
AcDbArc
 50
55.0
 51
305.0
  0
ARC
  5
33D
100
AcDbEntity
  8
ALL_ASSEMBLY_MEMBERS
100
AcDbCircle
 62
7
  6
CONTINUOUS
 10
7.0833966298
 20
4.221178271
 40
0.0565125317
100
AcDbArc
 50
359.9979430711
 51
2.4505484092
  0
ARC
  5
33E
100
AcDbEntity
  8
ALL_ASSEMBLY_MEMBERS
100
AcDbCircle
 62
7
  6
CONTINUOUS
 10
7.0100560472
 20
4.2231083329
 40
0.0444320906
100
AcDbArc
 50
224.2338173193
 51
336.8459014309
  0
ARC
  5
33F
100
AcDbEntity
  8
ALL_ASSEMBLY_MEMBERS
100
AcDbCircle
 62
7
  6
CONTINUOUS
 10
7.0299091615
 20
4.2214865568
 40
0.0425
100
AcDbArc
 50
158.3999655658
 51
201.6000344342
  0
ARC
  5
340
100
AcDbEntity
  8
ALL_ASSEMBLY_MEMBERS
100
AcDbCircle
 62
7
  6
CONTINUOUS
 10
7.0080715796
 20
4.2211762422
 40
0.0416624181
100
AcDbArc
 50
100.863388708
 51
224.2338173193
  0
ARC
  5
341
100
AcDbEntity
  8
ALL_ASSEMBLY_MEMBERS
100
AcDbCircle
 62
7
  6
CONTINUOUS
 10
7.0087312422
 20
4.2231083329
 40
0.0348621622
100
AcDbArc
 50
15.9292215989
 51
31.2636680057
  0
ARC
  5
342
100
AcDbEntity
  8
ALL_ASSEMBLY_MEMBERS
100
AcDbCircle
 62
7
  6
CONTINUOUS
 10
7.0143115214
 20
4.2212884684
 40
0.0308038115
100
AcDbArc
 50
256.3709027892
 51
336.8459014309
  0
ARC
  5
343
100
AcDbEntity
  8
ALL_ASSEMBLY_MEMBERS
100
AcDbCircle
 62
7
  6
CONTINUOUS
 10
7.0154737126
 20
4.2272019654
 40
0.0269742769
100
AcDbArc
 50
31.2636680057
 51
158.3999655658
  0
ARC
  5
344
100
AcDbEntity
  8
ALL_ASSEMBLY_MEMBERS
100
AcDbCircle
 62
7
  6
CONTINUOUS
 10
6.8869061734
 20
4.3036762422
 40
0.0155
100
AcDbArc
 50
116.8563471109
 51
135.6300714454
  0
ARC
  5
345
100
AcDbEntity
  8
ALL_ASSEMBLY_MEMBERS
100
AcDbCircle
 62
7
  6
CONTINUOUS
 10
6.6892423925
 20
4.3111762422
 40
0.008
100
AcDbArc
 50
43.0260516848
 51
145.3765489003
  0
ARC
  5
346
100
AcDbEntity
  8
ALL_ASSEMBLY_MEMBERS
100
AcDbCircle
 62
7
  6
CONTINUOUS
 10
6.6746591615
 20
4.3116231064
 40
0.008
100
AcDbArc
 50
235.0
 51
360.0
  0
ARC
  5
347
100
AcDbEntity
  8
ALL_ASSEMBLY_MEMBERS
100
AcDbCircle
 62
7
  6
CONTINUOUS
 10
7.0309091615
 20
4.2631762422
 40
0.003
100
AcDbArc
 50
252.3178031512
 51
360.0
  0
ARC
  5
348
100
AcDbEntity
  8
ALL_ASSEMBLY_MEMBERS
100
AcDbCircle
 62
7
  6
CONTINUOUS
 10
6.786471182
 20
4.4019262422
 40
0.125
100
AcDbArc
 50
223.0260516848
 51
315.6300714454
  0
ARC
  5
349
100
AcDbEntity
  8
ALL_ASSEMBLY_MEMBERS
100
AcDbCircle
 62
7
  6
CONTINUOUS
 10
7.0589091615
 20
4.4756792303
 40
0.0155
100
AcDbArc
 50
134.3699285546
 51
153.1436644189
  0
ARC
  5
34A
100
AcDbEntity
  8
ALL_ASSEMBLY_MEMBERS
100
AcDbCircle
 62
7
  6
CONTINUOUS
 10
7.1414091615
 20
4.2211762422
 40
0.59
100
AcDbArc
 50
283.3644905284
 51
346.6360911685
  0
ARC
  5
34B
100
AcDbEntity
  8
ALL_ASSEMBLY_MEMBERS
100
AcDbCircle
 62
7
  6
CONTINUOUS
 10
7.1414091615
 20
4.2211762422
 40
0.59
100
AcDbArc
 50
13.3639088315
 51
76.6355094716
  0
ARC
  5
34C
100
AcDbEntity
  8
ALL_ASSEMBLY_MEMBERS
100
AcDbCircle
 62
7
  6
CONTINUOUS
 10
7.1414091615
 20
4.2211762422
 40
0.59
100
AcDbArc
 50
103.3644905284
 51
166.6360911685
  0
ARC
  5
34D
100
AcDbEntity
  8
ALL_ASSEMBLY_MEMBERS
100
AcDbCircle
 62
7
  6
CONTINUOUS
 10
7.1414091615
 20
4.2211762422
 40
0.59
100
AcDbArc
 50
193.3639088315
 51
256.6355094716
  0
ARC
  5
34E
100
AcDbEntity
  8
ALL_ASSEMBLY_MEMBERS
100
AcDbCircle
 62
7
  6
CONTINUOUS
 10
7.1414091615
 20
4.2211762422
 40
0.5000013369
100
AcDbArc
 50
101.2114437584
 51
168.7885562416
  0
ARC
  5
34F
100
AcDbEntity
  8
ALL_ASSEMBLY_MEMBERS
100
AcDbCircle
 62
7
  6
CONTINUOUS
 10
7.1414091615
 20
4.2211762422
 40
0.5000013369
100
AcDbArc
 50
11.2114437584
 51
78.7885562416
  0
ARC
  5
350
100
AcDbEntity
  8
ALL_ASSEMBLY_MEMBERS
100
AcDbCircle
 62
7
  6
CONTINUOUS
 10
7.1414091615
 20
4.2211762422
 40
0.5000013369
100
AcDbArc
 50
281.2114437584
 51
348.7885562416
  0
ARC
  5
351
100
AcDbEntity
  8
ALL_ASSEMBLY_MEMBERS
100
AcDbCircle
 62
7
  6
CONTINUOUS
 10
7.1414091615
 20
4.2211762422
 40
0.5000013369
100
AcDbArc
 50
191.2114437584
 51
258.7885562416
  0
ARC
  5
352
100
AcDbEntity
  8
ALL_ASSEMBLY_MEMBERS
100
AcDbCircle
 62
7
  6
CONTINUOUS
 10
7.1414091615
 20
4.2211762422
 40
0.4065013369
100
AcDbArc
 50
99.157544143
 51
170.8424558568
  0
ARC
  5
353
100
AcDbEntity
  8
ALL_ASSEMBLY_MEMBERS
100
AcDbCircle
 62
7
  6
CONTINUOUS
 10
7.1414091615
 20
4.2211762422
 40
0.4065013369
100
AcDbArc
 50
9.156000814
 51
80.8439991862
  0
ARC
  5
354
100
AcDbEntity
  8
ALL_ASSEMBLY_MEMBERS
100
AcDbCircle
 62
7
  6
CONTINUOUS
 10
7.1414091615
 20
4.2211762422
 40
0.4065013369
100
AcDbArc
 50
279.157544143
 51
350.8424558568
  0
ARC
  5
355
100
AcDbEntity
  8
ALL_ASSEMBLY_MEMBERS
100
AcDbCircle
 62
7
  6
CONTINUOUS
 10
7.1414091615
 20
4.2211762422
 40
0.4065013369
100
AcDbArc
 50
189.156000814
 51
260.8439991862
  0
ARC
  5
356
100
AcDbEntity
  8
ALL_ASSEMBLY_MEMBERS
100
AcDbCircle
 62
7
  6
CONTINUOUS
 10
7.1414091615
 20
4.2211762422
 40
0.3705
100
AcDbArc
 50
47.3764232079
 51
81.2585687621
  0
ARC
  5
357
100
AcDbEntity
  8
ALL_ASSEMBLY_MEMBERS
100
AcDbCircle
 62
7
  6
CONTINUOUS
 10
7.1414091615
 20
4.2211762422
 40
0.3705
100
AcDbArc
 50
98.7407483892
 51
102.6237776714
  0
ARC
  5
358
100
AcDbEntity
  8
ALL_ASSEMBLY_MEMBERS
100
AcDbCircle
 62
7
  6
CONTINUOUS
 10
7.1414091615
 20
4.2211762422
 40
0.3705
100
AcDbArc
 50
107.3762223286
 51
162.6237776714
  0
ARC
  5
359
100
AcDbEntity
  8
ALL_ASSEMBLY_MEMBERS
100
AcDbCircle
 62
7
  6
CONTINUOUS
 10
7.1414091615
 20
4.2211762422
 40
0.3705
100
AcDbArc
 50
167.3762223286
 51
171.2592516109
  0
ARC
  5
35A
100
AcDbEntity
  8
ALL_ASSEMBLY_MEMBERS
100
AcDbCircle
 62
7
  6
CONTINUOUS
 10
7.1414091615
 20
4.2211762422
 40
0.3705
100
AcDbArc
 50
188.7414312379
 51
222.6235767921
  0
ARC
  5
35B
100
AcDbEntity
  8
ALL_ASSEMBLY_MEMBERS
100
AcDbCircle
 62
7
  6
CONTINUOUS
 10
7.1414091615
 20
4.2211762422
 40
0.3705
100
AcDbArc
 50
8.7414312379
 51
42.6235767921
  0
ARC
  5
35C
100
AcDbEntity
  8
ALL_ASSEMBLY_MEMBERS
100
AcDbCircle
 62
7
  6
CONTINUOUS
 10
7.1414091615
 20
4.2211762422
 40
0.3705
100
AcDbArc
 50
347.3762223286
 51
351.2592516109
  0
ARC
  5
35D
100
AcDbEntity
  8
ALL_ASSEMBLY_MEMBERS
100
AcDbCircle
 62
7
  6
CONTINUOUS
 10
7.1414091615
 20
4.2211762422
 40
0.3705
100
AcDbArc
 50
287.3762223286
 51
342.6237776714
  0
ARC
  5
35E
100
AcDbEntity
  8
ALL_ASSEMBLY_MEMBERS
100
AcDbCircle
 62
7
  6
CONTINUOUS
 10
7.1414091615
 20
4.2211762422
 40
0.3705
100
AcDbArc
 50
278.7407483892
 51
282.6237776714
  0
ARC
  5
35F
100
AcDbEntity
  8
ALL_ASSEMBLY_MEMBERS
100
AcDbCircle
 62
7
  6
CONTINUOUS
 10
7.1414091615
 20
4.2211762422
 40
0.3705
100
AcDbArc
 50
227.3764232079
 51
261.2585687621
  0
ARC
  5
360
100
AcDbEntity
  8
ALL_ASSEMBLY_MEMBERS
100
AcDbCircle
 62
7
  6
CONTINUOUS
 10
7.1414091615
 20
4.2211762422
 40
0.32575
100
AcDbArc
 50
100.7599529256
 51
169.2400470744
  0
ARC
  5
361
100
AcDbEntity
  8
ALL_ASSEMBLY_MEMBERS
100
AcDbCircle
 62
7
  6
CONTINUOUS
 10
7.1414091615
 20
4.2211762422
 40
0.32575
100
AcDbArc
 50
10.7599529256
 51
79.2400470744
  0
ARC
  5
362
100
AcDbEntity
  8
ALL_ASSEMBLY_MEMBERS
100
AcDbCircle
 62
7
  6
CONTINUOUS
 10
7.1414091615
 20
4.2211762422
 40
0.32575
100
AcDbArc
 50
280.7599529256
 51
349.2400470744
  0
ARC
  5
363
100
AcDbEntity
  8
ALL_ASSEMBLY_MEMBERS
100
AcDbCircle
 62
7
  6
CONTINUOUS
 10
7.1414091615
 20
4.2211762422
 40
0.32575
100
AcDbArc
 50
190.7599529256
 51
259.2400470744
  0
ARC
  5
364
100
AcDbEntity
  8
ALL_ASSEMBLY_MEMBERS
100
AcDbCircle
 62
7
  6
CONTINUOUS
 10
7.1414091615
 20
4.2211762422
 40
0.3073169971
100
AcDbArc
 50
102.9345878278
 51
167.0654121729
  0
ARC
  5
365
100
AcDbEntity
  8
ALL_ASSEMBLY_MEMBERS
100
AcDbCircle
 62
7
  6
CONTINUOUS
 10
7.1414091615
 20
4.2211762422
 40
0.3073169971
100
AcDbArc
 50
12.9345878271
 51
77.0654121722
  0
ARC
  5
366
100
AcDbEntity
  8
ALL_ASSEMBLY_MEMBERS
100
AcDbCircle
 62
7
  6
CONTINUOUS
 10
7.1414091615
 20
4.2211762422
 40
0.3073169971
100
AcDbArc
 50
282.9345878278
 51
347.0654121729
  0
ARC
  5
367
100
AcDbEntity
  8
ALL_ASSEMBLY_MEMBERS
100
AcDbCircle
 62
7
  6
CONTINUOUS
 10
7.1414091615
 20
4.2211762422
 40
0.3073169971
100
AcDbArc
 50
192.9345878271
 51
257.0654121722
  0
CIRCLE
  5
368
100
AcDbEntity
  8
ALL_ASSEMBLY_MEMBERS
100
AcDbCircle
 62
7
  6
CONTINUOUS
 10
7.1414091615
 20
4.2211762422
 40
0.27875
  0
CIRCLE
  5
369
100
AcDbEntity
  8
ALL_ASSEMBLY_MEMBERS
100
AcDbCircle
 62
7
  6
CONTINUOUS
 10
7.1414091615
 20
4.2211762422
 40
0.26375
  0
CIRCLE
  5
36A
100
AcDbEntity
  8
ALL_ASSEMBLY_MEMBERS
100
AcDbCircle
 62
7
  6
CONTINUOUS
 10
7.1414091615
 20
4.2211762422
 40
0.2566170761
  0
CIRCLE
  5
36B
100
AcDbEntity
  8
ALL_ASSEMBLY_MEMBERS
100
AcDbCircle
 62
7
  6
CONTINUOUS
 10
7.1414091615
 20
4.2211762422
 40
0.2272549781
  0
CIRCLE
  5
36C
100
AcDbEntity
  8
ALL_ASSEMBLY_MEMBERS
100
AcDbCircle
 62
7
  6
CONTINUOUS
 10
7.1414091615
 20
4.2211762422
 40
0.21375
  0
CIRCLE
  5
36D
100
AcDbEntity
  8
ALL_ASSEMBLY_MEMBERS
100
AcDbCircle
 62
7
  6
CONTINUOUS
 10
7.1414091615
 20
4.2211762422
 40
0.20875
  0
CIRCLE
  5
36E
100
AcDbEntity
  8
ALL_ASSEMBLY_MEMBERS
100
AcDbCircle
 62
7
  6
CONTINUOUS
 10
7.1414091615
 20
4.2211762422
 40
0.1975723283
  0
ARC
  5
36F
100
AcDbEntity
  8
ALL_ASSEMBLY_MEMBERS
100
AcDbCircle
 62
7
  6
CONTINUOUS
 10
7.1901591615
 20
4.2397909199
 40
0.015
100
AcDbArc
 50
106.4592496283
 51
180.0
  0
ARC
  5
370
100
AcDbEntity
  8
ALL_ASSEMBLY_MEMBERS
100
AcDbCircle
 62
7
  6
CONTINUOUS
 10
7.1421591615
 20
4.2397909199
 40
0.015
100
AcDbArc
 50
0.0
 51
73.5407503717
  0
ARC
  5
371
100
AcDbEntity
  8
ALL_ASSEMBLY_MEMBERS
100
AcDbCircle
 62
7
  6
CONTINUOUS
 10
7.2532396215
 20
4.2224262422
 40
0.0485
100
AcDbArc
 50
341.5590861804
 51
18.4409138196
  0
ARC
  5
372
100
AcDbEntity
  8
ALL_ASSEMBLY_MEMBERS
100
AcDbCircle
 62
7
  6
CONTINUOUS
 10
7.2764815556
 20
4.2301762422
 40
0.024
100
AcDbArc
 50
18.4409138196
 51
90.0
  0
ARC
  5
373
100
AcDbEntity
  8
ALL_ASSEMBLY_MEMBERS
100
AcDbCircle
 62
7
  6
CONTINUOUS
 10
7.2324091615
 20
4.2461139845
 40
0.009
100
AcDbArc
 50
0.0
 51
63.6122000388
  0
ARC
  5
374
100
AcDbEntity
  8
ALL_ASSEMBLY_MEMBERS
100
AcDbCircle
 62
7
  6
CONTINUOUS
 10
7.2625501017
 20
4.2511762422
 40
0.003
100
AcDbArc
 50
90.0
 51
180.0
  0
ARC
  5
375
100
AcDbEntity
  8
ALL_ASSEMBLY_MEMBERS
100
AcDbCircle
 62
7
  6
CONTINUOUS
 10
7.3959121496
 20
4.3036762422
 40
0.0155
100
AcDbArc
 50
44.3699285546
 51
63.1436650029
  0
ARC
  5
376
100
AcDbEntity
  8
ALL_ASSEMBLY_MEMBERS
100
AcDbCircle
 62
7
  6
CONTINUOUS
 10
7.7326591615
 20
4.2211762422
 40
0.1375
100
AcDbArc
 50
235.0
 51
125.0
  0
ARC
  5
377
100
AcDbEntity
  8
ALL_ASSEMBLY_MEMBERS
100
AcDbCircle
 62
7
  6
CONTINUOUS
 10
7.5935759304
 20
4.3111762422
 40
0.008
100
AcDbArc
 50
34.6234510997
 51
136.9739483152
  0
ARC
  5
378
100
AcDbEntity
  8
ALL_ASSEMBLY_MEMBERS
100
AcDbCircle
 62
7
  6
CONTINUOUS
 10
7.6081591615
 20
4.3116231064
 40
0.008
100
AcDbArc
 50
180.0
 51
305.0
  0
ARC
  5
379
100
AcDbEntity
  8
ALL_ASSEMBLY_MEMBERS
100
AcDbCircle
 62
7
  6
CONTINUOUS
 10
7.496347141
 20
4.4019262422
 40
0.125
100
AcDbArc
 50
224.3699285546
 51
316.9739483152
  0
ARC
  5
37A
100
AcDbEntity
  8
ALL_ASSEMBLY_MEMBERS
100
AcDbCircle
 62
7
  6
CONTINUOUS
 10
7.2239091615
 20
4.4756792303
 40
0.0155
100
AcDbArc
 50
26.8563510653
 51
45.6300714454
  0
ARC
  5
37B
100
AcDbEntity
  8
ALL_ASSEMBLY_MEMBERS
100
AcDbCircle
 62
7
  6
CONTINUOUS
 10
7.1414091615
 20
4.8124262422
 40
0.1375
100
AcDbArc
 50
325.0
 51
215.0
  0
ARC
  5
37C
100
AcDbEntity
  8
ALL_ASSEMBLY_MEMBERS
100
AcDbCircle
 62
7
  6
CONTINUOUS
 10
6.9606591615
 20
4.5761142217
 40
0.125
100
AcDbArc
 50
314.3699285546
 51
46.9739483152
  0
ARC
  5
37D
100
AcDbEntity
  8
ALL_ASSEMBLY_MEMBERS
100
AcDbCircle
 62
7
  6
CONTINUOUS
 10
7.3221591615
 20
4.5761142217
 40
0.125
100
AcDbArc
 50
133.0260516848
 51
225.6300714454
  0
ARC
  5
37E
100
AcDbEntity
  8
ALL_ASSEMBLY_MEMBERS
100
AcDbCircle
 62
7
  6
CONTINUOUS
 10
7.0514091615
 20
4.6733430112
 40
0.008
100
AcDbArc
 50
124.6234510997
 51
226.9739483151
  0
ARC
  5
37F
100
AcDbEntity
  8
ALL_ASSEMBLY_MEMBERS
100
AcDbCircle
 62
7
  6
CONTINUOUS
 10
7.2314091615
 20
4.6733430112
 40
0.008
100
AcDbArc
 50
313.0260516849
 51
55.3765489003
  0
ARC
  5
380
100
AcDbEntity
  8
ALL_ASSEMBLY_MEMBERS
100
AcDbCircle
 62
7
  6
CONTINUOUS
 10
7.2318560256
 20
4.6879262422
 40
0.008
100
AcDbArc
 50
145.0
 51
270.0
  0
ARC
  5
381
100
AcDbEntity
  8
ALL_ASSEMBLY_MEMBERS
100
AcDbCircle
 62
7
  6
CONTINUOUS
 10
7.0509622973
 20
4.6879262422
 40
0.008
100
AcDbArc
 50
270.0
 51
35.0
  0
SPLINE
  5
382
100
AcDbEntity
  8
ALL_ASSEMBLY_MEMBERS
100
AcDbSpline
 62
7
  6
CONTINUOUS
 70
0
 71
3
 72
11
 73
7
 74
0
 42
0.0000001
 43
0.0000001
 44
0.0000000001
 40
0.0
 40
0.0
 40
0.0
 40
0.0
 40
0.2730385444
 40
0.4996896654
 40
0.7263920674
 40
1.0
 40
1.0
 40
1.0
 40
1.0
 10
3.1614091615
 20
4.2211762422
 30
0.0
 10
3.1614087928
 20
4.2330716162
 30
0.0
 10
3.1679549611
 20
4.2548414091
 30
0.0
 10
3.2005808984
 20
4.2673236556
 30
0.0
 10
3.233107733
 20
4.2548173621
 30
0.0
 10
3.2399087604
 20
4.2330695712
 30
0.0
 10
3.2399091615
 20
4.2211762422
 30
0.0
  0
SPLINE
  5
383
100
AcDbEntity
  8
ALL_ASSEMBLY_MEMBERS
100
AcDbSpline
 62
7
  6
CONTINUOUS
 70
0
 71
3
 72
11
 73
7
 74
0
 42
0.0000001
 43
0.0000001
 44
0.0000000001
 40
0.0
 40
0.0
 40
0.0
 40
0.0
 40
0.2911005069
 40
0.5007865867
 40
0.7104726666
 40
1.0
 40
1.0
 40
1.0
 40
1.0
 10
3.2220591615
 20
4.2211762422
 30
0.0
 10
3.2220591615
 20
4.2295321589
 30
0.0
 10
3.2201185412
 20
4.2439070255
 30
0.0
 10
3.2005962507
 20
4.2545693216
 30
0.0
 10
3.1808664077
 20
4.2439559791
 30
0.0
 10
3.1795591615
 20
4.2295381235
 30
0.0
 10
3.1795591615
 20
4.2211762422
 30
0.0
  0
SPLINE
  5
384
100
AcDbEntity
  8
ALL_ASSEMBLY_MEMBERS
100
AcDbSpline
 62
7
  6
CONTINUOUS
 70
0
 71
3
 72
11
 73
7
 74
0
 42
0.0000001
 43
0.0000001
 44
0.0000000001
 40
0.0
 40
0.0
 40
0.0
 40
0.0
 40
0.2736088651
 40
0.5002793729
 40
0.726960525
 40
1.0
 40
1.0
 40
1.0
 40
1.0
 10
3.2399091615
 20
4.2211762422
 30
0.0
 10
3.2399095626
 20
4.2092829133
 30
0.0
 10
3.2331104459
 20
4.1875366353
 30
0.0
 10
3.2005756828
 20
4.1750287951
 30
0.0
 10
3.167957458
 20
4.1875097796
 30
0.0
 10
3.1614095302
 20
4.2092808683
 30
0.0
 10
3.1614091615
 20
4.2211762422
 30
0.0
  0
SPLINE
  5
385
100
AcDbEntity
  8
ALL_ASSEMBLY_MEMBERS
100
AcDbSpline
 62
7
  6
CONTINUOUS
 70
0
 71
3
 72
11
 73
7
 74
0
 42
0.0000001
 43
0.0000001
 44
0.0000000001
 40
0.0
 40
0.0
 40
0.0
 40
0.0
 40
0.2895273334
 40
0.4992134133
 40
0.7088994931
 40
1.0
 40
1.0
 40
1.0
 40
1.0
 10
3.1795591615
 20
4.2211762422
 30
0.0
 10
3.1795591615
 20
4.212814361
 30
0.0
 10
3.1808664077
 20
4.1983965053
 30
0.0
 10
3.2005962507
 20
4.1877831629
 30
0.0
 10
3.2201185412
 20
4.198445459
 30
0.0
 10
3.2220591615
 20
4.2128203256
 30
0.0
 10
3.2220591615
 20
4.2211762422
 30
0.0
  0
SPLINE
  5
386
100
AcDbEntity
  8
ALL_ASSEMBLY_MEMBERS
100
AcDbSpline
 62
7
  6
CONTINUOUS
 70
0
 71
3
 72
11
 73
7
 74
0
 42
0.0000001
 43
0.0000001
 44
0.0000000001
 40
0.0
 40
0.0
 40
0.0
 40
0.0
 40
0.2893264667
 40
0.529018178
 40
0.7687211451
 40
1.0
 40
1.0
 40
1.0
 40
1.0
 10
7.1399091615
 20
4.2211762422
 30
0.0
 10
7.1399095626
 20
4.2092829133
 30
0.0
 10
7.1331104459
 20
4.1875366353
 30
0.0
 10
7.1005756828
 20
4.1750287951
 30
0.0
 10
7.0703968854
 20
4.1865763611
 30
0.0
 10
7.063020993
 20
4.2047032007
 30
0.0
 10
7.0618434112
 20
4.2141070199
 30
0.0
  0
SPLINE
  5
387
100
AcDbEntity
  8
ALL_ASSEMBLY_MEMBERS
100
AcDbSpline
 62
7
  6
CONTINUOUS
 70
0
 71
3
 72
11
 73
7
 74
0
 42
0.0000001
 43
0.0000001
 44
0.0000000001
 40
0.0
 40
0.0
 40
0.0
 40
0.0
 40
0.2895273334
 40
0.4992134133
 40
0.7088994931
 40
1.0
 40
1.0
 40
1.0
 40
1.0
 10
7.0795591615
 20
4.2211762422
 30
0.0
 10
7.0795591615
 20
4.212814361
 30
0.0
 10
7.0808664077
 20
4.1983965053
 30
0.0
 10
7.1005962507
 20
4.1877831629
 30
0.0
 10
7.1201185412
 20
4.198445459
 30
0.0
 10
7.1220591615
 20
4.2128203256
 30
0.0
 10
7.1220591615
 20
4.2211762422
 30
0.0
  0
SPLINE
  5
388
100
AcDbEntity
  8
ALL_ASSEMBLY_MEMBERS
100
AcDbSpline
 62
7
  6
CONTINUOUS
 70
0
 71
3
 72
11
 73
7
 74
0
 42
0.0000001
 43
0.0000001
 44
0.0000000001
 40
0.0
 40
0.0
 40
0.0
 40
0.0
 40
0.2911005069
 40
0.5007865867
 40
0.7104726666
 40
1.0
 40
1.0
 40
1.0
 40
1.0
 10
7.1220591615
 20
4.2211762422
 30
0.0
 10
7.1220591615
 20
4.2295321589
 30
0.0
 10
7.1201185412
 20
4.2439070255
 30
0.0
 10
7.1005962507
 20
4.2545693216
 30
0.0
 10
7.0808664077
 20
4.2439559791
 30
0.0
 10
7.0795591615
 20
4.2295381235
 30
0.0
 10
7.0795591615
 20
4.2211762422
 30
0.0
  0
SPLINE
  5
389
100
AcDbEntity
  8
ALL_ASSEMBLY_MEMBERS
100
AcDbSpline
 62
7
  6
CONTINUOUS
 70
0
 71
3
 72
11
 73
7
 74
0
 42
0.0000001
 43
0.0000001
 44
0.0000000001
 40
0.0
 40
0.0
 40
0.0
 40
0.0
 40
0.2782003197
 40
0.5091362648
 40
0.7401244605
 40
1.0
 40
1.0
 40
1.0
 40
1.0
 10
7.0614091615
 20
4.2211762422
 30
0.0
 10
7.0614087928
 20
4.2330716162
 30
0.0
 10
7.0679549611
 20
4.2548414091
 30
0.0
 10
7.1005808984
 20
4.2673236556
 30
0.0
 10
7.1322775537
 20
4.255136559
 30
0.0
 10
7.13938289
 20
4.234664546
 30
0.0
 10
7.1398574807
 20
4.223594583
 30
0.0
  0
SPLINE
  5
38A
100
AcDbEntity
  8
0
100
AcDbSpline
 62
7
  6
CONTINUOUS
 70
0
 71
3
 72
24
 73
20
 74
0
 42
0.0000001
 43
0.0000001
 44
0.0000000001
 40
0.0
 40
0.0
 40
0.0
 40
0.0
 40
0.0074814426
 40
0.0168765854
 40
0.0281925162
 40
0.0414198141
 40
0.0565422812
 40
0.0735372717
 40
0.1130059841
 40
0.1595294196
 40
0.2127449079
 40
0.2722401381
 40
0.3375478253
 40
0.4081605804
 40
0.4835239857
 40
0.6460998641
 40
0.8201185148
 40
0.9097261775
 40
1.0
 40
1.0
 40
1.0
 40
1.0
 10
5.4567871587
 20
4.2176516998
 30
0.0
 10
5.4562892775
 20
4.2167508726
 30
0.0
 10
5.4552967982
 20
4.2146473159
 30
0.0
 10
5.4538871995
 20
4.2110325567
 30
0.0
 10
5.4524007646
 20
4.2066048059
 30
0.0
 10
5.450846718
 20
4.201372968
 30
0.0
 10
5.4492341398
 20
4.1953460145
 30
0.0
 10
5.4468997839
 20
4.1857775622
 30
0.0
 10
5.4439316733
 20
4.1719207223
 30
0.0
 10
5.4404190476
 20
4.1530925315
 30
0.0
 10
5.4368677318
 20
4.1314741338
 30
0.0
 10
5.4333429464
 20
4.1072370201
 30
0.0
 10
5.4299096537
 20
4.080571727
 30
0.0
 10
5.4266327194
 20
4.0516885758
 30
0.0
 10
5.4224521829
 20
4.0094446414
 30
0.0
 10
5.4180729076
 20
3.9529312591
 30
0.0
 10
5.4151773427
 20
3.8943589025
 30
0.0
 10
5.4138916105
 20
3.8456863738
 30
0.0
 10
5.413650182
 20
3.8209388056
 30
0.0
 10
5.4136421443
 20
3.8085193847
 30
0.0
  0
SPLINE
  5
38B
100
AcDbEntity
  8
0
100
AcDbSpline
 62
7
  6
CONTINUOUS
 70
0
 71
3
 72
23
 73
19
 74
0
 42
0.0000001
 43
0.0000001
 44
0.0000000001
 40
0.0
 40
0.0
 40
0.0
 40
0.0
 40
0.0074891165
 40
0.0168888743
 40
0.028206414
 40
0.0414324139
 40
0.0565507909
 40
0.0735391323
 40
0.1129877963
 40
0.1594836002
 40
0.2126664259
 40
0.2721262503
 40
0.3373990385
 40
0.407980173
 40
0.4833189453
 40
0.6458809192
 40
0.8199567868
 40
1.0
 40
1.0
 40
1.0
 40
1.0
 10
4.886027552
 20
4.2180198011
 30
0.0
 10
4.8865226994
 20
4.2171210351
 30
0.0
 10
4.8875094314
 20
4.215023363
 30
0.0
 10
4.8889101968
 20
4.2114200157
 30
0.0
 10
4.8903863462
 20
4.2070081
 30
0.0
 10
4.8919287451
 20
4.2017964502
 30
0.0
 10
4.8935284108
 20
4.1957939624
 30
0.0
 10
4.8958428648
 20
4.1862661437
 30
0.0
 10
4.8987837001
 20
4.1724698967
 30
0.0
 10
4.9022614919
 20
4.1537254839
 30
0.0
 10
4.9057750037
 20
4.1322042762
 30
0.0
 10
4.9092598482
 20
4.1080760634
 30
0.0
 10
4.9126517845
 20
4.081529551
 30
0.0
 10
4.9158868326
 20
4.0527729461
 30
0.0
 10
4.9200107128
 20
4.010706258
 30
0.0
 10
4.9243237742
 20
3.9544154755
 30
0.0
 10
4.9277638053
 20
3.8836963815
 30
0.0
 10
4.9286384297
 20
3.8351731883
 30
0.0
 10
4.9286426434
 20
3.8105042584
 30
0.0
  0
SPLINE
  5
38C
100
AcDbEntity
  8
0
100
AcDbSpline
 62
7
  6
CONTINUOUS
 70
0
 71
3
 72
13
 73
9
 74
0
 42
0.0000001
 43
0.0000001
 44
0.0000000001
 40
0.0
 40
0.0
 40
0.0
 40
0.0
 40
0.0762542598
 40
0.160943432
 40
0.2581867902
 40
0.3707064546
 40
0.6476694641
 40
1.0
 40
1.0
 40
1.0
 40
1.0
 10
5.4600842356
 20
4.2209894142
 30
0.0
 10
5.4599606785
 20
4.2209894942
 30
0.0
 10
5.4596989858
 20
4.2209494544
 30
0.0
 10
5.4593117026
 20
4.2207830414
 30
0.0
 10
5.4589154766
 20
4.2205133103
 30
0.0
 10
5.4583326355
 20
4.2199791145
 30
0.0
 10
5.4575893035
 20
4.2190261626
 30
0.0
 10
5.4570633149
 20
4.2181513553
 30
0.0
 10
5.4567871587
 20
4.2176516998
 30
0.0
  0
SPLINE
  5
38D
100
AcDbEntity
  8
0
100
AcDbSpline
 62
7
  6
CONTINUOUS
 70
0
 71
3
 72
30
 73
26
 74
0
 42
0.0000001
 43
0.0000001
 44
0.0000000001
 40
0.0
 40
0.0
 40
0.0
 40
0.0
 40
0.0015520342
 40
0.0036414851
 40
0.0062813919
 40
0.0094768671
 40
0.0132297381
 40
0.0175402428
 40
0.0278305509
 40
0.0403296886
 40
0.0550075541
 40
0.0718320015
 40
0.0907669879
 40
0.1117646755
 40
0.1347742423
 40
0.1866152431
 40
0.245793266
 40
0.3117545516
 40
0.3838722438
 40
0.4614782692
 40
0.5438544437
 40
0.6302439623
 40
0.7198515088
 40
0.8118925562
 40
1.0
 40
1.0
 40
1.0
 40
1.0
 10
5.3159084964
 20
4.4710827759
 30
0.0
 10
5.3157367045
 20
4.4707856679
 30
0.0
 10
5.3154143994
 20
4.4700435143
 30
0.0
 10
5.3149869301
 20
4.4687216682
 30
0.0
 10
5.3145504738
 20
4.4670233744
 30
0.0
 10
5.3141062285
 20
4.4649499417
 30
0.0
 10
5.3136555136
 20
4.4625011156
 30
0.0
 10
5.3130082917
 20
4.4584943093
 30
0.0
 10
5.3122081204
 20
4.4525544967
 30
0.0
 10
5.311276191
 20
4.4443216616
 30
0.0
 10
5.3103303098
 20
4.434637452
 30
0.0
 10
5.3093739551
 20
4.4235252268
 30
0.0
 10
5.3084111918
 20
4.4110114475
 30
0.0
 10
5.3074451204
 20
4.3971265873
 30
0.0
 10
5.3061033641
 20
4.3759742083
 30
0.0
 10
5.3044639127
 20
4.3463815748
 30
0.0
 10
5.3026031295
 20
4.3072901551
 30
0.0
 10
5.3008084247
 20
4.263707675
 30
0.0
 10
5.2991077395
 20
4.2160436859
 30
0.0
 10
5.2975305259
 20
4.1647438214
 30
0.0
 10
5.2961063227
 20
4.1102824358
 30
0.0
 10
5.2948652072
 20
4.0531620416
 30
0.0
 10
5.2938371911
 20
3.9938998619
 30
0.0
 10
5.2927846103
 20
3.9121428677
 30
0.0
 10
5.2924190902
 20
3.8501937739
 30
0.0
 10
5.2923921697
 20
3.8085978567
 30
0.0
  0
SPLINE
  5
38E
100
AcDbEntity
  8
0
100
AcDbSpline
 62
7
  6
CONTINUOUS
 70
0
 71
3
 72
30
 73
26
 74
0
 42
0.0000001
 43
0.0000001
 44
0.0000000001
 40
0.0
 40
0.0
 40
0.0
 40
0.0
 40
0.0015520342
 40
0.0036414851
 40
0.0062813919
 40
0.0094768671
 40
0.0132297381
 40
0.0175402428
 40
0.0278305509
 40
0.0403296886
 40
0.0550075541
 40
0.0718320015
 40
0.0907669879
 40
0.1117646755
 40
0.1347742423
 40
0.1866152431
 40
0.245793266
 40
0.3117545516
 40
0.3838722438
 40
0.4614782692
 40
0.5438544437
 40
0.6302439623
 40
0.7198515088
 40
0.8118925562
 40
1.0
 40
1.0
 40
1.0
 40
1.0
 10
5.0272334222
 20
4.4712696039
 30
0.0
 10
5.0274048294
 20
4.4709722738
 30
0.0
 10
5.0277261736
 20
4.4702297037
 30
0.0
 10
5.0281519316
 20
4.4689073053
 30
0.0
 10
5.0285861892
 20
4.467208448
 30
0.0
 10
5.0290277504
 20
4.4651344421
 30
0.0
 10
5.0294752951
 20
4.4626850346
 30
0.0
 10
5.0301173302
 20
4.4586773939
 30
0.0
 10
5.0309098125
 20
4.4527365505
 30
0.0
 10
5.0318310846
 20
4.4445025161
 30
0.0
 10
5.03276443
 20
4.4348170903
 30
0.0
 10
5.0337064004
 20
4.4237036365
 30
0.0
 10
5.0346529653
 20
4.4111886215
 30
0.0
 10
5.0356010635
 20
4.3973025224
 30
0.0
 10
5.0369154395
 20
4.3761484245
 30
0.0
 10
5.0385165853
 20
4.3465536936
 30
0.0
 10
5.0403267677
 20
4.3074598981
 30
0.0
 10
5.0420650587
 20
4.2638751314
 30
0.0
 10
5.0437040469
 20
4.216208981
 30
0.0
 10
5.0452148576
 20
4.1649071179
 30
0.0
 10
5.0465685658
 20
4.1104439345
 30
0.0
 10
5.0477357446
 20
4.0533219817
 30
0.0
 10
5.0486870519
 20
3.994058521
 30
0.0
 10
5.049633807
 20
3.9123002328
 30
0.0
 10
5.049919141
 20
3.8503507177
 30
0.0
 10
5.0498922205
 20
3.8087548006
 30
0.0
  0
SPLINE
  5
38F
100
AcDbEntity
  8
0
100
AcDbSpline
 62
7
  6
CONTINUOUS
 70
0
 71
3
 72
13
 73
9
 74
0
 42
0.0000001
 43
0.0000001
 44
0.0000000001
 40
0.0
 40
0.0
 40
0.0
 40
0.0
 40
0.0762465054
 40
0.1609295582
 40
0.2581691331
 40
0.3706875409
 40
0.6476554392
 40
1.0
 40
1.0
 40
1.0
 40
1.0
 10
4.8827340874
 20
4.2213630703
 30
0.0
 10
4.8828576693
 20
4.2213629903
 30
0.0
 10
4.8831193667
 20
4.2213225947
 30
0.0
 10
4.8835065137
 20
4.2211556138
 30
0.0
 10
4.8839024723
 20
4.220885265
 30
0.0
 10
4.8844847508
 20
4.2203501028
 30
0.0
 10
4.8852270122
 20
4.2193958178
 30
0.0
 10
4.8857519812
 20
4.2185200029
 30
0.0
 10
4.886027552
 20
4.2180198011
 30
0.0
  0
ENDSEC
  0
SECTION
  2
OBJECTS
  0
DICTIONARY
  5
C
100
AcDbDictionary
280
0
281
1
  3
ACAD_GROUP
350
D
  3
ACAD_MLINESTYLE
350
17
  3
ACAD_LAYOUT
350
1A
  3
ACAD_PLOTSETTINGS
350
19
  3
ACAD_PLOTSTYLENAME
350
E
  0
DICTIONARY
  5
D
102
{ACAD_REACTORS
330
C
102
}
100
AcDbDictionary
280
0
281
1
  0
ACDBDICTIONARYWDFLT
  5
E
102
{ACAD_REACTORS
330
C
102
}
100
AcDbDictionary
281
1
  3
Normal
350
F
100
AcDbDictionaryWithDefault
340
F
  0
DICTIONARY
  5
17
102
{ACAD_REACTORS
330
C
102
}
100
AcDbDictionary
280
0
281
1
  3
Standard
350
18
  0
DICTIONARY
  5
19
102
{ACAD_REACTORS
330
C
102
}
100
AcDbDictionary
281
1
  0
DICTIONARY
  5
1A
102
{ACAD_REACTORS
330
C
102
}
100
AcDbDictionary
281
1
  3
Model
350
390
  3
Layout1
350
391
  0
ACDBPLACEHOLDER
  5
F
102
{ACAD_REACTORS
330
E
102
}
  0
MLINESTYLE
  5
18
102
{ACAD_REACTORS
330
17
102
}
100
AcDbMlineStyle
  2
STANDARD
 70
0
  3

 62
256
 51
90.0
 52
90.0
 71
2
 49
0.5
 62
256
  6
BYLAYER
 49
-0.5
 62
256
  6
BYLAYER
  0
LAYOUT
  5
390
102
{ACAD_REACTORS
330
1A
102
}
100
AcDbPlotSettings
  1

  2
none_device
  4
ANSI_A_(11.00_x_8.50_Inches)
  6

 40
0.0
 41
0.0
 42
0.0
 43
0.0
 44
279.4
 45
215.9
 46
0.0
 47
0.0
 48
0.0
 49
0.0
140
0.0
141
0.0
142
1.0
143
1.0
 70
1024
 72
0
 73
0
 74
0
  7

 75
0
147
1.0
148
0.0
149
0.0
100
AcDbLayout
  1
Model
 70
0
 71
0
 10
0.0
 20
0.0
 11
11.0
 21
8.5
 12
0.0
 22
0.0
 32
0.0
 14
0.0
 24
0.0
 34
0.0
 15
0.0
 25
0.0
 35
0.0
146
0.0
 13
0.0
 23
0.0
 33
0.0
 16
1.0
 26
0.0
 36
0.0
 17
0.0
 27
1.0
 37
0.0
 76
0
330
21C
345
0
346
0
  0
LAYOUT
  5
391
102
{ACAD_REACTORS
330
1A
102
}
100
AcDbPlotSettings
  1

  2
none_device
  4
ANSI_A_(11.00_x_8.50_Inches)
  6

 40
0.0
 41
0.0
 42
0.0
 43
0.0
 44
279.4
 45
215.9
 46
0.0
 47
0.0
 48
0.0
 49
0.0
140
0.0
141
0.0
142
1.0
143
1.0
 70
0
 72
0
 73
0
 74
0
  7

 75
0
147
1.0
148
0.0
149
0.0
100
AcDbLayout
  1
Layout1
 70
0
 71
1
 10
0.0
 20
0.0
 11
11.0
 21
8.5
 12
0.0
 22
0.0
 32
0.0
 14
0.0
 24
0.0
 34
0.0
 15
0.0
 25
0.0
 35
0.0
146
0.0
 13
0.0
 23
0.0
 33
0.0
 16
1.0
 26
0.0
 36
0.0
 17
0.0
 27
1.0
 37
0.0
 76
0
330
21D
345
0
346
0
  0
ENDSEC
  0
EOF
