999
DXF file: 3-923tr_TOP.dxf
999
Pro/ENGINEER 2013150 by Parametric Technology Corporation
  0
SECTION
  2
HEADER
  9
$ACADVER
  1
AC1021
  9
$DWGCODEPAGE
  3
ANSI_1252
  9
$EXTMAX
 10
11.0
 20
8.5
 30
0.0
  9
$EXTMIN
 10
0.0
 20
0.0
 30
0.0
  9
$LIMMIN
 10
0.0
 20
0.0
  9
$LIMMAX
 10
11.0
 20
8.5
  9
$VIEWCTR
 10
5.5
 20
4.25
  9
$VIEWSIZE
 40
8.5
  9
$CLAYER
  8
0
  9
$LTSCALE
 40
0.605
  9
$CELTYPE
  6
BYLAYER
  9
$DIMSCALE
 40
1.0
  9
$DIMASZ
 40
0.1
  9
$DIMEXO
 40
0.0625
  9
$DIMDLI
 40
0.418
  9
$DIMEXE
 40
0.125
  9
$DIMCEN
 40
0.099
  9
$DIMLFAC
 40
1.0
  9
$DIMBLK
  1
_FILLED
  9
$DIMTXT
 40
0.08
  9
$DIMTOL
 70
1
  9
$DIMLIM
 70
0
  9
$DIMTFAC
 40
1.0
  9
$DIMTP
 40
0.001
  9
$DIMTM
 40
0.001
  9
$DIMGAP
 40
0.09
  9
$DIMDSEP
 70
46
  9
$PDMODE
 70
3
  9
$PDSIZE
 40
0.06
  9
$HANDSEED
  5
2E6
  9
$TILEMODE
 70
1
  9
$MEASUREMENT
 70
0
  9
$INSUNITS
 70
1
  0
ENDSEC
  0
SECTION
  2
CLASSES
  0
CLASS
  1
ACDBDICTIONARYWDFLT
  2
AcDbDictionaryWithDefault
  3
AutoCAD 2000
 90
0
 91
1
280
0
281
0
  0
CLASS
  1
ACDBPLACEHOLDER
  2
AcDbPlaceHolder
  3
AutoCAD 2000
 90
0
 91
1
280
0
281
0
  0
CLASS
  1
LAYOUT
  2
AcDbLayout
  3
AutoCAD 2000
 90
0
 91
0
280
0
281
0
  0
ENDSEC
  0
SECTION
  2
TABLES
  0
TABLE
  2
VPORT
  5
8
100
AcDbSymbolTable
 70
2
  0
VPORT
  5
1F4
100
AcDbSymbolTableRecord
100
AcDbViewportTableRecord
  2
*ACTIVE
 70
0
 10
0.0
 20
0.0
 11
1.0
 21
1.0
 12
5.5
 22
4.25
 13
0.0
 23
0.0
 14
1.0
 24
1.0
 15
0.0
 25
0.0
 16
0.0
 26
0.0
 36
1.0
 17
0.0
 27
0.0
 37
0.0
 40
8.5
 41
1.2941176471
 42
50.0
 43
0.0
 44
0.0
 50
0.0
 51
0.0
 71
0
 72
100
 73
1
 74
1
 75
0
 76
0
 77
0
 78
0
  0
ENDTAB
  0
TABLE
  2
LTYPE
  5
5
100
AcDbSymbolTable
 70
6
  0
LTYPE
  5
14
100
AcDbSymbolTableRecord
100
AcDbLinetypeTableRecord
  2
BYBLOCK
 70
0
  3

 72
65
 73
0
 40
0.0
  0
LTYPE
  5
15
100
AcDbSymbolTableRecord
100
AcDbLinetypeTableRecord
  2
BYLAYER
 70
0
  3

 72
65
 73
0
 40
0.0
  0
LTYPE
  5
16
100
AcDbSymbolTableRecord
100
AcDbLinetypeTableRecord
  2
CONTINUOUS
 70
64
  3
Solid line
 72
65
 73
0
 40
0.0
  0
LTYPE
  5
1F5
100
AcDbSymbolTableRecord
100
AcDbLinetypeTableRecord
  2
CENTER
 70
64
  3
____ _ ____ _ ____ _ ____ _ ____ _ ____ _ ____
 72
65
 73
4
 40
0.6
 49
0.375
 74
0
 49
-0.075
 74
0
 49
0.075
 74
0
 49
-0.075
 74
0
  0
LTYPE
  5
1F6
100
AcDbSymbolTableRecord
100
AcDbLinetypeTableRecord
  2
HIDDEN
 70
64
  3
- - - - - - - - - - - - - - - - - - - -
 72
65
 73
2
 40
0.2
 49
0.1
 74
0
 49
-0.1
 74
0
  0
LTYPE
  5
1F7
100
AcDbSymbolTableRecord
100
AcDbLinetypeTableRecord
  2
PHANTOM
 70
64
  3
_____ _ _ _____ _ _ _____ _ _ _____
 72
65
 73
6
 40
0.8
 49
0.45
 74
0
 49
-0.05
 74
0
 49
0.1
 74
0
 49
-0.05
 74
0
 49
0.1
 74
0
 49
-0.05
 74
0
  0
LTYPE
  5
1F8
100
AcDbSymbolTableRecord
100
AcDbLinetypeTableRecord
  2
DOT
 70
64
  3
. . . . . . . . . . . . . . . . . . . .
 72
65
 73
2
 40
0.2
 49
0.1
 74
0
 49
-0.1
 74
0
  0
LTYPE
  5
1F9
100
AcDbSymbolTableRecord
100
AcDbLinetypeTableRecord
  2
DASHED
 70
64
  3
- - - - - - - - - - - - - - - - - - - -
 72
65
 73
2
 40
0.2
 49
0.1
 74
0
 49
-0.1
 74
0
  0
ENDTAB
  0
TABLE
  2
LAYER
  5
2
100
AcDbSymbolTable
 70
36
  0
LAYER
  5
10
100
AcDbSymbolTableRecord
100
AcDbLayerTableRecord
  2
0
 70
0
 62
7
  6
CONTINUOUS
370
-3
390
F
  0
LAYER
  5
1FA
100
AcDbSymbolTableRecord
100
AcDbLayerTableRecord
  2
DEFAULT_1
 70
0
 62
7
  6
CENTER
370
-3
390
F
  0
LAYER
  5
1FB
100
AcDbSymbolTableRecord
100
AcDbLayerTableRecord
  2
DEFAULT_2
 70
0
 62
8
  6
HIDDEN
370
-3
390
F
  0
LAYER
  5
1FC
100
AcDbSymbolTableRecord
100
AcDbLayerTableRecord
  2
DEFAULT_3
 70
0
 62
7
  6
PHANTOM
370
-3
390
F
  0
LAYER
  5
1FD
100
AcDbSymbolTableRecord
100
AcDbLayerTableRecord
  2
ALL_ASSEMBLY_MEMBERS
 70
0
 62
7
  6
CONTINUOUS
370
-3
390
F
  0
LAYER
  5
1FE
100
AcDbSymbolTableRecord
100
AcDbLayerTableRecord
  2
ALL_FEATURES
 70
0
 62
7
  6
CONTINUOUS
370
-3
390
F
  0
LAYER
  5
1FF
100
AcDbSymbolTableRecord
100
AcDbLayerTableRecord
  2
AXES_FEATURES
 70
0
 62
7
  6
CONTINUOUS
370
-3
390
F
  0
LAYER
  5
200
100
AcDbSymbolTableRecord
100
AcDbLayerTableRecord
  2
CHAMFER_FEATURES
 70
0
 62
7
  6
CONTINUOUS
370
-3
390
F
  0
LAYER
  5
201
100
AcDbSymbolTableRecord
100
AcDbLayerTableRecord
  2
COORDINATE_SYSTEMS
 70
0
 62
7
  6
CONTINUOUS
370
-3
390
F
  0
LAYER
  5
202
100
AcDbSymbolTableRecord
100
AcDbLayerTableRecord
  2
CUT_FEATURES
 70
0
 62
7
  6
CONTINUOUS
370
-3
390
F
  0
LAYER
  5
203
100
AcDbSymbolTableRecord
100
AcDbLayerTableRecord
  2
DATUM_CURVES
 70
0
 62
7
  6
CONTINUOUS
370
-3
390
F
  0
LAYER
  5
204
100
AcDbSymbolTableRecord
100
AcDbLayerTableRecord
  2
DATUM_PLANES
 70
0
 62
7
  6
CONTINUOUS
370
-3
390
F
  0
LAYER
  5
205
100
AcDbSymbolTableRecord
100
AcDbLayerTableRecord
  2
DATUM_POINTS
 70
0
 62
7
  6
CONTINUOUS
370
-3
390
F
  0
LAYER
  5
206
100
AcDbSymbolTableRecord
100
AcDbLayerTableRecord
  2
DEFAULT_COORDINATE_SYSTEM
 70
0
 62
7
  6
CONTINUOUS
370
-3
390
F
  0
LAYER
  5
207
100
AcDbSymbolTableRecord
100
AcDbLayerTableRecord
  2
DEFAULT_DATUM_AXES
 70
0
 62
7
  6
CONTINUOUS
370
-3
390
F
  0
LAYER
  5
208
100
AcDbSymbolTableRecord
100
AcDbLayerTableRecord
  2
DEFAULT_DATUM_CURVES
 70
0
 62
7
  6
CONTINUOUS
370
-3
390
F
  0
LAYER
  5
209
100
AcDbSymbolTableRecord
100
AcDbLayerTableRecord
  2
DEFAULT_DATUM_PLANES
 70
0
 62
7
  6
CONTINUOUS
370
-3
390
F
  0
LAYER
  5
20A
100
AcDbSymbolTableRecord
100
AcDbLayerTableRecord
  2
DEFAULT_SURFACES
 70
0
 62
7
  6
CONTINUOUS
370
-3
390
F
  0
LAYER
  5
20B
100
AcDbSymbolTableRecord
100
AcDbLayerTableRecord
  2
DIMENSIONS
 70
0
 62
7
  6
CONTINUOUS
370
-3
390
F
  0
LAYER
  5
20C
100
AcDbSymbolTableRecord
100
AcDbLayerTableRecord
  2
HOLE_FEATURES
 70
0
 62
7
  6
CONTINUOUS
370
-3
390
F
  0
LAYER
  5
20D
100
AcDbSymbolTableRecord
100
AcDbLayerTableRecord
  2
IMPORT_FEATURE
 70
0
 62
7
  6
CONTINUOUS
370
-3
390
F
  0
LAYER
  5
20E
100
AcDbSymbolTableRecord
100
AcDbLayerTableRecord
  2
INTFCLR_1
 70
0
 62
7
  6
CONTINUOUS
370
-3
390
F
  0
LAYER
  5
20F
100
AcDbSymbolTableRecord
100
AcDbLayerTableRecord
  2
NOTES
 70
0
 62
7
  6
CONTINUOUS
370
-3
390
F
  0
LAYER
  5
210
100
AcDbSymbolTableRecord
100
AcDbLayerTableRecord
  2
PART_REFERENCE_DIMENSIONS
 70
0
 62
7
  6
CONTINUOUS
370
-3
390
F
  0
LAYER
  5
211
100
AcDbSymbolTableRecord
100
AcDbLayerTableRecord
  2
PLATED_AREA
 70
0
 62
7
  6
CONTINUOUS
370
-3
390
F
  0
LAYER
  5
212
100
AcDbSymbolTableRecord
100
AcDbLayerTableRecord
  2
PLATED_SURAFCE
 70
0
 62
7
  6
CONTINUOUS
370
-3
390
F
  0
LAYER
  5
213
100
AcDbSymbolTableRecord
100
AcDbLayerTableRecord
  2
PLATED_SURFACE_AREA
 70
0
 62
7
  6
CONTINUOUS
370
-3
390
F
  0
LAYER
  5
214
100
AcDbSymbolTableRecord
100
AcDbLayerTableRecord
  2
POINTS
 70
0
 62
7
  6
CONTINUOUS
370
-3
390
F
  0
LAYER
  5
215
100
AcDbSymbolTableRecord
100
AcDbLayerTableRecord
  2
PROTRUSION
 70
0
 62
7
  6
CONTINUOUS
370
-3
390
F
  0
LAYER
  5
216
100
AcDbSymbolTableRecord
100
AcDbLayerTableRecord
  2
PROTRUSION_FEATURES
 70
0
 62
7
  6
CONTINUOUS
370
-3
390
F
  0
LAYER
  5
217
100
AcDbSymbolTableRecord
100
AcDbLayerTableRecord
  2
QUILT
 70
0
 62
7
  6
CONTINUOUS
370
-3
390
F
  0
LAYER
  5
218
100
AcDbSymbolTableRecord
100
AcDbLayerTableRecord
  2
QUILTS
 70
0
 62
7
  6
CONTINUOUS
370
-3
390
F
  0
LAYER
  5
219
100
AcDbSymbolTableRecord
100
AcDbLayerTableRecord
  2
REFERENCE_DIMENSIONS
 70
0
 62
7
  6
CONTINUOUS
370
-3
390
F
  0
LAYER
  5
21A
100
AcDbSymbolTableRecord
100
AcDbLayerTableRecord
  2
ROUND_FEATURES
 70
0
 62
7
  6
CONTINUOUS
370
-3
390
F
  0
LAYER
  5
21B
100
AcDbSymbolTableRecord
100
AcDbLayerTableRecord
  2
SHELL_FEATURES
 70
0
 62
7
  6
CONTINUOUS
370
-3
390
F
  0
LAYER
  5
21C
100
AcDbSymbolTableRecord
100
AcDbLayerTableRecord
  2
SIZE_REF
 70
0
 62
7
  6
CONTINUOUS
370
-3
390
F
  0
LAYER
  5
21D
100
AcDbSymbolTableRecord
100
AcDbLayerTableRecord
  2
SURFACE_FEATURES
 70
0
 62
7
  6
CONTINUOUS
370
-3
390
F
  0
LAYER
  5
21E
100
AcDbSymbolTableRecord
100
AcDbLayerTableRecord
  2
XSEC_DATUMS
 70
0
 62
7
  6
CONTINUOUS
370
-3
390
F
  0
ENDTAB
  0
TABLE
  2
STYLE
  5
3
100
AcDbSymbolTable
 70
1
  0
STYLE
  5
11
100
AcDbSymbolTableRecord
100
AcDbTextStyleTableRecord
  2
STANDARD
 70
0
 40
0.0
 41
0.8
 50
0.0
 71
0
 42
0.2
  3
txt
  4

  0
STYLE
  5
21F
100
AcDbSymbolTableRecord
100
AcDbTextStyleTableRecord
  2
TEXTSTYLE_1
 70
0
 40
0.0
 41
0.8
 50
0.0
 71
0
 42
0.2
  3
gdt
  4

  0
ENDTAB
  0
TABLE
  2
VIEW
  5
6
100
AcDbSymbolTable
 70
0
  0
ENDTAB
  0
TABLE
  2
UCS
  5
7
100
AcDbSymbolTable
 70
0
  0
ENDTAB
  0
TABLE
  2
APPID
  5
9
100
AcDbSymbolTable
 70
1
  0
APPID
  5
220
100
AcDbSymbolTableRecord
100
AcDbRegAppTableRecord
  2
ACAD
 70
0
  0
ENDTAB
  0
TABLE
  2
BLOCK_RECORD
  5
1
100
AcDbSymbolTable
 70
0
  0
BLOCK_RECORD
  5
221
100
AcDbSymbolTableRecord
100
AcDbBlockTableRecord
  2
*Model_Space
  0
BLOCK_RECORD
  5
222
100
AcDbSymbolTableRecord
100
AcDbBlockTableRecord
  2
*Paper_Space
  0
ENDTAB
  0
TABLE
  2
DIMSTYLE
  5
A
100
AcDbSymbolTable
 70
1
100
AcDbDimStyleTable
 71
0
  0
DIMSTYLE
105
223
100
AcDbSymbolTableRecord
100
AcDbDimStyleTableRecord
  2
STANDARD
 70
0
  3

  4

 40
1.0
 41
0.1
 42
0.0625
 43
0.38
 44
0.125
 45
0.0
 46
0.0
 47
0.001
 48
0.001
140
0.08
141
0.09
142
0.0
143
25.4
144
1.0
145
0.0
146
1.0
147
0.09
 71
1.0
 72
0.0
 73
1
 74
1
 75
0
 76
0
 77
0
 78
4
170
0
171
2
172
0
173
0
174
0
175
0
176
0
177
0
178
0
270
2
271
3
272
3
273
2
274
2
275
0
280
0
281
0
282
0
283
1
284
4
285
0
286
0
287
3
288
0
340
11
278
46
  0
ENDTAB
  0
ENDSEC
  0
SECTION
  2
BLOCKS
  0
BLOCK
  5
20
100
AcDbEntity
  8
0
100
AcDbBlockBegin
  2
*Model_Space
 70
0
 10
0.0
 20
0.0
 30
0.0
  3
*Model_Space
  1

  0
ENDBLK
  5
21
100
AcDbEntity
  8
0
100
AcDbBlockEnd
  0
BLOCK
  5
1C
100
AcDbEntity
  8
0
100
AcDbBlockBegin
  2
*Paper_Space
 70
0
 10
0.0
 20
0.0
 30
0.0
  3
*Paper_Space
  1

  0
ENDBLK
  5
1D
100
AcDbEntity
  8
0
100
AcDbBlockEnd
  0
ENDSEC
  0
SECTION
  2
ENTITIES
  0
LINE
  5
224
100
AcDbEntity
  8
0
100
AcDbLine
 62
7
  6
CONTINUOUS
 10
0.0
 20
0.0
 11
0.0
 21
8.5
  0
LINE
  5
225
100
AcDbEntity
  8
0
100
AcDbLine
 62
7
  6
CONTINUOUS
 10
0.0
 20
0.0
 11
11.0
 21
0.0
  0
LINE
  5
226
100
AcDbEntity
  8
0
100
AcDbLine
 62
7
  6
CONTINUOUS
 10
0.0
 20
8.5
 11
11.0
 21
8.5
  0
LINE
  5
227
100
AcDbEntity
  8
0
100
AcDbLine
 62
7
  6
CONTINUOUS
 10
11.0
 20
0.0
 11
11.0
 21
8.5
  0
LINE
  5
228
100
AcDbEntity
  8
ALL_FEATURES
100
AcDbLine
 62
7
  6
CONTINUOUS
 10
2.0076731079
 20
4.897773539
 11
2.0076731079
 21
4.766523539
  0
LINE
  5
229
100
AcDbEntity
  8
ALL_ASSEMBLY_MEMBERS
100
AcDbLine
 62
9
  6
CONTINUOUS
 10
4.3687896155
 20
2.0401567266
 11
4.9615066004
 21
2.0401567266
  0
LINE
  5
22A
100
AcDbEntity
  8
ALL_ASSEMBLY_MEMBERS
100
AcDbLine
 62
7
  6
CONTINUOUS
 10
4.324269635
 20
2.0617636965
 11
5.0060265808
 21
2.0617636965
  0
LINE
  5
22B
100
AcDbEntity
  8
ALL_ASSEMBLY_MEMBERS
100
AcDbLine
 62
7
  6
CONTINUOUS
 10
4.2802224937
 20
2.0760741825
 11
5.0500737221
 21
2.0760741825
  0
LINE
  5
22C
100
AcDbEntity
  8
ALL_ASSEMBLY_MEMBERS
100
AcDbLine
 62
7
  6
CONTINUOUS
 10
4.2695231079
 20
2.0908006237
 11
5.0607731079
 21
2.0908006237
  0
LINE
  5
22D
100
AcDbEntity
  8
ALL_ASSEMBLY_MEMBERS
100
AcDbLine
 62
7
  6
CONTINUOUS
 10
4.2695231079
 20
2.1442636965
 11
5.0607731079
 21
2.1442636965
  0
LINE
  5
22E
100
AcDbEntity
  8
ALL_ASSEMBLY_MEMBERS
100
AcDbLine
 62
7
  6
CONTINUOUS
 10
4.2896581986
 20
2.1558886965
 11
5.0406380173
 21
2.1558886965
  0
LINE
  5
22F
100
AcDbEntity
  8
ALL_ASSEMBLY_MEMBERS
100
AcDbLine
 62
7
  6
CONTINUOUS
 10
4.2695231079
 20
2.1675136965
 11
5.0607731079
 21
2.1675136965
  0
LINE
  5
230
100
AcDbEntity
  8
ALL_ASSEMBLY_MEMBERS
100
AcDbLine
 62
7
  6
CONTINUOUS
 10
5.0832731079
 20
2.2275136965
 11
4.8025985265
 21
2.2275136965
  0
LINE
  5
231
100
AcDbEntity
  8
ALL_ASSEMBLY_MEMBERS
100
AcDbLine
 62
7
  6
CONTINUOUS
 10
4.2470231079
 20
2.2275136965
 11
4.5276976894
 21
2.2275136965
  0
LINE
  5
232
100
AcDbEntity
  8
ALL_ASSEMBLY_MEMBERS
100
AcDbLine
 62
7
  6
CONTINUOUS
 10
4.3242656409
 20
2.0617636965
 11
4.2802224937
 21
2.0760741825
  0
LINE
  5
233
100
AcDbEntity
  8
ALL_ASSEMBLY_MEMBERS
100
AcDbLine
 62
7
  6
CONTINUOUS
 10
4.2896581986
 20
2.1558886965
 11
4.2695231079
 21
2.1675136965
  0
LINE
  5
234
100
AcDbEntity
  8
ALL_ASSEMBLY_MEMBERS
100
AcDbLine
 62
9
  6
CONTINUOUS
 10
4.3687896155
 20
2.3058516084
 11
4.9615066004
 21
2.3058516084
  0
LINE
  5
235
100
AcDbEntity
  8
ALL_ASSEMBLY_MEMBERS
100
AcDbLine
 62
7
  6
CONTINUOUS
 10
5.006030575
 20
2.3274585784
 11
4.3242656409
 21
2.3274585784
  0
LINE
  5
236
100
AcDbEntity
  8
ALL_ASSEMBLY_MEMBERS
100
AcDbLine
 62
7
  6
CONTINUOUS
 10
5.0441084238
 20
2.3398308215
 11
4.286187792
 21
2.3398308215
  0
LINE
  5
237
100
AcDbEntity
  8
ALL_ASSEMBLY_MEMBERS
100
AcDbLine
 62
7
  6
CONTINUOUS
 10
5.0607731079
 20
2.3564955055
 11
4.2695231079
 21
2.3564955055
  0
LINE
  5
238
100
AcDbEntity
  8
ALL_ASSEMBLY_MEMBERS
100
AcDbLine
 62
7
  6
CONTINUOUS
 10
5.0607731079
 20
2.4099585784
 11
4.2695231079
 21
2.4099585784
  0
LINE
  5
239
100
AcDbEntity
  8
ALL_ASSEMBLY_MEMBERS
100
AcDbLine
 62
7
  6
CONTINUOUS
 10
5.0412731079
 20
2.4212085784
 11
4.2890231079
 21
2.4212085784
  0
LINE
  5
23A
100
AcDbEntity
  8
ALL_ASSEMBLY_MEMBERS
100
AcDbLine
 62
7
  6
CONTINUOUS
 10
5.0620423444
 20
2.4332085784
 11
4.2682538715
 21
2.4332085784
  0
LINE
  5
23B
100
AcDbEntity
  8
ALL_ASSEMBLY_MEMBERS
100
AcDbLine
 62
7
  6
CONTINUOUS
 10
4.3242656409
 20
2.3274585784
 11
4.286187792
 21
2.3398308215
  0
LINE
  5
23C
100
AcDbEntity
  8
ALL_ASSEMBLY_MEMBERS
100
AcDbLine
 62
7
  6
CONTINUOUS
 10
4.2890231079
 20
2.4212085784
 11
4.2682538715
 21
2.4332085784
  0
LINE
  5
23D
100
AcDbEntity
  8
ALL_ASSEMBLY_MEMBERS
100
AcDbLine
 62
7
  6
CONTINUOUS
 10
3.9581401907
 20
2.5071041682
 11
3.8965732479
 21
2.5502138056
  0
LINE
  5
23E
100
AcDbEntity
  8
ALL_ASSEMBLY_MEMBERS
100
AcDbLine
 62
7
  6
CONTINUOUS
 10
4.2802224937
 20
2.0760741825
 11
4.2695231079
 21
2.0908006237
  0
LINE
  5
23F
100
AcDbEntity
  8
ALL_ASSEMBLY_MEMBERS
100
AcDbLine
 62
7
  6
CONTINUOUS
 10
5.0832731079
 20
2.4932085784
 11
4.7723429215
 21
2.4932085784
  0
LINE
  5
240
100
AcDbEntity
  8
ALL_ASSEMBLY_MEMBERS
100
AcDbLine
 62
7
  6
CONTINUOUS
 10
4.5579532944
 20
2.4932085784
 11
4.2470231079
 21
2.4932085784
  0
LINE
  5
241
100
AcDbEntity
  8
ALL_ASSEMBLY_MEMBERS
100
AcDbLine
 62
7
  6
CONTINUOUS
 10
5.0607731079
 20
2.1442636965
 11
5.0406380173
 21
2.1558886965
  0
LINE
  5
242
100
AcDbEntity
  8
ALL_ASSEMBLY_MEMBERS
100
AcDbLine
 62
7
  6
CONTINUOUS
 10
4.286187792
 20
2.3398308215
 11
4.2695231079
 21
2.3564955055
  0
LINE
  5
243
100
AcDbEntity
  8
ALL_FEATURES
100
AcDbLine
 62
7
  6
CONTINUOUS
 10
3.6530306148
 20
4.6221661932
 11
3.6540331508
 21
4.5838808848
  0
LINE
  5
244
100
AcDbEntity
  8
0
100
AcDbLine
 62
7
  6
CONTINUOUS
 10
3.6540331508
 20
4.5838808848
 11
3.6530306148
 21
4.6221661932
  0
LINE
  5
245
100
AcDbEntity
  8
ALL_ASSEMBLY_MEMBERS
100
AcDbLine
 62
7
  6
CONTINUOUS
 10
5.0832731079
 20
2.8007085784
 11
4.7723429215
 21
2.8007085784
  0
LINE
  5
246
100
AcDbEntity
  8
ALL_ASSEMBLY_MEMBERS
100
AcDbLine
 62
7
  6
CONTINUOUS
 10
4.5579532944
 20
2.8007085784
 11
4.2470231079
 21
2.8007085784
  0
LINE
  5
247
100
AcDbEntity
  8
ALL_ASSEMBLY_MEMBERS
100
AcDbLine
 62
7
  6
CONTINUOUS
 10
5.0607731079
 20
2.8599585784
 11
4.2695231079
 21
2.8599585784
  0
LINE
  5
248
100
AcDbEntity
  8
ALL_ASSEMBLY_MEMBERS
100
AcDbLine
 62
7
  6
CONTINUOUS
 10
5.0607731079
 20
2.4099585784
 11
5.0412731079
 21
2.4212085784
  0
LINE
  5
249
100
AcDbEntity
  8
ALL_ASSEMBLY_MEMBERS
100
AcDbLine
 62
7
  6
CONTINUOUS
 10
4.2695231079
 20
2.1675136965
 11
4.2470231079
 21
2.2275136965
  0
LINE
  5
24A
100
AcDbEntity
  8
ALL_ASSEMBLY_MEMBERS
100
AcDbLine
 62
9
  6
CONTINUOUS
 10
3.8965732479
 20
2.2123135874
 11
3.8965732479
 21
2.5502138056
  0
LINE
  5
24B
100
AcDbEntity
  8
ALL_ASSEMBLY_MEMBERS
100
AcDbLine
 62
9
  6
CONTINUOUS
 10
3.9581401907
 20
2.2554232248
 11
3.9581401907
 21
2.5071041682
  0
LINE
  5
24C
100
AcDbEntity
  8
ALL_ASSEMBLY_MEMBERS
100
AcDbLine
 62
7
  6
CONTINUOUS
 10
3.9770231079
 20
2.2394455292
 11
3.9770231079
 21
2.5230818638
  0
LINE
  5
24D
100
AcDbEntity
  8
ALL_ASSEMBLY_MEMBERS
100
AcDbLine
 62
9
  6
CONTINUOUS
 10
3.9956704769
 20
2.2380757266
 11
3.9956704769
 21
2.5244516664
  0
LINE
  5
24E
100
AcDbEntity
  8
ALL_FEATURES
100
AcDbLine
 62
7
  6
CONTINUOUS
 10
4.0448981079
 20
3.3614343523
 11
4.0448981079
 21
3.765273539
  0
LINE
  5
24F
100
AcDbEntity
  8
0
100
AcDbLine
 62
7
  6
CONTINUOUS
 10
4.0450706079
 20
4.636773539
 11
4.0450706079
 21
3.765273539
  0
LINE
  5
250
100
AcDbEntity
  8
ALL_ASSEMBLY_MEMBERS
100
AcDbLine
 62
7
  6
CONTINUOUS
 10
4.9430231079
 20
2.8982085784
 11
4.3872731079
 21
2.8982085784
  0
LINE
  5
251
100
AcDbEntity
  8
ALL_FEATURES
100
AcDbLine
 62
7
  6
CONTINUOUS
 10
4.4075231079
 20
2.9392636965
 11
4.4026526961
 21
2.9392636965
  0
LINE
  5
252
100
AcDbEntity
  8
ALL_FEATURES
100
AcDbLine
 62
7
  6
CONTINUOUS
 10
4.9227731079
 20
2.9392636965
 11
4.9276435198
 21
2.9392636965
  0
LINE
  5
253
100
AcDbEntity
  8
0
100
AcDbLine
 62
9
  6
CONTINUOUS
 10
4.9589906804
 20
2.9488076161
 11
4.9227731079
 21
2.9488076161
  0
LINE
  5
254
100
AcDbEntity
  8
0
100
AcDbLine
 62
9
  6
CONTINUOUS
 10
4.4075231079
 20
2.9488076225
 11
4.3713055354
 21
2.9488076161
  0
LINE
  5
255
100
AcDbEntity
  8
0
100
AcDbLine
 62
9
  6
CONTINUOUS
 10
4.9723172335
 20
2.9646202857
 11
4.9227731079
 21
2.9646202866
  0
LINE
  5
256
100
AcDbEntity
  8
0
100
AcDbLine
 62
9
  6
CONTINUOUS
 10
4.4075231079
 20
2.9646202856
 11
4.3579789823
 21
2.9646202857
  0
LINE
  5
257
100
AcDbEntity
  8
ALL_ASSEMBLY_MEMBERS
100
AcDbLine
 62
7
  6
CONTINUOUS
 10
5.0607731079
 20
2.8599585784
 11
4.9430231079
 21
2.8982085784
  0
LINE
  5
258
100
AcDbEntity
  8
ALL_ASSEMBLY_MEMBERS
100
AcDbLine
 62
7
  6
CONTINUOUS
 10
5.3721560252
 20
2.2554232248
 11
5.4337229679
 21
2.2123135874
  0
LINE
  5
259
100
AcDbEntity
  8
0
100
AcDbLine
 62
7
  6
CONTINUOUS
 10
4.0811471255
 20
3.2964079851
 11
4.0731334926
 21
3.3027992881
  0
LINE
  5
25A
100
AcDbEntity
  8
ALL_ASSEMBLY_MEMBERS
100
AcDbLine
 62
7
  6
CONTINUOUS
 10
4.2682538715
 20
2.4332085784
 11
4.2470231079
 21
2.4932085784
  0
LINE
  5
25B
100
AcDbEntity
  8
0
100
AcDbLine
 62
7
  6
CONTINUOUS
 10
4.097089465
 20
3.2706557556
 11
4.0993282376
 21
3.2602081498
  0
LINE
  5
25C
100
AcDbEntity
  8
0
100
AcDbLine
 62
7
  6
CONTINUOUS
 10
4.1795231079
 20
3.652773539
 11
4.1795231079
 21
3.5160521935
  0
LINE
  5
25D
100
AcDbEntity
  8
ALL_FEATURES
100
AcDbLine
 62
7
  6
CONTINUOUS
 10
4.1795231079
 20
3.5160521935
 11
4.1795231079
 21
3.652773539
  0
LINE
  5
25E
100
AcDbEntity
  8
ALL_ASSEMBLY_MEMBERS
100
AcDbLine
 62
7
  6
CONTINUOUS
 10
4.2470231079
 20
2.4932085784
 11
4.2470231079
 21
2.8007085784
  0
LINE
  5
25F
100
AcDbEntity
  8
ALL_ASSEMBLY_MEMBERS
100
AcDbLine
 62
9
  6
CONTINUOUS
 10
4.2667735952
 20
2.4370497291
 11
4.2667735983
 21
2.2649698273
  0
LINE
  5
260
100
AcDbEntity
  8
ALL_ASSEMBLY_MEMBERS
100
AcDbLine
 62
7
  6
CONTINUOUS
 10
4.2695231079
 20
2.4099585784
 11
4.2695231079
 21
2.3564955055
  0
LINE
  5
261
100
AcDbEntity
  8
ALL_ASSEMBLY_MEMBERS
100
AcDbLine
 62
7
  6
CONTINUOUS
 10
4.2695231079
 20
2.0908006237
 11
4.2695231079
 21
2.1442636965
  0
LINE
  5
262
100
AcDbEntity
  8
ALL_ASSEMBLY_MEMBERS
100
AcDbLine
 62
7
  6
CONTINUOUS
 10
4.9227731079
 20
3.1674585784
 11
4.4075231079
 21
3.1674585784
  0
LINE
  5
263
100
AcDbEntity
  8
0
100
AcDbLine
 62
7
  6
CONTINUOUS
 10
4.9075062611
 20
3.2049585784
 11
4.4227899547
 21
3.2049585784
  0
LINE
  5
264
100
AcDbEntity
  8
0
100
AcDbLine
 62
9
  6
CONTINUOUS
 10
4.1277582814
 20
3.2209565679
 11
4.3962807147
 21
3.220956567
  0
LINE
  5
265
100
AcDbEntity
  8
0
100
AcDbLine
 62
9
  6
CONTINUOUS
 10
4.9340155
 20
3.2209565644
 11
5.2025379345
 21
3.2209565679
  0
LINE
  5
266
100
AcDbEntity
  8
0
100
AcDbLine
 62
9
  6
CONTINUOUS
 10
4.9350739453
 20
3.2231254557
 11
4.3952222706
 21
3.2231254557
  0
LINE
  5
267
100
AcDbEntity
  8
0
100
AcDbLine
 62
9
  6
CONTINUOUS
 10
4.0993282376
 20
3.2602081498
 11
4.3775347951
 21
3.2602081491
  0
LINE
  5
268
100
AcDbEntity
  8
0
100
AcDbLine
 62
9
  6
CONTINUOUS
 10
4.9527614197
 20
3.2602081468
 11
5.2309679783
 21
3.2602081498
  0
LINE
  5
269
100
AcDbEntity
  8
0
100
AcDbLine
 62
9
  6
CONTINUOUS
 10
5.2332067509
 20
3.2706557556
 11
4.9582366036
 21
3.2706557526
  0
LINE
  5
26A
100
AcDbEntity
  8
0
100
AcDbLine
 62
9
  6
CONTINUOUS
 10
4.3720596112
 20
3.2706557542
 11
4.097089465
 21
3.2706557556
  0
LINE
  5
26B
100
AcDbEntity
  8
ALL_ASSEMBLY_MEMBERS
100
AcDbLine
 62
9
  6
CONTINUOUS
 10
4.283393624
 20
2.4244611682
 11
4.2833936242
 21
2.4179607993
  0
LINE
  5
26C
100
AcDbEntity
  8
ALL_ASSEMBLY_MEMBERS
100
AcDbLine
 62
9
  6
CONTINUOUS
 10
4.2833936242
 20
2.3426249893
 11
4.2833936231
 21
2.3083566096
  0
LINE
  5
26D
100
AcDbEntity
  8
ALL_ASSEMBLY_MEMBERS
100
AcDbLine
 62
7
  6
CONTINUOUS
 10
4.4075231079
 20
3.1674585784
 11
4.4075231079
 21
2.8982085784
  0
LINE
  5
26E
100
AcDbEntity
  8
0
100
AcDbLine
 62
9
  6
CONTINUOUS
 10
5.2491490904
 20
3.2964079851
 11
4.9732534827
 21
3.2964079772
  0
LINE
  5
26F
100
AcDbEntity
  8
0
100
AcDbLine
 62
9
  6
CONTINUOUS
 10
4.3570427305
 20
3.2964079813
 11
4.0811471255
 21
3.2964079851
  0
LINE
  5
270
100
AcDbEntity
  8
0
100
AcDbLine
 62
9
  6
CONTINUOUS
 10
5.2571627233
 20
3.3027992881
 11
4.9772703892
 21
3.3027992881
  0
LINE
  5
271
100
AcDbEntity
  8
0
100
AcDbLine
 62
9
  6
CONTINUOUS
 10
4.3530258269
 20
3.3027992881
 11
4.0731334926
 21
3.3027992881
  0
LINE
  5
272
100
AcDbEntity
  8
0
100
AcDbLine
 62
9
  6
CONTINUOUS
 10
4.0448981079
 20
3.3614343523
 11
4.3102484675
 21
3.3614343523
  0
LINE
  5
273
100
AcDbEntity
  8
0
100
AcDbLine
 62
9
  6
CONTINUOUS
 10
5.0200477482
 20
3.361434352
 11
5.2853981079
 21
3.3614343523
  0
LINE
  5
274
100
AcDbEntity
  8
0
100
AcDbLine
 62
9
  6
CONTINUOUS
 10
4.2102359038
 20
3.4555241541
 11
5.1200603121
 21
3.4555241541
  0
LINE
  5
275
100
AcDbEntity
  8
0
100
AcDbLine
 62
7
  6
CONTINUOUS
 10
4.5263981079
 20
3.2049585784
 11
4.5263981079
 21
3.1674585784
  0
LINE
  5
276
100
AcDbEntity
  8
ALL_ASSEMBLY_MEMBERS
100
AcDbLine
 62
7
  6
CONTINUOUS
 10
4.2470231079
 20
2.8007085784
 11
4.2695231079
 21
2.8599585784
  0
LINE
  5
277
100
AcDbEntity
  8
0
100
AcDbLine
 62
9
  6
CONTINUOUS
 10
4.1795231079
 20
3.5160521935
 11
5.1507731079
 21
3.5160521935
  0
LINE
  5
278
100
AcDbEntity
  8
0
100
AcDbLine
 62
7
  6
CONTINUOUS
 10
5.1727256079
 20
3.652773539
 11
4.1575706079
 21
3.652773539
  0
LINE
  5
279
100
AcDbEntity
  8
0
100
AcDbLine
 62
7
  6
CONTINUOUS
 10
4.8038981079
 20
3.2049585784
 11
4.8038981079
 21
3.1674585784
  0
LINE
  5
27A
100
AcDbEntity
  8
0
100
AcDbLine
 62
9
  6
CONTINUOUS
 10
5.2852256079
 20
3.765273539
 11
4.0450706079
 21
3.765273539
  0
LINE
  5
27B
100
AcDbEntity
  8
ALL_ASSEMBLY_MEMBERS
100
AcDbLine
 62
7
  6
CONTINUOUS
 10
5.0832731079
 20
2.8007085784
 11
5.0607731079
 21
2.8599585784
  0
LINE
  5
27C
100
AcDbEntity
  8
ALL_ASSEMBLY_MEMBERS
100
AcDbLine
 62
7
  6
CONTINUOUS
 10
4.9227731079
 20
3.1674585784
 11
4.9227731079
 21
2.8982085784
  0
LINE
  5
27D
100
AcDbEntity
  8
ALL_ASSEMBLY_MEMBERS
100
AcDbLine
 62
9
  6
CONTINUOUS
 10
5.0469025933
 20
2.3083565296
 11
5.0469025917
 21
2.3426249893
  0
LINE
  5
27E
100
AcDbEntity
  8
ALL_ASSEMBLY_MEMBERS
100
AcDbLine
 62
9
  6
CONTINUOUS
 10
5.0469025917
 20
2.4179607993
 11
5.0469025917
 21
2.4244611681
  0
LINE
  5
27F
100
AcDbEntity
  8
ALL_ASSEMBLY_MEMBERS
100
AcDbLine
 62
7
  6
CONTINUOUS
 10
5.0607731079
 20
2.4099585784
 11
5.0607731079
 21
2.3564955055
  0
LINE
  5
280
100
AcDbEntity
  8
ALL_ASSEMBLY_MEMBERS
100
AcDbLine
 62
7
  6
CONTINUOUS
 10
5.0607731079
 20
2.0908006237
 11
5.0607731079
 21
2.1442636965
  0
LINE
  5
281
100
AcDbEntity
  8
ALL_ASSEMBLY_MEMBERS
100
AcDbLine
 62
9
  6
CONTINUOUS
 10
5.0635226237
 20
2.2649697831
 11
5.0635226204
 21
2.4370497283
  0
LINE
  5
282
100
AcDbEntity
  8
ALL_ASSEMBLY_MEMBERS
100
AcDbLine
 62
7
  6
CONTINUOUS
 10
5.0832731079
 20
2.8007085784
 11
5.0832731079
 21
2.4932085784
  0
LINE
  5
283
100
AcDbEntity
  8
ALL_FEATURES
100
AcDbLine
 62
7
  6
CONTINUOUS
 10
5.1507731079
 20
3.5160521935
 11
5.1507731079
 21
3.652773539
  0
LINE
  5
284
100
AcDbEntity
  8
0
100
AcDbLine
 62
7
  6
CONTINUOUS
 10
5.2852256079
 20
4.636773539
 11
5.2852256079
 21
3.765273539
  0
LINE
  5
285
100
AcDbEntity
  8
ALL_FEATURES
100
AcDbLine
 62
7
  6
CONTINUOUS
 10
5.2853981079
 20
3.3614343523
 11
5.2853981079
 21
3.765273539
  0
LINE
  5
286
100
AcDbEntity
  8
0
100
AcDbLine
 62
7
  6
CONTINUOUS
 10
5.2332067509
 20
3.2706557556
 11
5.2309679783
 21
3.2602081498
  0
LINE
  5
287
100
AcDbEntity
  8
ALL_ASSEMBLY_MEMBERS
100
AcDbLine
 62
7
  6
CONTINUOUS
 10
4.3872731079
 20
2.8982085784
 11
4.2695231079
 21
2.8599585784
  0
LINE
  5
288
100
AcDbEntity
  8
ALL_ASSEMBLY_MEMBERS
100
AcDbLine
 62
9
  6
CONTINUOUS
 10
5.334625739
 20
2.2380757266
 11
5.334625739
 21
2.5244516664
  0
LINE
  5
289
100
AcDbEntity
  8
ALL_ASSEMBLY_MEMBERS
100
AcDbLine
 62
7
  6
CONTINUOUS
 10
5.3532731079
 20
2.2394455292
 11
5.3532731079
 21
2.5230818638
  0
LINE
  5
28A
100
AcDbEntity
  8
ALL_ASSEMBLY_MEMBERS
100
AcDbLine
 62
9
  6
CONTINUOUS
 10
5.3721560252
 20
2.2554232248
 11
5.3721560252
 21
2.5071041682
  0
LINE
  5
28B
100
AcDbEntity
  8
ALL_ASSEMBLY_MEMBERS
100
AcDbLine
 62
9
  6
CONTINUOUS
 10
5.4337229679
 20
2.2123135874
 11
5.4337229679
 21
2.5502138056
  0
LINE
  5
28C
100
AcDbEntity
  8
ALL_ASSEMBLY_MEMBERS
100
AcDbLine
 62
7
  6
CONTINUOUS
 10
5.0620423444
 20
2.4332085784
 11
5.0832731079
 21
2.4932085784
  0
LINE
  5
28D
100
AcDbEntity
  8
0
100
AcDbLine
 62
7
  6
CONTINUOUS
 10
5.2571627233
 20
3.3027992881
 11
5.2491490904
 21
3.2964079851
  0
LINE
  5
28E
100
AcDbEntity
  8
ALL_ASSEMBLY_MEMBERS
100
AcDbLine
 62
7
  6
CONTINUOUS
 10
3.9581401907
 20
2.2554232248
 11
3.8965732479
 21
2.2123135874
  0
LINE
  5
28F
100
AcDbEntity
  8
0
100
AcDbLine
 62
7
  6
CONTINUOUS
 10
5.676263065
 20
4.5838808848
 11
5.6772656011
 21
4.6221661932
  0
LINE
  5
290
100
AcDbEntity
  8
ALL_ASSEMBLY_MEMBERS
100
AcDbLine
 62
7
  6
CONTINUOUS
 10
5.0607731079
 20
2.1675136965
 11
5.0832731079
 21
2.2275136965
  0
LINE
  5
291
100
AcDbEntity
  8
ALL_ASSEMBLY_MEMBERS
100
AcDbLine
 62
7
  6
CONTINUOUS
 10
4.2890231079
 20
2.4212085784
 11
4.2695231079
 21
2.4099585784
  0
LINE
  5
292
100
AcDbEntity
  8
ALL_FEATURES
100
AcDbLine
 62
7
  6
CONTINUOUS
 10
5.6612682052
 20
4.569273539
 11
5.2852256079
 21
4.569273539
  0
LINE
  5
293
100
AcDbEntity
  8
ALL_FEATURES
100
AcDbLine
 62
7
  6
CONTINUOUS
 10
4.0450706079
 20
4.569273539
 11
3.6690280107
 21
4.569273539
  0
LINE
  5
294
100
AcDbEntity
  8
ALL_FEATURES
100
AcDbLine
 62
9
  6
CONTINUOUS
 10
5.676263065
 20
4.5838808848
 11
5.2852256079
 21
4.5838808848
  0
LINE
  5
295
100
AcDbEntity
  8
ALL_FEATURES
100
AcDbLine
 62
9
  6
CONTINUOUS
 10
4.0450706079
 20
4.5838808848
 11
3.6540331508
 21
4.5838808848
  0
LINE
  5
296
100
AcDbEntity
  8
ALL_FEATURES
100
AcDbLine
 62
9
  6
CONTINUOUS
 10
5.6772656011
 20
4.6221661932
 11
5.2852256079
 21
4.6221661932
  0
LINE
  5
297
100
AcDbEntity
  8
ALL_FEATURES
100
AcDbLine
 62
9
  6
CONTINUOUS
 10
4.0450706079
 20
4.6221661932
 11
3.6530306148
 21
4.6221661932
  0
LINE
  5
298
100
AcDbEntity
  8
ALL_FEATURES
100
AcDbLine
 62
7
  6
CONTINUOUS
 10
2.2403981079
 20
4.636773539
 11
7.0898981079
 21
4.636773539
  0
LINE
  5
299
100
AcDbEntity
  8
ALL_FEATURES
100
AcDbLine
 62
9
  6
CONTINUOUS
 10
2.2050606822
 20
4.6482836809
 11
7.1252355337
 21
4.6482836809
  0
LINE
  5
29A
100
AcDbEntity
  8
ALL_FEATURES
100
AcDbLine
 62
9
  6
CONTINUOUS
 10
2.0594297998
 20
4.7070925044
 11
7.2708664161
 21
4.7070925044
  0
LINE
  5
29B
100
AcDbEntity
  8
ALL_ASSEMBLY_MEMBERS
100
AcDbLine
 62
7
  6
CONTINUOUS
 10
5.0500737221
 20
2.0760741825
 11
5.0607731079
 21
2.0908006237
  0
LINE
  5
29C
100
AcDbEntity
  8
ALL_ASSEMBLY_MEMBERS
100
AcDbLine
 62
7
  6
CONTINUOUS
 10
5.0607731079
 20
2.3564955055
 11
5.0441084238
 21
2.3398308215
  0
LINE
  5
29D
100
AcDbEntity
  8
ALL_ASSEMBLY_MEMBERS
100
AcDbLine
 62
7
  6
CONTINUOUS
 10
5.0620423444
 20
2.4332085784
 11
5.0412731079
 21
2.4212085784
  0
LINE
  5
29E
100
AcDbEntity
  8
ALL_ASSEMBLY_MEMBERS
100
AcDbLine
 62
7
  6
CONTINUOUS
 10
4.2695231079
 20
2.1442636965
 11
4.2896581986
 21
2.1558886965
  0
LINE
  5
29F
100
AcDbEntity
  8
ALL_FEATURES
100
AcDbLine
 62
9
  6
CONTINUOUS
 10
2.0076731079
 20
4.766523539
 11
7.3226231079
 21
4.766523539
  0
LINE
  5
2A0
100
AcDbEntity
  8
ALL_FEATURES
100
AcDbLine
 62
7
  6
CONTINUOUS
 10
2.0076731079
 20
4.897773539
 11
7.3226231079
 21
4.897773539
  0
LINE
  5
2A1
100
AcDbEntity
  8
ALL_ASSEMBLY_MEMBERS
100
AcDbLine
 62
7
  6
CONTINUOUS
 10
5.3721560252
 20
2.5071041682
 11
5.4337229679
 21
2.5502138056
  0
LINE
  5
2A2
100
AcDbEntity
  8
ALL_ASSEMBLY_MEMBERS
100
AcDbLine
 62
7
  6
CONTINUOUS
 10
5.0441084238
 20
2.3398308215
 11
5.006030575
 21
2.3274585784
  0
LINE
  5
2A3
100
AcDbEntity
  8
ALL_ASSEMBLY_MEMBERS
100
AcDbLine
 62
7
  6
CONTINUOUS
 10
5.0406380173
 20
2.1558886965
 11
5.0607731079
 21
2.1675136965
  0
LINE
  5
2A4
100
AcDbEntity
  8
ALL_ASSEMBLY_MEMBERS
100
AcDbLine
 62
7
  6
CONTINUOUS
 10
5.006030575
 20
2.0617636965
 11
5.0500737221
 21
2.0760741825
  0
LINE
  5
2A5
100
AcDbEntity
  8
ALL_FEATURES
100
AcDbLine
 62
7
  6
CONTINUOUS
 10
7.3226231079
 20
4.897773539
 11
7.3226231079
 21
4.766523539
  0
ARC
  5
2A6
100
AcDbEntity
  8
ALL_ASSEMBLY_MEMBERS
100
AcDbCircle
 62
7
  6
CONTINUOUS
 10
3.7782731079
 20
2.3812636965
 40
0.20625
100
AcDbArc
 50
55.0
 51
305.0
  0
ARC
  5
2A7
100
AcDbEntity
  8
ALL_ASSEMBLY_MEMBERS
100
AcDbCircle
 62
7
  6
CONTINUOUS
 10
3.9650231079
 20
2.2455934003
 40
0.012
100
AcDbArc
 50
0.0
 51
125.0
  0
ARC
  5
2A8
100
AcDbEntity
  8
ALL_ASSEMBLY_MEMBERS
100
AcDbCircle
 62
7
  6
CONTINUOUS
 10
3.9868979545
 20
2.2462636965
 40
0.012
100
AcDbArc
 50
214.6234510997
 51
316.9739483152
  0
ARC
  5
2A9
100
AcDbEntity
  8
ALL_ASSEMBLY_MEMBERS
100
AcDbCircle
 62
7
  6
CONTINUOUS
 10
3.9650231079
 20
2.5169339927
 40
0.012
100
AcDbArc
 50
235.0
 51
360.0
  0
ARC
  5
2AA
100
AcDbEntity
  8
ALL_ASSEMBLY_MEMBERS
100
AcDbCircle
 62
7
  6
CONTINUOUS
 10
3.9868979545
 20
2.5162636965
 40
0.012
100
AcDbArc
 50
43.0260516848
 51
145.3765489003
  0
ARC
  5
2AB
100
AcDbEntity
  8
0
100
AcDbCircle
 62
7
  6
CONTINUOUS
 10
3.8776390009
 20
3.0009585784
 40
0.56325
100
AcDbArc
 50
23.2308920706
 51
53.8077823306
  0
ARC
  5
2AC
100
AcDbEntity
  8
0
100
AcDbCircle
 62
7
  6
CONTINUOUS
 10
3.8438981079
 20
2.7344650835
 40
0.56325
100
AcDbArc
 50
24.1181733655
 51
59.7371069019
  0
ARC
  5
2AD
100
AcDbEntity
  8
0
100
AcDbCircle
 62
7
  6
CONTINUOUS
 10
4.0530883563
 20
3.2612269466
 40
0.045
100
AcDbArc
 50
12.094757077
 51
51.425757077
  0
ARC
  5
2AE
100
AcDbEntity
  8
ALL_ASSEMBLY_MEMBERS
100
AcDbCircle
 62
7
  6
CONTINUOUS
 10
4.1189240223
 20
2.4683972168
 40
1.02
100
AcDbArc
 50
19.0137742001
 51
22.5744557109
  0
ARC
  5
2AF
100
AcDbEntity
  8
ALL_ASSEMBLY_MEMBERS
100
AcDbCircle
 62
7
  6
CONTINUOUS
 10
4.1327411387
 20
2.1101386965
 40
0.1875
100
AcDbArc
 50
47.7235805176
 51
136.9739483152
  0
ARC
  5
2B0
100
AcDbEntity
  8
ALL_ASSEMBLY_MEMBERS
100
AcDbCircle
 62
7
  6
CONTINUOUS
 10
4.1327411387
 20
2.6523886965
 40
0.1875
100
AcDbArc
 50
223.0260516848
 51
307.5689077136
  0
ARC
  5
2B1
100
AcDbEntity
  8
ALL_ASSEMBLY_MEMBERS
100
AcDbCircle
 62
7
  6
CONTINUOUS
 10
4.3745231079
 20
2.0619139567
 40
0.0225
100
AcDbArc
 50
180.3827710258
 51
255.2369687319
  0
ARC
  5
2B2
100
AcDbEntity
  8
ALL_ASSEMBLY_MEMBERS
100
AcDbCircle
 62
7
  6
CONTINUOUS
 10
4.3745231079
 20
2.3276088386
 40
0.0225
100
AcDbArc
 50
180.3827710258
 51
255.2369687319
  0
ARC
  5
2B3
100
AcDbEntity
  8
ALL_ASSEMBLY_MEMBERS
100
AcDbCircle
 62
7
  6
CONTINUOUS
 10
4.1115490744
 20
2.8032930871
 40
1.02
100
AcDbArc
 50
338.7260279914
 51
342.3017225173
  0
ARC
  5
2B4
100
AcDbEntity
  8
0
100
AcDbCircle
 62
7
  6
CONTINUOUS
 10
4.1198981079
 20
3.3614343523
 40
0.075
100
AcDbArc
 50
180.0
 51
231.4257570771
  0
ARC
  5
2B5
100
AcDbEntity
  8
0
100
AcDbCircle
 62
7
  6
CONTINUOUS
 10
4.1579963825
 20
3.2727798952
 40
0.06
100
AcDbArc
 50
192.094757077
 51
239.7371069019
  0
ARC
  5
2B6
100
AcDbEntity
  8
ALL_FEATURES
100
AcDbCircle
 62
7
  6
CONTINUOUS
 10
4.4026481079
 20
2.9955007195
 40
0.0562370231
100
AcDbArc
 50
236.128659452
 51
270.0
  0
ARC
  5
2B7
100
AcDbEntity
  8
0
100
AcDbCircle
 62
7
  6
CONTINUOUS
 10
4.3922054054
 20
2.9799435348
 40
0.0375
100
AcDbArc
 50
204.1181733656
 51
236.1286594521
  0
ARC
  5
2B8
100
AcDbEntity
  8
0
100
AcDbCircle
 62
7
  6
CONTINUOUS
 10
4.4227899547
 20
3.2349585784
 40
0.03
100
AcDbArc
 50
203.2308920706
 51
270.0
  0
ARC
  5
2B9
100
AcDbEntity
  8
ALL_FEATURES
100
AcDbCircle
 62
7
  6
CONTINUOUS
 10
2.0151220186
 20
4.3876506936
 40
0.3225
100
AcDbArc
 50
53.916964529
 51
82.1032437574
  0
ARC
  5
2BA
100
AcDbEntity
  8
0
100
AcDbCircle
 62
7
  6
CONTINUOUS
 10
4.2545231079
 20
3.5160521935
 40
0.075
100
AcDbArc
 50
180.0
 51
233.8077823306
  0
ARC
  5
2BB
100
AcDbEntity
  8
ALL_FEATURES
100
AcDbCircle
 62
7
  6
CONTINUOUS
 10
2.2403981079
 20
4.696773539
 40
0.06
100
AcDbArc
 50
233.916964529
 51
270.0
  0
ARC
  5
2BC
100
AcDbEntity
  8
ALL_FEATURES
100
AcDbCircle
 62
7
  6
CONTINUOUS
 10
2.0676731079
 20
4.766523539
 40
0.06
100
AcDbArc
 50
180.0
 51
262.1032437574
  0
ARC
  5
2BD
100
AcDbEntity
  8
ALL_FEATURES
100
AcDbCircle
 62
7
  6
CONTINUOUS
 10
3.6690280107
 20
4.584273539
 40
0.015
100
AcDbArc
 50
181.5
 51
270.0
  0
ARC
  5
2BE
100
AcDbEntity
  8
ALL_FEATURES
100
AcDbCircle
 62
7
  6
CONTINUOUS
 10
3.6380357549
 20
4.621773539
 40
0.015
100
AcDbArc
 50
1.5
 51
90.0
  0
ARC
  5
2BF
100
AcDbEntity
  8
ALL_ASSEMBLY_MEMBERS
100
AcDbCircle
 62
7
  6
CONTINUOUS
 10
4.6651481079
 20
3.1647662081
 40
1.1630025116
100
AcDbArc
 50
255.2369687319
 51
284.7630312681
  0
ARC
  5
2C0
100
AcDbEntity
  8
ALL_ASSEMBLY_MEMBERS
100
AcDbCircle
 62
7
  6
CONTINUOUS
 10
5.2113721936
 20
2.4683972168
 40
1.02
100
AcDbArc
 50
157.4255442891
 51
160.9862257999
  0
ARC
  5
2C1
100
AcDbEntity
  8
ALL_ASSEMBLY_MEMBERS
100
AcDbCircle
 62
7
  6
CONTINUOUS
 10
5.2187471415
 20
2.8032930871
 40
1.02
100
AcDbArc
 50
197.6982774827
 51
201.2739720086
  0
ARC
  5
2C2
100
AcDbEntity
  8
0
100
AcDbCircle
 62
7
  6
CONTINUOUS
 10
5.452657215
 20
3.0009585784
 40
0.56325
100
AcDbArc
 50
126.1922176694
 51
156.7691079294
  0
ARC
  5
2C3
100
AcDbEntity
  8
0
100
AcDbCircle
 62
7
  6
CONTINUOUS
 10
5.4863981079
 20
2.7344650835
 40
0.56325
100
AcDbArc
 50
120.2628930981
 51
155.8818266345
  0
ARC
  5
2C4
100
AcDbEntity
  8
ALL_ASSEMBLY_MEMBERS
100
AcDbCircle
 62
7
  6
CONTINUOUS
 10
4.6651481079
 20
2.3812636965
 40
0.20625
100
AcDbArc
 50
208.9049236305
 51
331.0950763695
  0
ARC
  5
2C5
100
AcDbEntity
  8
ALL_ASSEMBLY_MEMBERS
100
AcDbCircle
 62
7
  6
CONTINUOUS
 10
5.5520231079
 20
2.3812636965
 40
0.20625
100
AcDbArc
 50
235.0
 51
125.0
  0
CIRCLE
  5
2C6
100
AcDbEntity
  8
ALL_ASSEMBLY_MEMBERS
100
AcDbCircle
 62
7
  6
CONTINUOUS
 10
4.6651481079
 20
2.6469585784
 40
0.1875
  0
ARC
  5
2C7
100
AcDbEntity
  8
ALL_ASSEMBLY_MEMBERS
100
AcDbCircle
 62
7
  6
CONTINUOUS
 10
5.1975550772
 20
2.1101386965
 40
0.1875
100
AcDbArc
 50
43.0260516848
 51
132.276419581
  0
ARC
  5
2C8
100
AcDbEntity
  8
ALL_ASSEMBLY_MEMBERS
100
AcDbCircle
 62
7
  6
CONTINUOUS
 10
5.1975550772
 20
2.6523886965
 40
0.1875
100
AcDbArc
 50
232.4310922864
 51
316.9739483152
  0
ARC
  5
2C9
100
AcDbEntity
  8
0
100
AcDbCircle
 62
7
  6
CONTINUOUS
 10
5.2103981079
 20
3.3614343523
 40
0.075
100
AcDbArc
 50
308.5742429229
 51
360.0
  0
ARC
  5
2CA
100
AcDbEntity
  8
0
100
AcDbCircle
 62
7
  6
CONTINUOUS
 10
5.1722998334
 20
3.2727798952
 40
0.06
100
AcDbArc
 50
300.2628930981
 51
347.905242923
  0
ARC
  5
2CB
100
AcDbEntity
  8
ALL_FEATURES
100
AcDbCircle
 62
7
  6
CONTINUOUS
 10
4.9276481079
 20
2.9955007195
 40
0.0562370231
100
AcDbArc
 50
270.0
 51
303.871340548
  0
ARC
  5
2CC
100
AcDbEntity
  8
0
100
AcDbCircle
 62
7
  6
CONTINUOUS
 10
5.2772078596
 20
3.2612269466
 40
0.045
100
AcDbArc
 50
128.574242923
 51
167.905242923
  0
ARC
  5
2CD
100
AcDbEntity
  8
0
100
AcDbCircle
 62
7
  6
CONTINUOUS
 10
4.9380908105
 20
2.9799435348
 40
0.0375
100
AcDbArc
 50
303.871340548
 51
335.8818266344
  0
ARC
  5
2CE
100
AcDbEntity
  8
0
100
AcDbCircle
 62
7
  6
CONTINUOUS
 10
4.9075062611
 20
3.2349585784
 40
0.03
100
AcDbArc
 50
270.0
 51
336.7691079294
  0
ARC
  5
2CF
100
AcDbEntity
  8
ALL_ASSEMBLY_MEMBERS
100
AcDbCircle
 62
7
  6
CONTINUOUS
 10
4.9557731079
 20
2.0619139567
 40
0.0225
100
AcDbArc
 50
284.7630312681
 51
359.6172289742
  0
ARC
  5
2D0
100
AcDbEntity
  8
ALL_ASSEMBLY_MEMBERS
100
AcDbCircle
 62
7
  6
CONTINUOUS
 10
4.9557731079
 20
2.3276088386
 40
0.0225
100
AcDbArc
 50
284.7630312681
 51
359.6172289742
  0
ARC
  5
2D1
100
AcDbEntity
  8
ALL_ASSEMBLY_MEMBERS
100
AcDbCircle
 62
7
  6
CONTINUOUS
 10
5.3652731079
 20
2.2455934003
 40
0.012
100
AcDbArc
 50
55.0
 51
180.0
  0
ARC
  5
2D2
100
AcDbEntity
  8
ALL_ASSEMBLY_MEMBERS
100
AcDbCircle
 62
7
  6
CONTINUOUS
 10
5.3433982614
 20
2.2462636965
 40
0.012
100
AcDbArc
 50
223.0260516848
 51
325.3765489003
  0
ARC
  5
2D3
100
AcDbEntity
  8
ALL_ASSEMBLY_MEMBERS
100
AcDbCircle
 62
7
  6
CONTINUOUS
 10
5.3652731079
 20
2.5169339927
 40
0.012
100
AcDbArc
 50
180.0
 51
305.0
  0
ARC
  5
2D4
100
AcDbEntity
  8
ALL_ASSEMBLY_MEMBERS
100
AcDbCircle
 62
7
  6
CONTINUOUS
 10
5.3433982614
 20
2.5162636965
 40
0.012
100
AcDbArc
 50
34.6234510997
 51
136.9739483152
  0
ARC
  5
2D5
100
AcDbEntity
  8
ALL_ASSEMBLY_MEMBERS
100
AcDbCircle
 62
7
  6
CONTINUOUS
 10
4.6651481079
 20
3.43046109
 40
1.1630025116
100
AcDbArc
 50
255.2369687319
 51
284.7630312681
  0
ARC
  5
2D6
100
AcDbEntity
  8
ALL_FEATURES
100
AcDbCircle
 62
7
  6
CONTINUOUS
 10
7.3151741973
 20
4.3876506936
 40
0.3225
100
AcDbArc
 50
97.8967562426
 51
126.083035471
  0
ARC
  5
2D7
100
AcDbEntity
  8
0
100
AcDbCircle
 62
7
  6
CONTINUOUS
 10
5.0757731079
 20
3.5160521935
 40
0.075
100
AcDbArc
 50
306.1922176694
 51
360.0
  0
ARC
  5
2D8
100
AcDbEntity
  8
0
100
AcDbCircle
 62
7
  6
CONTINUOUS
 10
5.1727299688
 20
3.7221410175
 40
0.0693674786
100
AcDbArc
 50
269.9963980156
 51
274.1689072229
  0
ARC
  5
2D9
100
AcDbEntity
  8
0
100
AcDbCircle
 62
7
  6
CONTINUOUS
 10
5.2158581295
 20
3.7652691781
 40
0.0693674786
100
AcDbArc
 50
355.8310920191
 51
0.003601985
  0
ARC
  5
2DA
100
AcDbEntity
  8
0
100
AcDbCircle
 62
7
  6
CONTINUOUS
 10
5.2159224822
 20
3.7652668379
 40
0.069303126
100
AcDbArc
 50
355.8291539348
 51
0.0055400693
  0
ARC
  5
2DB
100
AcDbEntity
  8
0
100
AcDbCircle
 62
7
  6
CONTINUOUS
 10
5.172732309
 20
3.7220766647
 40
0.069303126
100
AcDbArc
 50
269.9944599293
 51
274.1708453092
  0
ARC
  5
2DC
100
AcDbEntity
  8
ALL_FEATURES
100
AcDbCircle
 62
7
  6
CONTINUOUS
 10
7.0898981079
 20
4.696773539
 40
0.06
100
AcDbArc
 50
270.0
 51
306.083035471
  0
ARC
  5
2DD
100
AcDbEntity
  8
ALL_FEATURES
100
AcDbCircle
 62
7
  6
CONTINUOUS
 10
7.2626231079
 20
4.766523539
 40
0.06
100
AcDbArc
 50
277.8967562426
 51
360.0
  0
ARC
  5
2DE
100
AcDbEntity
  8
ALL_FEATURES
100
AcDbCircle
 62
7
  6
CONTINUOUS
 10
5.6612682052
 20
4.584273539
 40
0.015
100
AcDbArc
 50
270.0
 51
358.5
  0
ARC
  5
2DF
100
AcDbEntity
  8
ALL_FEATURES
100
AcDbCircle
 62
7
  6
CONTINUOUS
 10
5.692260461
 20
4.621773539
 40
0.015
100
AcDbArc
 50
90.0
 51
178.5
  0
SPLINE
  5
2E0
100
AcDbEntity
  8
ALL_ASSEMBLY_MEMBERS
100
AcDbSpline
 62
7
  6
CONTINUOUS
 70
0
 71
3
 72
50
 73
46
 74
0
 42
0.0000001
 43
0.0000001
 44
0.0000000001
 40
0.0
 40
0.0
 40
0.0
 40
0.0
 40
0.1008741631
 40
0.1989264722
 40
0.2937006096
 40
0.3847286096
 40
0.4715887916
 40
0.5538305397
 40
0.6309714897
 40
0.7024990655
 40
0.7359833923
 40
0.7678463656
 40
0.7980102364
 40
0.8263961578
 40
0.8529231523
 40
0.8775083304
 40
0.9000681401
 40
0.9205184898
 40
0.9387794699
 40
0.9470672175
 40
0.9547818263
 40
0.9619147986
 40
0.9684576234
 40
0.9744017772
 40
0.9797387248
 40
0.9844607945
 40
0.9885638388
 40
0.9920445995
 40
0.993550605
 40
0.994899817
 40
0.9960918279
 40
0.9971262298
 40
0.9980026147
 40
0.9987205746
 40
0.9990200177
 40
0.9992797014
 40
0.9994995748
 40
0.9996795868
 40
0.9998196864
 40
0.9998747531
 40
0.9999198225
 40
0.9999548883
 40
0.9999799441
 40
0.9999949834
 40
1.0
 40
1.0
 40
1.0
 40
1.0
 10
4.2906536941
 20
2.3383779994
 30
0.0
 10
4.2899418849
 20
2.3344142591
 30
0.0
 10
4.2883527336
 20
2.3266297315
 30
0.0
 10
4.2854919916
 20
2.3152552941
 30
0.0
 10
4.2822779639
 20
2.3043853533
 30
0.0
 10
4.2787998514
 20
2.2940681676
 30
0.0
 10
4.2751487729
 20
2.2843441929
 30
0.0
 10
4.2714147562
 20
2.2752488637
 30
0.0
 10
4.2676829093
 20
2.2668184166
 30
0.0
 10
4.2645810724
 20
2.2602404297
 30
0.0
 10
4.262171802
 20
2.2553357686
 30
0.0
 10
4.2604572135
 20
2.2519299
 30
0.0
 10
4.2588050116
 20
2.2487206867
 30
0.0
 10
4.2572254327
 20
2.2457138244
 30
0.0
 10
4.2557282022
 20
2.2429153895
 30
0.0
 10
4.2543224897
 20
2.24033187
 30
0.0
 10
4.2530175823
 20
2.2379697515
 30
0.0
 10
4.2518226969
 20
2.2358353463
 30
0.0
 10
4.2508982831
 20
2.2342025385
 30
0.0
 10
4.2502202565
 20
2.2330145272
 30
0.0
 10
4.2497607485
 20
2.2322133238
 30
0.0
 10
4.2493344373
 20
2.2314733887
 30
0.0
 10
4.2489421859
 20
2.2307954047
 30
0.0
 10
4.2485848573
 20
2.2301800544
 30
0.0
 10
4.2482632922
 20
2.229627993
 30
0.0
 10
4.2479782537
 20
2.2291397176
 30
0.0
 10
4.2477301765
 20
2.2287156719
 30
0.0
 10
4.2475466399
 20
2.2284026193
 30
0.0
 10
4.2474185475
 20
2.2281845024
 30
0.0
 10
4.2473366609
 20
2.2280452142
 30
0.0
 10
4.247264259
 20
2.2279221902
 30
0.0
 10
4.2472013816
 20
2.2278154637
 30
0.0
 10
4.247148069
 20
2.2277250676
 30
0.0
 10
4.2471096316
 20
2.2276599629
 30
0.0
 10
4.2470836952
 20
2.2276160683
 30
0.0
 10
4.2470678677
 20
2.2275892979
 30
0.0
 10
4.2470544629
 20
2.2275666325
 30
0.0
 10
4.2470434801
 20
2.2275480859
 30
0.0
 10
4.2470358553
 20
2.2275351857
 30
0.0
 10
4.2470309561
 20
2.2275269531
 30
0.0
 10
4.2470282268
 20
2.2275222702
 30
0.0
 10
4.2470260274
 20
2.2275187596
 30
0.0
 10
4.2470246278
 20
2.2275159482
 30
0.0
 10
4.2470234791
 20
2.2275148037
 30
0.0
 10
4.2470233082
 20
2.2275136965
 30
0.0
 10
4.2470231079
 20
2.2275136965
 30
0.0
  0
SPLINE
  5
2E1
100
AcDbEntity
  8
ALL_ASSEMBLY_MEMBERS
100
AcDbSpline
 62
7
  6
CONTINUOUS
 70
0
 71
3
 72
50
 73
46
 74
0
 42
0.0000001
 43
0.0000001
 44
0.0000000001
 40
0.0
 40
0.0
 40
0.0
 40
0.0
 40
0.0000050136
 40
0.0000200501
 40
0.0000451032
 40
0.0000801664
 40
0.0001252334
 40
0.0001802977
 40
0.0003203931
 40
0.0005004013
 40
0.0007202714
 40
0.0009799524
 40
0.001279393
 40
0.0019973494
 40
0.0028737323
 40
0.0039081335
 40
0.0051001449
 40
0.0064493585
 40
0.0079553665
 40
0.0114361345
 40
0.0155391879
 40
0.0202612676
 40
0.0255982237
 40
0.0315423834
 40
0.038085212
 40
0.0452181864
 40
0.0529327963
 40
0.0612205444
 40
0.0794815257
 40
0.0999318809
 40
0.1224917017
 40
0.1470768944
 40
0.1736039048
 40
0.201989841
 40
0.2321537233
 40
0.264016705
 40
0.2975010374
 40
0.3690286156
 40
0.4461695487
 40
0.5284112808
 40
0.615271461
 40
0.7062994534
 40
0.8010735644
 40
0.8991258486
 40
1.0
 40
1.0
 40
1.0
 40
1.0
 10
5.0832731079
 20
2.2275136965
 30
0.0
 10
5.0832729078
 20
2.2275136958
 30
0.0
 10
5.0832727382
 20
2.2275148051
 30
0.0
 10
5.0832715892
 20
2.2275159475
 30
0.0
 10
5.0832701907
 20
2.22751876
 30
0.0
 10
5.0832679917
 20
2.2275222701
 30
0.0
 10
5.0832652629
 20
2.2275269531
 30
0.0
 10
5.0832603645
 20
2.2275351857
 30
0.0
 10
5.0832527405
 20
2.227548086
 30
0.0
 10
5.0832417585
 20
2.2275666324
 30
0.0
 10
5.0832283544
 20
2.2275892979
 30
0.0
 10
5.0832125275
 20
2.2276160682
 30
0.0
 10
5.0831865917
 20
2.2276599627
 30
0.0
 10
5.0831481548
 20
2.2277250674
 30
0.0
 10
5.0830948425
 20
2.2278154634
 30
0.0
 10
5.0830319651
 20
2.2279221898
 30
0.0
 10
5.0829595628
 20
2.2280452136
 30
0.0
 10
5.0828776757
 20
2.2281845017
 30
0.0
 10
5.0827495822
 20
2.2284026186
 30
0.0
 10
5.0825660439
 20
2.228715671
 30
0.0
 10
5.0823179645
 20
2.2291397168
 30
0.0
 10
5.0820329239
 20
2.2296279922
 30
0.0
 10
5.0817113573
 20
2.2301800539
 30
0.0
 10
5.0813540277
 20
2.2307954045
 30
0.0
 10
5.0809617759
 20
2.2314733889
 30
0.0
 10
5.0805354646
 20
2.2322133243
 30
0.0
 10
5.0800759568
 20
2.2330145281
 30
0.0
 10
5.0793979308
 20
2.2342025399
 30
0.0
 10
5.0784735177
 20
2.2358353485
 30
0.0
 10
5.0772786324
 20
2.2379697548
 30
0.0
 10
5.0759737243
 20
2.2403318746
 30
0.0
 10
5.0745680107
 20
2.2429153955
 30
0.0
 10
5.073070779
 20
2.245713832
 30
0.0
 10
5.0714911995
 20
2.2487206962
 30
0.0
 10
5.0698389968
 20
2.2519299108
 30
0.0
 10
5.0681244077
 20
2.2553357806
 30
0.0
 10
5.0657151369
 20
2.2602404426
 30
0.0
 10
5.0626133009
 20
2.26681843
 30
0.0
 10
5.0588814541
 20
2.2752488764
 30
0.0
 10
5.0551474382
 20
2.284344205
 30
0.0
 10
5.0514963605
 20
2.2940681796
 30
0.0
 10
5.0480182484
 20
2.3043853647
 30
0.0
 10
5.0448042212
 20
2.3152553038
 30
0.0
 10
5.0419434804
 20
2.3266297397
 30
0.0
 10
5.0403543297
 20
2.3344142664
 30
0.0
 10
5.0396425205
 20
2.3383780064
 30
0.0
  0
SPLINE
  5
2E2
100
AcDbEntity
  8
0
100
AcDbSpline
 62
7
  6
CONTINUOUS
 70
0
 71
3
 72
35
 73
31
 74
0
 42
0.0000001
 43
0.0000001
 44
0.0000000001
 40
0.0
 40
0.0
 40
0.0
 40
0.0
 40
0.0198798482
 40
0.0389061
 40
0.0572349263
 40
0.0750085906
 40
0.1093037191
 40
0.1423092093
 40
0.1743589853
 40
0.2056530689
 40
0.2363464043
 40
0.2665723801
 40
0.3259971954
 40
0.3844687642
 40
0.4423690724
 40
0.5
 40
0.5576309276
 40
0.6155312358
 40
0.6740028046
 40
0.7334276199
 40
0.7636535957
 40
0.7943469311
 40
0.8256410147
 40
0.8576907907
 40
0.8906962809
 40
0.9249914094
 40
0.9427650737
 40
0.9610939
 40
0.9801201518
 40
1.0
 40
1.0
 40
1.0
 40
1.0
 10
4.1575706079
 20
3.652773539
 30
0.0
 10
4.1564266
 20
3.652773539
 30
0.0
 10
4.1541872856
 20
3.6528285448
 30
0.0
 10
4.1509013202
 20
3.6530696666
 30
0.0
 10
4.1477501999
 20
3.6534458637
 30
0.0
 10
4.143749936
 20
3.6540907449
 30
0.0
 10
4.1389597942
 20
3.6551214469
 30
0.0
 10
4.1334561431
 20
3.6566814208
 30
0.0
 10
4.1282106868
 20
3.6584859017
 30
0.0
 10
4.1231906859
 20
3.6605129237
 30
0.0
 10
4.1183716598
 20
3.6627395087
 30
0.0
 10
4.1122198293
 20
3.6659236679
 30
0.0
 10
4.1048886553
 20
3.6702907717
 30
0.0
 10
4.0966079335
 20
3.6761171707
 30
0.0
 10
4.0888371838
 20
3.6824449322
 30
0.0
 10
4.0815550481
 20
3.6892579792
 30
0.0
 10
4.0747420011
 20
3.6965401148
 30
0.0
 10
4.0684142396
 20
3.7043108646
 30
0.0
 10
4.0625878406
 20
3.7125915864
 30
0.0
 10
4.0582207368
 20
3.7199227604
 30
0.0
 10
4.0550365776
 20
3.7260745909
 30
0.0
 10
4.0528099927
 20
3.730893617
 30
0.0
 10
4.0507829707
 20
3.7359136178
 30
0.0
 10
4.0489784898
 20
3.7411590741
 30
0.0
 10
4.0474185158
 20
3.7466627253
 30
0.0
 10
4.0463878138
 20
3.7514528671
 30
0.0
 10
4.0457429326
 20
3.755453131
 30
0.0
 10
4.0453667356
 20
3.7586042513
 30
0.0
 10
4.0451256138
 20
3.7618902166
 30
0.0
 10
4.0450706079
 20
3.7641295311
 30
0.0
 10
4.0450706079
 20
3.765273539
 30
0.0
  0
SPLINE
  5
2E3
100
AcDbEntity
  8
0
100
AcDbSpline
 62
7
  6
CONTINUOUS
 70
0
 71
3
 72
39
 73
35
 74
0
 42
0.0000001
 43
0.0000001
 44
0.0000000001
 40
0.0
 40
0.0
 40
0.0
 40
0.0
 40
0.0189207966
 40
0.0372305348
 40
0.0550542325
 40
0.0724822351
 40
0.1063471836
 40
0.1228752505
 40
0.1391807571
 40
0.171207758
 40
0.2025842549
 40
0.2334432417
 40
0.2638984405
 40
0.2940325334
 40
0.3239014194
 40
0.3830310758
 40
0.4416392352
 40
0.5000000007
 40
0.5583607662
 40
0.6169689255
 40
0.6760985819
 40
0.7059674678
 40
0.7361015607
 40
0.7665567595
 40
0.7974157462
 40
0.828792243
 40
0.8608192437
 40
0.8771247503
 40
0.8936528172
 40
0.9275177655
 40
0.944945768
 40
0.9627694655
 40
0.9810792036
 40
1.0
 40
1.0
 40
1.0
 40
1.0
 10
5.1777727745
 20
3.65295708
 30
0.0
 10
5.1787952187
 20
3.6530316097
 30
0.0
 10
5.1808041154
 20
3.6532227685
 30
0.0
 10
5.1837599398
 20
3.653629189
 30
0.0
 10
5.186619066
 20
3.6541298896
 30
0.0
 10
5.1902852983
 20
3.6548956729
 30
0.0
 10
5.1938453525
 20
3.6558167545
 30
0.0
 10
5.1973027054
 20
3.6568696539
 30
0.0
 10
5.2006371553
 20
3.6579804422
 30
0.0
 10
5.204681291
 20
3.6595014465
 30
0.0
 10
5.2093706911
 20
3.6615293587
 30
0.0
 10
5.2138872338
 20
3.6637289265
 30
0.0
 10
5.2182512338
 20
3.6660778773
 30
0.0
 10
5.2224780612
 20
3.6685611538
 30
0.0
 10
5.2279200507
 20
3.6720345879
 30
0.0
 10
5.2344277652
 20
3.6766951919
 30
0.0
 10
5.2418024476
 20
3.6827596941
 30
0.0
 10
5.2487340362
 20
3.6892651102
 30
0.0
 10
5.2552394523
 20
3.6961966988
 30
0.0
 10
5.2613039547
 20
3.7035713812
 30
0.0
 10
5.2659645586
 20
3.7100790957
 30
0.0
 10
5.2694379927
 20
3.7155210851
 30
0.0
 10
5.2719212693
 20
3.7197479125
 30
0.0
 10
5.2742702201
 20
3.7241119125
 30
0.0
 10
5.276469788
 20
3.7286284552
 30
0.0
 10
5.2784977002
 20
3.7333178552
 30
0.0
 10
5.2800187045
 20
3.7373619909
 30
0.0
 10
5.2811294928
 20
3.7406964408
 30
0.0
 10
5.2821823923
 20
3.7441537937
 30
0.0
 10
5.2831034738
 20
3.7477138479
 30
0.0
 10
5.2838692572
 20
3.7513800801
 30
0.0
 10
5.2843699578
 20
3.7542392063
 30
0.0
 10
5.2847763783
 20
3.7571950306
 30
0.0
 10
5.2849675372
 20
3.7592039273
 30
0.0
 10
5.2850420668
 20
3.7602263715
 30
0.0
  0
ENDSEC
  0
SECTION
  2
OBJECTS
  0
DICTIONARY
  5
C
100
AcDbDictionary
280
0
281
1
  3
ACAD_GROUP
350
D
  3
ACAD_MLINESTYLE
350
17
  3
ACAD_LAYOUT
350
1A
  3
ACAD_PLOTSETTINGS
350
19
  3
ACAD_PLOTSTYLENAME
350
E
  0
DICTIONARY
  5
D
102
{ACAD_REACTORS
330
C
102
}
100
AcDbDictionary
280
0
281
1
  0
ACDBDICTIONARYWDFLT
  5
E
102
{ACAD_REACTORS
330
C
102
}
100
AcDbDictionary
281
1
  3
Normal
350
F
100
AcDbDictionaryWithDefault
340
F
  0
DICTIONARY
  5
17
102
{ACAD_REACTORS
330
C
102
}
100
AcDbDictionary
280
0
281
1
  3
Standard
350
18
  0
DICTIONARY
  5
19
102
{ACAD_REACTORS
330
C
102
}
100
AcDbDictionary
281
1
  0
DICTIONARY
  5
1A
102
{ACAD_REACTORS
330
C
102
}
100
AcDbDictionary
281
1
  3
Model
350
2E4
  3
Layout1
350
2E5
  0
ACDBPLACEHOLDER
  5
F
102
{ACAD_REACTORS
330
E
102
}
  0
MLINESTYLE
  5
18
102
{ACAD_REACTORS
330
17
102
}
100
AcDbMlineStyle
  2
STANDARD
 70
0
  3

 62
256
 51
90.0
 52
90.0
 71
2
 49
0.5
 62
256
  6
BYLAYER
 49
-0.5
 62
256
  6
BYLAYER
  0
LAYOUT
  5
2E4
102
{ACAD_REACTORS
330
1A
102
}
100
AcDbPlotSettings
  1

  2
none_device
  4
ANSI_A_(11.00_x_8.50_Inches)
  6

 40
0.0
 41
0.0
 42
0.0
 43
0.0
 44
279.4
 45
215.9
 46
0.0
 47
0.0
 48
0.0
 49
0.0
140
0.0
141
0.0
142
1.0
143
1.0
 70
1024
 72
0
 73
0
 74
0
  7

 75
0
147
1.0
148
0.0
149
0.0
100
AcDbLayout
  1
Model
 70
0
 71
0
 10
0.0
 20
0.0
 11
11.0
 21
8.5
 12
0.0
 22
0.0
 32
0.0
 14
0.0
 24
0.0
 34
0.0
 15
0.0
 25
0.0
 35
0.0
146
0.0
 13
0.0
 23
0.0
 33
0.0
 16
1.0
 26
0.0
 36
0.0
 17
0.0
 27
1.0
 37
0.0
 76
0
330
221
345
0
346
0
  0
LAYOUT
  5
2E5
102
{ACAD_REACTORS
330
1A
102
}
100
AcDbPlotSettings
  1

  2
none_device
  4
ANSI_A_(11.00_x_8.50_Inches)
  6

 40
0.0
 41
0.0
 42
0.0
 43
0.0
 44
279.4
 45
215.9
 46
0.0
 47
0.0
 48
0.0
 49
0.0
140
0.0
141
0.0
142
1.0
143
1.0
 70
0
 72
0
 73
0
 74
0
  7

 75
0
147
1.0
148
0.0
149
0.0
100
AcDbLayout
  1
Layout1
 70
0
 71
1
 10
0.0
 20
0.0
 11
11.0
 21
8.5
 12
0.0
 22
0.0
 32
0.0
 14
0.0
 24
0.0
 34
0.0
 15
0.0
 25
0.0
 35
0.0
146
0.0
 13
0.0
 23
0.0
 33
0.0
 16
1.0
 26
0.0
 36
0.0
 17
0.0
 27
1.0
 37
0.0
 76
0
330
222
345
0
346
0
  0
ENDSEC
  0
EOF
