999
DXF file: 3-923ts_FRONT.dxf
999
Pro/ENGINEER 2013150 by Parametric Technology Corporation
  0
SECTION
  2
HEADER
  9
$ACADVER
  1
AC1021
  9
$DWGCODEPAGE
  3
ANSI_1252
  9
$EXTMAX
 10
11.0
 20
8.5
 30
0.0
  9
$EXTMIN
 10
0.0
 20
0.0
 30
0.0
  9
$LIMMIN
 10
0.0
 20
0.0
  9
$LIMMAX
 10
11.0
 20
8.5
  9
$VIEWCTR
 10
5.5
 20
4.25
  9
$VIEWSIZE
 40
8.5
  9
$CLAYER
  8
0
  9
$LTSCALE
 40
0.605
  9
$CELTYPE
  6
BYLAYER
  9
$DIMSCALE
 40
1.0
  9
$DIMASZ
 40
0.1
  9
$DIMEXO
 40
0.0625
  9
$DIMDLI
 40
0.418
  9
$DIMEXE
 40
0.125
  9
$DIMCEN
 40
0.099
  9
$DIMLFAC
 40
1.0
  9
$DIMBLK
  1
_FILLED
  9
$DIMTXT
 40
0.08
  9
$DIMTOL
 70
1
  9
$DIMLIM
 70
0
  9
$DIMTFAC
 40
1.0
  9
$DIMTP
 40
0.001
  9
$DIMTM
 40
0.001
  9
$DIMGAP
 40
0.09
  9
$DIMDSEP
 70
46
  9
$PDMODE
 70
3
  9
$PDSIZE
 40
0.06
  9
$HANDSEED
  5
45A
  9
$TILEMODE
 70
1
  9
$MEASUREMENT
 70
0
  9
$INSUNITS
 70
1
  0
ENDSEC
  0
SECTION
  2
CLASSES
  0
CLASS
  1
ACDBDICTIONARYWDFLT
  2
AcDbDictionaryWithDefault
  3
AutoCAD 2000
 90
0
 91
1
280
0
281
0
  0
CLASS
  1
ACDBPLACEHOLDER
  2
AcDbPlaceHolder
  3
AutoCAD 2000
 90
0
 91
1
280
0
281
0
  0
CLASS
  1
LAYOUT
  2
AcDbLayout
  3
AutoCAD 2000
 90
0
 91
0
280
0
281
0
  0
ENDSEC
  0
SECTION
  2
TABLES
  0
TABLE
  2
VPORT
  5
8
100
AcDbSymbolTable
 70
2
  0
VPORT
  5
1F4
100
AcDbSymbolTableRecord
100
AcDbViewportTableRecord
  2
*ACTIVE
 70
0
 10
0.0
 20
0.0
 11
1.0
 21
1.0
 12
5.5
 22
4.25
 13
0.0
 23
0.0
 14
1.0
 24
1.0
 15
0.0
 25
0.0
 16
0.0
 26
0.0
 36
1.0
 17
0.0
 27
0.0
 37
0.0
 40
8.5
 41
1.2941176471
 42
50.0
 43
0.0
 44
0.0
 50
0.0
 51
0.0
 71
0
 72
100
 73
1
 74
1
 75
0
 76
0
 77
0
 78
0
  0
ENDTAB
  0
TABLE
  2
LTYPE
  5
5
100
AcDbSymbolTable
 70
6
  0
LTYPE
  5
14
100
AcDbSymbolTableRecord
100
AcDbLinetypeTableRecord
  2
BYBLOCK
 70
0
  3

 72
65
 73
0
 40
0.0
  0
LTYPE
  5
15
100
AcDbSymbolTableRecord
100
AcDbLinetypeTableRecord
  2
BYLAYER
 70
0
  3

 72
65
 73
0
 40
0.0
  0
LTYPE
  5
16
100
AcDbSymbolTableRecord
100
AcDbLinetypeTableRecord
  2
CONTINUOUS
 70
64
  3
Solid line
 72
65
 73
0
 40
0.0
  0
LTYPE
  5
1F5
100
AcDbSymbolTableRecord
100
AcDbLinetypeTableRecord
  2
CENTER
 70
64
  3
____ _ ____ _ ____ _ ____ _ ____ _ ____ _ ____
 72
65
 73
4
 40
0.6
 49
0.375
 74
0
 49
-0.075
 74
0
 49
0.075
 74
0
 49
-0.075
 74
0
  0
LTYPE
  5
1F6
100
AcDbSymbolTableRecord
100
AcDbLinetypeTableRecord
  2
HIDDEN
 70
64
  3
- - - - - - - - - - - - - - - - - - - -
 72
65
 73
2
 40
0.2
 49
0.1
 74
0
 49
-0.1
 74
0
  0
LTYPE
  5
1F7
100
AcDbSymbolTableRecord
100
AcDbLinetypeTableRecord
  2
PHANTOM
 70
64
  3
_____ _ _ _____ _ _ _____ _ _ _____
 72
65
 73
6
 40
0.8
 49
0.45
 74
0
 49
-0.05
 74
0
 49
0.1
 74
0
 49
-0.05
 74
0
 49
0.1
 74
0
 49
-0.05
 74
0
  0
LTYPE
  5
1F8
100
AcDbSymbolTableRecord
100
AcDbLinetypeTableRecord
  2
DOT
 70
64
  3
. . . . . . . . . . . . . . . . . . . .
 72
65
 73
2
 40
0.2
 49
0.1
 74
0
 49
-0.1
 74
0
  0
LTYPE
  5
1F9
100
AcDbSymbolTableRecord
100
AcDbLinetypeTableRecord
  2
DASHED
 70
64
  3
- - - - - - - - - - - - - - - - - - - -
 72
65
 73
2
 40
0.2
 49
0.1
 74
0
 49
-0.1
 74
0
  0
ENDTAB
  0
TABLE
  2
LAYER
  5
2
100
AcDbSymbolTable
 70
36
  0
LAYER
  5
10
100
AcDbSymbolTableRecord
100
AcDbLayerTableRecord
  2
0
 70
0
 62
7
  6
CONTINUOUS
370
-3
390
F
  0
LAYER
  5
1FA
100
AcDbSymbolTableRecord
100
AcDbLayerTableRecord
  2
DEFAULT_1
 70
0
 62
7
  6
CENTER
370
-3
390
F
  0
LAYER
  5
1FB
100
AcDbSymbolTableRecord
100
AcDbLayerTableRecord
  2
DEFAULT_2
 70
0
 62
8
  6
HIDDEN
370
-3
390
F
  0
LAYER
  5
1FC
100
AcDbSymbolTableRecord
100
AcDbLayerTableRecord
  2
DEFAULT_3
 70
0
 62
7
  6
PHANTOM
370
-3
390
F
  0
LAYER
  5
1FD
100
AcDbSymbolTableRecord
100
AcDbLayerTableRecord
  2
ALL_ASSEMBLY_MEMBERS
 70
0
 62
7
  6
CONTINUOUS
370
-3
390
F
  0
LAYER
  5
1FE
100
AcDbSymbolTableRecord
100
AcDbLayerTableRecord
  2
ALL_FEATURES
 70
0
 62
7
  6
CONTINUOUS
370
-3
390
F
  0
LAYER
  5
1FF
100
AcDbSymbolTableRecord
100
AcDbLayerTableRecord
  2
AXES_FEATURES
 70
0
 62
7
  6
CONTINUOUS
370
-3
390
F
  0
LAYER
  5
200
100
AcDbSymbolTableRecord
100
AcDbLayerTableRecord
  2
CHAMFER_FEATURES
 70
0
 62
7
  6
CONTINUOUS
370
-3
390
F
  0
LAYER
  5
201
100
AcDbSymbolTableRecord
100
AcDbLayerTableRecord
  2
COSMETIC_SKETCHES
 70
0
 62
7
  6
CONTINUOUS
370
-3
390
F
  0
LAYER
  5
202
100
AcDbSymbolTableRecord
100
AcDbLayerTableRecord
  2
CUT_FEATURES
 70
0
 62
7
  6
CONTINUOUS
370
-3
390
F
  0
LAYER
  5
203
100
AcDbSymbolTableRecord
100
AcDbLayerTableRecord
  2
DATUM_CURVES
 70
0
 62
7
  6
CONTINUOUS
370
-3
390
F
  0
LAYER
  5
204
100
AcDbSymbolTableRecord
100
AcDbLayerTableRecord
  2
DATUM_PLANES
 70
0
 62
7
  6
CONTINUOUS
370
-3
390
F
  0
LAYER
  5
205
100
AcDbSymbolTableRecord
100
AcDbLayerTableRecord
  2
DATUM_POINTS
 70
0
 62
7
  6
CONTINUOUS
370
-3
390
F
  0
LAYER
  5
206
100
AcDbSymbolTableRecord
100
AcDbLayerTableRecord
  2
DEFAULT_COORDINATE_SYSTEM
 70
0
 62
7
  6
CONTINUOUS
370
-3
390
F
  0
LAYER
  5
207
100
AcDbSymbolTableRecord
100
AcDbLayerTableRecord
  2
DEFAULT_DATUM_AXES
 70
0
 62
7
  6
CONTINUOUS
370
-3
390
F
  0
LAYER
  5
208
100
AcDbSymbolTableRecord
100
AcDbLayerTableRecord
  2
DEFAULT_DATUM_CURVES
 70
0
 62
7
  6
CONTINUOUS
370
-3
390
F
  0
LAYER
  5
209
100
AcDbSymbolTableRecord
100
AcDbLayerTableRecord
  2
DEFAULT_DATUM_PLANES
 70
0
 62
7
  6
CONTINUOUS
370
-3
390
F
  0
LAYER
  5
20A
100
AcDbSymbolTableRecord
100
AcDbLayerTableRecord
  2
DEFAULT_SURFACES
 70
0
 62
7
  6
CONTINUOUS
370
-3
390
F
  0
LAYER
  5
20B
100
AcDbSymbolTableRecord
100
AcDbLayerTableRecord
  2
DIMENSIONS
 70
0
 62
7
  6
CONTINUOUS
370
-3
390
F
  0
LAYER
  5
20C
100
AcDbSymbolTableRecord
100
AcDbLayerTableRecord
  2
HOLE_FEATURES
 70
0
 62
7
  6
CONTINUOUS
370
-3
390
F
  0
LAYER
  5
20D
100
AcDbSymbolTableRecord
100
AcDbLayerTableRecord
  2
HOLE_PATTERN
 70
0
 62
7
  6
CONTINUOUS
370
-3
390
F
  0
LAYER
  5
20E
100
AcDbSymbolTableRecord
100
AcDbLayerTableRecord
  2
INTFCLR_1
 70
0
 62
7
  6
CONTINUOUS
370
-3
390
F
  0
LAYER
  5
20F
100
AcDbSymbolTableRecord
100
AcDbLayerTableRecord
  2
NOTES
 70
0
 62
7
  6
CONTINUOUS
370
-3
390
F
  0
LAYER
  5
210
100
AcDbSymbolTableRecord
100
AcDbLayerTableRecord
  2
PART_REFERENCE_DIMENSIONS
 70
0
 62
7
  6
CONTINUOUS
370
-3
390
F
  0
LAYER
  5
211
100
AcDbSymbolTableRecord
100
AcDbLayerTableRecord
  2
PLATED_AREA
 70
0
 62
7
  6
CONTINUOUS
370
-3
390
F
  0
LAYER
  5
212
100
AcDbSymbolTableRecord
100
AcDbLayerTableRecord
  2
PLATED_SURAFCE
 70
0
 62
7
  6
CONTINUOUS
370
-3
390
F
  0
LAYER
  5
213
100
AcDbSymbolTableRecord
100
AcDbLayerTableRecord
  2
PLATED_SURFACE_AREA
 70
0
 62
7
  6
CONTINUOUS
370
-3
390
F
  0
LAYER
  5
214
100
AcDbSymbolTableRecord
100
AcDbLayerTableRecord
  2
POINTS
 70
0
 62
7
  6
CONTINUOUS
370
-3
390
F
  0
LAYER
  5
215
100
AcDbSymbolTableRecord
100
AcDbLayerTableRecord
  2
PROTRUSION
 70
0
 62
7
  6
CONTINUOUS
370
-3
390
F
  0
LAYER
  5
216
100
AcDbSymbolTableRecord
100
AcDbLayerTableRecord
  2
PROTRUSION_FEATURES
 70
0
 62
7
  6
CONTINUOUS
370
-3
390
F
  0
LAYER
  5
217
100
AcDbSymbolTableRecord
100
AcDbLayerTableRecord
  2
QUILT
 70
0
 62
7
  6
CONTINUOUS
370
-3
390
F
  0
LAYER
  5
218
100
AcDbSymbolTableRecord
100
AcDbLayerTableRecord
  2
QUILTS
 70
0
 62
7
  6
CONTINUOUS
370
-3
390
F
  0
LAYER
  5
219
100
AcDbSymbolTableRecord
100
AcDbLayerTableRecord
  2
REFERENCE_DIMENSIONS
 70
0
 62
7
  6
CONTINUOUS
370
-3
390
F
  0
LAYER
  5
21A
100
AcDbSymbolTableRecord
100
AcDbLayerTableRecord
  2
ROUND_FEATURES
 70
0
 62
7
  6
CONTINUOUS
370
-3
390
F
  0
LAYER
  5
21B
100
AcDbSymbolTableRecord
100
AcDbLayerTableRecord
  2
SATIN_DIRECTION
 70
0
 62
7
  6
CONTINUOUS
370
-3
390
F
  0
LAYER
  5
21C
100
AcDbSymbolTableRecord
100
AcDbLayerTableRecord
  2
SHELL_FEATURES
 70
0
 62
7
  6
CONTINUOUS
370
-3
390
F
  0
LAYER
  5
21D
100
AcDbSymbolTableRecord
100
AcDbLayerTableRecord
  2
SIZE_REF
 70
0
 62
7
  6
CONTINUOUS
370
-3
390
F
  0
LAYER
  5
21E
100
AcDbSymbolTableRecord
100
AcDbLayerTableRecord
  2
XSEC_DATUMS
 70
0
 62
7
  6
CONTINUOUS
370
-3
390
F
  0
ENDTAB
  0
TABLE
  2
STYLE
  5
3
100
AcDbSymbolTable
 70
1
  0
STYLE
  5
11
100
AcDbSymbolTableRecord
100
AcDbTextStyleTableRecord
  2
STANDARD
 70
0
 40
0.0
 41
0.8
 50
0.0
 71
0
 42
0.2
  3
txt
  4

  0
STYLE
  5
21F
100
AcDbSymbolTableRecord
100
AcDbTextStyleTableRecord
  2
TEXTSTYLE_1
 70
0
 40
0.0
 41
0.8
 50
0.0
 71
0
 42
0.2
  3
gdt
  4

  0
ENDTAB
  0
TABLE
  2
VIEW
  5
6
100
AcDbSymbolTable
 70
0
  0
ENDTAB
  0
TABLE
  2
UCS
  5
7
100
AcDbSymbolTable
 70
0
  0
ENDTAB
  0
TABLE
  2
APPID
  5
9
100
AcDbSymbolTable
 70
1
  0
APPID
  5
220
100
AcDbSymbolTableRecord
100
AcDbRegAppTableRecord
  2
ACAD
 70
0
  0
ENDTAB
  0
TABLE
  2
BLOCK_RECORD
  5
1
100
AcDbSymbolTable
 70
0
  0
BLOCK_RECORD
  5
221
100
AcDbSymbolTableRecord
100
AcDbBlockTableRecord
  2
*Model_Space
  0
BLOCK_RECORD
  5
222
100
AcDbSymbolTableRecord
100
AcDbBlockTableRecord
  2
*Paper_Space
  0
ENDTAB
  0
TABLE
  2
DIMSTYLE
  5
A
100
AcDbSymbolTable
 70
1
100
AcDbDimStyleTable
 71
0
  0
DIMSTYLE
105
223
100
AcDbSymbolTableRecord
100
AcDbDimStyleTableRecord
  2
STANDARD
 70
0
  3

  4

 40
1.0
 41
0.1
 42
0.0625
 43
0.38
 44
0.125
 45
0.0
 46
0.0
 47
0.001
 48
0.001
140
0.08
141
0.09
142
0.0
143
25.4
144
1.0
145
0.0
146
1.0
147
0.09
 71
1.0
 72
0.0
 73
1
 74
1
 75
0
 76
0
 77
0
 78
4
170
0
171
2
172
0
173
0
174
0
175
0
176
0
177
0
178
0
270
2
271
3
272
3
273
2
274
2
275
0
280
0
281
0
282
0
283
1
284
4
285
0
286
0
287
3
288
0
340
11
278
46
  0
ENDTAB
  0
ENDSEC
  0
SECTION
  2
BLOCKS
  0
BLOCK
  5
20
100
AcDbEntity
  8
0
100
AcDbBlockBegin
  2
*Model_Space
 70
0
 10
0.0
 20
0.0
 30
0.0
  3
*Model_Space
  1

  0
ENDBLK
  5
21
100
AcDbEntity
  8
0
100
AcDbBlockEnd
  0
BLOCK
  5
1C
100
AcDbEntity
  8
0
100
AcDbBlockBegin
  2
*Paper_Space
 70
0
 10
0.0
 20
0.0
 30
0.0
  3
*Paper_Space
  1

  0
ENDBLK
  5
1D
100
AcDbEntity
  8
0
100
AcDbBlockEnd
  0
ENDSEC
  0
SECTION
  2
ENTITIES
  0
LINE
  5
224
100
AcDbEntity
  8
0
100
AcDbLine
 62
7
  6
CONTINUOUS
 10
0.0
 20
0.0
 11
0.0
 21
8.5
  0
LINE
  5
225
100
AcDbEntity
  8
0
100
AcDbLine
 62
7
  6
CONTINUOUS
 10
0.0
 20
0.0
 11
11.0
 21
0.0
  0
LINE
  5
226
100
AcDbEntity
  8
0
100
AcDbLine
 62
7
  6
CONTINUOUS
 10
0.0
 20
8.5
 11
11.0
 21
8.5
  0
LINE
  5
227
100
AcDbEntity
  8
0
100
AcDbLine
 62
7
  6
CONTINUOUS
 10
11.0
 20
0.0
 11
11.0
 21
8.5
  0
LINE
  5
228
100
AcDbEntity
  8
ALL_FEATURES
100
AcDbLine
 62
7
  6
CONTINUOUS
 10
3.0968897333
 20
1.2483715881
 11
5.8418897333
 21
1.2483715881
  0
LINE
  5
229
100
AcDbEntity
  8
ALL_FEATURES
100
AcDbLine
 62
7
  6
CONTINUOUS
 10
3.0968897333
 20
1.3421215881
 11
5.8418897333
 21
1.3421215881
  0
LINE
  5
22A
100
AcDbEntity
  8
ALL_FEATURES
100
AcDbLine
 62
7
  6
CONTINUOUS
 10
2.7218897333
 20
1.6233715881
 11
2.7518897333
 21
1.6233715881
  0
LINE
  5
22B
100
AcDbEntity
  8
ALL_FEATURES
100
AcDbLine
 62
7
  6
CONTINUOUS
 10
6.1868897333
 20
1.6233715881
 11
6.2168897333
 21
1.6233715881
  0
LINE
  5
22C
100
AcDbEntity
  8
ALL_FEATURES
100
AcDbLine
 62
7
  6
CONTINUOUS
 10
2.7218897333
 20
1.7171215881
 11
2.7518897333
 21
1.7171215881
  0
LINE
  5
22D
100
AcDbEntity
  8
ALL_FEATURES
100
AcDbLine
 62
7
  6
CONTINUOUS
 10
6.1868897333
 20
1.7171215881
 11
6.2168897333
 21
1.7171215881
  0
LINE
  5
22E
100
AcDbEntity
  8
ALL_FEATURES
100
AcDbLine
 62
7
  6
CONTINUOUS
 10
2.4068897333
 20
6.7458715881
 11
2.4068897333
 21
1.9383715881
  0
LINE
  5
22F
100
AcDbEntity
  8
ALL_FEATURES
100
AcDbLine
 62
7
  6
CONTINUOUS
 10
2.5006397333
 20
6.7458715881
 11
2.5006397333
 21
1.9383715881
  0
LINE
  5
230
100
AcDbEntity
  8
ALL_ASSEMBLY_MEMBERS
100
AcDbLine
 62
9
  6
CONTINUOUS
 10
4.3004396241
 20
2.4485467281
 11
4.6383398424
 21
2.4485467281
  0
LINE
  5
231
100
AcDbEntity
  8
ALL_ASSEMBLY_MEMBERS
100
AcDbLine
 62
9
  6
CONTINUOUS
 10
4.3435492615
 20
2.5101136709
 11
4.595230205
 21
2.5101136709
  0
LINE
  5
232
100
AcDbEntity
  8
ALL_ASSEMBLY_MEMBERS
100
AcDbLine
 62
7
  6
CONTINUOUS
 10
4.327571566
 20
2.5289965881
 11
4.6112079005
 21
2.5289965881
  0
LINE
  5
233
100
AcDbEntity
  8
ALL_ASSEMBLY_MEMBERS
100
AcDbLine
 62
9
  6
CONTINUOUS
 10
4.3262017633
 20
2.547643957
 11
4.6125777032
 21
2.547643957
  0
LINE
  5
234
100
AcDbEntity
  8
ALL_FEATURES
100
AcDbLine
 62
7
  6
CONTINUOUS
 10
2.7818897333
 20
7.1208715881
 11
2.7818897333
 21
7.0908715881
  0
LINE
  5
235
100
AcDbEntity
  8
ALL_FEATURES
100
AcDbLine
 62
7
  6
CONTINUOUS
 10
2.7818897333
 20
1.5933715881
 11
2.7818897333
 21
1.5633715881
  0
LINE
  5
236
100
AcDbEntity
  8
ALL_FEATURES
100
AcDbLine
 62
7
  6
CONTINUOUS
 10
2.8756397333
 20
7.1208715881
 11
2.8756397333
 21
7.0908715881
  0
LINE
  5
237
100
AcDbEntity
  8
ALL_FEATURES
100
AcDbLine
 62
7
  6
CONTINUOUS
 10
2.8756397333
 20
1.5933715881
 11
2.8756397333
 21
1.5633715881
  0
LINE
  5
238
100
AcDbEntity
  8
ALL_ASSEMBLY_MEMBERS
100
AcDbLine
 62
9
  6
CONTINUOUS
 10
4.3293812821
 20
2.8187470799
 11
4.3427889515
 21
2.8187470746
  0
LINE
  5
239
100
AcDbEntity
  8
ALL_ASSEMBLY_MEMBERS
100
AcDbLine
 62
9
  6
CONTINUOUS
 10
4.5962959653
 20
2.8187470798
 11
4.6093981844
 21
2.8187470799
  0
LINE
  5
23A
100
AcDbEntity
  8
ALL_ASSEMBLY_MEMBERS
100
AcDbLine
 62
7
  6
CONTINUOUS
 10
3.762381816
 20
3.3429620598
 11
3.7008148732
 21
3.3860716972
  0
LINE
  5
23B
100
AcDbEntity
  8
ALL_ASSEMBLY_MEMBERS
100
AcDbLine
 62
7
  6
CONTINUOUS
 10
4.6231397333
 20
6.2617465881
 11
4.5974038354
 21
6.2248524688
  0
LINE
  5
23C
100
AcDbEntity
  8
0
100
AcDbLine
 62
7
  6
CONTINUOUS
 10
5.3415954064
 20
3.430749033
 11
5.3414373156
 21
3.4307066727
  0
LINE
  5
23D
100
AcDbEntity
  8
0
100
AcDbLine
 62
9
  6
CONTINUOUS
 10
5.2098655823
 20
3.3982153259
 11
5.2097074795
 21
3.3981729624
  0
LINE
  5
23E
100
AcDbEntity
  8
0
100
AcDbLine
 62
9
  6
CONTINUOUS
 10
5.2134188452
 20
3.4092335266
 11
5.2132606726
 21
3.4091911444
  0
LINE
  5
23F
100
AcDbEntity
  8
0
100
AcDbLine
 62
9
  6
CONTINUOUS
 10
5.2139295834
 20
3.4197519009
 11
5.2137713988
 21
3.4197095155
  0
LINE
  5
240
100
AcDbEntity
  8
0
100
AcDbLine
 62
9
  6
CONTINUOUS
 10
5.2408316339
 20
3.4607122711
 11
5.2406738081
 21
3.4606699818
  0
LINE
  5
241
100
AcDbEntity
  8
0
100
AcDbLine
 62
9
  6
CONTINUOUS
 10
5.2806922202
 20
3.4905605054
 11
5.2805348221
 21
3.4905183307
  0
LINE
  5
242
100
AcDbEntity
  8
0
100
AcDbLine
 62
7
  6
CONTINUOUS
 10
5.2606881791
 20
3.5025764477
 11
5.2605313713
 21
3.5025344312
  0
LINE
  5
243
100
AcDbEntity
  8
0
100
AcDbLine
 62
9
  6
CONTINUOUS
 10
5.1842911209
 20
3.5035482941
 11
5.1841354534
 21
3.5035065831
  0
LINE
  5
244
100
AcDbEntity
  8
0
100
AcDbLine
 62
9
  6
CONTINUOUS
 10
5.3016447475
 20
3.547565579
 11
5.3014893394
 21
3.5475239376
  0
LINE
  5
245
100
AcDbEntity
  8
0
100
AcDbLine
 62
9
  6
CONTINUOUS
 10
5.2195250748
 20
3.5328841911
 11
5.2193703807
 21
3.5328427409
  0
LINE
  5
246
100
AcDbEntity
  8
0
100
AcDbLine
 62
7
  6
CONTINUOUS
 10
3.6210807151
 20
3.4362611887
 11
3.6171217414
 21
3.4375475373
  0
LINE
  5
247
100
AcDbEntity
  8
0
100
AcDbLine
 62
7
  6
CONTINUOUS
 10
3.7396063072
 20
3.3986479388
 11
3.7344291856
 21
3.4003300876
  0
LINE
  5
248
100
AcDbEntity
  8
0
100
AcDbLine
 62
7
  6
CONTINUOUS
 10
3.7243814314
 20
3.4257091884
 11
3.6325129757
 21
3.4555590591
  0
LINE
  5
249
100
AcDbEntity
  8
0
100
AcDbLine
 62
7
  6
CONTINUOUS
 10
3.6092537454
 20
3.4827611902
 11
3.7301546318
 21
3.443478111
  0
LINE
  5
24A
100
AcDbEntity
  8
0
100
AcDbLine
 62
7
  6
CONTINUOUS
 10
3.7532003214
 20
3.4581044906
 11
3.7583774371
 21
3.4564223438
  0
LINE
  5
24B
100
AcDbEntity
  8
0
100
AcDbLine
 62
7
  6
CONTINUOUS
 10
3.6372887293
 20
3.5606502786
 11
3.6492154688
 21
3.5492558828
  0
LINE
  5
24C
100
AcDbEntity
  8
ALL_ASSEMBLY_MEMBERS
100
AcDbLine
 62
9
  6
CONTINUOUS
 10
3.7008148732
 20
3.048171479
 11
3.7008148732
 21
3.3860716972
  0
LINE
  5
24D
100
AcDbEntity
  8
ALL_ASSEMBLY_MEMBERS
100
AcDbLine
 62
9
  6
CONTINUOUS
 10
4.342788941
 20
3.6154960964
 11
4.3293812821
 21
3.6154960963
  0
LINE
  5
24E
100
AcDbEntity
  8
ALL_ASSEMBLY_MEMBERS
100
AcDbLine
 62
9
  6
CONTINUOUS
 10
4.6093981844
 20
3.6154960963
 11
4.5959905152
 21
3.6154961016
  0
LINE
  5
24F
100
AcDbEntity
  8
0
100
AcDbLine
 62
7
  6
CONTINUOUS
 10
5.3414373156
 20
3.4307066727
 11
5.3251574817
 21
3.4337805319
  0
LINE
  5
250
100
AcDbEntity
  8
0
100
AcDbLine
 62
9
  6
CONTINUOUS
 10
5.0747405851
 20
2.7529452437
 11
5.0746067138
 21
2.7530389814
  0
LINE
  5
251
100
AcDbEntity
  8
0
100
AcDbLine
 62
9
  6
CONTINUOUS
 10
5.085465092
 20
2.7573055917
 11
5.0853310794
 21
2.7573994284
  0
LINE
  5
252
100
AcDbEntity
  8
0
100
AcDbLine
 62
9
  6
CONTINUOUS
 10
5.0938510136
 20
2.763675366
 11
5.0937169076
 21
2.763769268
  0
LINE
  5
253
100
AcDbEntity
  8
ALL_ASSEMBLY_MEMBERS
100
AcDbLine
 62
7
  6
CONTINUOUS
 10
4.595230205
 20
2.5101136709
 11
4.6383398424
 21
2.4485467281
  0
LINE
  5
254
100
AcDbEntity
  8
ALL_ASSEMBLY_MEMBERS
100
AcDbLine
 62
9
  6
CONTINUOUS
 10
3.762381816
 20
3.0912811164
 11
3.762381816
 21
3.3429620598
  0
LINE
  5
255
100
AcDbEntity
  8
ALL_ASSEMBLY_MEMBERS
100
AcDbLine
 62
7
  6
CONTINUOUS
 10
3.7812647333
 20
3.0753034208
 11
3.7812647333
 21
3.3589397554
  0
LINE
  5
256
100
AcDbEntity
  8
ALL_ASSEMBLY_MEMBERS
100
AcDbLine
 62
9
  6
CONTINUOUS
 10
3.7999121022
 20
3.0739336182
 11
3.7999121022
 21
3.360309558
  0
LINE
  5
257
100
AcDbEntity
  8
0
100
AcDbLine
 62
7
  6
CONTINUOUS
 10
3.6377835959
 20
3.5621733213
 11
3.6372887293
 21
3.5606502786
  0
LINE
  5
258
100
AcDbEntity
  8
ALL_ASSEMBLY_MEMBERS
100
AcDbLine
 62
7
  6
CONTINUOUS
 10
5.2379645933
 20
3.048171479
 11
5.1763976505
 21
3.0912811164
  0
LINE
  5
259
100
AcDbEntity
  8
0
100
AcDbLine
 62
7
  6
CONTINUOUS
 10
4.0104444443
 20
3.8105846809
 11
3.9427563945
 21
3.9004097569
  0
LINE
  5
25A
100
AcDbEntity
  8
0
100
AcDbLine
 62
7
  6
CONTINUOUS
 10
3.9577308103
 20
3.9116937886
 11
4.0254188601
 21
3.8218687126
  0
LINE
  5
25B
100
AcDbEntity
  8
ALL_ASSEMBLY_MEMBERS
100
AcDbLine
 62
9
  6
CONTINUOUS
 10
4.0710152201
 20
3.090520811
 11
4.0710152259
 21
3.0771131361
  0
LINE
  5
25C
100
AcDbEntity
  8
ALL_ASSEMBLY_MEMBERS
100
AcDbLine
 62
9
  6
CONTINUOUS
 10
4.0710152259
 20
3.35713004
 11
4.0710152204
 21
3.3437223704
  0
LINE
  5
25D
100
AcDbEntity
  8
ALL_ASSEMBLY_MEMBERS
100
AcDbLine
 62
7
  6
CONTINUOUS
 10
4.3413756311
 20
4.9343907074
 11
4.3156397333
 21
4.8974965881
  0
LINE
  5
25E
100
AcDbEntity
  8
ALL_ASSEMBLY_MEMBERS
100
AcDbLine
 62
9
  6
CONTINUOUS
 10
4.3262017633
 20
3.8865992192
 11
4.6125777032
 21
3.8865992192
  0
LINE
  5
25F
100
AcDbEntity
  8
ALL_ASSEMBLY_MEMBERS
100
AcDbLine
 62
7
  6
CONTINUOUS
 10
4.327571566
 20
3.9052465881
 11
4.6112079005
 21
3.9052465881
  0
LINE
  5
260
100
AcDbEntity
  8
ALL_ASSEMBLY_MEMBERS
100
AcDbLine
 62
9
  6
CONTINUOUS
 10
4.3435492615
 20
3.9241295053
 11
4.595230205
 21
3.9241295053
  0
LINE
  5
261
100
AcDbEntity
  8
0
100
AcDbLine
 62
9
  6
CONTINUOUS
 10
4.3250147333
 20
3.9348715881
 11
4.3360275742
 21
3.9348715881
  0
LINE
  5
262
100
AcDbEntity
  8
0
100
AcDbLine
 62
9
  6
CONTINUOUS
 10
4.6027518923
 20
3.9348715881
 11
4.6137647333
 21
3.9348715881
  0
LINE
  5
263
100
AcDbEntity
  8
ALL_ASSEMBLY_MEMBERS
100
AcDbLine
 62
9
  6
CONTINUOUS
 10
4.3004396241
 20
3.9856964481
 11
4.6383398424
 21
3.9856964481
  0
LINE
  5
264
100
AcDbEntity
  8
ALL_ASSEMBLY_MEMBERS
100
AcDbLine
 62
7
  6
CONTINUOUS
 10
4.3435492615
 20
3.9241295053
 11
4.3004396241
 21
3.9856964481
  0
LINE
  5
265
100
AcDbEntity
  8
ALL_ASSEMBLY_MEMBERS
100
AcDbLine
 62
7
  6
CONTINUOUS
 10
4.3223897333
 20
5.9821388974
 11
4.3223897333
 21
5.9714965881
  0
LINE
  5
266
100
AcDbEntity
  8
ALL_ASSEMBLY_MEMBERS
100
AcDbLine
 62
7
  6
CONTINUOUS
 10
4.3223897333
 20
5.1877465881
 11
4.3223897333
 21
5.1771042788
  0
LINE
  5
267
100
AcDbEntity
  8
0
100
AcDbLine
 62
7
  6
CONTINUOUS
 10
4.3250147333
 20
3.8202911308
 11
4.3250147333
 21
3.8879047828
  0
LINE
  5
268
100
AcDbEntity
  8
0
100
AcDbLine
 62
7
  6
CONTINUOUS
 10
4.3250147333
 20
3.9028577808
 11
4.3250147333
 21
3.9348715881
  0
LINE
  5
269
100
AcDbEntity
  8
0
100
AcDbLine
 62
7
  6
CONTINUOUS
 10
4.6137647333
 20
3.8202912237
 11
4.6137647333
 21
3.8879047828
  0
LINE
  5
26A
100
AcDbEntity
  8
0
100
AcDbLine
 62
7
  6
CONTINUOUS
 10
4.6137647333
 20
3.9028577808
 11
4.6137647333
 21
3.9348715881
  0
LINE
  5
26B
100
AcDbEntity
  8
ALL_ASSEMBLY_MEMBERS
100
AcDbLine
 62
7
  6
CONTINUOUS
 10
4.6163897333
 20
5.9821388974
 11
4.6163897333
 21
5.9714965881
  0
LINE
  5
26C
100
AcDbEntity
  8
ALL_ASSEMBLY_MEMBERS
100
AcDbLine
 62
7
  6
CONTINUOUS
 10
4.6163897333
 20
5.1877465881
 11
4.6163897333
 21
5.1771042788
  0
LINE
  5
26D
100
AcDbEntity
  8
ALL_ASSEMBLY_MEMBERS
100
AcDbLine
 62
9
  6
CONTINUOUS
 10
4.8677642464
 20
3.3437223651
 11
4.8677642406
 21
3.35713004
  0
LINE
  5
26E
100
AcDbEntity
  8
ALL_ASSEMBLY_MEMBERS
100
AcDbLine
 62
9
  6
CONTINUOUS
 10
4.8677642406
 20
3.0771131361
 11
4.867764246
 21
3.0902153412
  0
LINE
  5
26F
100
AcDbEntity
  8
ALL_ASSEMBLY_MEMBERS
100
AcDbLine
 62
7
  6
CONTINUOUS
 10
4.595230205
 20
3.9241295053
 11
4.6383398424
 21
3.9856964481
  0
LINE
  5
270
100
AcDbEntity
  8
ALL_ASSEMBLY_MEMBERS
100
AcDbLine
 62
7
  6
CONTINUOUS
 10
4.5974038354
 20
4.9343907074
 11
4.6231397333
 21
4.8974965881
  0
LINE
  5
271
100
AcDbEntity
  8
ALL_ASSEMBLY_MEMBERS
100
AcDbLine
 62
9
  6
CONTINUOUS
 10
5.1388673643
 20
3.360309558
 11
5.1388673643
 21
3.0739336182
  0
LINE
  5
272
100
AcDbEntity
  8
ALL_ASSEMBLY_MEMBERS
100
AcDbLine
 62
7
  6
CONTINUOUS
 10
5.1575147333
 20
3.3589397554
 11
5.1575147333
 21
3.0753034208
  0
LINE
  5
273
100
AcDbEntity
  8
ALL_ASSEMBLY_MEMBERS
100
AcDbLine
 62
9
  6
CONTINUOUS
 10
5.1763976505
 20
3.3429620598
 11
5.1763976505
 21
3.0912811164
  0
LINE
  5
274
100
AcDbEntity
  8
ALL_ASSEMBLY_MEMBERS
100
AcDbLine
 62
9
  6
CONTINUOUS
 10
5.2379645933
 20
3.3860716972
 11
5.2379645933
 21
3.048171479
  0
LINE
  5
275
100
AcDbEntity
  8
0
100
AcDbLine
 62
7
  6
CONTINUOUS
 10
4.9444021788
 20
3.7978042875
 11
5.0166985457
 21
3.8839637425
  0
LINE
  5
276
100
AcDbEntity
  8
0
100
AcDbLine
 62
7
  6
CONTINUOUS
 10
5.031061879
 20
3.8719114748
 11
4.9587655121
 21
3.7857520198
  0
LINE
  5
277
100
AcDbEntity
  8
ALL_ASSEMBLY_MEMBERS
100
AcDbLine
 62
7
  6
CONTINUOUS
 10
3.762381816
 20
3.0912811164
 11
3.7008148732
 21
3.048171479
  0
LINE
  5
278
100
AcDbEntity
  8
ALL_ASSEMBLY_MEMBERS
100
AcDbLine
 62
7
  6
CONTINUOUS
 10
4.3156397333
 20
4.8974965881
 11
4.6231397333
 21
4.8974965881
  0
LINE
  5
279
100
AcDbEntity
  8
ALL_ASSEMBLY_MEMBERS
100
AcDbLine
 62
9
  6
CONTINUOUS
 10
4.3413756311
 20
4.9343907074
 11
4.5974038354
 21
4.9343907074
  0
LINE
  5
27A
100
AcDbEntity
  8
ALL_ASSEMBLY_MEMBERS
100
AcDbLine
 62
7
  6
CONTINUOUS
 10
4.3343897333
 20
4.9529112807
 11
4.6043897333
 21
4.9529112807
  0
LINE
  5
27B
100
AcDbEntity
  8
ALL_ASSEMBLY_MEMBERS
100
AcDbLine
 62
9
  6
CONTINUOUS
 10
4.32565706
 20
4.9731417374
 11
4.6131224065
 21
4.9731417374
  0
LINE
  5
27C
100
AcDbEntity
  8
0
100
AcDbLine
 62
7
  6
CONTINUOUS
 10
5.3435214206
 20
3.4229286868
 11
5.3414373156
 21
3.4307066727
  0
LINE
  5
27D
100
AcDbEntity
  8
ALL_ASSEMBLY_MEMBERS
100
AcDbLine
 62
7
  6
CONTINUOUS
 10
4.3435492615
 20
2.5101136709
 11
4.3004396241
 21
2.4485467281
  0
LINE
  5
27E
100
AcDbEntity
  8
0
100
AcDbLine
 62
9
  6
CONTINUOUS
 10
3.746707235
 20
2.9217906329
 11
3.7468461005
 21
2.9218708069
  0
LINE
  5
27F
100
AcDbEntity
  8
0
100
AcDbLine
 62
9
  6
CONTINUOUS
 10
3.7696882134
 20
2.8865174993
 11
3.7698289613
 21
2.8865987601
  0
LINE
  5
280
100
AcDbEntity
  8
0
100
AcDbLine
 62
9
  6
CONTINUOUS
 10
3.6985100331
 20
2.7744887133
 11
3.6986518589
 21
2.7745705964
  0
LINE
  5
281
100
AcDbEntity
  8
0
100
AcDbLine
 62
9
  6
CONTINUOUS
 10
3.7024698573
 20
2.7452158485
 11
3.7026115383
 21
2.745297648
  0
LINE
  5
282
100
AcDbEntity
  8
ALL_ASSEMBLY_MEMBERS
100
AcDbLine
 62
9
  6
CONTINUOUS
 10
4.6104968761
 20
5.1616352099
 11
4.4752129931
 21
5.1616352074
  0
LINE
  5
283
100
AcDbEntity
  8
ALL_ASSEMBLY_MEMBERS
100
AcDbLine
 62
9
  6
CONTINUOUS
 10
4.4635663719
 20
5.1616352084
 11
4.3282825904
 21
5.1616352099
  0
LINE
  5
284
100
AcDbEntity
  8
ALL_ASSEMBLY_MEMBERS
100
AcDbLine
 62
9
  6
CONTINUOUS
 10
4.6163897333
 20
5.1771042788
 11
4.5822280816
 21
5.177104272
  0
LINE
  5
285
100
AcDbEntity
  8
ALL_ASSEMBLY_MEMBERS
100
AcDbLine
 62
9
  6
CONTINUOUS
 10
4.3565513733
 20
5.1771042765
 11
4.3223897333
 21
5.1771042788
  0
LINE
  5
286
100
AcDbEntity
  8
ALL_ASSEMBLY_MEMBERS
100
AcDbLine
 62
7
  6
CONTINUOUS
 10
4.3223897333
 20
5.1877465881
 11
4.323911557
 21
5.1877465881
  0
LINE
  5
287
100
AcDbEntity
  8
ALL_ASSEMBLY_MEMBERS
100
AcDbLine
 62
7
  6
CONTINUOUS
 10
4.6148679089
 20
5.1877465881
 11
4.6163897333
 21
5.1877465881
  0
LINE
  5
288
100
AcDbEntity
  8
ALL_ASSEMBLY_MEMBERS
100
AcDbLine
 62
7
  6
CONTINUOUS
 10
4.3156397333
 20
6.2617465881
 11
4.3413756311
 21
6.2248524688
  0
LINE
  5
289
100
AcDbEntity
  8
ALL_ASSEMBLY_MEMBERS
100
AcDbLine
 62
7
  6
CONTINUOUS
 10
5.2379645933
 20
3.3860716972
 11
5.1763976505
 21
3.3429620598
  0
LINE
  5
28A
100
AcDbEntity
  8
0
100
AcDbLine
 62
7
  6
CONTINUOUS
 10
3.8566323013
 20
2.7781302514
 11
3.8535819004
 21
2.7763691016
  0
LINE
  5
28B
100
AcDbEntity
  8
0
100
AcDbLine
 62
7
  6
CONTINUOUS
 10
3.8702457011
 20
2.7545541554
 11
3.865531436
 21
2.7518323732
  0
LINE
  5
28C
100
AcDbEntity
  8
0
100
AcDbLine
 62
7
  6
CONTINUOUS
 10
3.8609815293
 20
2.7249197894
 11
3.7508894823
 21
2.6613581164
  0
LINE
  5
28D
100
AcDbEntity
  8
0
100
AcDbLine
 62
7
  6
CONTINUOUS
 10
3.8703244598
 20
2.7087403445
 11
3.7866691426
 21
2.6604419245
  0
LINE
  5
28E
100
AcDbEntity
  8
0
100
AcDbLine
 62
7
  6
CONTINUOUS
 10
3.9006236913
 20
2.7019479199
 11
3.895909396
 21
2.6992261203
  0
LINE
  5
28F
100
AcDbEntity
  8
0
100
AcDbLine
 62
7
  6
CONTINUOUS
 10
3.7933616533
 20
2.6390339337
 11
3.789756614
 21
2.6369525633
  0
LINE
  5
290
100
AcDbEntity
  8
ALL_FEATURES
100
AcDbLine
 62
7
  6
CONTINUOUS
 10
6.0631397333
 20
1.5633715881
 11
6.0631397333
 21
1.5933715881
  0
LINE
  5
291
100
AcDbEntity
  8
ALL_FEATURES
100
AcDbLine
 62
7
  6
CONTINUOUS
 10
6.0631397333
 20
7.0908715881
 11
6.0631397333
 21
7.1208715881
  0
LINE
  5
292
100
AcDbEntity
  8
ALL_FEATURES
100
AcDbLine
 62
7
  6
CONTINUOUS
 10
6.1568897333
 20
1.5633715881
 11
6.1568897333
 21
1.5933715881
  0
LINE
  5
293
100
AcDbEntity
  8
ALL_FEATURES
100
AcDbLine
 62
7
  6
CONTINUOUS
 10
6.1568897333
 20
7.0908715881
 11
6.1568897333
 21
7.1208715881
  0
LINE
  5
294
100
AcDbEntity
  8
ALL_ASSEMBLY_MEMBERS
100
AcDbLine
 62
7
  6
CONTINUOUS
 10
4.6163897333
 20
5.9714965881
 11
4.6148679094
 21
5.9714965881
  0
LINE
  5
295
100
AcDbEntity
  8
ALL_ASSEMBLY_MEMBERS
100
AcDbLine
 62
7
  6
CONTINUOUS
 10
4.3239115576
 20
5.9714965881
 11
4.3223897333
 21
5.9714965881
  0
LINE
  5
296
100
AcDbEntity
  8
ALL_ASSEMBLY_MEMBERS
100
AcDbLine
 62
9
  6
CONTINUOUS
 10
4.3223897333
 20
5.9821388974
 11
4.3565513849
 21
5.9821389041
  0
LINE
  5
297
100
AcDbEntity
  8
ALL_ASSEMBLY_MEMBERS
100
AcDbLine
 62
9
  6
CONTINUOUS
 10
4.5822280944
 20
5.9821388997
 11
4.6163897333
 21
5.9821388974
  0
LINE
  5
298
100
AcDbEntity
  8
ALL_ASSEMBLY_MEMBERS
100
AcDbLine
 62
9
  6
CONTINUOUS
 10
4.3282825904
 20
5.9976079663
 11
4.4635664736
 21
5.9976079688
  0
LINE
  5
299
100
AcDbEntity
  8
ALL_ASSEMBLY_MEMBERS
100
AcDbLine
 62
9
  6
CONTINUOUS
 10
4.4752130801
 20
5.9976079678
 11
4.6104968761
 21
5.9976079663
  0
LINE
  5
29A
100
AcDbEntity
  8
ALL_FEATURES
100
AcDbLine
 62
7
  6
CONTINUOUS
 10
6.4381397333
 20
1.9383715881
 11
6.4381397333
 21
6.7458715881
  0
LINE
  5
29B
100
AcDbEntity
  8
ALL_ASSEMBLY_MEMBERS
100
AcDbLine
 62
9
  6
CONTINUOUS
 10
4.6131224065
 20
6.1861014387
 11
4.32565706
 21
6.1861014387
  0
LINE
  5
29C
100
AcDbEntity
  8
ALL_ASSEMBLY_MEMBERS
100
AcDbLine
 62
7
  6
CONTINUOUS
 10
4.6043897333
 20
6.2063318954
 11
4.3343897333
 21
6.2063318954
  0
LINE
  5
29D
100
AcDbEntity
  8
ALL_ASSEMBLY_MEMBERS
100
AcDbLine
 62
9
  6
CONTINUOUS
 10
4.5974038354
 20
6.2248524688
 11
4.3413756311
 21
6.2248524688
  0
LINE
  5
29E
100
AcDbEntity
  8
ALL_ASSEMBLY_MEMBERS
100
AcDbLine
 62
7
  6
CONTINUOUS
 10
4.6231397333
 20
6.2617465881
 11
4.3156397333
 21
6.2617465881
  0
LINE
  5
29F
100
AcDbEntity
  8
ALL_FEATURES
100
AcDbLine
 62
7
  6
CONTINUOUS
 10
6.5318897333
 20
1.9383715881
 11
6.5318897333
 21
6.7458715881
  0
LINE
  5
2A0
100
AcDbEntity
  8
ALL_FEATURES
100
AcDbLine
 62
7
  6
CONTINUOUS
 10
6.2168897333
 20
6.9671215881
 11
6.1868897333
 21
6.9671215881
  0
LINE
  5
2A1
100
AcDbEntity
  8
ALL_FEATURES
100
AcDbLine
 62
7
  6
CONTINUOUS
 10
2.7518897333
 20
6.9671215881
 11
2.7218897333
 21
6.9671215881
  0
LINE
  5
2A2
100
AcDbEntity
  8
ALL_FEATURES
100
AcDbLine
 62
7
  6
CONTINUOUS
 10
6.2168897333
 20
7.0608715881
 11
6.1868897333
 21
7.0608715881
  0
LINE
  5
2A3
100
AcDbEntity
  8
ALL_FEATURES
100
AcDbLine
 62
7
  6
CONTINUOUS
 10
2.7518897333
 20
7.0608715881
 11
2.7218897333
 21
7.0608715881
  0
LINE
  5
2A4
100
AcDbEntity
  8
ALL_FEATURES
100
AcDbLine
 62
7
  6
CONTINUOUS
 10
5.8418897333
 20
7.3421215881
 11
3.0968897333
 21
7.3421215881
  0
LINE
  5
2A5
100
AcDbEntity
  8
ALL_FEATURES
100
AcDbLine
 62
7
  6
CONTINUOUS
 10
5.8418897333
 20
7.4358715881
 11
3.0968897333
 21
7.4358715881
  0
ARC
  5
2A6
100
AcDbEntity
  8
0
100
AcDbCircle
 62
7
  6
CONTINUOUS
 10
3.011330035
 20
-1.1090903654
 40
3.9755491313
100
AcDbArc
 50
78.2363721803
 51
78.404997662
  0
ARC
  5
2A7
100
AcDbEntity
  8
0
100
AcDbCircle
 62
7
  6
CONTINUOUS
 10
3.4310577013
 20
1.2656408307
 40
1.574613986
100
AcDbArc
 50
75.4070310106
 51
76.0415308946
  0
ARC
  5
2A8
100
AcDbEntity
  8
0
100
AcDbCircle
 62
7
  6
CONTINUOUS
 10
3.5579099877
 20
1.7795036876
 40
1.0453240064
100
AcDbArc
 50
76.1879158122
 51
76.7730431885
  0
ARC
  5
2A9
100
AcDbEntity
  8
0
100
AcDbCircle
 62
7
  6
CONTINUOUS
 10
3.6368658729
 20
2.1187392007
 40
0.6970225541
100
AcDbArc
 50
76.7106683111
 51
77.9135613766
  0
ARC
  5
2AA
100
AcDbEntity
  8
0
100
AcDbCircle
 62
7
  6
CONTINUOUS
 10
3.3448425143
 20
2.1264939348
 40
0.681077579
100
AcDbArc
 50
48.8111220309
 51
49.2669839164
  0
ARC
  5
2AB
100
AcDbEntity
  8
ALL_FEATURES
100
AcDbCircle
 62
7
  6
CONTINUOUS
 10
3.0968897333
 20
1.5633715881
 40
0.315
100
AcDbArc
 50
180.0
 51
270.0
  0
ARC
  5
2AC
100
AcDbEntity
  8
ALL_FEATURES
100
AcDbCircle
 62
7
  6
CONTINUOUS
 10
2.7218897333
 20
1.9383715881
 40
0.315
100
AcDbArc
 50
180.0
 51
270.0
  0
ARC
  5
2AD
100
AcDbEntity
  8
ALL_FEATURES
100
AcDbCircle
 62
7
  6
CONTINUOUS
 10
3.0968897333
 20
1.5633715881
 40
0.22125
100
AcDbArc
 50
180.0
 51
270.0
  0
ARC
  5
2AE
100
AcDbEntity
  8
ALL_FEATURES
100
AcDbCircle
 62
7
  6
CONTINUOUS
 10
2.7218897333
 20
1.9383715881
 40
0.22125
100
AcDbArc
 50
180.0
 51
270.0
  0
ARC
  5
2AF
100
AcDbEntity
  8
ALL_ASSEMBLY_MEMBERS
100
AcDbCircle
 62
7
  6
CONTINUOUS
 10
3.936982764
 20
2.9459965881
 40
0.1875
100
AcDbArc
 50
44.3699285546
 51
136.9739483152
  0
ARC
  5
2B0
100
AcDbEntity
  8
ALL_ASSEMBLY_MEMBERS
100
AcDbCircle
 62
7
  6
CONTINUOUS
 10
4.1982647333
 20
2.6847146189
 40
0.1875
100
AcDbArc
 50
313.0260516848
 51
45.630071095
  0
ARC
  5
2B1
100
AcDbEntity
  8
ALL_FEATURES
100
AcDbCircle
 62
7
  6
CONTINUOUS
 10
2.7518897333
 20
1.5933715881
 40
0.12375
100
AcDbArc
 50
0.0
 51
90.0
  0
ARC
  5
2B2
100
AcDbEntity
  8
0
100
AcDbCircle
 62
7
  6
CONTINUOUS
 10
3.7440195353
 20
2.7819783807
 40
0.0603007897
100
AcDbArc
 50
272.7152769447
 51
276.6712426468
  0
ARC
  5
2B3
100
AcDbEntity
  8
0
100
AcDbCircle
 62
7
  6
CONTINUOUS
 10
3.7346015823
 20
2.889271258
 40
0.0524598276
100
AcDbArc
 50
29.9932192112
 51
31.3446056353
  0
ARC
  5
2B4
100
AcDbEntity
  8
0
100
AcDbCircle
 62
7
  6
CONTINUOUS
 10
3.7444049473
 20
2.7721945244
 40
0.0506048386
100
AcDbArc
 50
243.7957263773
 51
250.1153650342
  0
ARC
  5
2B5
100
AcDbEntity
  8
0
100
AcDbCircle
 62
7
  6
CONTINUOUS
 10
3.7435191554
 20
2.7697535112
 40
0.0480080781
100
AcDbArc
 50
250.1186172723
 51
254.8021951329
  0
ARC
  5
2B6
100
AcDbEntity
  8
0
100
AcDbCircle
 62
7
  6
CONTINUOUS
 10
3.7564189554
 20
2.7642662265
 40
0.039808946
100
AcDbArc
 50
209.9801220797
 51
213.2024451921
  0
ARC
  5
2B7
100
AcDbEntity
  8
0
100
AcDbCircle
 62
7
  6
CONTINUOUS
 10
3.6806268293
 20
2.8565332278
 40
0.0365053823
100
AcDbArc
 50
235.5438047656
 51
240.358482324
  0
ARC
  5
2B8
100
AcDbEntity
  8
ALL_FEATURES
100
AcDbCircle
 62
7
  6
CONTINUOUS
 10
2.7518897333
 20
1.5933715881
 40
0.03
100
AcDbArc
 50
0.0
 51
90.0
  0
ARC
  5
2B9
100
AcDbEntity
  8
0
100
AcDbCircle
 62
7
  6
CONTINUOUS
 10
3.7471625318
 20
2.7563225127
 40
0.027521378
100
AcDbArc
 50
243.4704595619
 51
248.5740886575
  0
ARC
  5
2BA
100
AcDbEntity
  8
0
100
AcDbCircle
 62
7
  6
CONTINUOUS
 10
3.6773240227
 20
2.8562895254
 40
0.0258597518
100
AcDbArc
 50
209.9461151753
 51
215.4058400454
  0
ARC
  5
2BB
100
AcDbEntity
  8
ALL_ASSEMBLY_MEMBERS
100
AcDbCircle
 62
7
  6
CONTINUOUS
 10
4.3456397333
 20
2.835367106
 40
0.02325
100
AcDbArc
 50
206.8563505138
 51
225.6300742714
  0
ARC
  5
2BC
100
AcDbEntity
  8
ALL_ASSEMBLY_MEMBERS
100
AcDbCircle
 62
7
  6
CONTINUOUS
 10
4.333719437
 20
2.5169965881
 40
0.012
100
AcDbArc
 50
325.0
 51
90.0
  0
ARC
  5
2BD
100
AcDbEntity
  8
ALL_ASSEMBLY_MEMBERS
100
AcDbCircle
 62
7
  6
CONTINUOUS
 10
4.3343897333
 20
2.5388714347
 40
0.012
100
AcDbArc
 50
133.0260516848
 51
235.3765489003
  0
ARC
  5
2BE
100
AcDbEntity
  8
ALL_FEATURES
100
AcDbCircle
 62
7
  6
CONTINUOUS
 10
2.7218897333
 20
6.7458715881
 40
0.315
100
AcDbArc
 50
90.0
 51
180.0
  0
ARC
  5
2BF
100
AcDbEntity
  8
ALL_FEATURES
100
AcDbCircle
 62
7
  6
CONTINUOUS
 10
3.0968897333
 20
7.1208715881
 40
0.315
100
AcDbArc
 50
90.0
 51
180.0
  0
ARC
  5
2C0
100
AcDbEntity
  8
ALL_FEATURES
100
AcDbCircle
 62
7
  6
CONTINUOUS
 10
2.7218897333
 20
6.7458715881
 40
0.22125
100
AcDbArc
 50
90.0
 51
180.0
  0
ARC
  5
2C1
100
AcDbEntity
  8
ALL_FEATURES
100
AcDbCircle
 62
7
  6
CONTINUOUS
 10
3.0968897333
 20
7.1208715881
 40
0.22125
100
AcDbArc
 50
90.0
 51
180.0
  0
ARC
  5
2C2
100
AcDbEntity
  8
ALL_FEATURES
100
AcDbCircle
 62
7
  6
CONTINUOUS
 10
2.7518897333
 20
7.0908715881
 40
0.12375
100
AcDbArc
 50
270.0
 51
360.0
  0
ARC
  5
2C3
100
AcDbEntity
  8
ALL_FEATURES
100
AcDbCircle
 62
7
  6
CONTINUOUS
 10
2.7518897333
 20
7.0908715881
 40
0.03
100
AcDbArc
 50
270.0
 51
360.0
  0
ARC
  5
2C4
100
AcDbEntity
  8
ALL_ASSEMBLY_MEMBERS
100
AcDbCircle
 62
7
  6
CONTINUOUS
 10
3.5825147333
 20
3.2171215881
 40
0.20625
100
AcDbArc
 50
55.0
 51
305.0
  0
ARC
  5
2C5
100
AcDbEntity
  8
ALL_ASSEMBLY_MEMBERS
100
AcDbCircle
 62
7
  6
CONTINUOUS
 10
3.936982764
 20
3.4882465881
 40
0.1875
100
AcDbArc
 50
223.0260516848
 51
315.6300714454
  0
ARC
  5
2C6
100
AcDbEntity
  8
0
100
AcDbCircle
 62
7
  6
CONTINUOUS
 10
3.6963792862
 20
3.5367245503
 40
0.0861280315
100
AcDbArc
 50
340.8079799315
 51
342.007355042
  0
ARC
  5
2C7
100
AcDbEntity
  8
0
100
AcDbCircle
 62
7
  6
CONTINUOUS
 10
3.5388243301
 20
3.4415045733
 40
0.0821285802
100
AcDbArc
 50
2.2650071885
 51
3.2898682506
  0
ARC
  5
2C8
100
AcDbEntity
  8
0
100
AcDbCircle
 62
7
  6
CONTINUOUS
 10
3.7054308915
 20
3.5338366833
 40
0.0766270528
100
AcDbArc
 50
341.9704508173
 51
345.9428907652
  0
ARC
  5
2C9
100
AcDbEntity
  8
0
100
AcDbCircle
 62
7
  6
CONTINUOUS
 10
3.7115162102
 20
3.5323149138
 40
0.0703543435
100
AcDbArc
 50
345.9413779279
 51
350.1934501263
  0
ARC
  5
2CA
100
AcDbEntity
  8
0
100
AcDbCircle
 62
7
  6
CONTINUOUS
 10
3.7205334814
 20
3.5297677966
 40
0.0614486622
100
AcDbArc
 50
21.935481056
 51
25.357907606
  0
ARC
  5
2CB
100
AcDbEntity
  8
0
100
AcDbCircle
 62
7
  6
CONTINUOUS
 10
3.7249046046
 20
3.5311694548
 40
0.0568568867
100
AcDbArc
 50
4.7816929004
 51
10.0365962137
  0
ARC
  5
2CC
100
AcDbEntity
  8
0
100
AcDbCircle
 62
7
  6
CONTINUOUS
 10
3.7381561121
 20
3.5290534855
 40
0.0371883248
100
AcDbArc
 50
35.1023521017
 51
53.6383749994
  0
ARC
  5
2CD
100
AcDbEntity
  8
0
100
AcDbCircle
 62
7
  6
CONTINUOUS
 10
3.7386780714
 20
3.5294305495
 40
0.0365444708
100
AcDbArc
 50
32.9002699997
 51
35.0892779202
  0
ARC
  5
2CE
100
AcDbEntity
  8
0
100
AcDbCircle
 62
7
  6
CONTINUOUS
 10
3.7497743295
 20
3.5348715738
 40
0.0244209353
100
AcDbArc
 50
336.4677566331
 51
342.0142185393
  0
ARC
  5
2CF
100
AcDbEntity
  8
ALL_ASSEMBLY_MEMBERS
100
AcDbCircle
 62
7
  6
CONTINUOUS
 10
3.7692647333
 20
3.0814512919
 40
0.012
100
AcDbArc
 50
0.0
 51
125.0
  0
ARC
  5
2D0
100
AcDbEntity
  8
ALL_ASSEMBLY_MEMBERS
100
AcDbCircle
 62
7
  6
CONTINUOUS
 10
3.7911395798
 20
3.0821215881
 40
0.012
100
AcDbArc
 50
214.6234510997
 51
316.9739483152
  0
ARC
  5
2D1
100
AcDbEntity
  8
ALL_ASSEMBLY_MEMBERS
100
AcDbCircle
 62
7
  6
CONTINUOUS
 10
3.7692647333
 20
3.3527918843
 40
0.012
100
AcDbArc
 50
235.0
 51
353.5056814995
  0
ARC
  5
2D2
100
AcDbEntity
  8
ALL_ASSEMBLY_MEMBERS
100
AcDbCircle
 62
7
  6
CONTINUOUS
 10
3.7911395798
 20
3.3521215881
 40
0.012
100
AcDbArc
 50
43.0260516848
 51
145.3765489003
  0
ARC
  5
2D3
100
AcDbEntity
  8
ALL_ASSEMBLY_MEMBERS
100
AcDbCircle
 62
7
  6
CONTINUOUS
 10
4.1982647333
 20
3.7495285573
 40
0.1875
100
AcDbArc
 50
314.369928905
 51
46.9739483152
  0
ARC
  5
2D4
100
AcDbEntity
  8
ALL_ASSEMBLY_MEMBERS
100
AcDbCircle
 62
7
  6
CONTINUOUS
 10
4.0876352511
 20
3.0933715881
 40
0.02325
100
AcDbArc
 50
224.3699285546
 51
243.1436650713
  0
ARC
  5
2D5
100
AcDbEntity
  8
ALL_ASSEMBLY_MEMBERS
100
AcDbCircle
 62
7
  6
CONTINUOUS
 10
4.0876352511
 20
3.3408715881
 40
0.02325
100
AcDbArc
 50
116.8563467441
 51
135.6300714454
  0
ARC
  5
2D6
100
AcDbEntity
  8
ALL_ASSEMBLY_MEMBERS
100
AcDbCircle
 62
7
  6
CONTINUOUS
 10
4.3456397333
 20
3.5988760702
 40
0.02325
100
AcDbArc
 50
134.3699257286
 51
153.1436644189
  0
ARC
  5
2D7
100
AcDbEntity
  8
ALL_ASSEMBLY_MEMBERS
100
AcDbCircle
 62
7
  6
CONTINUOUS
 10
4.333719437
 20
3.9172465881
 40
0.012
100
AcDbArc
 50
270.0
 51
35.0
  0
ARC
  5
2D8
100
AcDbEntity
  8
ALL_ASSEMBLY_MEMBERS
100
AcDbCircle
 62
7
  6
CONTINUOUS
 10
4.3343897333
 20
3.8953717415
 40
0.012
100
AcDbArc
 50
124.6234510997
 51
226.9739483152
  0
ARC
  5
2D9
100
AcDbEntity
  8
0
100
AcDbCircle
 62
7
  6
CONTINUOUS
 10
4.3325147333
 20
3.9348715881
 40
0.0075
100
AcDbArc
 50
102.4305238153
 51
180.0
  0
ARC
  5
2DA
100
AcDbEntity
  8
ALL_ASSEMBLY_MEMBERS
100
AcDbCircle
 62
7
  6
CONTINUOUS
 10
4.2241397333
 20
5.0688207967
 40
0.1395
100
AcDbArc
 50
316.6958241996
 51
41.7081302521
  0
ARC
  5
2DB
100
AcDbEntity
  8
ALL_ASSEMBLY_MEMBERS
100
AcDbCircle
 62
7
  6
CONTINUOUS
 10
4.3343897333
 20
4.9649112807
 40
0.012
100
AcDbArc
 50
136.6958241996
 51
270.0
  0
ARC
  5
2DC
100
AcDbEntity
  8
ALL_ASSEMBLY_MEMBERS
100
AcDbCircle
 62
7
  6
CONTINUOUS
 10
4.3315335837
 20
4.9412561355
 40
0.012
100
AcDbArc
 50
325.101876439
 51
76.2307362332
  0
ARC
  5
2DD
100
AcDbEntity
  8
ALL_ASSEMBLY_MEMBERS
100
AcDbCircle
 62
7
  6
CONTINUOUS
 10
4.2241397333
 20
6.0904223795
 40
0.1395
100
AcDbArc
 50
318.2918697479
 51
43.3041758004
  0
ARC
  5
2DE
100
AcDbEntity
  8
ALL_ASSEMBLY_MEMBERS
100
AcDbCircle
 62
7
  6
CONTINUOUS
 10
4.3456397333
 20
5.9821388974
 40
0.02325
100
AcDbArc
 50
138.2918697479
 51
180.0
  0
ARC
  5
2DF
100
AcDbEntity
  8
ALL_ASSEMBLY_MEMBERS
100
AcDbCircle
 62
7
  6
CONTINUOUS
 10
4.3456397333
 20
5.1771042788
 40
0.02325
100
AcDbArc
 50
180.0
 51
221.7081302521
  0
ARC
  5
2E0
100
AcDbEntity
  8
ALL_ASSEMBLY_MEMBERS
100
AcDbCircle
 62
7
  6
CONTINUOUS
 10
4.3343897333
 20
6.1943318954
 40
0.012
100
AcDbArc
 50
90.0
 51
223.3041758004
  0
ARC
  5
2E1
100
AcDbEntity
  8
ALL_ASSEMBLY_MEMBERS
100
AcDbCircle
 62
7
  6
CONTINUOUS
 10
4.3315335837
 20
6.2179870406
 40
0.012
100
AcDbArc
 50
283.7692637668
 51
34.898123561
  0
ARC
  5
2E2
100
AcDbEntity
  8
ALL_FEATURES
100
AcDbCircle
 62
7
  6
CONTINUOUS
 10
5.8418897333
 20
1.5633715881
 40
0.315
100
AcDbArc
 50
270.0
 51
360.0
  0
ARC
  5
2E3
100
AcDbEntity
  8
ALL_FEATURES
100
AcDbCircle
 62
7
  6
CONTINUOUS
 10
6.2168897333
 20
1.9383715881
 40
0.315
100
AcDbArc
 50
270.0
 51
360.0
  0
ARC
  5
2E4
100
AcDbEntity
  8
ALL_FEATURES
100
AcDbCircle
 62
7
  6
CONTINUOUS
 10
5.8418897333
 20
1.5633715881
 40
0.22125
100
AcDbArc
 50
270.0
 51
360.0
  0
ARC
  5
2E5
100
AcDbEntity
  8
ALL_FEATURES
100
AcDbCircle
 62
7
  6
CONTINUOUS
 10
6.2168897333
 20
1.9383715881
 40
0.22125
100
AcDbArc
 50
270.0
 51
360.0
  0
ARC
  5
2E6
100
AcDbEntity
  8
ALL_ASSEMBLY_MEMBERS
100
AcDbCircle
 62
7
  6
CONTINUOUS
 10
4.4693897333
 20
2.3302465881
 40
0.20625
100
AcDbArc
 50
145.0
 51
35.0
  0
ARC
  5
2E7
100
AcDbEntity
  8
ALL_ASSEMBLY_MEMBERS
100
AcDbCircle
 62
7
  6
CONTINUOUS
 10
5.0017967025
 20
2.9459965881
 40
0.1875
100
AcDbArc
 50
43.0260516848
 51
135.6300714454
  0
ARC
  5
2E8
100
AcDbEntity
  8
ALL_ASSEMBLY_MEMBERS
100
AcDbCircle
 62
7
  6
CONTINUOUS
 10
4.7405147333
 20
2.6847146189
 40
0.1875
100
AcDbArc
 50
134.369928905
 51
226.9739483152
  0
ARC
  5
2E9
100
AcDbEntity
  8
ALL_FEATURES
100
AcDbCircle
 62
7
  6
CONTINUOUS
 10
6.1868897333
 20
1.5933715881
 40
0.12375
100
AcDbArc
 50
90.0
 51
180.0
  0
ARC
  5
2EA
100
AcDbEntity
  8
0
100
AcDbCircle
 62
7
  6
CONTINUOUS
 10
5.1268043467
 20
2.7186589443
 40
0.0766165769
100
AcDbArc
 50
144.9716795398
 51
148.9503296564
  0
ARC
  5
2EB
100
AcDbEntity
  8
0
100
AcDbCircle
 62
7
  6
CONTINUOUS
 10
5.1128057401
 20
2.7268639417
 40
0.0606891873
100
AcDbArc
 50
178.2828628362
 51
188.3740260285
  0
ARC
  5
2EC
100
AcDbEntity
  8
0
100
AcDbCircle
 62
7
  6
CONTINUOUS
 10
5.112205696
 20
2.7261434362
 40
0.0601793001
100
AcDbArc
 50
157.7722697134
 51
167.6765324365
  0
ARC
  5
2ED
100
AcDbEntity
  8
0
100
AcDbCircle
 62
7
  6
CONTINUOUS
 10
5.1086300376
 20
2.726956014
 40
0.0565126106
100
AcDbArc
 50
167.707657635
 51
178.2493093328
  0
ARC
  5
2EE
100
AcDbEntity
  8
0
100
AcDbCircle
 62
7
  6
CONTINUOUS
 10
5.1039748214
 20
2.7236741238
 40
0.0513303471
100
AcDbArc
 50
208.4809078544
 51
214.0502515834
  0
ARC
  5
2EF
100
AcDbEntity
  8
ALL_FEATURES
100
AcDbCircle
 62
7
  6
CONTINUOUS
 10
6.1868897333
 20
1.5933715881
 40
0.03
100
AcDbArc
 50
90.0
 51
180.0
  0
ARC
  5
2F0
100
AcDbEntity
  8
ALL_ASSEMBLY_MEMBERS
100
AcDbCircle
 62
7
  6
CONTINUOUS
 10
4.5931397333
 20
2.835367106
 40
0.02325
100
AcDbArc
 50
314.3699257286
 51
332.8311494163
  0
ARC
  5
2F1
100
AcDbEntity
  8
ALL_ASSEMBLY_MEMBERS
100
AcDbCircle
 62
7
  6
CONTINUOUS
 10
4.6050600295
 20
2.5169965881
 40
0.012
100
AcDbArc
 50
90.0
 51
215.0
  0
ARC
  5
2F2
100
AcDbEntity
  8
ALL_ASSEMBLY_MEMBERS
100
AcDbCircle
 62
7
  6
CONTINUOUS
 10
4.6043897333
 20
2.5388714347
 40
0.012
100
AcDbArc
 50
304.6234510997
 51
46.9739483152
  0
ARC
  5
2F3
100
AcDbEntity
  8
0
100
AcDbCircle
 62
7
  6
CONTINUOUS
 10
4.4693897333
 20
3.2171215881
 40
1.012875
100
AcDbArc
 50
99.8945898469
 51
170.0948680008
  0
ARC
  5
2F4
100
AcDbEntity
  8
0
100
AcDbCircle
 62
7
  6
CONTINUOUS
 10
4.4693897333
 20
3.2171215881
 40
1.012875
100
AcDbArc
 50
189.9051319992
 51
260.1054101531
  0
ARC
  5
2F5
100
AcDbEntity
  8
0
100
AcDbCircle
 62
7
  6
CONTINUOUS
 10
4.4693897333
 20
3.2171215881
 40
1.012875
100
AcDbArc
 50
9.9051319992
 51
80.1054101531
  0
ARC
  5
2F6
100
AcDbEntity
  8
0
100
AcDbCircle
 62
7
  6
CONTINUOUS
 10
4.4693897333
 20
3.2171215881
 40
1.012875
100
AcDbArc
 50
279.8945898469
 51
350.0948680008
  0
ARC
  5
2F7
100
AcDbEntity
  8
0
100
AcDbCircle
 62
7
  6
CONTINUOUS
 10
4.4693897333
 20
3.2171215881
 40
0.952875
100
AcDbArc
 50
12.2005279782
 51
77.7872988731
  0
ARC
  5
2F8
100
AcDbEntity
  8
0
100
AcDbCircle
 62
7
  6
CONTINUOUS
 10
4.4693897333
 20
3.2171215881
 40
0.952875
100
AcDbArc
 50
282.2127011269
 51
347.7994720218
  0
ARC
  5
2F9
100
AcDbEntity
  8
0
100
AcDbCircle
 62
7
  6
CONTINUOUS
 10
4.4693897333
 20
3.2171215881
 40
0.952875
100
AcDbArc
 50
102.2127011269
 51
167.7994720218
  0
ARC
  5
2FA
100
AcDbEntity
  8
0
100
AcDbCircle
 62
7
  6
CONTINUOUS
 10
4.4693897333
 20
3.2171215881
 40
0.952875
100
AcDbArc
 50
192.2005279782
 51
257.7872988731
  0
ARC
  5
2FB
100
AcDbEntity
  8
0
100
AcDbCircle
 62
7
  6
CONTINUOUS
 10
4.4693897333
 20
3.2171215881
 40
0.7125
100
AcDbArc
 50
101.6919089867
 51
169.9898843584
  0
ARC
  5
2FC
100
AcDbEntity
  8
0
100
AcDbCircle
 62
7
  6
CONTINUOUS
 10
4.4693897333
 20
3.2171215881
 40
0.7125
100
AcDbArc
 50
190.0101156416
 51
259.9936366385
  0
ARC
  5
2FD
100
AcDbEntity
  8
0
100
AcDbCircle
 62
7
  6
CONTINUOUS
 10
4.4693897333
 20
3.2171215881
 40
0.7125
100
AcDbArc
 50
10.0101156416
 51
78.3080910133
  0
ARC
  5
2FE
100
AcDbEntity
  8
0
100
AcDbCircle
 62
7
  6
CONTINUOUS
 10
4.4693897333
 20
3.2171215881
 40
0.7125
100
AcDbArc
 50
280.0063633615
 51
349.9898843584
  0
ARC
  5
2FF
100
AcDbEntity
  8
0
100
AcDbCircle
 62
7
  6
CONTINUOUS
 10
4.4693897333
 20
3.2171215881
 40
0.627375
100
AcDbArc
 50
103.3060167285
 51
170.4020330134
  0
ARC
  5
300
100
AcDbEntity
  8
0
100
AcDbCircle
 62
7
  6
CONTINUOUS
 10
4.4693897333
 20
3.2171215881
 40
0.627375
100
AcDbArc
 50
9.5979669866
 51
76.6939832715
  0
ARC
  5
301
100
AcDbEntity
  8
0
100
AcDbCircle
 62
7
  6
CONTINUOUS
 10
4.4693897333
 20
3.2171215881
 40
0.627375
100
AcDbArc
 50
279.6008867934
 51
350.4020330134
  0
ARC
  5
302
100
AcDbEntity
  8
0
100
AcDbCircle
 62
7
  6
CONTINUOUS
 10
4.4693897333
 20
3.2171215881
 40
0.627375
100
AcDbArc
 50
189.5979669866
 51
260.3991132066
  0
ARC
  5
303
100
AcDbEntity
  8
0
100
AcDbCircle
 62
7
  6
CONTINUOUS
 10
4.4693897333
 20
3.2171215881
 40
0.62025
100
AcDbArc
 50
189.399681848
 51
260.6003181522
  0
ARC
  5
304
100
AcDbEntity
  8
0
100
AcDbCircle
 62
7
  6
CONTINUOUS
 10
4.4693897333
 20
3.2171215881
 40
0.62025
100
AcDbArc
 50
99.3996818478
 51
170.600318152
  0
ARC
  5
305
100
AcDbEntity
  8
0
100
AcDbCircle
 62
7
  6
CONTINUOUS
 10
4.4693897333
 20
3.2171215881
 40
0.62025
100
AcDbArc
 50
279.3995044952
 51
350.6004953333
  0
ARC
  5
306
100
AcDbEntity
  8
0
100
AcDbCircle
 62
7
  6
CONTINUOUS
 10
4.4693897333
 20
3.2171215881
 40
0.62025
100
AcDbArc
 50
9.399681848
 51
80.6003181522
  0
ARC
  5
307
100
AcDbEntity
  8
0
100
AcDbCircle
 62
9
  6
CONTINUOUS
 10
4.4693897333
 20
3.2171215881
 40
0.5920146191
100
AcDbArc
 50
188.8554283307
 51
261.1445721022
  0
ARC
  5
308
100
AcDbEntity
  8
0
100
AcDbCircle
 62
9
  6
CONTINUOUS
 10
4.4693897333
 20
3.2171215881
 40
0.5920146188
100
AcDbArc
 50
278.8554289855
 51
351.1445706976
  0
ARC
  5
309
100
AcDbEntity
  8
0
100
AcDbCircle
 62
9
  6
CONTINUOUS
 10
4.4693897333
 20
3.2171215881
 40
0.5920146153
100
AcDbArc
 50
8.8554219824
 51
81.1445754683
  0
ARC
  5
30A
100
AcDbEntity
  8
0
100
AcDbCircle
 62
9
  6
CONTINUOUS
 10
4.4693897333
 20
3.2171215881
 40
0.5920146153
100
AcDbArc
 50
98.8554247437
 51
171.1445791307
  0
ARC
  5
30B
100
AcDbEntity
  8
0
100
AcDbCircle
 62
9
  6
CONTINUOUS
 10
4.4693897333
 20
3.2171215881
 40
0.5840009741
100
AcDbArc
 50
8.7703374239
 51
81.2260818022
  0
ARC
  5
30C
100
AcDbEntity
  8
0
100
AcDbCircle
 62
9
  6
CONTINUOUS
 10
4.4693897333
 20
3.2171215881
 40
0.5840009741
100
AcDbArc
 50
98.7747378896
 51
171.2288683773
  0
ARC
  5
30D
100
AcDbEntity
  8
0
100
AcDbCircle
 62
9
  6
CONTINUOUS
 10
4.4693897333
 20
3.2171215881
 40
0.5840009741
100
AcDbArc
 50
188.7703374421
 51
261.2260818203
  0
ARC
  5
30E
100
AcDbEntity
  8
0
100
AcDbCircle
 62
9
  6
CONTINUOUS
 10
4.4693897333
 20
3.2171215881
 40
0.5840009741
100
AcDbArc
 50
278.7747379047
 51
351.2288683653
  0
ARC
  5
30F
100
AcDbEntity
  8
0
100
AcDbCircle
 62
9
  6
CONTINUOUS
 10
4.4693897333
 20
3.2171215881
 40
0.5680586424
100
AcDbArc
 50
8.6980603544
 51
81.2968875529
  0
ARC
  5
310
100
AcDbEntity
  8
0
100
AcDbCircle
 62
9
  6
CONTINUOUS
 10
4.4693897333
 20
3.2171215881
 40
0.5680586424
100
AcDbArc
 50
98.7036584375
 51
171.3000843793
  0
ARC
  5
311
100
AcDbEntity
  8
0
100
AcDbCircle
 62
9
  6
CONTINUOUS
 10
4.4693897333
 20
3.2171215881
 40
0.5680586424
100
AcDbArc
 50
188.6980603643
 51
261.2968875554
  0
ARC
  5
312
100
AcDbEntity
  8
0
100
AcDbCircle
 62
9
  6
CONTINUOUS
 10
4.4693897333
 20
3.2171215881
 40
0.5680586424
100
AcDbArc
 50
278.7036584338
 51
351.3000843649
  0
ARC
  5
313
100
AcDbEntity
  8
0
100
AcDbCircle
 62
9
  6
CONTINUOUS
 10
4.4693897333
 20
3.2171215881
 40
0.5658198696
100
AcDbArc
 50
98.7048511273
 51
171.2964422871
  0
ARC
  5
314
100
AcDbEntity
  8
0
100
AcDbCircle
 62
9
  6
CONTINUOUS
 10
4.4693897333
 20
3.2171215881
 40
0.5658198696
100
AcDbArc
 50
8.6963286499
 51
81.2956433572
  0
ARC
  5
315
100
AcDbEntity
  8
0
100
AcDbCircle
 62
9
  6
CONTINUOUS
 10
4.4693897333
 20
3.2171215881
 40
0.5658198696
100
AcDbArc
 50
278.7048511279
 51
351.2964422837
  0
ARC
  5
316
100
AcDbEntity
  8
0
100
AcDbCircle
 62
9
  6
CONTINUOUS
 10
4.4693897333
 20
3.2171215881
 40
0.5658198696
100
AcDbArc
 50
188.6963286519
 51
261.2956433575
  0
ARC
  5
317
100
AcDbEntity
  8
0
100
AcDbCircle
 62
9
  6
CONTINUOUS
 10
4.4693897333
 20
3.2171215881
 40
0.5373898192
100
AcDbArc
 50
98.9608221741
 51
171.0431553965
  0
ARC
  5
318
100
AcDbEntity
  8
0
100
AcDbCircle
 62
9
  6
CONTINUOUS
 10
4.4693897333
 20
3.2171215881
 40
0.5373898192
100
AcDbArc
 50
8.9525652406
 51
81.0377091207
  0
ARC
  5
319
100
AcDbEntity
  8
0
100
AcDbCircle
 62
9
  6
CONTINUOUS
 10
4.4693897333
 20
3.2171215881
 40
0.5373898192
100
AcDbArc
 50
278.9608221815
 51
351.0431553994
  0
ARC
  5
31A
100
AcDbEntity
  8
0
100
AcDbCircle
 62
9
  6
CONTINUOUS
 10
4.4693897333
 20
3.2171215881
 40
0.5373898192
100
AcDbArc
 50
188.952565238
 51
261.0377091222
  0
CIRCLE
  5
31B
100
AcDbEntity
  8
ALL_ASSEMBLY_MEMBERS
100
AcDbCircle
 62
7
  6
CONTINUOUS
 10
4.4693897333
 20
3.2171215881
 40
0.418125
  0
CIRCLE
  5
31C
100
AcDbEntity
  8
ALL_ASSEMBLY_MEMBERS
100
AcDbCircle
 62
7
  6
CONTINUOUS
 10
4.4693897333
 20
3.2171215881
 40
0.395625
  0
CIRCLE
  5
31D
100
AcDbEntity
  8
ALL_ASSEMBLY_MEMBERS
100
AcDbCircle
 62
7
  6
CONTINUOUS
 10
4.4693897333
 20
3.2171215881
 40
0.3849256142
  0
CIRCLE
  5
31E
100
AcDbEntity
  8
ALL_ASSEMBLY_MEMBERS
100
AcDbCircle
 62
7
  6
CONTINUOUS
 10
4.4693897333
 20
3.2171215881
 40
0.3408824671
  0
CIRCLE
  5
31F
100
AcDbEntity
  8
ALL_ASSEMBLY_MEMBERS
100
AcDbCircle
 62
7
  6
CONTINUOUS
 10
4.4693897333
 20
3.2171215881
 40
0.320625
  0
CIRCLE
  5
320
100
AcDbEntity
  8
ALL_ASSEMBLY_MEMBERS
100
AcDbCircle
 62
7
  6
CONTINUOUS
 10
4.4693897333
 20
3.2171215881
 40
0.313125
  0
CIRCLE
  5
321
100
AcDbEntity
  8
ALL_ASSEMBLY_MEMBERS
100
AcDbCircle
 62
9
  6
CONTINUOUS
 10
4.4693897333
 20
3.2171215881
 40
0.2963584924
  0
ARC
  5
322
100
AcDbEntity
  8
ALL_ASSEMBLY_MEMBERS
100
AcDbCircle
 62
7
  6
CONTINUOUS
 10
4.5931397333
 20
3.5988760702
 40
0.02325
100
AcDbArc
 50
26.8563510653
 51
45.6300742714
  0
ARC
  5
323
100
AcDbEntity
  8
ALL_ASSEMBLY_MEMBERS
100
AcDbCircle
 62
7
  6
CONTINUOUS
 10
4.6050600295
 20
3.9172465881
 40
0.012
100
AcDbArc
 50
145.0
 51
270.0
  0
ARC
  5
324
100
AcDbEntity
  8
ALL_ASSEMBLY_MEMBERS
100
AcDbCircle
 62
7
  6
CONTINUOUS
 10
4.6043897333
 20
3.8953717415
 40
0.012
100
AcDbArc
 50
313.0260516848
 51
55.3765489003
  0
ARC
  5
325
100
AcDbEntity
  8
0
100
AcDbCircle
 62
7
  6
CONTINUOUS
 10
4.6062647333
 20
3.9348715881
 40
0.0075
100
AcDbArc
 50
0.0
 51
77.5694761847
  0
ARC
  5
326
100
AcDbEntity
  8
ALL_ASSEMBLY_MEMBERS
100
AcDbCircle
 62
7
  6
CONTINUOUS
 10
4.8511442154
 20
3.3408715881
 40
0.02325
100
AcDbArc
 50
44.3699285546
 51
63.1436653697
  0
ARC
  5
327
100
AcDbEntity
  8
ALL_ASSEMBLY_MEMBERS
100
AcDbCircle
 62
7
  6
CONTINUOUS
 10
4.8511442154
 20
3.0933715881
 40
0.02325
100
AcDbArc
 50
297.1688833323
 51
315.6300714454
  0
ARC
  5
328
100
AcDbEntity
  8
ALL_ASSEMBLY_MEMBERS
100
AcDbCircle
 62
7
  6
CONTINUOUS
 10
4.7405147333
 20
3.7495285573
 40
0.1875
100
AcDbArc
 50
133.0260516848
 51
225.630071095
  0
ARC
  5
329
100
AcDbEntity
  8
ALL_ASSEMBLY_MEMBERS
100
AcDbCircle
 62
7
  6
CONTINUOUS
 10
4.4693897333
 20
4.1039965881
 40
0.20625
100
AcDbArc
 50
325.0
 51
215.0
  0
ARC
  5
32A
100
AcDbEntity
  8
ALL_ASSEMBLY_MEMBERS
100
AcDbCircle
 62
7
  6
CONTINUOUS
 10
4.4693897333
 20
4.7902465881
 40
0.1875
100
AcDbArc
 50
145.101876439
 51
34.898123561
  0
ARC
  5
32B
100
AcDbEntity
  8
ALL_ASSEMBLY_MEMBERS
100
AcDbCircle
 62
7
  6
CONTINUOUS
 10
4.7146397333
 20
5.0688207967
 40
0.1395
100
AcDbArc
 50
138.2918697479
 51
223.3041758004
  0
ARC
  5
32C
100
AcDbEntity
  8
ALL_ASSEMBLY_MEMBERS
100
AcDbCircle
 62
7
  6
CONTINUOUS
 10
4.6043897333
 20
4.9649112807
 40
0.012
100
AcDbArc
 50
270.0
 51
43.3041758004
  0
ARC
  5
32D
100
AcDbEntity
  8
ALL_ASSEMBLY_MEMBERS
100
AcDbCircle
 62
7
  6
CONTINUOUS
 10
4.6072458828
 20
4.9412561355
 40
0.012
100
AcDbArc
 50
103.7692637668
 51
214.898123561
  0
ARC
  5
32E
100
AcDbEntity
  8
ALL_ASSEMBLY_MEMBERS
100
AcDbCircle
 62
7
  6
CONTINUOUS
 10
5.0017967025
 20
3.4882465881
 40
0.1875
100
AcDbArc
 50
224.3699285546
 51
316.9739483152
  0
ARC
  5
32F
100
AcDbEntity
  8
0
100
AcDbCircle
 62
7
  6
CONTINUOUS
 10
5.3380454874
 20
3.5954509223
 40
0.1208710932
100
AcDbArc
 50
230.2082985595
 51
232.7334180964
  0
ARC
  5
330
100
AcDbEntity
  8
0
100
AcDbCircle
 62
7
  6
CONTINUOUS
 10
5.2492172018
 20
3.5025715884
 40
0.0793244262
100
AcDbArc
 50
194.9819835114
 51
197.194860473
  0
ARC
  5
331
100
AcDbEntity
  8
0
100
AcDbCircle
 62
7
  6
CONTINUOUS
 10
5.19122429
 20
3.4511697987
 40
0.0730433808
100
AcDbArc
 50
48.7093621079
 51
53.0819266951
  0
ARC
  5
332
100
AcDbEntity
  8
0
100
AcDbCircle
 62
7
  6
CONTINUOUS
 10
5.2414686293
 20
3.5001738856
 40
0.0712133626
100
AcDbArc
 50
197.1949522407
 51
199.6337477259
  0
ARC
  5
333
100
AcDbEntity
  8
0
100
AcDbCircle
 62
7
  6
CONTINUOUS
 10
5.2535585726
 20
3.503221549
 40
0.0686266579
100
AcDbArc
 50
14.9891559644
 51
16.9091342448
  0
ARC
  5
334
100
AcDbEntity
  8
0
100
AcDbCircle
 62
7
  6
CONTINUOUS
 10
5.2544794737
 20
3.409688463
 40
0.0601800144
100
AcDbArc
 50
207.7724568746
 51
217.68496911
  0
ARC
  5
335
100
AcDbEntity
  8
0
100
AcDbCircle
 62
7
  6
CONTINUOUS
 10
5.2518214377
 20
3.4076942878
 40
0.0568574285
100
AcDbArc
 50
217.7320804046
 51
222.9718367349
  0
ARC
  5
336
100
AcDbEntity
  8
0
100
AcDbCircle
 62
7
  6
CONTINUOUS
 10
5.2513159984
 20
3.4072534597
 40
0.056187123
100
AcDbArc
 50
222.9942484723
 51
224.9442665365
  0
ARC
  5
337
100
AcDbEntity
  8
0
100
AcDbCircle
 62
7
  6
CONTINUOUS
 10
5.2137213969
 20
3.4864845847
 40
0.0401272194
100
AcDbArc
 50
215.7974103124
 51
222.9251082447
  0
ARC
  5
338
100
AcDbEntity
  8
0
100
AcDbCircle
 62
7
  6
CONTINUOUS
 10
5.2816652411
 20
3.5158611353
 40
0.0376447071
100
AcDbArc
 50
34.4258141387
 51
41.7086251441
  0
ARC
  5
339
100
AcDbEntity
  8
0
100
AcDbCircle
 62
7
  6
CONTINUOUS
 10
5.2147556053
 20
3.4892928328
 40
0.0347015918
100
AcDbArc
 50
190.4167016686
 51
195.0304392998
  0
ARC
  5
33A
100
AcDbEntity
  8
0
100
AcDbCircle
 62
7
  6
CONTINUOUS
 10
5.2858576828
 20
3.5124212454
 40
0.0271485261
100
AcDbArc
 50
14.9874500157
 51
21.2884589419
  0
ARC
  5
33B
100
AcDbEntity
  8
0
100
AcDbCircle
 62
7
  6
CONTINUOUS
 10
5.2884034132
 20
3.5127594181
 40
0.0248302014
100
AcDbArc
 50
49.943079059
 51
57.1449569745
  0
ARC
  5
33C
100
AcDbEntity
  8
0
100
AcDbCircle
 62
7
  6
CONTINUOUS
 10
5.2917494725
 20
3.5118623198
 40
0.0213714631
100
AcDbArc
 50
330.7380291487
 51
336.2285169961
  0
ARC
  5
33D
100
AcDbEntity
  8
ALL_ASSEMBLY_MEMBERS
100
AcDbCircle
 62
7
  6
CONTINUOUS
 10
5.1695147333
 20
3.3527918843
 40
0.012
100
AcDbArc
 50
180.0
 51
305.0
  0
ARC
  5
33E
100
AcDbEntity
  8
ALL_ASSEMBLY_MEMBERS
100
AcDbCircle
 62
7
  6
CONTINUOUS
 10
5.1476398867
 20
3.3521215881
 40
0.012
100
AcDbArc
 50
34.6234510997
 51
136.9739483152
  0
ARC
  5
33F
100
AcDbEntity
  8
ALL_ASSEMBLY_MEMBERS
100
AcDbCircle
 62
7
  6
CONTINUOUS
 10
5.1695147333
 20
3.0814512919
 40
0.012
100
AcDbArc
 50
55.0
 51
173.5056814995
  0
ARC
  5
340
100
AcDbEntity
  8
ALL_ASSEMBLY_MEMBERS
100
AcDbCircle
 62
7
  6
CONTINUOUS
 10
5.1476398867
 20
3.0821215881
 40
0.012
100
AcDbArc
 50
223.0260516848
 51
325.3765489003
  0
ARC
  5
341
100
AcDbEntity
  8
0
100
AcDbCircle
 62
7
  6
CONTINUOUS
 10
4.4693897333
 20
5.5796215881
 40
0.6200775
100
AcDbArc
 50
283.1690074102
 51
76.8309925898
  0
ARC
  5
342
100
AcDbEntity
  8
0
100
AcDbCircle
 62
7
  6
CONTINUOUS
 10
4.4693897333
 20
5.5796215881
 40
0.6200775
100
AcDbArc
 50
103.1690074102
 51
256.8309925898
  0
ARC
  5
343
100
AcDbEntity
  8
0
100
AcDbCircle
 62
9
  6
CONTINUOUS
 10
4.4693897333
 20
5.5796215881
 40
0.5075775
100
AcDbArc
 50
102.1207582468
 51
257.8792417542
  0
ARC
  5
344
100
AcDbEntity
  8
0
100
AcDbCircle
 62
9
  6
CONTINUOUS
 10
4.4693897333
 20
5.5796215881
 40
0.5075775
100
AcDbArc
 50
282.1207582468
 51
77.8792417542
  0
ARC
  5
345
100
AcDbEntity
  8
0
100
AcDbCircle
 62
7
  6
CONTINUOUS
 10
4.4693897333
 20
5.5796215881
 40
0.50325
100
AcDbArc
 50
102.2935709483
 51
257.7064290517
  0
ARC
  5
346
100
AcDbEntity
  8
0
100
AcDbCircle
 62
7
  6
CONTINUOUS
 10
4.4693897333
 20
5.5796215881
 40
0.50325
100
AcDbArc
 50
282.2935709483
 51
77.7064290517
  0
ARC
  5
347
100
AcDbEntity
  8
ALL_FEATURES
100
AcDbCircle
 62
7
  6
CONTINUOUS
 10
4.4693897333
 20
5.5796215881
 40
0.4886988938
100
AcDbArc
 50
283.0373268025
 51
76.9626731975
  0
ARC
  5
348
100
AcDbEntity
  8
ALL_FEATURES
100
AcDbCircle
 62
7
  6
CONTINUOUS
 10
4.4693897333
 20
5.5796215881
 40
0.4886988938
100
AcDbArc
 50
103.0373268025
 51
256.9626731975
  0
ARC
  5
349
100
AcDbEntity
  8
0
100
AcDbCircle
 62
7
  6
CONTINUOUS
 10
4.4693897333
 20
5.5796215881
 40
0.485625
100
AcDbArc
 50
283.229405103
 51
76.7706100541
  0
ARC
  5
34A
100
AcDbEntity
  8
0
100
AcDbCircle
 62
7
  6
CONTINUOUS
 10
4.4693897333
 20
5.5796215881
 40
0.485625
100
AcDbArc
 50
103.2293943328
 51
256.7705948988
  0
ARC
  5
34B
100
AcDbEntity
  8
0
100
AcDbCircle
 62
9
  6
CONTINUOUS
 10
4.4693897333
 20
5.5796215881
 40
0.4549122057
100
AcDbArc
 50
286.2213481615
 51
73.7786581066
  0
ARC
  5
34C
100
AcDbEntity
  8
0
100
AcDbCircle
 62
9
  6
CONTINUOUS
 10
4.4693897333
 20
5.5796215881
 40
0.4549122041
100
AcDbArc
 50
106.221364343
 51
253.7786366053
  0
CIRCLE
  5
34D
100
AcDbEntity
  8
ALL_ASSEMBLY_MEMBERS
100
AcDbCircle
 62
7
  6
CONTINUOUS
 10
4.4693897333
 20
5.5796215881
 40
0.418125
  0
CIRCLE
  5
34E
100
AcDbEntity
  8
ALL_ASSEMBLY_MEMBERS
100
AcDbCircle
 62
7
  6
CONTINUOUS
 10
4.4693897333
 20
5.5796215881
 40
0.3968942365
  0
CIRCLE
  5
34F
100
AcDbEntity
  8
ALL_ASSEMBLY_MEMBERS
100
AcDbCircle
 62
7
  6
CONTINUOUS
 10
4.4693897333
 20
5.5796215881
 40
0.395625
  0
CIRCLE
  5
350
100
AcDbEntity
  8
ALL_ASSEMBLY_MEMBERS
100
AcDbCircle
 62
7
  6
CONTINUOUS
 10
4.4693897333
 20
5.5796215881
 40
0.3789603159
  0
CIRCLE
  5
351
100
AcDbEntity
  8
ALL_ASSEMBLY_MEMBERS
100
AcDbCircle
 62
7
  6
CONTINUOUS
 10
4.4693897333
 20
5.5796215881
 40
0.3408824671
  0
CIRCLE
  5
352
100
AcDbEntity
  8
ALL_ASSEMBLY_MEMBERS
100
AcDbCircle
 62
7
  6
CONTINUOUS
 10
4.4693897333
 20
5.5796215881
 40
0.320625
  0
CIRCLE
  5
353
100
AcDbEntity
  8
ALL_ASSEMBLY_MEMBERS
100
AcDbCircle
 62
7
  6
CONTINUOUS
 10
4.4693897333
 20
5.5796215881
 40
0.313125
  0
CIRCLE
  5
354
100
AcDbEntity
  8
ALL_ASSEMBLY_MEMBERS
100
AcDbCircle
 62
9
  6
CONTINUOUS
 10
4.4693897333
 20
5.5796215881
 40
0.2963584924
  0
ARC
  5
355
100
AcDbEntity
  8
ALL_ASSEMBLY_MEMBERS
100
AcDbCircle
 62
7
  6
CONTINUOUS
 10
4.4693897333
 20
6.3689965881
 40
0.1875
100
AcDbArc
 50
325.101876439
 51
214.898123561
  0
ARC
  5
356
100
AcDbEntity
  8
ALL_ASSEMBLY_MEMBERS
100
AcDbCircle
 62
7
  6
CONTINUOUS
 10
4.5931397333
 20
5.1771042788
 40
0.02325
100
AcDbArc
 50
318.2918697479
 51
360.0
  0
ARC
  5
357
100
AcDbEntity
  8
ALL_ASSEMBLY_MEMBERS
100
AcDbCircle
 62
7
  6
CONTINUOUS
 10
4.7146397333
 20
6.0904223795
 40
0.1395
100
AcDbArc
 50
136.6958241996
 51
221.7081302521
  0
ARC
  5
358
100
AcDbEntity
  8
ALL_ASSEMBLY_MEMBERS
100
AcDbCircle
 62
7
  6
CONTINUOUS
 10
4.5931397333
 20
5.9821388974
 40
0.02325
100
AcDbArc
 50
0.0
 51
41.7081302521
  0
ARC
  5
359
100
AcDbEntity
  8
ALL_ASSEMBLY_MEMBERS
100
AcDbCircle
 62
7
  6
CONTINUOUS
 10
4.6043897333
 20
6.1943318954
 40
0.012
100
AcDbArc
 50
316.6958241996
 51
90.0
  0
ARC
  5
35A
100
AcDbEntity
  8
ALL_ASSEMBLY_MEMBERS
100
AcDbCircle
 62
7
  6
CONTINUOUS
 10
4.6072458828
 20
6.2179870406
 40
0.012
100
AcDbArc
 50
145.101876439
 51
256.2307362332
  0
ARC
  5
35B
100
AcDbEntity
  8
ALL_ASSEMBLY_MEMBERS
100
AcDbCircle
 62
7
  6
CONTINUOUS
 10
5.3562647333
 20
3.2171215881
 40
0.20625
100
AcDbArc
 50
235.0
 51
125.0
  0
ARC
  5
35C
100
AcDbEntity
  8
ALL_FEATURES
100
AcDbCircle
 62
7
  6
CONTINUOUS
 10
5.8418897333
 20
7.1208715881
 40
0.315
100
AcDbArc
 50
0.0
 51
90.0
  0
ARC
  5
35D
100
AcDbEntity
  8
ALL_FEATURES
100
AcDbCircle
 62
7
  6
CONTINUOUS
 10
6.2168897333
 20
6.7458715881
 40
0.315
100
AcDbArc
 50
0.0
 51
90.0
  0
ARC
  5
35E
100
AcDbEntity
  8
ALL_FEATURES
100
AcDbCircle
 62
7
  6
CONTINUOUS
 10
5.8418897333
 20
7.1208715881
 40
0.22125
100
AcDbArc
 50
0.0
 51
90.0
  0
ARC
  5
35F
100
AcDbEntity
  8
ALL_FEATURES
100
AcDbCircle
 62
7
  6
CONTINUOUS
 10
6.2168897333
 20
6.7458715881
 40
0.22125
100
AcDbArc
 50
0.0
 51
90.0
  0
ARC
  5
360
100
AcDbEntity
  8
ALL_FEATURES
100
AcDbCircle
 62
7
  6
CONTINUOUS
 10
6.1868897333
 20
7.0908715881
 40
0.12375
100
AcDbArc
 50
180.0
 51
270.0
  0
ARC
  5
361
100
AcDbEntity
  8
ALL_FEATURES
100
AcDbCircle
 62
7
  6
CONTINUOUS
 10
6.1868897333
 20
7.0908715881
 40
0.03
100
AcDbArc
 50
180.0
 51
270.0
  0
LINE
  5
362
100
AcDbEntity
  8
0
100
AcDbLine
 62
7
  6
CONTINUOUS
 10
4.9444021788
 20
3.7978042875
 11
4.9587655121
 21
3.7857520198
  0
SPLINE
  5
363
100
AcDbEntity
  8
0
100
AcDbSpline
 62
7
  6
CONTINUOUS
 70
0
 71
3
 72
14
 73
10
 74
0
 42
0.0000001
 43
0.0000001
 44
0.0000000001
 40
0.0
 40
0.0
 40
0.0
 40
0.0
 40
0.2496081755
 40
0.3746465198
 40
0.4997644365
 40
0.6248543935
 40
0.7499305317
 40
0.8750814968
 40
1.0
 40
1.0
 40
1.0
 40
1.0
 10
5.1745541096
 20
3.5149146543
 30
0.0
 10
5.175589357
 20
3.5172262495
 30
0.0
 10
5.1774446124
 20
3.5205809068
 30
0.0
 10
5.18059864
 20
3.5245642122
 30
0.0
 10
5.1833096391
 20
3.5272515505
 30
0.0
 10
5.1863236345
 20
3.5295948303
 30
0.0
 10
5.1896101706
 20
3.5315387572
 30
0.0
 10
5.193098956
 20
3.5330804465
 30
0.0
 10
5.1955198949
 20
3.5338573564
 30
0.0
 10
5.1967442775
 20
3.5341854288
 30
0.0
  0
SPLINE
  5
364
100
AcDbEntity
  8
0
100
AcDbSpline
 62
7
  6
CONTINUOUS
 70
0
 71
3
 72
9
 73
5
 74
0
 42
0.0000001
 43
0.0000001
 44
0.0000000001
 40
0.0
 40
0.0
 40
0.0
 40
0.0
 40
0.4998637169
 40
1.0
 40
1.0
 40
1.0
 40
1.0
 10
5.1725892378
 20
3.4820650106
 30
0.0
 10
5.1719419785
 20
3.484480162
 30
0.0
 10
5.1709235979
 20
3.4893919767
 30
0.0
 10
5.1705885201
 20
3.4944042461
 30
0.0
 10
5.1706179429
 20
3.4969058167
 30
0.0
  0
SPLINE
  5
365
100
AcDbEntity
  8
0
100
AcDbSpline
 62
7
  6
CONTINUOUS
 70
0
 71
3
 72
10
 73
6
 74
0
 42
0.0000001
 43
0.0000001
 44
0.0000000001
 40
0.0
 40
0.0
 40
0.0
 40
0.0
 40
0.2501437322
 40
0.5003580179
 40
1.0
 40
1.0
 40
1.0
 40
1.0
 10
5.1706179429
 20
3.4969058167
 30
0.0
 10
5.1706361289
 20
3.4984520171
 30
0.0
 10
5.1708207542
 20
3.5015461266
 30
0.0
 10
5.1718211482
 20
3.5076538264
 30
0.0
 10
5.1732916898
 20
3.5120958076
 30
0.0
 10
5.1745541096
 20
3.5149146543
 30
0.0
  0
SPLINE
  5
366
100
AcDbEntity
  8
0
100
AcDbSpline
 62
7
  6
CONTINUOUS
 70
0
 71
3
 72
9
 73
5
 74
0
 42
0.0000001
 43
0.0000001
 44
0.0000000001
 40
0.0
 40
0.0
 40
0.0
 40
0.0
 40
0.7496226315
 40
1.0
 40
1.0
 40
1.0
 40
1.0
 10
5.1918774755
 20
3.4529683571
 30
0.0
 10
5.1897984427
 20
3.4542478016
 30
0.0
 10
5.1871927629
 20
3.4562517367
 30
0.0
 10
5.184894564
 20
3.4585599744
 30
0.0
 10
5.1843384603
 20
3.4591562702
 30
0.0
  0
SPLINE
  5
367
100
AcDbEntity
  8
0
100
AcDbSpline
 62
7
  6
CONTINUOUS
 70
0
 71
3
 72
9
 73
5
 74
0
 42
0.0000001
 43
0.0000001
 44
0.0000000001
 40
0.0
 40
0.0
 40
0.0
 40
0.0
 40
0.4999464302
 40
1.0
 40
1.0
 40
1.0
 40
1.0
 10
5.1811746002
 20
3.4630133308
 30
0.0
 10
5.179719242
 20
3.4650262026
 30
0.0
 10
5.1771590429
 20
3.4693128571
 30
0.0
 10
5.1752312766
 20
3.4739060688
 30
0.0
 10
5.1743956326
 20
3.4762457406
 30
0.0
  0
SPLINE
  5
368
100
AcDbEntity
  8
0
100
AcDbSpline
 62
7
  6
CONTINUOUS
 70
0
 71
3
 72
11
 73
7
 74
0
 42
0.0000001
 43
0.0000001
 44
0.0000000001
 40
0.0
 40
0.0
 40
0.0
 40
0.0
 40
0.249986484
 40
0.4999570833
 40
0.7499532457
 40
1.0
 40
1.0
 40
1.0
 40
1.0
 10
5.2212086385
 20
3.4486710725
 30
0.0
 10
5.2187550701
 20
3.4480136408
 30
0.0
 10
5.2137173646
 20
3.4471213871
 30
0.0
 10
5.2060403587
 20
3.4473796581
 30
0.0
 10
5.1986126444
 20
3.4493385845
 30
0.0
 10
5.1940412938
 20
3.4516367354
 30
0.0
 10
5.1918774755
 20
3.4529683571
 30
0.0
  0
SPLINE
  5
369
100
AcDbEntity
  8
0
100
AcDbSpline
 62
7
  6
CONTINUOUS
 70
0
 71
3
 72
16
 73
12
 74
0
 42
0.0000001
 43
0.0000001
 44
0.0000000001
 40
0.0
 40
0.0
 40
0.0
 40
0.0
 40
0.1249532793
 40
0.250260153
 40
0.3128489388
 40
0.3753851012
 40
0.5004973239
 40
0.6255268472
 40
0.7503316482
 40
0.875215979
 40
1.0
 40
1.0
 40
1.0
 40
1.0
 10
5.2999094801
 20
3.4737378961
 30
0.0
 10
5.2983022423
 20
3.473307238
 30
0.0
 10
5.2950077606
 20
3.4727053987
 30
0.0
 10
5.2908227175
 20
3.4726227701
 30
0.0
 10
5.2875035439
 20
3.4729818808
 30
0.0
 10
5.2842289673
 20
3.4736170052
 30
0.0
 10
5.2802446225
 20
3.4748790035
 30
0.0
 10
5.2757136044
 20
3.4770047222
 30
0.0
 10
5.271457217
 20
3.4796264065
 30
0.0
 10
5.2674694103
 20
3.4826295093
 30
0.0
 10
5.2649664801
 20
3.4848222984
 30
0.0
 10
5.2637517593
 20
3.485956158
 30
0.0
  0
SPLINE
  5
36A
100
AcDbEntity
  8
0
100
AcDbSpline
 62
7
  6
CONTINUOUS
 70
0
 71
3
 72
9
 73
5
 74
0
 42
0.0000001
 43
0.0000001
 44
0.0000000001
 40
0.0
 40
0.0
 40
0.0
 40
0.0
 40
0.2501120929
 40
1.0
 40
1.0
 40
1.0
 40
1.0
 10
5.2637517593
 20
3.485956158
 30
0.0
 10
5.263180782
 20
3.4864891266
 30
0.0
 10
5.2609296011
 20
3.4886539837
 30
0.0
 10
5.2587982657
 20
3.4909416831
 30
0.0
 10
5.257256221
 20
3.4927041168
 30
0.0
  0
SPLINE
  5
36B
100
AcDbEntity
  8
0
100
AcDbSpline
 62
7
  6
CONTINUOUS
 70
0
 71
3
 72
9
 73
5
 74
0
 42
0.0000001
 43
0.0000001
 44
0.0000000001
 40
0.0
 40
0.0
 40
0.0
 40
0.0
 40
0.4999944305
 40
1.0
 40
1.0
 40
1.0
 40
1.0
 10
5.2585115292
 20
3.542446293
 30
0.0
 10
5.2606741977
 20
3.5445534677
 30
0.0
 10
5.2655646768
 20
3.5482301982
 30
0.0
 10
5.2712394961
 20
3.5504989753
 30
0.0
 10
5.2741561645
 20
3.5512804942
 30
0.0
  0
SPLINE
  5
36C
100
AcDbEntity
  8
0
100
AcDbSpline
 62
7
  6
CONTINUOUS
 70
0
 71
3
 72
13
 73
9
 74
0
 42
0.0000001
 43
0.0000001
 44
0.0000000001
 40
0.0
 40
0.0
 40
0.0
 40
0.0
 40
0.2500100126
 40
0.5000062709
 40
0.6250129748
 40
0.750020228
 40
0.8750138708
 40
1.0
 40
1.0
 40
1.0
 40
1.0
 10
5.2432077862
 20
3.5150243873
 30
0.0
 10
5.2442147601
 20
3.5174541441
 30
0.0
 10
5.2462969138
 20
3.5222855493
 30
0.0
 10
5.249135795
 20
3.5282200079
 30
0.0
 10
5.2516277431
 20
3.5328535553
 30
0.0
 10
5.2536454392
 20
3.5362462949
 30
0.0
 10
5.2558708237
 20
3.5395056471
 30
0.0
 10
5.2575697652
 20
3.5415286945
 30
0.0
 10
5.2585115292
 20
3.542446293
 30
0.0
  0
SPLINE
  5
36D
100
AcDbEntity
  8
0
100
AcDbSpline
 62
7
  6
CONTINUOUS
 70
0
 71
3
 72
11
 73
7
 74
0
 42
0.0000001
 43
0.0000001
 44
0.0000000001
 40
0.0
 40
0.0
 40
0.0
 40
0.0
 40
0.2500336621
 40
0.5000295135
 40
0.7500211973
 40
1.0
 40
1.0
 40
1.0
 40
1.0
 10
5.2819864594
 20
3.4094529095
 30
0.0
 10
5.2821664443
 20
3.4121925535
 30
0.0
 10
5.2823018439
 20
3.4176870389
 30
0.0
 10
5.2820210512
 20
3.4259210698
 30
0.0
 10
5.281364872
 20
3.4341323627
 30
0.0
 10
5.2807312872
 20
3.4395867828
 30
0.0
 10
5.2803744529
 20
3.4423084377
 30
0.0
  0
SPLINE
  5
36E
100
AcDbEntity
  8
0
100
AcDbSpline
 62
7
  6
CONTINUOUS
 70
0
 71
3
 72
13
 73
9
 74
0
 42
0.0000001
 43
0.0000001
 44
0.0000000001
 40
0.0
 40
0.0
 40
0.0
 40
0.0
 40
0.2498584163
 40
0.4995321704
 40
0.6246594129
 40
0.7497964441
 40
0.8749452152
 40
1.0
 40
1.0
 40
1.0
 40
1.0
 10
5.1938285047
 20
3.4172395639
 30
0.0
 10
5.1940377703
 20
3.418358123
 30
0.0
 10
5.194608036
 20
3.4205713755
 30
0.0
 10
5.1959007994
 20
3.4231474296
 30
0.0
 10
5.1973768097
 20
3.4248953879
 30
0.0
 10
5.1987047802
 20
3.4259880161
 30
0.0
 10
5.2002077249
 20
3.4268209851
 30
0.0
 10
5.2012894857
 20
3.4271967238
 30
0.0
 10
5.2018396335
 20
3.4273441354
 30
0.0
  0
SPLINE
  5
36F
100
AcDbEntity
  8
0
100
AcDbSpline
 62
7
  6
CONTINUOUS
 70
0
 71
3
 72
10
 73
6
 74
0
 42
0.0000001
 43
0.0000001
 44
0.0000000001
 40
0.0
 40
0.0
 40
0.0
 40
0.0
 40
0.2933073079
 40
0.5554689595
 40
1.0
 40
1.0
 40
1.0
 40
1.0
 10
5.195580691
 20
3.3962664043
 30
0.0
 10
5.195044626
 20
3.3982670024
 30
0.0
 10
5.194158155
 20
3.4020953571
 30
0.0
 10
5.1931795084
 20
3.4090874625
 30
0.0
 10
5.1932512417
 20
3.4141540678
 30
0.0
 10
5.1938285027
 20
3.4172395638
 30
0.0
  0
SPLINE
  5
370
100
AcDbEntity
  8
0
100
AcDbSpline
 62
7
  6
CONTINUOUS
 70
0
 71
3
 72
9
 73
5
 74
0
 42
0.0000001
 43
0.0000001
 44
0.0000000001
 40
0.0
 40
0.0
 40
0.0
 40
0.0
 40
0.2503057244
 40
1.0
 40
1.0
 40
1.0
 40
1.0
 10
5.2012318916
 20
3.3816469021
 30
0.0
 10
5.2006208774
 20
3.3828049335
 30
0.0
 10
5.1983266609
 20
3.38750845
 30
0.0
 10
5.1965955803
 20
3.3924783758
 30
0.0
 10
5.1955806245
 20
3.3962663865
 30
0.0
  0
LINE
  5
371
100
AcDbEntity
  8
0
100
AcDbLine
 62
7
  6
CONTINUOUS
 10
5.3043811089
 20
3.4281828549
 11
5.3233489192
 21
3.4242019877
  0
LINE
  5
372
100
AcDbEntity
  8
0
100
AcDbLine
 62
7
  6
CONTINUOUS
 10
5.3233489192
 20
3.4242019877
 11
5.3242512891
 21
3.4208341311
  0
LINE
  5
373
100
AcDbEntity
  8
0
100
AcDbLine
 62
7
  6
CONTINUOUS
 10
5.238360249
 20
2.8113278325
 11
5.2346345457
 21
2.808983989
  0
LINE
  5
374
100
AcDbEntity
  8
0
100
AcDbLine
 62
7
  6
CONTINUOUS
 10
5.239716884
 20
2.7916330524
 11
5.2395372383
 21
2.7937081599
  0
SPLINE
  5
375
100
AcDbEntity
  8
0
100
AcDbSpline
 62
7
  6
CONTINUOUS
 70
0
 71
3
 72
12
 73
8
 74
0
 42
0.0000001
 43
0.0000001
 44
0.0000000001
 40
0.0
 40
0.0
 40
0.0
 40
0.0
 40
0.1251310956
 40
0.2501195604
 40
0.5000732932
 40
0.7500367327
 40
1.0
 40
1.0
 40
1.0
 40
1.0
 10
5.2395372383
 20
2.7937081599
 30
0.0
 10
5.2394432579
 20
2.794372291
 30
0.0
 10
5.2391989902
 20
2.7956919824
 30
0.0
 10
5.2385604237
 20
2.79829624
 30
0.0
 10
5.2375591877
 20
2.8014958585
 30
0.0
 10
5.2361689457
 20
2.8052682365
 30
0.0
 10
5.2351562033
 20
2.8077498144
 30
0.0
 10
5.2346345457
 20
2.808983989
 30
0.0
  0
SPLINE
  5
376
100
AcDbEntity
  8
0
100
AcDbSpline
 62
7
  6
CONTINUOUS
 70
0
 71
3
 72
13
 73
9
 74
0
 42
0.0000001
 43
0.0000001
 44
0.0000000001
 40
0.0
 40
0.0
 40
0.0
 40
0.0
 40
0.2499074822
 40
0.4998137666
 40
0.6247924539
 40
0.7497406909
 40
0.8750038079
 40
1.0
 40
1.0
 40
1.0
 40
1.0
 10
5.2325022311
 20
2.7754176322
 30
0.0
 10
5.2333613896
 20
2.7766447448
 30
0.0
 10
5.2350214358
 20
2.7791403539
 30
0.0
 10
5.2368866553
 20
2.7823940122
 30
0.0
 10
5.2381650094
 20
2.7851054867
 30
0.0
 10
5.2389779276
 20
2.7872056182
 30
0.0
 10
5.2395714303
 20
2.7893791605
 30
0.0
 10
5.2397349251
 20
2.7908840227
 30
0.0
 10
5.239716884
 20
2.7916330524
 30
0.0
  0
LINE
  5
377
100
AcDbEntity
  8
0
100
AcDbLine
 62
7
  6
CONTINUOUS
 10
5.2325023086
 20
2.7754177429
 11
5.2076415685
 21
2.7399107079
  0
LINE
  5
378
100
AcDbEntity
  8
0
100
AcDbLine
 62
7
  6
CONTINUOUS
 10
5.1271013412
 20
2.8485686347
 11
5.1184063746
 21
2.8361498017
  0
LINE
  5
379
100
AcDbEntity
  8
0
100
AcDbLine
 62
7
  6
CONTINUOUS
 10
5.1184063746
 20
2.8361498017
 11
5.1952801976
 21
2.7336142992
  0
LINE
  5
37A
100
AcDbEntity
  8
0
100
AcDbLine
 62
7
  6
CONTINUOUS
 10
5.1952801976
 20
2.7336142992
 11
5.1967062449
 21
2.7317122095
  0
LINE
  5
37B
100
AcDbEntity
  8
0
100
AcDbLine
 62
7
  6
CONTINUOUS
 10
5.1967062449
 20
2.7317122095
 11
5.2115873912
 21
2.7118634353
  0
SPLINE
  5
37C
100
AcDbEntity
  8
0
100
AcDbSpline
 62
7
  6
CONTINUOUS
 70
0
 71
3
 72
15
 73
11
 74
0
 42
0.0000001
 43
0.0000001
 44
0.0000000001
 40
0.0
 40
0.0
 40
0.0
 40
0.0
 40
0.1249921185
 40
0.1876542857
 40
0.2501931595
 40
0.3751681336
 40
0.5001494998
 40
0.6251373956
 40
0.7501038515
 40
1.0
 40
1.0
 40
1.0
 40
1.0
 10
5.1094343556
 20
2.6947959467
 30
0.0
 10
5.1117068352
 20
2.6952771616
 30
0.0
 10
5.1150406097
 20
2.6963904139
 30
0.0
 10
5.1192556806
 20
2.6983538818
 30
0.0
 10
5.1233441098
 20
2.7005743388
 30
0.0
 10
5.128218329
 20
2.703746963
 30
0.0
 10
5.1337691371
 20
2.7079658963
 30
0.0
 10
5.139070595
 20
2.7124923198
 30
0.0
 10
5.1458635278
 20
2.7188314123
 30
0.0
 10
5.1507009291
 20
2.7238523889
 30
0.0
 10
5.1538403003
 20
2.7272746786
 30
0.0
  0
SPLINE
  5
37D
100
AcDbEntity
  8
0
100
AcDbSpline
 62
7
  6
CONTINUOUS
 70
0
 71
3
 72
9
 73
5
 74
0
 42
0.0000001
 43
0.0000001
 44
0.0000000001
 40
0.0
 40
0.0
 40
0.0
 40
0.0
 40
0.4999512892
 40
1.0
 40
1.0
 40
1.0
 40
1.0
 10
5.0767813195
 20
2.7013385746
 30
0.0
 10
5.0814326117
 20
2.6980817047
 30
0.0
 10
5.0921437159
 20
2.6932203383
 30
0.0
 10
5.1038782746
 20
2.6936194042
 30
0.0
 10
5.1094343556
 20
2.6947959467
 30
0.0
  0
SPLINE
  5
37E
100
AcDbEntity
  8
0
100
AcDbSpline
 62
7
  6
CONTINUOUS
 70
0
 71
3
 72
13
 73
9
 74
0
 42
0.0000001
 43
0.0000001
 44
0.0000000001
 40
0.0
 40
0.0
 40
0.0
 40
0.0
 40
0.2498585642
 40
0.4995326306
 40
0.6246599834
 40
0.7497970171
 40
0.8749456045
 40
1.0
 40
1.0
 40
1.0
 40
1.0
 10
5.0790057503
 20
2.7774587712
 30
0.0
 10
5.0799971387
 20
2.7780174544
 30
0.0
 10
5.0820591656
 20
2.779003245
 30
0.0
 10
5.0848635261
 20
2.7796687732
 30
0.0
 10
5.0871513114
 20
2.7796616422
 30
0.0
 10
5.0888419217
 20
2.7793466818
 30
0.0
 10
5.0904460905
 20
2.7787307795
 30
0.0
 10
5.0914292669
 20
2.778143622
 30
0.0
 10
5.0918958193
 20
2.7778169385
 30
0.0
  0
SPLINE
  5
37F
100
AcDbEntity
  8
0
100
AcDbSpline
 62
7
  6
CONTINUOUS
 70
0
 71
3
 72
11
 73
7
 74
0
 42
0.0000001
 43
0.0000001
 44
0.0000000001
 40
0.0
 40
0.0
 40
0.0
 40
0.0
 40
0.2500035186
 40
0.5000049516
 40
0.7500037597
 40
1.0
 40
1.0
 40
1.0
 40
1.0
 10
5.0640654504
 20
2.7626354237
 30
0.0
 10
5.0650789939
 20
2.7640828526
 30
0.0
 10
5.067191624
 20
2.7669194365
 30
0.0
 10
5.0706773203
 20
2.7709224468
 30
0.0
 10
5.0745551902
 20
2.7745521533
 30
0.0
 10
5.0774663954
 20
2.776591289
 30
0.0
 10
5.0790057503
 20
2.7774587712
 30
0.0
  0
SPLINE
  5
380
100
AcDbEntity
  8
0
100
AcDbSpline
 62
7
  6
CONTINUOUS
 70
0
 71
3
 72
9
 73
5
 74
0
 42
0.0000001
 43
0.0000001
 44
0.0000000001
 40
0.0
 40
0.0
 40
0.0
 40
0.0
 40
0.2501177982
 40
1.0
 40
1.0
 40
1.0
 40
1.0
 10
5.0564984637
 20
2.7489085945
 30
0.0
 10
5.0568252824
 20
2.749710134
 30
0.0
 10
5.058199041
 20
2.7528872235
 30
0.0
 10
5.059827907
 20
2.7559523003
 30
0.0
 10
5.0611653557
 20
2.7581763166
 30
0.0
  0
SPLINE
  5
381
100
AcDbEntity
  8
0
100
AcDbSpline
 62
7
  6
CONTINUOUS
 70
0
 71
3
 72
9
 73
5
 74
0
 42
0.0000001
 43
0.0000001
 44
0.0000000001
 40
0.0
 40
0.0
 40
0.0
 40
0.0
 40
0.2497170048
 40
1.0
 40
1.0
 40
1.0
 40
1.0
 10
5.07548179
 20
2.6808740853
 30
0.0
 10
5.074794356
 20
2.6813554318
 30
0.0
 10
5.072080733
 20
2.6833380876
 30
0.0
 10
5.069530962
 20
2.6855476796
 30
0.0
 10
5.0677448873
 20
2.6873274114
 30
0.0
  0
SPLINE
  5
382
100
AcDbEntity
  8
0
100
AcDbSpline
 62
7
  6
CONTINUOUS
 70
0
 71
3
 72
9
 73
5
 74
0
 42
0.0000001
 43
0.0000001
 44
0.0000000001
 40
0.0
 40
0.0
 40
0.0
 40
0.0
 40
0.5000121318
 40
1.0
 40
1.0
 40
1.0
 40
1.0
 10
5.0677448873
 20
2.6873274114
 30
0.0
 10
5.0665775203
 20
2.6884906328
 30
0.0
 10
5.0643473905
 20
2.6909250508
 30
0.0
 10
5.0623680617
 20
2.693567984
 30
0.0
 10
5.061445226
 20
2.694933246
 30
0.0
  0
SPLINE
  5
383
100
AcDbEntity
  8
0
100
AcDbSpline
 62
7
  6
CONTINUOUS
 70
0
 71
3
 72
9
 73
5
 74
0
 42
0.0000001
 43
0.0000001
 44
0.0000000001
 40
0.0
 40
0.0
 40
0.0
 40
0.0
 40
0.5000504492
 40
1.0
 40
1.0
 40
1.0
 40
1.0
 10
5.058856675
 20
2.6991964319
 30
0.0
 10
5.0580723988
 20
2.7006418687
 30
0.0
 10
5.0566415089
 20
2.7036093925
 30
0.0
 10
5.055501663
 20
2.7066997611
 30
0.0
 10
5.0550008828
 20
2.7082658085
 30
0.0
  0
SPLINE
  5
384
100
AcDbEntity
  8
0
100
AcDbSpline
 62
7
  6
CONTINUOUS
 70
0
 71
3
 72
9
 73
5
 74
0
 42
0.0000001
 43
0.0000001
 44
0.0000000001
 40
0.0
 40
0.0
 40
0.0
 40
0.0
 40
0.2503068786
 40
1.0
 40
1.0
 40
1.0
 40
1.0
 10
5.0550008828
 20
2.7082658085
 30
0.0
 10
5.0547462641
 20
2.709062056
 30
0.0
 10
5.0538000519
 20
2.7122656326
 30
0.0
 10
5.053127422
 20
2.7155482733
 30
0.0
 10
5.0527635933
 20
2.7180254995
 30
0.0
  0
LINE
  5
385
100
AcDbEntity
  8
0
100
AcDbLine
 62
7
  6
CONTINUOUS
 10
5.1584505105
 20
2.6998048662
 11
5.1675932024
 21
2.6827158706
  0
LINE
  5
386
100
AcDbEntity
  8
0
100
AcDbLine
 62
7
  6
CONTINUOUS
 10
5.1675932024
 20
2.6827158706
 11
5.1404031784
 21
2.64388722
  0
LINE
  5
387
100
AcDbEntity
  8
0
100
AcDbLine
 62
7
  6
CONTINUOUS
 10
5.1404031784
 20
2.64388722
 11
5.1507169925
 21
2.6249355373
  0
SPLINE
  5
388
100
AcDbEntity
  8
0
100
AcDbSpline
 62
7
  6
CONTINUOUS
 70
0
 71
3
 72
13
 73
9
 74
0
 42
0.0000001
 43
0.0000001
 44
0.0000000001
 40
0.0
 40
0.0
 40
0.0
 40
0.0
 40
0.2497577368
 40
0.3748558925
 40
0.499981485
 40
0.6250963345
 40
0.7502157512
 40
1.0
 40
1.0
 40
1.0
 40
1.0
 10
5.3018741818
 20
3.5336179247
 30
0.0
 10
5.3006931838
 20
3.5343809999
 30
0.0
 10
5.2988142353
 20
3.5353783038
 30
0.0
 10
5.2961486834
 20
3.5362965974
 30
0.0
 10
5.2940820372
 20
3.5367583688
 30
0.0
 10
5.291976579
 20
3.5369879175
 30
0.0
 10
5.2891569258
 20
3.5369692424
 30
0.0
 10
5.2870578097
 20
3.5366109243
 30
0.0
 10
5.2856995037
 20
3.5362469673
 30
0.0
  0
SPLINE
  5
389
100
AcDbEntity
  8
0
100
AcDbSpline
 62
7
  6
CONTINUOUS
 70
0
 71
3
 72
9
 73
5
 74
0
 42
0.0000001
 43
0.0000001
 44
0.0000000001
 40
0.0
 40
0.0
 40
0.0
 40
0.0
 40
0.4997931398
 40
1.0
 40
1.0
 40
1.0
 40
1.0
 10
5.3111537123
 20
3.5222778857
 30
0.0
 10
5.3104413016
 20
3.5241013707
 30
0.0
 10
5.3085956932
 20
3.5276094563
 30
0.0
 10
5.3058823723
 20
3.5305034796
 30
0.0
 10
5.3043828477
 20
3.5317645904
 30
0.0
  0
SPLINE
  5
38A
100
AcDbEntity
  8
0
100
AcDbSpline
 62
7
  6
CONTINUOUS
 70
0
 71
3
 72
11
 73
7
 74
0
 42
0.0000001
 43
0.0000001
 44
0.0000000001
 40
0.0
 40
0.0
 40
0.0
 40
0.0
 40
0.2502074219
 40
0.5001776003
 40
0.750178219
 40
1.0
 40
1.0
 40
1.0
 40
1.0
 10
5.3113077893
 20
3.5032476998
 30
0.0
 10
5.3118631607
 20
3.5045084761
 30
0.0
 10
5.3127331598
 20
3.5071441838
 30
0.0
 10
5.3132263438
 20
3.5112693188
 30
0.0
 10
5.31299629
 20
3.5154089624
 30
0.0
 10
5.3124387555
 20
3.518113388
 30
0.0
 10
5.3120826837
 20
3.5194420568
 30
0.0
  0
SPLINE
  5
38B
100
AcDbEntity
  8
0
100
AcDbSpline
 62
7
  6
CONTINUOUS
 70
0
 71
3
 72
12
 73
8
 74
0
 42
0.0000001
 43
0.0000001
 44
0.0000000001
 40
0.0
 40
0.0
 40
0.0
 40
0.0
 40
0.2498000967
 40
0.4997287526
 40
0.6248550313
 40
0.7500594443
 40
1.0
 40
1.0
 40
1.0
 40
1.0
 10
5.2964085349
 20
3.490926382
 30
0.0
 10
5.2978528421
 20
3.491313383
 30
0.0
 10
5.3006905498
 20
3.492309993
 30
0.0
 10
5.3039461572
 20
3.4942063386
 30
0.0
 10
5.3062669323
 20
3.4961076034
 30
0.0
 10
5.3083616613
 20
3.4982540759
 30
0.0
 10
5.3096623916
 20
3.5001107526
 30
0.0
 10
5.3103938065
 20
3.5014158734
 30
0.0
  0
SPLINE
  5
38C
100
AcDbEntity
  8
0
100
AcDbSpline
 62
7
  6
CONTINUOUS
 70
0
 71
3
 72
9
 73
5
 74
0
 42
0.0000001
 43
0.0000001
 44
0.0000000001
 40
0.0
 40
0.0
 40
0.0
 40
0.0
 40
0.4999908831
 40
1.0
 40
1.0
 40
1.0
 40
1.0
 10
5.2273523644
 20
3.4784188889
 30
0.0
 10
5.2297735499
 20
3.4828278669
 30
0.0
 10
5.2341422075
 20
3.4919096333
 30
0.0
 10
5.2377632764
 20
3.5013044093
 30
0.0
 10
5.239424076
 20
3.5060525475
 30
0.0
  0
SPLINE
  5
38D
100
AcDbEntity
  8
0
100
AcDbSpline
 62
7
  6
CONTINUOUS
 70
0
 71
3
 72
9
 73
5
 74
0
 42
0.0000001
 43
0.0000001
 44
0.0000000001
 40
0.0
 40
0.0
 40
0.0
 40
0.0
 40
0.4999250699
 40
1.0
 40
1.0
 40
1.0
 40
1.0
 10
5.2098723818
 20
3.4637600489
 30
0.0
 10
5.2136263633
 20
3.4647659252
 30
0.0
 10
5.2207837861
 20
3.4685765793
 30
0.0
 10
5.2254810972
 20
3.475011312
 30
0.0
 10
5.2273523644
 20
3.4784188889
 30
0.0
  0
SPLINE
  5
38E
100
AcDbEntity
  8
0
100
AcDbSpline
 62
7
  6
CONTINUOUS
 70
0
 71
3
 72
9
 73
5
 74
0
 42
0.0000001
 43
0.0000001
 44
0.0000000001
 40
0.0
 40
0.0
 40
0.0
 40
0.0
 40
0.7498422215
 40
1.0
 40
1.0
 40
1.0
 40
1.0
 10
5.2350994363
 20
3.5095676328
 30
0.0
 10
5.2329599592
 20
3.5111704165
 30
0.0
 10
5.2299697129
 20
3.5131422443
 30
0.0
 10
5.2267952394
 20
3.5147682857
 30
0.0
 10
5.2259895339
 20
3.5151506554
 30
0.0
  0
SPLINE
  5
38F
100
AcDbEntity
  8
0
100
AcDbSpline
 62
7
  6
CONTINUOUS
 70
0
 71
3
 72
12
 73
8
 74
0
 42
0.0000001
 43
0.0000001
 44
0.0000000001
 40
0.0
 40
0.0
 40
0.0
 40
0.0
 40
0.2498982808
 40
0.4998058585
 40
0.6249239391
 40
0.7500903835
 40
1.0
 40
1.0
 40
1.0
 40
1.0
 10
5.2259895339
 20
3.5151506554
 30
0.0
 10
5.2241912218
 20
3.5160040937
 30
0.0
 10
5.2204730571
 20
3.5174733823
 30
0.0
 10
5.2155771042
 20
3.5185162694
 30
0.0
 10
5.2115969555
 20
3.5187974094
 30
0.0
 10
5.2076093914
 20
3.5186888884
 30
0.0
 10
5.2046430142
 20
3.5181753683
 30
0.0
 10
5.2027202048
 20
3.517660153
 30
0.0
  0
SPLINE
  5
390
100
AcDbEntity
  8
0
100
AcDbSpline
 62
7
  6
CONTINUOUS
 70
0
 71
3
 72
13
 73
9
 74
0
 42
0.0000001
 43
0.0000001
 44
0.0000000001
 40
0.0
 40
0.0
 40
0.0
 40
0.0
 40
0.0927677131
 40
0.1940789793
 40
0.3043684382
 40
0.4239728894
 40
0.6920813886
 40
1.0
 40
1.0
 40
1.0
 40
1.0
 10
3.6796423029
 20
2.8330007011
 30
0.0
 10
3.6811419972
 20
2.8332218862
 30
0.0
 10
3.6842597906
 20
2.8338235032
 30
0.0
 10
3.6890675972
 20
2.8351094553
 30
0.0
 10
3.6942063955
 20
2.8368168541
 30
0.0
 10
3.7017923038
 20
2.8397705315
 30
0.0
 10
3.7120994085
 20
2.844592312
 30
0.0
 10
3.7203610825
 20
2.8491130898
 30
0.0
 10
3.7247186617
 20
2.8516289393
 30
0.0
  0
SPLINE
  5
391
100
AcDbEntity
  8
0
100
AcDbSpline
 62
7
  6
CONTINUOUS
 70
0
 71
3
 72
10
 73
6
 74
0
 42
0.0000001
 43
0.0000001
 44
0.0000000001
 40
0.0
 40
0.0
 40
0.0
 40
0.0
 40
0.2503488813
 40
0.5006248327
 40
1.0
 40
1.0
 40
1.0
 40
1.0
 10
3.6562465472
 20
2.8413073096
 30
0.0
 10
3.6568090124
 20
2.8405176052
 30
0.0
 10
3.6580295599
 20
2.8390021521
 30
0.0
 10
3.6608636517
 20
2.8363492573
 30
0.0
 10
3.6634242438
 20
2.8348628186
 30
0.0
 10
3.6652220026
 20
2.8341499191
 30
0.0
  0
SPLINE
  5
392
100
AcDbEntity
  8
0
100
AcDbSpline
 62
7
  6
CONTINUOUS
 70
0
 71
3
 72
9
 73
5
 74
0
 42
0.0000001
 43
0.0000001
 44
0.0000000001
 40
0.0
 40
0.0
 40
0.0
 40
0.0
 40
0.499948229
 40
1.0
 40
1.0
 40
1.0
 40
1.0
 10
3.6652220026
 20
2.8341499191
 30
0.0
 10
3.6674820326
 20
2.8332537065
 30
0.0
 10
3.672354478
 20
2.8323177438
 30
0.0
 10
3.6772366922
 20
2.8326459673
 30
0.0
 10
3.6796424144
 20
2.8330007657
 30
0.0
  0
SPLINE
  5
393
100
AcDbEntity
  8
0
100
AcDbSpline
 62
7
  6
CONTINUOUS
 70
0
 71
3
 72
11
 73
7
 74
0
 42
0.0000001
 43
0.0000001
 44
0.0000000001
 40
0.0
 40
0.0
 40
0.0
 40
0.0
 40
0.2500085127
 40
0.4376111515
 40
0.625253428
 40
1.0
 40
1.0
 40
1.0
 40
1.0
 10
3.6596638398
 20
2.8710237128
 30
0.0
 10
3.6588630425
 20
2.8700501907
 30
0.0
 10
3.6575201503
 20
2.8682960088
 30
0.0
 10
3.655804048
 20
2.8656475215
 30
0.0
 10
3.6540029423
 20
2.8623209685
 30
0.0
 10
3.6530133716
 20
2.859629734
 30
0.0
 10
3.6525974949
 20
2.8577865651
 30
0.0
  0
SPLINE
  5
394
100
AcDbEntity
  8
0
100
AcDbSpline
 62
7
  6
CONTINUOUS
 70
0
 71
3
 72
11
 73
7
 74
0
 42
0.0000001
 43
0.0000001
 44
0.0000000001
 40
0.0
 40
0.0
 40
0.0
 40
0.0
 40
0.2500503331
 40
0.5000389227
 40
0.7500673005
 40
1.0
 40
1.0
 40
1.0
 40
1.0
 10
3.6525974949
 20
2.8577865651
 30
0.0
 10
3.6523235489
 20
2.856572434
 30
0.0
 10
3.6519882621
 20
2.8540890365
 30
0.0
 10
3.6522246968
 20
2.8503377544
 30
0.0
 10
3.653210595
 20
2.8467129712
 30
0.0
 10
3.6542946847
 20
2.8444581388
 30
0.0
 10
3.6549166705
 20
2.8433807172
 30
0.0
  0
SPLINE
  5
395
100
AcDbEntity
  8
0
100
AcDbSpline
 62
7
  6
CONTINUOUS
 70
0
 71
3
 72
12
 73
8
 74
0
 42
0.0000001
 43
0.0000001
 44
0.0000000001
 40
0.0
 40
0.0
 40
0.0
 40
0.0
 40
0.2499985372
 40
0.4999832133
 40
0.7499401213
 40
0.8749769159
 40
1.0
 40
1.0
 40
1.0
 40
1.0
 10
3.6990069451
 20
2.9015050276
 30
0.0
 10
3.6953980039
 20
2.8994214045
 30
0.0
 10
3.6882665433
 20
2.895100731
 30
0.0
 10
3.6779468445
 20
2.8880332368
 30
0.0
 10
3.6698136989
 20
2.8814939584
 30
0.0
 10
3.6637866196
 20
2.8757298696
 30
0.0
 10
3.6609877533
 20
2.8726331826
 30
0.0
 10
3.6596638398
 20
2.8710237128
 30
0.0
  0
LINE
  5
396
100
AcDbEntity
  8
0
100
AcDbLine
 62
7
  6
CONTINUOUS
 10
4.0104444443
 20
3.8105846809
 11
4.0254188601
 21
3.8218687126
  0
LINE
  5
397
100
AcDbEntity
  8
0
100
AcDbLine
 62
7
  6
CONTINUOUS
 10
3.6208887449
 20
3.444750421
 11
3.6210805814
 21
3.4362612322
  0
SPLINE
  5
398
100
AcDbEntity
  8
0
100
AcDbSpline
 62
7
  6
CONTINUOUS
 70
0
 71
3
 72
9
 73
5
 74
0
 42
0.0000001
 43
0.0000001
 44
0.0000000001
 40
0.0
 40
0.0
 40
0.0
 40
0.0
 40
0.4999858375
 40
1.0
 40
1.0
 40
1.0
 40
1.0
 10
3.6215320197
 20
3.4525038269
 30
0.0
 10
3.6212048467
 20
3.451496821
 30
0.0
 10
3.6207923419
 20
3.4494013462
 30
0.0
 10
3.6207562347
 20
3.447274871
 30
0.0
 10
3.6208174546
 20
3.4462177607
 30
0.0
  0
SPLINE
  5
399
100
AcDbEntity
  8
0
100
AcDbSpline
 62
7
  6
CONTINUOUS
 70
0
 71
3
 72
12
 73
8
 74
0
 42
0.0000001
 43
0.0000001
 44
0.0000000001
 40
0.0
 40
0.0
 40
0.0
 40
0.0
 40
0.2498801125
 40
0.3751351918
 40
0.5004395337
 40
0.7501344809
 40
1.0
 40
1.0
 40
1.0
 40
1.0
 10
3.6325129781
 20
3.4555590583
 30
0.0
 10
3.6314976034
 20
3.4558889736
 30
0.0
 10
3.6299405624
 20
3.456296547
 30
0.0
 10
3.627810209
 20
3.4565497873
 30
0.0
 10
3.6256740914
 20
3.4564822712
 30
0.0
 10
3.6230025539
 20
3.4555071987
 30
0.0
 10
3.6218618947
 20
3.453519149
 30
0.0
 10
3.6215320197
 20
3.4525038269
 30
0.0
  0
LINE
  5
39A
100
AcDbEntity
  8
0
100
AcDbLine
 62
7
  6
CONTINUOUS
 10
3.7396063072
 20
3.3986479388
 11
3.7427335352
 21
3.40827355
  0
LINE
  5
39B
100
AcDbEntity
  8
0
100
AcDbLine
 62
7
  6
CONTINUOUS
 10
3.7427335352
 20
3.40827355
 11
3.7442906922
 21
3.4130664031
  0
LINE
  5
39C
100
AcDbEntity
  8
0
100
AcDbLine
 62
7
  6
CONTINUOUS
 10
3.7442906922
 20
3.4130664031
 11
3.7533034656
 21
3.4408062541
  0
LINE
  5
39D
100
AcDbEntity
  8
0
100
AcDbLine
 62
7
  6
CONTINUOUS
 10
3.7533034656
 20
3.4408062541
 11
3.7552476214
 21
3.4467898201
  0
LINE
  5
39E
100
AcDbEntity
  8
0
100
AcDbLine
 62
7
  6
CONTINUOUS
 10
3.7552476214
 20
3.4467898201
 11
3.7583774371
 21
3.4564223438
  0
SPLINE
  5
39F
100
AcDbEntity
  8
0
100
AcDbSpline
 62
7
  6
CONTINUOUS
 70
0
 71
3
 72
15
 73
11
 74
0
 42
0.0000001
 43
0.0000001
 44
0.0000000001
 40
0.0
 40
0.0
 40
0.0
 40
0.0
 40
0.1249926183
 40
0.18765498
 40
0.2501939842
 40
0.3751690599
 40
0.5001504121
 40
0.625138192
 40
0.7501044408
 40
1.0
 40
1.0
 40
1.0
 40
1.0
 10
3.7150747472
 20
3.5617303666
 30
0.0
 10
3.7130422318
 20
3.5606057853
 30
0.0
 10
3.710179578
 20
3.558566483
 30
0.0
 10
3.7067226976
 20
3.5554564584
 30
0.0
 10
3.7034620542
 20
3.5521377135
 30
0.0
 10
3.6997283167
 20
3.5476786807
 30
0.0
 10
3.6956534452
 20
3.5420212494
 30
0.0
 10
3.6919069246
 20
3.5361426694
 30
0.0
 10
3.6872640311
 20
3.5280945835
 30
0.0
 10
3.6841058746
 20
3.5218787376
 30
0.0
 10
3.6821041799
 20
3.5176881596
 30
0.0
  0
SPLINE
  5
3A0
100
AcDbEntity
  8
0
100
AcDbSpline
 62
7
  6
CONTINUOUS
 70
0
 71
3
 72
9
 73
5
 74
0
 42
0.0000001
 43
0.0000001
 44
0.0000000001
 40
0.0
 40
0.0
 40
0.0
 40
0.0
 40
0.4999370779
 40
1.0
 40
1.0
 40
1.0
 40
1.0
 10
3.7482142925
 20
3.565020444
 30
0.0
 10
3.7428141127
 20
3.5667750688
 30
0.0
 10
3.7311495976
 20
3.5682924498
 30
0.0
 10
3.720044297
 20
3.5644799954
 30
0.0
 10
3.7150747472
 20
3.5617303666
 30
0.0
  0
SPLINE
  5
3A1
100
AcDbEntity
  8
0
100
AcDbSpline
 62
7
  6
CONTINUOUS
 70
0
 71
3
 72
13
 73
9
 74
0
 42
0.0000001
 43
0.0000001
 44
0.0000000001
 40
0.0
 40
0.0
 40
0.0
 40
0.0
 40
0.2498587441
 40
0.4995334032
 40
0.6246609989
 40
0.7497980785
 40
0.8749463432
 40
1.0
 40
1.0
 40
1.0
 40
1.0
 10
3.7683412948
 20
3.4915763239
 30
0.0
 10
3.7675565486
 20
3.4907522069
 30
0.0
 10
3.7658727973
 20
3.4892066333
 30
0.0
 10
3.7633855185
 20
3.4877502933
 30
0.0
 10
3.7611955913
 20
3.4870882427
 30
0.0
 10
3.7594867566
 20
3.486895161
 30
0.0
 10
3.7577726046
 20
3.4870151409
 30
0.0
 10
3.7566607182
 20
3.48728919
 30
0.0
 10
3.7561190388
 20
3.4874651922
 30
0.0
  0
SPLINE
  5
3A2
100
AcDbEntity
  8
0
100
AcDbSpline
 62
7
  6
CONTINUOUS
 70
0
 71
3
 72
11
 73
7
 74
0
 42
0.0000001
 43
0.0000001
 44
0.0000000001
 40
0.0
 40
0.0
 40
0.0
 40
0.0
 40
0.249998248
 40
0.4999776589
 40
0.7499958729
 40
1.0
 40
1.0
 40
1.0
 40
1.0
 10
3.7777205082
 20
3.508411242
 30
0.0
 10
3.777188706
 20
3.5068842668
 30
0.0
 10
3.7760351712
 20
3.5038604901
 30
0.0
 10
3.7739688909
 20
3.4994651132
 30
0.0
 10
3.7714777958
 20
3.4952922181
 30
0.0
 10
3.7694563513
 20
3.4927473229
 30
0.0
 10
3.7683412948
 20
3.4915763239
 30
0.0
  0
SPLINE
  5
3A3
100
AcDbEntity
  8
0
100
AcDbSpline
 62
7
  6
CONTINUOUS
 70
0
 71
3
 72
9
 73
5
 74
0
 42
0.0000001
 43
0.0000001
 44
0.0000000001
 40
0.0
 40
0.0
 40
0.0
 40
0.0
 40
0.7498385743
 40
1.0
 40
1.0
 40
1.0
 40
1.0
 10
3.7775335738
 20
3.5527226992
 30
0.0
 10
3.7786660791
 20
3.5499099783
 30
0.0
 10
3.7799003502
 20
3.5460362395
 30
0.0
 10
3.7807147553
 20
3.5420743601
 30
0.0
 10
3.7808913898
 20
3.5410783117
 30
0.0
  0
SPLINE
  5
3A4
100
AcDbEntity
  8
0
100
AcDbSpline
 62
7
  6
CONTINUOUS
 70
0
 71
3
 72
9
 73
5
 74
0
 42
0.0000001
 43
0.0000001
 44
0.0000000001
 40
0.0
 40
0.0
 40
0.0
 40
0.0
 40
0.5000379986
 40
1.0
 40
1.0
 40
1.0
 40
1.0
 10
3.7815636035
 20
3.5359090131
 30
0.0
 10
3.7817814634
 20
3.5333136919
 30
0.0
 10
3.7818687957
 20
3.528088562
 30
0.0
 10
3.7812846903
 20
3.5228982573
 30
0.0
 10
3.7808425666
 20
3.520332011
 30
0.0
  0
SPLINE
  5
3A5
100
AcDbEntity
  8
0
100
AcDbSpline
 62
7
  6
CONTINUOUS
 70
0
 71
3
 72
11
 73
7
 74
0
 42
0.0000001
 43
0.0000001
 44
0.0000000001
 40
0.0
 40
0.0
 40
0.0
 40
0.0
 40
0.2497632794
 40
0.4998700869
 40
0.7499115708
 40
1.0
 40
1.0
 40
1.0
 40
1.0
 10
3.7434741246
 20
3.5849705677
 30
0.0
 10
3.7454499206
 20
3.5843285927
 30
0.0
 10
3.7493432689
 20
3.5828453226
 30
0.0
 10
3.7549112738
 20
3.580004126
 30
0.0
 10
3.7600999764
 20
3.5765095553
 30
0.0
 10
3.763245656
 20
3.5737687139
 30
0.0
 10
3.7647289571
 20
3.5723103024
 30
0.0
  0
SPLINE
  5
3A6
100
AcDbEntity
  8
0
100
AcDbSpline
 62
7
  6
CONTINUOUS
 70
0
 71
3
 72
9
 73
5
 74
0
 42
0.0000001
 43
0.0000001
 44
0.0000000001
 40
0.0
 40
0.0
 40
0.0
 40
0.0
 40
0.5000507114
 40
1.0
 40
1.0
 40
1.0
 40
1.0
 10
3.7647289571
 20
3.5723103024
 30
0.0
 10
3.7659016492
 20
3.571157288
 30
0.0
 10
3.7681377828
 20
3.5687376936
 30
0.0
 10
3.7701314728
 20
3.5661154974
 30
0.0
 10
3.7710682882
 20
3.564764228
 30
0.0
  0
SPLINE
  5
3A7
100
AcDbEntity
  8
0
100
AcDbSpline
 62
7
  6
CONTINUOUS
 70
0
 71
3
 72
9
 73
5
 74
0
 42
0.0000001
 43
0.0000001
 44
0.0000000001
 40
0.0
 40
0.0
 40
0.0
 40
0.0
 40
0.2503070187
 40
1.0
 40
1.0
 40
1.0
 40
1.0
 10
3.7710682882
 20
3.564764228
 30
0.0
 10
3.7715446154
 20
3.5640771701
 30
0.0
 10
3.7733862426
 20
3.5612900313
 30
0.0
 10
3.774989322
 20
3.5583472728
 30
0.0
 10
3.7760615752
 20
3.5560845001
 30
0.0
  0
LINE
  5
3A8
100
AcDbEntity
  8
0
100
AcDbLine
 62
7
  6
CONTINUOUS
 10
3.6696643609
 20
3.5426096655
 11
3.6559249562
 21
3.556278836
  0
LINE
  5
3A9
100
AcDbEntity
  8
0
100
AcDbLine
 62
7
  6
CONTINUOUS
 10
3.6559249562
 20
3.556278836
 11
3.670575326
 21
3.6013601867
  0
LINE
  5
3AA
100
AcDbEntity
  8
0
100
AcDbLine
 62
7
  6
CONTINUOUS
 10
3.670575326
 20
3.6013601867
 11
3.6551713698
 21
3.6164682804
  0
LINE
  5
3AB
100
AcDbEntity
  8
0
100
AcDbLine
 62
7
  6
CONTINUOUS
 10
3.7857850359
 20
2.6455008935
 11
3.7892695829
 21
2.6425862223
  0
SPLINE
  5
3AC
100
AcDbEntity
  8
0
100
AcDbSpline
 62
7
  6
CONTINUOUS
 70
0
 71
3
 72
9
 73
5
 74
0
 42
0.0000001
 43
0.0000001
 44
0.0000000001
 40
0.0
 40
0.0
 40
0.0
 40
0.0
 40
0.4999832617
 40
1.0
 40
1.0
 40
1.0
 40
1.0
 10
3.7815917265
 20
2.6502381078
 30
0.0
 10
3.7821212056
 20
2.6493211896
 30
0.0
 10
3.783402338
 20
2.6476124521
 30
0.0
 10
3.784958448
 20
2.6461627015
 30
0.0
 10
3.7857850359
 20
2.6455008935
 30
0.0
  0
SPLINE
  5
3AD
100
AcDbEntity
  8
0
100
AcDbSpline
 62
7
  6
CONTINUOUS
 70
0
 71
3
 72
12
 73
8
 74
0
 42
0.0000001
 43
0.0000001
 44
0.0000000001
 40
0.0
 40
0.0
 40
0.0
 40
0.0
 40
0.2498841114
 40
0.3751404098
 40
0.5004443899
 40
0.7501361424
 40
1.0
 40
1.0
 40
1.0
 40
1.0
 10
3.7866690873
 20
2.6604418925
 30
0.0
 10
3.7857445619
 20
2.6599081175
 30
0.0
 10
3.7843999119
 20
2.6590237988
 30
0.0
 10
3.782786346
 20
2.657610223
 30
0.0
 10
3.7814072462
 20
2.6559778007
 30
0.0
 10
3.7803442045
 20
2.6533404172
 30
0.0
 10
3.781057922
 20
2.6511625163
 30
0.0
 10
3.7815917265
 20
2.6502381078
 30
0.0
  0
LINE
  5
3AE
100
AcDbEntity
  8
0
100
AcDbLine
 62
7
  6
CONTINUOUS
 10
3.9006236913
 20
2.7019479199
 11
3.8955674772
 21
2.7107035679
  0
LINE
  5
3AF
100
AcDbEntity
  8
0
100
AcDbLine
 62
7
  6
CONTINUOUS
 10
3.8955674772
 20
2.7107035679
 11
3.8930420053
 21
2.7150768747
  0
LINE
  5
3B0
100
AcDbEntity
  8
0
100
AcDbLine
 62
7
  6
CONTINUOUS
 10
3.8930420053
 20
2.7150768747
 11
3.8901049938
 21
2.7201628743
  0
LINE
  5
3B1
100
AcDbEntity
  8
0
100
AcDbLine
 62
7
  6
CONTINUOUS
 10
3.8901049938
 20
2.7201628743
 11
3.8784562551
 21
2.7403353148
  0
LINE
  5
3B2
100
AcDbEntity
  8
0
100
AcDbLine
 62
7
  6
CONTINUOUS
 10
3.8784562551
 20
2.7403353148
 11
3.8753154824
 21
2.7457743904
  0
LINE
  5
3B3
100
AcDbEntity
  8
0
100
AcDbLine
 62
7
  6
CONTINUOUS
 10
3.8753154824
 20
2.7457743904
 11
3.8702457011
 21
2.7545541554
  0
SPLINE
  5
3B4
100
AcDbEntity
  8
0
100
AcDbSpline
 62
7
  6
CONTINUOUS
 70
0
 71
3
 72
9
 73
5
 74
0
 42
0.0000001
 43
0.0000001
 44
0.0000000001
 40
0.0
 40
0.0
 40
0.0
 40
0.0
 40
0.4593133434
 40
1.0
 40
1.0
 40
1.0
 40
1.0
 10
3.7641242265
 20
2.8038552246
 30
0.0
 10
3.7670018972
 20
2.8034050459
 30
0.0
 10
3.7732470265
 20
2.8022969825
 30
0.0
 10
3.7794604112
 20
2.8010271291
 30
0.0
 10
3.7828134215
 20
2.8003107333
 30
0.0
  0
LINE
  5
3B5
100
AcDbEntity
  8
0
100
AcDbLine
 62
7
  6
CONTINUOUS
 10
3.8074688358
 20
2.7946010522
 11
3.8108837446
 21
2.7937577705
  0
SPLINE
  5
3B6
100
AcDbEntity
  8
0
100
AcDbSpline
 62
7
  6
CONTINUOUS
 70
0
 71
3
 72
12
 73
8
 74
0
 42
0.0000001
 43
0.0000001
 44
0.0000000001
 40
0.0
 40
0.0
 40
0.0
 40
0.0
 40
0.1053894899
 40
0.2142836224
 40
0.4472126399
 40
0.7072303319
 40
1.0
 40
1.0
 40
1.0
 40
1.0
 10
3.7176242888
 20
2.7985917622
 30
0.0
 10
3.7190739959
 20
2.7994287667
 30
0.0
 10
3.7221272205
 20
2.8009537511
 30
0.0
 10
3.7288104488
 20
2.8033967551
 30
0.0
 10
3.73825913
 20
2.805224936
 30
0.0
 10
3.7507768139
 20
2.8055164869
 30
0.0
 10
3.7595296014
 20
2.8045738477
 30
0.0
 10
3.764124016
 20
2.803855103
 30
0.0
  0
LINE
  5
3B7
100
AcDbEntity
  8
0
100
AcDbLine
 62
7
  6
CONTINUOUS
 10
3.7634811651
 20
2.7247192483
 11
3.7630239712
 21
2.7291398375
  0
SPLINE
  5
3B8
100
AcDbEntity
  8
0
100
AcDbSpline
 62
7
  6
CONTINUOUS
 70
0
 71
3
 72
9
 73
5
 74
0
 42
0.0000001
 43
0.0000001
 44
0.0000000001
 40
0.0
 40
0.0
 40
0.0
 40
0.0
 40
0.2502045084
 40
1.0
 40
1.0
 40
1.0
 40
1.0
 10
3.7371090328
 20
2.7307031176
 30
0.0
 10
3.7379098044
 20
2.7303890336
 30
0.0
 10
3.7411723977
 20
2.7292910952
 30
0.0
 10
3.7445995864
 20
2.7287441779
 30
0.0
 10
3.7471686004
 20
2.7285329513
 30
0.0
  0
SPLINE
  5
3B9
100
AcDbEntity
  8
0
100
AcDbSpline
 62
7
  6
CONTINUOUS
 70
0
 71
3
 72
9
 73
5
 74
0
 42
0.0000001
 43
0.0000001
 44
0.0000000001
 40
0.0
 40
0.0
 40
0.0
 40
0.0
 40
0.4999409979
 40
1.0
 40
1.0
 40
1.0
 40
1.0
 10
3.7471686004
 20
2.7285329513
 30
0.0
 10
3.7498074121
 20
2.7283159859
 30
0.0
 10
3.7551208437
 20
2.7282951336
 30
0.0
 10
3.7603975427
 20
2.7287998606
 30
0.0
 10
3.7630239712
 20
2.7291398375
 30
0.0
  0
SPLINE
  5
3BA
100
AcDbEntity
  8
0
100
AcDbSpline
 62
7
  6
CONTINUOUS
 70
0
 71
3
 72
11
 73
7
 74
0
 42
0.0000001
 43
0.0000001
 44
0.0000000001
 40
0.0
 40
0.0
 40
0.0
 40
0.0
 40
0.2498651627
 40
0.4997947078
 40
0.7497753005
 40
1.0
 40
1.0
 40
1.0
 40
1.0
 10
3.7231091803
 20
2.7424668901
 30
0.0
 10
3.7238450422
 20
2.7413434053
 30
0.0
 10
3.7254369251
 20
2.739171212
 30
0.0
 10
3.7282030232
 20
2.7362254257
 30
0.0
 10
3.7313437531
 20
2.7336762871
 30
0.0
 10
3.7336664461
 20
2.7322996114
 30
0.0
 10
3.7348698562
 20
2.7316990204
 30
0.0
  0
SPLINE
  5
3BB
100
AcDbEntity
  8
0
100
AcDbSpline
 62
7
  6
CONTINUOUS
 70
0
 71
3
 72
14
 73
10
 74
0
 42
0.0000001
 43
0.0000001
 44
0.0000000001
 40
0.0
 40
0.0
 40
0.0
 40
0.0
 40
0.1249023451
 40
0.2500970728
 40
0.375181888
 40
0.5002646133
 40
0.6254100112
 40
0.7504459383
 40
1.0
 40
1.0
 40
1.0
 40
1.0
 10
3.7203263103
 20
2.7668376174
 30
0.0
 10
3.7199229118
 20
2.7659488113
 30
0.0
 10
3.7192159384
 20
2.7641212205
 30
0.0
 10
3.7184910586
 20
2.7612726738
 30
0.0
 10
3.718147937
 20
2.758350001
 30
0.0
 10
3.7182107527
 20
2.7554091123
 30
0.0
 10
3.7186472639
 20
2.7525011046
 30
0.0
 10
3.7197036383
 20
2.7487333141
 30
0.0
 10
3.7209613733
 20
2.746062598
 30
0.0
 10
3.7219364934
 20
2.7443737155
 30
0.0
  0
SPLINE
  5
3BC
100
AcDbEntity
  8
0
100
AcDbSpline
 62
7
  6
CONTINUOUS
 70
0
 71
3
 72
11
 73
7
 74
0
 42
0.0000001
 43
0.0000001
 44
0.0000000001
 40
0.0
 40
0.0
 40
0.0
 40
0.0
 40
0.2446398548
 40
0.4888051005
 40
0.7387574311
 40
1.0
 40
1.0
 40
1.0
 40
1.0
 10
3.7350241039
 20
2.7836122005
 30
0.0
 10
3.733424174
 20
2.7826884985
 30
0.0
 10
3.7303722818
 20
2.7805762396
 30
0.0
 10
3.7263638383
 20
2.7766608573
 30
0.0
 10
3.72296171
 20
2.7720545675
 30
0.0
 10
3.7211416189
 20
2.7686340383
 30
0.0
 10
3.7203262711
 20
2.7668376026
 30
0.0
  0
LINE
  5
3BD
100
AcDbEntity
  8
0
100
AcDbLine
 62
7
  6
CONTINUOUS
 10
3.8566323013
 20
2.7781302514
 11
3.8423505518
 21
2.8028648133
  0
LINE
  5
3BE
100
AcDbEntity
  8
0
100
AcDbLine
 62
7
  6
CONTINUOUS
 10
3.8423505518
 20
2.8028648133
 11
3.8233211552
 21
2.8358234284
  0
LINE
  5
3BF
100
AcDbEntity
  8
0
100
AcDbLine
 62
7
  6
CONTINUOUS
 10
3.8233211552
 20
2.8358234284
 11
3.8137660739
 21
2.8523733722
  0
LINE
  5
3C0
100
AcDbEntity
  8
0
100
AcDbLine
 62
7
  6
CONTINUOUS
 10
3.8137660739
 20
2.8523733722
 11
3.7972783138
 21
2.8500788433
  0
LINE
  5
3C1
100
AcDbEntity
  8
0
100
AcDbLine
 62
7
  6
CONTINUOUS
 10
3.7972783138
 20
2.8500788433
 11
3.7805683377
 21
2.8477533979
  0
SPLINE
  5
3C2
100
AcDbEntity
  8
0
100
AcDbSpline
 62
7
  6
CONTINUOUS
 70
0
 71
3
 72
12
 73
8
 74
0
 42
0.0000001
 43
0.0000001
 44
0.0000000001
 40
0.0
 40
0.0
 40
0.0
 40
0.0
 40
0.1250644037
 40
0.2501448998
 40
0.500046288
 40
0.7499997444
 40
1.0
 40
1.0
 40
1.0
 40
1.0
 10
3.7794674318
 20
2.8744568749
 30
0.0
 10
3.7784271778
 20
2.872343148
 30
0.0
 10
3.7761307158
 20
2.8682179349
 30
0.0
 10
3.7707723763
 20
2.8604570164
 30
0.0
 10
3.7628030969
 20
2.8517119189
 30
0.0
 10
3.7518343182
 20
2.8427545419
 30
0.0
 10
3.7438848544
 20
2.8376691754
 30
0.0
 10
3.7398065214
 20
2.8353145487
 30
0.0
  0
SPLINE
  5
3C3
100
AcDbEntity
  8
0
100
AcDbSpline
 62
7
  6
CONTINUOUS
 70
0
 71
3
 72
11
 73
7
 74
0
 42
0.0000001
 43
0.0000001
 44
0.0000000001
 40
0.0
 40
0.0
 40
0.0
 40
0.0
 40
0.249595128
 40
0.5000613693
 40
0.7502579855
 40
1.0
 40
1.0
 40
1.0
 40
1.0
 10
3.7800362296
 20
2.915495795
 30
0.0
 10
3.7808270337
 20
2.9141259147
 30
0.0
 10
3.7822516272
 20
2.9112854236
 30
0.0
 10
3.7838636843
 20
2.9068003664
 30
0.0
 10
3.7848983826
 20
2.9021447167
 30
0.0
 10
3.7851578806
 20
2.8989761426
 30
0.0
 10
3.7851887796
 20
2.8973937602
 30
0.0
  0
SPLINE
  5
3C4
100
AcDbEntity
  8
0
100
AcDbSpline
 62
7
  6
CONTINUOUS
 70
0
 71
3
 72
11
 73
7
 74
0
 42
0.0000001
 43
0.0000001
 44
0.0000000001
 40
0.0
 40
0.0
 40
0.0
 40
0.0
 40
0.2503611689
 40
0.5006022755
 40
0.7504285292
 40
1.0
 40
1.0
 40
1.0
 40
1.0
 10
3.7851887796
 20
2.8973937602
 30
0.0
 10
3.7852276442
 20
2.8954034422
 30
0.0
 10
3.7849948448
 20
2.8914125738
 30
0.0
 10
3.7838251689
 20
2.8855452898
 30
0.0
 10
3.7819561339
 20
2.8798725344
 30
0.0
 10
3.7803436803
 20
2.8762373537
 30
0.0
 10
3.7794674318
 20
2.8744568749
 30
0.0
  0
SPLINE
  5
3C5
100
AcDbEntity
  8
0
100
AcDbSpline
 62
7
  6
CONTINUOUS
 70
0
 71
3
 72
12
 73
8
 74
0
 42
0.0000001
 43
0.0000001
 44
0.0000000001
 40
0.0
 40
0.0
 40
0.0
 40
0.0
 40
0.2498365171
 40
0.4998179128
 40
0.6248763854
 40
0.74998113
 40
1.0
 40
1.0
 40
1.0
 40
1.0
 10
3.7414811083
 20
2.9364086835
 30
0.0
 10
3.7438058993
 20
2.9364557414
 30
0.0
 10
3.7484678378
 20
2.936295097
 30
0.0
 10
3.7542216565
 20
2.9352985185
 30
0.0
 10
3.7586826372
 20
2.9339489848
 30
0.0
 10
3.7630050904
 20
2.9322090209
 30
0.0
 10
3.7660574641
 20
2.930459335
 30
0.0
 10
3.7679563542
 20
2.9291143518
 30
0.0
  0
SPLINE
  5
3C6
100
AcDbEntity
  8
0
100
AcDbSpline
 62
7
  6
CONTINUOUS
 70
0
 71
3
 72
9
 73
5
 74
0
 42
0.0000001
 43
0.0000001
 44
0.0000000001
 40
0.0
 40
0.0
 40
0.0
 40
0.0
 40
0.499979378
 40
1.0
 40
1.0
 40
1.0
 40
1.0
 10
3.7679563542
 20
2.9291143518
 30
0.0
 10
3.770279286
 20
2.9274690201
 30
0.0
 10
3.7745503805
 20
2.9236214917
 30
0.0
 10
3.7779240748
 20
2.918991282
 30
0.0
 10
3.7794051141
 20
2.9165600296
 30
0.0
  0
SPLINE
  5
3C7
100
AcDbEntity
  8
0
100
AcDbSpline
 62
7
  6
CONTINUOUS
 70
0
 71
3
 72
11
 73
7
 74
0
 42
0.0000001
 43
0.0000001
 44
0.0000000001
 40
0.0
 40
0.0
 40
0.0
 40
0.0
 40
0.2498048691
 40
0.4998645117
 40
0.7502273247
 40
1.0
 40
1.0
 40
1.0
 40
1.0
 10
3.6879871417
 20
2.920168102
 30
0.0
 10
3.6920592211
 20
2.9225191182
 30
0.0
 10
3.7004261492
 20
2.9268604243
 30
0.0
 10
3.7136213352
 20
2.9319829093
 30
0.0
 10
3.7273714444
 20
2.9353714848
 30
0.0
 10
3.7367806449
 20
2.9363135379
 30
0.0
 10
3.7414811083
 20
2.9364086835
 30
0.0
  0
SPLINE
  5
3C8
100
AcDbEntity
  8
0
100
AcDbSpline
 62
7
  6
CONTINUOUS
 70
0
 71
3
 72
15
 73
11
 74
0
 42
0.0000001
 43
0.0000001
 44
0.0000000001
 40
0.0
 40
0.0
 40
0.0
 40
0.0
 40
0.1249883258
 40
0.2507159164
 40
0.3757025867
 40
0.4382558694
 40
0.5007496961
 40
0.6255972283
 40
0.7504579793
 40
1.0
 40
1.0
 40
1.0
 40
1.0
 10
5.2856995037
 20
3.5362469673
 30
0.0
 10
5.2839494469
 20
3.535778041
 30
0.0
 10
5.2805779618
 20
3.5342810442
 30
0.0
 10
5.2762255478
 20
3.5309498029
 30
0.0
 10
5.2731785614
 20
3.5275545932
 30
0.0
 10
5.2710364505
 20
3.5246297752
 30
0.0
 10
5.2690494474
 20
3.5215991644
 30
0.0
 10
5.2668310287
 20
3.5176481206
 30
0.0
 10
5.2637460004
 20
3.5110974257
 30
0.0
 10
5.2618371388
 20
3.5060064091
 30
0.0
 10
5.2606881791
 20
3.5025764477
 30
0.0
  0
SPLINE
  5
3C9
100
AcDbEntity
  8
0
100
AcDbSpline
 62
7
  6
CONTINUOUS
 70
0
 71
3
 72
9
 73
5
 74
0
 42
0.0000001
 43
0.0000001
 44
0.0000000001
 40
0.0
 40
0.0
 40
0.0
 40
0.0
 40
0.5000004082
 40
1.0
 40
1.0
 40
1.0
 40
1.0
 10
5.2806922461
 20
3.490560504
 30
0.0
 10
5.2832608314
 20
3.489947325
 30
0.0
 10
5.288587536
 20
3.4894138595
 30
0.0
 10
5.2938577599
 20
3.4902429039
 30
0.0
 10
5.2964085349
 20
3.490926382
 30
0.0
  0
SPLINE
  5
3CA
100
AcDbEntity
  8
0
100
AcDbSpline
 62
7
  6
CONTINUOUS
 70
0
 71
3
 72
9
 73
5
 74
0
 42
0.0000001
 43
0.0000001
 44
0.0000000001
 40
0.0
 40
0.0
 40
0.0
 40
0.0
 40
0.5000448209
 40
1.0
 40
1.0
 40
1.0
 40
1.0
 10
5.2648550993
 20
3.4992584679
 30
0.0
 10
5.2663353011
 20
3.4981346488
 30
0.0
 10
5.2693550146
 20
3.4959646645
 30
0.0
 10
5.2725343706
 20
3.4940257256
 30
0.0
 10
5.2741770137
 20
3.4931571333
 30
0.0
  0
SPLINE
  5
3CB
100
AcDbEntity
  8
0
100
AcDbSpline
 62
7
  6
CONTINUOUS
 70
0
 71
3
 72
9
 73
5
 74
0
 42
0.0000001
 43
0.0000001
 44
0.0000000001
 40
0.0
 40
0.0
 40
0.0
 40
0.0
 40
0.5000901633
 40
1.0
 40
1.0
 40
1.0
 40
1.0
 10
5.2741770137
 20
3.4931571333
 30
0.0
 10
5.2752125141
 20
3.4926095843
 30
0.0
 10
5.2773270636
 20
3.4915958522
 30
0.0
 10
5.2795533173
 20
3.4908323919
 30
0.0
 10
5.2806922461
 20
3.490560504
 30
0.0
  0
SPLINE
  5
3CC
100
AcDbEntity
  8
0
100
AcDbSpline
 62
7
  6
CONTINUOUS
 70
0
 71
3
 72
12
 73
8
 74
0
 42
0.0000001
 43
0.0000001
 44
0.0000000001
 40
0.0
 40
0.0
 40
0.0
 40
0.0
 40
0.2499541628
 40
0.3752245751
 40
0.5003325154
 40
0.7502774089
 40
1.0
 40
1.0
 40
1.0
 40
1.0
 10
5.1915582147
 20
3.4657035311
 30
0.0
 10
5.1928946567
 20
3.464863448
 30
0.0
 10
5.1950699752
 20
3.463847093
 30
0.0
 10
5.1981333298
 20
3.4630506298
 30
0.0
 10
5.2012715137
 20
3.4626266481
 30
0.0
 10
5.2052425453
 20
3.4627296393
 30
0.0
 10
5.2083490333
 20
3.4633518689
 30
0.0
 10
5.2098723818
 20
3.4637600489
 30
0.0
  0
SPLINE
  5
3CD
100
AcDbEntity
  8
0
100
AcDbSpline
 62
7
  6
CONTINUOUS
 70
0
 71
3
 72
12
 73
8
 74
0
 42
0.0000001
 43
0.0000001
 44
0.0000000001
 40
0.0
 40
0.0
 40
0.0
 40
0.0
 40
0.2498233458
 40
0.4997697048
 40
0.6248801993
 40
0.750061021
 40
1.0
 40
1.0
 40
1.0
 40
1.0
 10
5.1812412179
 20
3.4802935936
 30
0.0
 10
5.181635648
 20
3.4788218188
 30
0.0
 10
5.18262598
 20
3.4759246873
 30
0.0
 10
5.1844779547
 20
3.4725658709
 30
0.0
 10
5.1863360537
 20
3.4701393081
 30
0.0
 10
5.1884397352
 20
3.4679235704
 30
0.0
 10
5.1902676027
 20
3.4665148057
 30
0.0
 10
5.1915582147
 20
3.4657035311
 30
0.0
  0
SPLINE
  5
3CE
100
AcDbEntity
  8
0
100
AcDbSpline
 62
7
  6
CONTINUOUS
 70
0
 71
3
 72
9
 73
5
 74
0
 42
0.0000001
 43
0.0000001
 44
0.0000000001
 40
0.0
 40
0.0
 40
0.0
 40
0.0
 40
0.2497502569
 40
1.0
 40
1.0
 40
1.0
 40
1.0
 10
5.1842908853
 20
3.5035477988
 30
0.0
 10
5.1840677841
 20
3.5031612459
 30
0.0
 10
5.1832035116
 20
3.5015970303
 30
0.0
 10
5.1824601861
 20
3.4999650852
 30
0.0
 10
5.1819852687
 20
3.4987112859
 30
0.0
  0
SPLINE
  5
3CF
100
AcDbEntity
  8
0
100
AcDbSpline
 62
7
  6
CONTINUOUS
 70
0
 71
3
 72
11
 73
7
 74
0
 42
0.0000001
 43
0.0000001
 44
0.0000000001
 40
0.0
 40
0.0
 40
0.0
 40
0.0
 40
0.249961259
 40
0.4999647386
 40
0.7499526912
 40
1.0
 40
1.0
 40
1.0
 40
1.0
 10
5.1819852687
 20
3.4987112859
 30
0.0
 10
5.1815147918
 20
3.4974692098
 30
0.0
 10
5.1807369279
 20
3.4949187639
 30
0.0
 10
5.1801198878
 20
3.4909688267
 30
0.0
 10
5.1800613916
 20
3.4869711014
 30
0.0
 10
5.1803863886
 20
3.4843254611
 30
0.0
 10
5.1806259371
 20
3.4830185821
 30
0.0
  0
SPLINE
  5
3D0
100
AcDbEntity
  8
0
100
AcDbSpline
 62
7
  6
CONTINUOUS
 70
0
 71
3
 72
9
 73
5
 74
0
 42
0.0000001
 43
0.0000001
 44
0.0000000001
 40
0.0
 40
0.0
 40
0.0
 40
0.0
 40
0.4999096421
 40
1.0
 40
1.0
 40
1.0
 40
1.0
 10
5.2027202048
 20
3.517660153
 30
0.0
 10
5.1989044265
 20
3.5166377183
 30
0.0
 10
5.191498263
 20
3.5132293107
 30
0.0
 10
5.1862662921
 20
3.5069704571
 30
0.0
 10
5.1842908853
 20
3.5035477988
 30
0.0
  0
SPLINE
  5
3D1
100
AcDbEntity
  8
0
100
AcDbSpline
 62
7
  6
CONTINUOUS
 70
0
 71
3
 72
13
 73
9
 74
0
 42
0.0000001
 43
0.0000001
 44
0.0000000001
 40
0.0
 40
0.0
 40
0.0
 40
0.0
 40
0.094464882
 40
0.1971875339
 40
0.3084725524
 40
0.4285565252
 40
0.6957860509
 40
1.0
 40
1.0
 40
1.0
 40
1.0
 10
3.7467075162
 20
2.9217907494
 30
0.0
 10
3.7450971932
 20
2.9214859798
 30
0.0
 10
3.7417591779
 20
2.9207227378
 30
0.0
 10
3.7366222237
 20
2.9192124202
 30
0.0
 10
3.7311517627
 20
2.9172893728
 30
0.0
 10
3.7231257225
 20
2.91405628
 30
0.0
 10
3.7122751607
 20
2.9089125695
 30
0.0
 10
3.7035777751
 20
2.9041439981
 30
0.0
 10
3.6990069526
 20
2.901505032
 30
0.0
  0
SPLINE
  5
3D2
100
AcDbEntity
  8
0
100
AcDbSpline
 62
7
  6
CONTINUOUS
 70
0
 71
3
 72
12
 73
8
 74
0
 42
0.0000001
 43
0.0000001
 44
0.0000000001
 40
0.0
 40
0.0
 40
0.0
 40
0.0
 40
0.2496960297
 40
0.4998829362
 40
0.6249079989
 40
0.7499342329
 40
1.0
 40
1.0
 40
1.0
 40
1.0
 10
3.7726625749
 20
2.9124704835
 30
0.0
 10
3.772154872
 20
2.9133499584
 30
0.0
 10
3.7710244792
 20
2.9150478937
 30
0.0
 10
3.7693224922
 20
2.9169496615
 30
0.0
 10
3.7677871008
 20
2.9182881458
 30
0.0
 10
3.7661407846
 20
2.9194858266
 30
0.0
 10
3.7647966625
 20
2.920225671
 30
0.0
 10
3.7638700655
 20
2.9206448517
 30
0.0
  0
SPLINE
  5
3D3
100
AcDbEntity
  8
0
100
AcDbSpline
 62
7
  6
CONTINUOUS
 70
0
 71
3
 72
12
 73
8
 74
0
 42
0.0000001
 43
0.0000001
 44
0.0000000001
 40
0.0
 40
0.0
 40
0.0
 40
0.0
 40
0.1253760487
 40
0.2504471717
 40
0.5005143986
 40
0.7504199544
 40
1.0
 40
1.0
 40
1.0
 40
1.0
 10
3.7638700655
 20
2.9206448517
 30
0.0
 10
3.7632052382
 20
2.9209456111
 30
0.0
 10
3.761842185
 20
2.9214723607
 30
0.0
 10
3.7590215101
 20
2.9222187858
 30
0.0
 10
3.7553866203
 20
2.9226271291
 30
0.0
 10
3.7510163341
 20
2.9224827127
 30
0.0
 10
3.7481345813
 20
2.9220607685
 30
0.0
 10
3.7467073526
 20
2.9217906569
 30
0.0
  0
SPLINE
  5
3D4
100
AcDbEntity
  8
0
100
AcDbSpline
 62
7
  6
CONTINUOUS
 70
0
 71
3
 72
9
 73
5
 74
0
 42
0.0000001
 43
0.0000001
 44
0.0000000001
 40
0.0
 40
0.0
 40
0.0
 40
0.0
 40
0.4992713562
 40
1.0
 40
1.0
 40
1.0
 40
1.0
 10
3.769687966
 20
2.8865170179
 30
0.0
 10
3.7708869823
 20
2.8883252677
 30
0.0
 10
3.773075954
 20
2.8920983218
 30
0.0
 10
3.7745019717
 20
2.8962535708
 30
0.0
 10
3.7749271537
 20
2.8983876157
 30
0.0
  0
SPLINE
  5
3D5
100
AcDbEntity
  8
0
100
AcDbSpline
 62
7
  6
CONTINUOUS
 70
0
 71
3
 72
12
 73
8
 74
0
 42
0.0000001
 43
0.0000001
 44
0.0000000001
 40
0.0
 40
0.0
 40
0.0
 40
0.0
 40
0.2499463874
 40
0.3747614201
 40
0.4997709142
 40
0.7503067654
 40
1.0
 40
1.0
 40
1.0
 40
1.0
 10
3.7749271537
 20
2.8983876157
 30
0.0
 10
3.7751644659
 20
2.8995787165
 30
0.0
 10
3.7753867843
 20
2.9013971099
 30
0.0
 10
3.7753544752
 20
2.9038283881
 30
0.0
 10
3.7750807024
 20
2.9062480341
 30
0.0
 10
3.7743006964
 20
2.9092031411
 30
0.0
 10
3.7732691599
 20
2.9114197189
 30
0.0
 10
3.7726625749
 20
2.9124704835
 30
0.0
  0
SPLINE
  5
3D6
100
AcDbEntity
  8
0
100
AcDbSpline
 62
7
  6
CONTINUOUS
 70
0
 71
3
 72
15
 73
11
 74
0
 42
0.0000001
 43
0.0000001
 44
0.0000000001
 40
0.0
 40
0.0
 40
0.0
 40
0.0
 40
0.171213044
 40
0.3287522261
 40
0.4727688577
 40
0.6034599985
 40
0.7210883365
 40
0.8260131926
 40
0.9187399634
 40
1.0
 40
1.0
 40
1.0
 40
1.0
 10
3.7247187236
 20
2.851628975
 30
0.0
 10
3.7275512145
 20
2.8532643144
 30
0.0
 10
3.732955068
 20
2.8564656213
 30
0.0
 10
3.7405970024
 20
2.8612810651
 30
0.0
 10
3.7474369441
 20
2.8659098317
 30
0.0
 10
3.7534758268
 20
2.8703527013
 30
0.0
 10
3.758714914
 20
2.8746105938
 30
0.0
 10
3.7631563315
 20
2.8786855302
 30
0.0
 10
3.7668015989
 20
2.8825790959
 30
0.0
 10
3.7688298368
 20
2.8852231963
 30
0.0
 10
3.7696876987
 20
2.8865169254
 30
0.0
  0
LINE
  5
3D7
100
AcDbEntity
  8
0
100
AcDbLine
 62
7
  6
CONTINUOUS
 10
5.0166985457
 20
3.8839637425
 11
5.031061879
 21
3.8719114748
  0
LINE
  5
3D8
100
AcDbEntity
  8
0
100
AcDbLine
 62
7
  6
CONTINUOUS
 10
3.9427563945
 20
3.9004097569
 11
3.9577308103
 21
3.9116937886
  0
SPLINE
  5
3D9
100
AcDbEntity
  8
0
100
AcDbSpline
 62
7
  6
CONTINUOUS
 70
0
 71
3
 72
11
 73
7
 74
0
 42
0.0000001
 43
0.0000001
 44
0.0000000001
 40
0.0
 40
0.0
 40
0.0
 40
0.0
 40
0.2499466025
 40
0.4999324391
 40
0.7499596544
 40
1.0
 40
1.0
 40
1.0
 40
1.0
 10
5.2195252533
 20
3.5328841223
 30
0.0
 10
5.2218075335
 20
3.5319014413
 30
0.0
 10
5.2261867229
 20
3.5294990171
 30
0.0
 10
5.2322409988
 20
3.5251312172
 30
0.0
 10
5.2379024328
 20
3.5202679009
 30
0.0
 10
5.2414674965
 20
3.516799349
 30
0.0
 10
5.2432077862
 20
3.5150243873
 30
0.0
  0
SPLINE
  5
3DA
100
AcDbEntity
  8
0
100
AcDbSpline
 62
7
  6
CONTINUOUS
 70
0
 71
3
 72
9
 73
5
 74
0
 42
0.0000001
 43
0.0000001
 44
0.0000000001
 40
0.0
 40
0.0
 40
0.0
 40
0.0
 40
0.499958157
 40
1.0
 40
1.0
 40
1.0
 40
1.0
 10
5.1967442775
 20
3.5341854288
 30
0.0
 10
5.2004719222
 20
3.5351842482
 30
0.0
 10
5.2082678809
 20
3.5362117361
 30
0.0
 10
5.2159801188
 20
3.5344105502
 30
0.0
 10
5.2195252533
 20
3.5328841223
 30
0.0
  0
SPLINE
  5
3DB
100
AcDbEntity
  8
0
100
AcDbSpline
 62
7
  6
CONTINUOUS
 70
0
 71
3
 72
9
 73
5
 74
0
 42
0.0000001
 43
0.0000001
 44
0.0000000001
 40
0.0
 40
0.0
 40
0.0
 40
0.0
 40
0.5000741224
 40
1.0
 40
1.0
 40
1.0
 40
1.0
 10
5.2408316193
 20
3.4607122544
 30
0.0
 10
5.2381135033
 20
3.4579542507
 30
0.0
 10
5.2321289675
 20
3.452928392
 30
0.0
 10
5.2249478882
 20
3.4496730014
 30
0.0
 10
5.2212086385
 20
3.4486710725
 30
0.0
  0
SPLINE
  5
3DC
100
AcDbEntity
  8
0
100
AcDbSpline
 62
7
  6
CONTINUOUS
 70
0
 71
3
 72
12
 73
8
 74
0
 42
0.0000001
 43
0.0000001
 44
0.0000000001
 40
0.0
 40
0.0
 40
0.0
 40
0.0
 40
0.249942288
 40
0.4998926132
 40
0.7497887417
 40
0.8750094136
 40
1.0
 40
1.0
 40
1.0
 40
1.0
 10
5.257256221
 20
3.4927041168
 30
0.0
 10
5.2563208865
 20
3.4898336685
 30
0.0
 10
5.2543249571
 20
3.4841314874
 30
0.0
 10
5.2508185926
 20
3.4757750761
 30
0.0
 10
5.2472728718
 20
3.4690858646
 30
0.0
 10
5.2438584903
 20
3.4640946732
 30
0.0
 10
5.2418913569
 20
3.4617875433
 30
0.0
 10
5.2408316193
 20
3.4607122544
 30
0.0
  0
SPLINE
  5
3DD
100
AcDbEntity
  8
0
100
AcDbSpline
 62
7
  6
CONTINUOUS
 70
0
 71
3
 72
9
 73
5
 74
0
 42
0.0000001
 43
0.0000001
 44
0.0000000001
 40
0.0
 40
0.0
 40
0.0
 40
0.0
 40
0.4999163709
 40
1.0
 40
1.0
 40
1.0
 40
1.0
 10
5.3190098573
 20
3.4900676978
 30
0.0
 10
5.318285493
 20
3.488433863
 30
0.0
 10
5.3165866588
 20
3.4852677034
 30
0.0
 10
5.3143327568
 20
3.4824590961
 30
0.0
 10
5.3130795216
 20
3.4811840828
 30
0.0
  0
SPLINE
  5
3DE
100
AcDbEntity
  8
0
100
AcDbSpline
 62
7
  6
CONTINUOUS
 70
0
 71
3
 72
11
 73
7
 74
0
 42
0.0000001
 43
0.0000001
 44
0.0000000001
 40
0.0
 40
0.0
 40
0.0
 40
0.0
 40
0.2499545289
 40
0.500039875
 40
0.7501160751
 40
1.0
 40
1.0
 40
1.0
 40
1.0
 10
5.3130795216
 20
3.4811840828
 30
0.0
 10
5.3121857986
 20
3.4802748291
 30
0.0
 10
5.3102622515
 20
3.4785836981
 30
0.0
 10
5.3070438125
 20
3.476491874
 30
0.0
 10
5.3035711408
 20
3.4748610363
 30
0.0
 10
5.3011406339
 20
3.4740677828
 30
0.0
 10
5.2999094801
 20
3.4737378961
 30
0.0
  0
SPLINE
  5
3DF
100
AcDbEntity
  8
0
100
AcDbSpline
 62
7
  6
CONTINUOUS
 70
0
 71
3
 72
9
 73
5
 74
0
 42
0.0000001
 43
0.0000001
 44
0.0000000001
 40
0.0
 40
0.0
 40
0.0
 40
0.0
 40
0.7495936488
 40
1.0
 40
1.0
 40
1.0
 40
1.0
 10
5.3198501943
 20
3.5209708888
 30
0.0
 10
5.321017317
 20
3.5166158023
 30
0.0
 10
5.322097265
 20
3.5106311368
 30
0.0
 10
5.3221002699
 20
3.5046071888
 30
0.0
 10
5.3220215934
 20
3.5031030648
 30
0.0
  0
SPLINE
  5
3E0
100
AcDbEntity
  8
0
100
AcDbSpline
 62
7
  6
CONTINUOUS
 70
0
 71
3
 72
9
 73
5
 74
0
 42
0.0000001
 43
0.0000001
 44
0.0000000001
 40
0.0
 40
0.0
 40
0.0
 40
0.0
 40
0.5002491918
 40
1.0
 40
1.0
 40
1.0
 40
1.0
 10
5.3220215934
 20
3.5031030648
 30
0.0
 10
5.3219045742
 20
3.5008659112
 30
0.0
 10
5.3213120926
 20
3.4964034254
 30
0.0
 10
5.3199169208
 20
3.4921136184
 30
0.0
 10
5.3190098573
 20
3.4900676978
 30
0.0
  0
SPLINE
  5
3E1
100
AcDbEntity
  8
0
100
AcDbSpline
 62
7
  6
CONTINUOUS
 70
0
 71
3
 72
9
 73
5
 74
0
 42
0.0000001
 43
0.0000001
 44
0.0000000001
 40
0.0
 40
0.0
 40
0.0
 40
0.0
 40
0.4999482309
 40
1.0
 40
1.0
 40
1.0
 40
1.0
 10
5.301645092
 20
3.5475653582
 30
0.0
 10
5.3031622665
 20
3.5466816416
 30
0.0
 10
5.3060596111
 20
3.5446665067
 30
0.0
 10
5.3085984268
 20
3.5422173879
 30
0.0
 10
5.3097684466
 20
3.540907768
 30
0.0
  0
SPLINE
  5
3E2
100
AcDbEntity
  8
0
100
AcDbSpline
 62
7
  6
CONTINUOUS
 70
0
 71
3
 72
9
 73
5
 74
0
 42
0.0000001
 43
0.0000001
 44
0.0000000001
 40
0.0
 40
0.0
 40
0.0
 40
0.0
 40
0.4999353872
 40
1.0
 40
1.0
 40
1.0
 40
1.0
 10
5.3127168117
 20
3.5371431449
 30
0.0
 10
5.3141742678
 20
3.5350215456
 30
0.0
 10
5.3166819776
 20
3.5304900512
 30
0.0
 10
5.3184688952
 20
3.5256450985
 30
0.0
 10
5.3192183098
 20
3.5231819369
 30
0.0
  0
SPLINE
  5
3E3
100
AcDbEntity
  8
0
100
AcDbSpline
 62
7
  6
CONTINUOUS
 70
0
 71
3
 72
13
 73
9
 74
0
 42
0.0000001
 43
0.0000001
 44
0.0000000001
 40
0.0
 40
0.0
 40
0.0
 40
0.0
 40
0.2497729633
 40
0.374863336
 40
0.4999598246
 40
0.6250627705
 40
0.7501694821
 40
1.0
 40
1.0
 40
1.0
 40
1.0
 10
5.2741561645
 20
3.5512804942
 30
0.0
 10
5.2764476799
 20
3.5518945039
 30
0.0
 10
5.2799801215
 20
3.5525232254
 30
0.0
 10
5.2847342658
 20
3.5526402664
 30
0.0
 10
5.2882935942
 20
3.552345532
 30
0.0
 10
5.2918025605
 20
3.5516794165
 30
0.0
 10
5.2963542222
 20
3.5502994534
 30
0.0
 10
5.2995946675
 20
3.5487596797
 30
0.0
 10
5.301645092
 20
3.5475653582
 30
0.0
  0
SPLINE
  5
3E4
100
AcDbEntity
  8
0
100
AcDbSpline
 62
7
  6
CONTINUOUS
 70
0
 71
3
 72
14
 73
10
 74
0
 42
0.0000001
 43
0.0000001
 44
0.0000000001
 40
0.0
 40
0.0
 40
0.0
 40
0.0
 40
0.1250457073
 40
0.2501027994
 40
0.3751392391
 40
0.5001618262
 40
0.6251574819
 40
0.7501294931
 40
1.0
 40
1.0
 40
1.0
 40
1.0
 10
3.7367788743
 20
3.4155065882
 30
0.0
 10
3.7366748955
 20
3.4161973176
 30
0.0
 10
3.7362437279
 20
3.4175529001
 30
0.0
 10
3.7350759342
 20
3.419315314
 30
0.0
 10
3.7335875448
 20
3.420803972
 30
0.0
 10
3.7319109679
 20
3.4220679651
 30
0.0
 10
3.7301191308
 20
3.4231577917
 30
0.0
 10
3.7276321148
 20
3.424430576
 30
0.0
 10
3.7256908553
 20
3.4252258285
 30
0.0
 10
3.7243814311
 20
3.4257091885
 30
0.0
  0
SPLINE
  5
3E5
100
AcDbEntity
  8
0
100
AcDbSpline
 62
7
  6
CONTINUOUS
 70
0
 71
3
 72
13
 73
9
 74
0
 42
0.0000001
 43
0.0000001
 44
0.0000000001
 40
0.0
 40
0.0
 40
0.0
 40
0.0
 40
0.2499640897
 40
0.4999038037
 40
0.6249274465
 40
0.7498752653
 40
0.8749956543
 40
1.0
 40
1.0
 40
1.0
 40
1.0
 10
3.7344291856
 20
3.4003300876
 30
0.0
 10
3.7348293082
 20
3.4015616778
 30
0.0
 10
3.7355919425
 20
3.4040370359
 30
0.0
 10
3.736400391
 20
3.4071747991
 30
0.0
 10
3.7368860707
 20
3.409719446
 30
0.0
 10
3.7371314999
 20
3.4116498448
 30
0.0
 10
3.7371861
 20
3.413593539
 30
0.0
 10
3.7369928943
 20
3.4148953818
 30
0.0
 10
3.7367788743
 20
3.4155065882
 30
0.0
  0
SPLINE
  5
3E6
100
AcDbEntity
  8
0
100
AcDbSpline
 62
7
  6
CONTINUOUS
 70
0
 71
3
 72
14
 73
10
 74
0
 42
0.0000001
 43
0.0000001
 44
0.0000000001
 40
0.0
 40
0.0
 40
0.0
 40
0.0
 40
0.0661402649
 40
0.1467282089
 40
0.2436232139
 40
0.3579202544
 40
0.4903081517
 40
0.6412502361
 40
1.0
 40
1.0
 40
1.0
 40
1.0
 10
3.7450718829
 20
3.4434808292
 30
0.0
 10
3.7453962597
 20
3.4436661004
 30
0.0
 10
3.7460570132
 20
3.4441794443
 30
0.0
 10
3.7469839771
 20
3.4452010114
 30
0.0
 10
3.7479426074
 20
3.4465450487
 30
0.0
 10
3.7489341438
 20
3.4482148784
 30
0.0
 10
3.749960447
 20
3.4502136809
 30
0.0
 10
3.7514635039
 20
3.4535149798
 30
0.0
 10
3.7525058117
 20
3.4562010263
 30
0.0
 10
3.7532003082
 20
3.4581044949
 30
0.0
  0
SPLINE
  5
3E7
100
AcDbEntity
  8
0
100
AcDbSpline
 62
7
  6
CONTINUOUS
 70
0
 71
3
 72
11
 73
7
 74
0
 42
0.0000001
 43
0.0000001
 44
0.0000000001
 40
0.0
 40
0.0
 40
0.0
 40
0.0
 40
0.3177410581
 40
0.5847421661
 40
0.809112986
 40
1.0
 40
1.0
 40
1.0
 40
1.0
 10
3.7301546305
 20
3.4434781114
 30
0.0
 10
3.731696037
 20
3.4429772784
 30
0.0
 10
3.7345958918
 20
3.442227931
 30
0.0
 10
3.7387285719
 20
3.441856443
 30
0.0
 10
3.7422137145
 20
3.4422418013
 30
0.0
 10
3.7442264345
 20
3.4429979125
 30
0.0
 10
3.7450719198
 20
3.4434808172
 30
0.0
  0
LINE
  5
3E8
100
AcDbEntity
  8
0
100
AcDbLine
 62
7
  6
CONTINUOUS
 10
3.6171217414
 20
3.4375475373
 11
3.6145028573
 21
3.4525964997
  0
LINE
  5
3E9
100
AcDbEntity
  8
0
100
AcDbLine
 62
7
  6
CONTINUOUS
 10
3.6145028573
 20
3.4525964997
 11
3.6131919976
 21
3.4601293266
  0
LINE
  5
3EA
100
AcDbEntity
  8
0
100
AcDbLine
 62
7
  6
CONTINUOUS
 10
3.6131919976
 20
3.4601293266
 11
3.6092537454
 21
3.4827611902
  0
SPLINE
  5
3EB
100
AcDbEntity
  8
0
100
AcDbSpline
 62
7
  6
CONTINUOUS
 70
0
 71
3
 72
9
 73
5
 74
0
 42
0.0000001
 43
0.0000001
 44
0.0000000001
 40
0.0
 40
0.0
 40
0.0
 40
0.0
 40
0.4999865214
 40
1.0
 40
1.0
 40
1.0
 40
1.0
 10
5.2093942433
 20
3.3847150682
 30
0.0
 10
5.2100628431
 20
3.3822196338
 30
0.0
 10
5.2122153416
 20
3.3773931206
 30
0.0
 10
5.2159073873
 20
3.3736290854
 30
0.0
 10
5.217959907
 20
3.3720599769
 30
0.0
  0
SPLINE
  5
3EC
100
AcDbEntity
  8
0
100
AcDbSpline
 62
7
  6
CONTINUOUS
 70
0
 71
3
 72
9
 73
5
 74
0
 42
0.0000001
 43
0.0000001
 44
0.0000000001
 40
0.0
 40
0.0
 40
0.0
 40
0.0
 40
0.4999560132
 40
1.0
 40
1.0
 40
1.0
 40
1.0
 10
5.2098656646
 20
3.3982155643
 30
0.0
 10
5.209122604
 20
3.3960624451
 30
0.0
 10
5.208219711
 20
3.3915145396
 30
0.0
 10
5.2088046602
 20
3.3869155861
 30
0.0
 10
5.2093942433
 20
3.3847150682
 30
0.0
  0
SPLINE
  5
3ED
100
AcDbEntity
  8
0
100
AcDbSpline
 62
7
  6
CONTINUOUS
 70
0
 71
3
 72
9
 73
5
 74
0
 42
0.0000001
 43
0.0000001
 44
0.0000000001
 40
0.0
 40
0.0
 40
0.0
 40
0.0
 40
0.5004012035
 40
1.0
 40
1.0
 40
1.0
 40
1.0
 10
3.7602043135
 20
3.5590009114
 30
0.0
 10
3.7583948223
 20
3.5603296186
 30
0.0
 10
3.7545248541
 20
3.5626500641
 30
0.0
 10
3.7503459264
 20
3.5643278341
 30
0.0
 10
3.7482142925
 20
3.565020444
 30
0.0
  0
SPLINE
  5
3EE
100
AcDbEntity
  8
0
100
AcDbSpline
 62
7
  6
CONTINUOUS
 70
0
 71
3
 72
11
 73
7
 74
0
 42
0.0000001
 43
0.0000001
 44
0.0000000001
 40
0.0
 40
0.0
 40
0.0
 40
0.0
 40
0.2497408186
 40
0.5000571684
 40
0.7500319832
 40
1.0
 40
1.0
 40
1.0
 40
1.0
 10
3.7730018912
 20
3.5273308537
 30
0.0
 10
3.7733271215
 20
3.5283316396
 30
0.0
 10
3.7738478124
 20
3.5303805595
 30
0.0
 10
3.7742149463
 20
3.5335293802
 30
0.0
 10
3.7741280149
 20
3.5367001926
 30
0.0
 10
3.7737760266
 20
3.5387844618
 30
0.0
 10
3.7735361493
 20
3.5398100454
 30
0.0
  0
SPLINE
  5
3EF
100
AcDbEntity
  8
0
100
AcDbSpline
 62
7
  6
CONTINUOUS
 70
0
 71
3
 72
9
 73
5
 74
0
 42
0.0000001
 43
0.0000001
 44
0.0000000001
 40
0.0
 40
0.0
 40
0.0
 40
0.0
 40
0.5002539376
 40
1.0
 40
1.0
 40
1.0
 40
1.0
 10
3.7735361493
 20
3.5398100454
 30
0.0
 10
3.773141618
 20
3.5414968446
 30
0.0
 10
3.7719951702
 20
3.5447914974
 30
0.0
 10
3.770301394
 20
3.5478276699
 30
0.0
 10
3.7693614415
 20
3.5492807169
 30
0.0
  0
SPLINE
  5
3F0
100
AcDbEntity
  8
0
100
AcDbSpline
 62
7
  6
CONTINUOUS
 70
0
 71
3
 72
9
 73
5
 74
0
 42
0.0000001
 43
0.0000001
 44
0.0000000001
 40
0.0
 40
0.0
 40
0.0
 40
0.0
 40
0.2496525452
 40
1.0
 40
1.0
 40
1.0
 40
1.0
 10
3.7652532177
 20
3.5162654013
 30
0.0
 10
3.7655514176
 20
3.5164980347
 30
0.0
 10
3.7667243299
 20
3.517457042
 30
0.0
 10
3.7678079749
 20
3.518526155
 30
0.0
 10
3.7685546358
 20
3.5193832742
 30
0.0
  0
SPLINE
  5
3F1
100
AcDbEntity
  8
0
100
AcDbSpline
 62
7
  6
CONTINUOUS
 70
0
 71
3
 72
9
 73
5
 74
0
 42
0.0000001
 43
0.0000001
 44
0.0000000001
 40
0.0
 40
0.0
 40
0.0
 40
0.0
 40
0.4999696313
 40
1.0
 40
1.0
 40
1.0
 40
1.0
 10
3.7685546358
 20
3.5193832742
 30
0.0
 10
3.769298925
 20
3.5202376707
 30
0.0
 10
3.7706577365
 20
3.522064962
 30
0.0
 10
3.771711472
 20
3.5240822972
 30
0.0
 10
3.7721643107
 20
3.525121147
 30
0.0
  0
LINE
  5
3F2
100
AcDbEntity
  8
0
100
AcDbLine
 62
7
  6
CONTINUOUS
 10
3.7562721683
 20
3.5089602523
 11
3.7652532177
 21
3.5162654013
  0
SPLINE
  5
3F3
100
AcDbEntity
  8
0
100
AcDbSpline
 62
7
  6
CONTINUOUS
 70
0
 71
3
 72
9
 73
5
 74
0
 42
0.0000001
 43
0.0000001
 44
0.0000000001
 40
0.0
 40
0.0
 40
0.0
 40
0.0
 40
0.499968335
 40
1.0
 40
1.0
 40
1.0
 40
1.0
 10
3.7501148861
 20
3.5004171271
 30
0.0
 10
3.7506617182
 20
3.5020999367
 30
0.0
 10
3.7524799909
 20
3.5052303985
 30
0.0
 10
3.754958109
 20
3.5077749612
 30
0.0
 10
3.7562721683
 20
3.5089602523
 30
0.0
  0
SPLINE
  5
3F4
100
AcDbEntity
  8
0
100
AcDbSpline
 62
7
  6
CONTINUOUS
 70
0
 71
3
 72
9
 73
5
 74
0
 42
0.0000001
 43
0.0000001
 44
0.0000000001
 40
0.0
 40
0.0
 40
0.0
 40
0.0
 40
0.2487835032
 40
1.0
 40
1.0
 40
1.0
 40
1.0
 10
3.7505157731
 20
3.491979866
 30
0.0
 10
3.75039526
 20
3.4921856132
 30
0.0
 10
3.7499529171
 20
3.4930370821
 30
0.0
 10
3.7496743565
 20
3.4939694675
 30
0.0
 10
3.7495493626
 20
3.494678529
 30
0.0
  0
SPLINE
  5
3F5
100
AcDbEntity
  8
0
100
AcDbSpline
 62
7
  6
CONTINUOUS
 70
0
 71
3
 72
9
 73
5
 74
0
 42
0.0000001
 43
0.0000001
 44
0.0000000001
 40
0.0
 40
0.0
 40
0.0
 40
0.0
 40
0.5016580906
 40
1.0
 40
1.0
 40
1.0
 40
1.0
 10
3.7495493626
 20
3.494678529
 30
0.0
 10
3.7494249991
 20
3.4953840138
 30
0.0
 10
3.7493420751
 20
3.4968234655
 30
0.0
 10
3.7495516839
 20
3.49824384
 30
0.0
 10
3.7497069746
 20
3.4989383165
 30
0.0
  0
LINE
  5
3F6
100
AcDbEntity
  8
0
100
AcDbLine
 62
7
  6
CONTINUOUS
 10
3.7497069746
 20
3.4989383165
 11
3.7501148861
 21
3.5004171271
  0
SPLINE
  5
3F7
100
AcDbEntity
  8
0
100
AcDbSpline
 62
7
  6
CONTINUOUS
 70
0
 71
3
 72
9
 73
5
 74
0
 42
0.0000001
 43
0.0000001
 44
0.0000000001
 40
0.0
 40
0.0
 40
0.0
 40
0.0
 40
0.4999578199
 40
1.0
 40
1.0
 40
1.0
 40
1.0
 10
3.7561190388
 20
3.4874651922
 30
0.0
 10
3.7549581086
 20
3.4878424013
 30
0.0
 10
3.7527311254
 20
3.4889951608
 30
0.0
 10
3.7511328253
 20
3.490926398
 30
0.0
 10
3.7505157731
 20
3.491979866
 30
0.0
  0
LINE
  5
3F8
100
AcDbEntity
  8
0
100
AcDbLine
 62
7
  6
CONTINUOUS
 10
5.2134188283
 20
3.40923356
 11
5.2098657065
 21
3.3982155756
  0
SPLINE
  5
3F9
100
AcDbEntity
  8
0
100
AcDbSpline
 62
7
  6
CONTINUOUS
 70
0
 71
3
 72
11
 73
7
 74
0
 42
0.0000001
 43
0.0000001
 44
0.0000000001
 40
0.0
 40
0.0
 40
0.0
 40
0.0
 40
0.2172728981
 40
0.4527777604
 40
0.7122065347
 40
1.0
 40
1.0
 40
1.0
 40
1.0
 10
5.2139295937
 20
3.4197518681
 30
0.0
 10
5.2141290784
 20
3.4190073728
 30
0.0
 10
5.2144012606
 20
3.4174151746
 30
0.0
 10
5.214433086
 20
3.4148809264
 30
0.0
 10
5.2141090136
 20
3.412116971
 30
0.0
 10
5.2136822029
 20
3.4102199485
 30
0.0
 10
5.2134188695
 20
3.4092335711
 30
0.0
  0
SPLINE
  5
3FA
100
AcDbEntity
  8
0
100
AcDbSpline
 62
7
  6
CONTINUOUS
 70
0
 71
3
 72
9
 73
5
 74
0
 42
0.0000001
 43
0.0000001
 44
0.0000000001
 40
0.0
 40
0.0
 40
0.0
 40
0.0
 40
0.499878429
 40
1.0
 40
1.0
 40
1.0
 40
1.0
 10
5.2089978853
 20
3.4266095807
 30
0.0
 10
5.2102847948
 20
3.425964017
 30
0.0
 10
5.2124833651
 20
3.4238706682
 30
0.0
 10
5.2135567692
 20
3.421143237
 30
0.0
 10
5.2139295885
 20
3.4197518667
 30
0.0
  0
SPLINE
  5
3FB
100
AcDbEntity
  8
0
100
AcDbSpline
 62
7
  6
CONTINUOUS
 70
0
 71
3
 72
11
 73
7
 74
0
 42
0.0000001
 43
0.0000001
 44
0.0000000001
 40
0.0
 40
0.0
 40
0.0
 40
0.0
 40
0.2539648489
 40
0.4995162131
 40
0.7453158169
 40
1.0
 40
1.0
 40
1.0
 40
1.0
 10
5.2018396411
 20
3.4273441282
 30
0.0
 10
5.2024411046
 20
3.4275052865
 30
0.0
 10
5.2036533039
 20
3.4277264447
 30
0.0
 10
5.2054915129
 20
3.4277157219
 30
0.0
 10
5.2072952548
 20
3.4273523881
 30
0.0
 10
5.2084397252
 20
3.426889582
 30
0.0
 10
5.2089978805
 20
3.4266095952
 30
0.0
  0
SPLINE
  5
3FC
100
AcDbEntity
  8
0
100
AcDbSpline
 62
7
  6
CONTINUOUS
 70
0
 71
3
 72
13
 73
9
 74
0
 42
0.0000001
 43
0.0000001
 44
0.0000000001
 40
0.0
 40
0.0
 40
0.0
 40
0.0
 40
0.2498326308
 40
0.3749318684
 40
0.5000228562
 40
0.6251116252
 40
0.7502002895
 40
1.0
 40
1.0
 40
1.0
 40
1.0
 10
3.7040964916
 20
3.5829470515
 30
0.0
 10
3.7071672208
 20
3.5843095822
 30
0.0
 10
3.7119572955
 20
3.585987023
 30
0.0
 10
3.7185583434
 20
3.5873073963
 30
0.0
 10
3.7235880837
 20
3.5878084789
 30
0.0
 10
3.7286425223
 20
3.5878230962
 30
0.0
 10
3.7353433555
 20
3.5871848496
 30
0.0
 10
3.740279524
 20
3.5860085564
 30
0.0
 10
3.7434741246
 20
3.5849705677
 30
0.0
  0
SPLINE
  5
3FD
100
AcDbEntity
  8
0
100
AcDbSpline
 62
7
  6
CONTINUOUS
 70
0
 71
3
 72
14
 73
10
 74
0
 42
0.0000001
 43
0.0000001
 44
0.0000000001
 40
0.0
 40
0.0
 40
0.0
 40
0.0
 40
0.249911315
 40
0.3748977022
 40
0.4998891768
 40
0.624896315
 40
0.7499008319
 40
0.8749739644
 40
1.0
 40
1.0
 40
1.0
 40
1.0
 10
3.6696643609
 20
3.5426096655
 30
0.0
 10
3.6715914283
 20
3.5466828676
 30
0.0
 10
3.6747166776
 20
3.5526907547
 30
0.0
 10
3.6795010384
 20
3.560334559
 30
0.0
 10
3.6834521065
 20
3.5658283231
 30
0.0
 10
3.6878230715
 20
3.5709978854
 30
0.0
 10
3.6926768131
 20
3.575726736
 30
0.0
 10
3.6980684934
 20
3.5798402836
 30
0.0
 10
3.7020359309
 20
3.5820327484
 30
0.0
 10
3.7040964916
 20
3.5829470515
 30
0.0
  0
LINE
  5
3FE
100
AcDbEntity
  8
0
100
AcDbLine
 62
7
  6
CONTINUOUS
 10
3.637056322
 20
3.5607257923
 11
3.6551713698
 21
3.6164682804
  0
LINE
  5
3FF
100
AcDbEntity
  8
0
100
AcDbLine
 62
7
  6
CONTINUOUS
 10
3.6821041799
 20
3.5176881596
 11
3.6631527347
 21
3.5357938897
  0
LINE
  5
400
100
AcDbEntity
  8
0
100
AcDbLine
 62
7
  6
CONTINUOUS
 10
3.6631527347
 20
3.5357938897
 11
3.6598475103
 21
3.5389516205
  0
LINE
  5
401
100
AcDbEntity
  8
0
100
AcDbLine
 62
7
  6
CONTINUOUS
 10
3.6598475103
 20
3.5389516205
 11
3.6523098386
 21
3.5461529321
  0
LINE
  5
402
100
AcDbEntity
  8
0
100
AcDbLine
 62
7
  6
CONTINUOUS
 10
3.6523098386
 20
3.5461529321
 11
3.6491421721
 21
3.5491792464
  0
LINE
  5
403
100
AcDbEntity
  8
0
100
AcDbLine
 62
7
  6
CONTINUOUS
 10
3.6491421721
 20
3.5491792464
 11
3.637056322
 21
3.5607257923
  0
SPLINE
  5
404
100
AcDbEntity
  8
0
100
AcDbSpline
 62
7
  6
CONTINUOUS
 70
0
 71
3
 72
8
 73
4
 74
0
 42
0.0000001
 43
0.0000001
 44
0.0000000001
 40
0.0
 40
0.0
 40
0.0
 40
0.0
 40
1.0
 40
1.0
 40
1.0
 40
1.0
 10
5.3043811089
 20
3.4281828549
 30
0.0
 10
5.3048845012
 20
3.4244510164
 30
0.0
 10
5.3052693837
 20
3.4206999444
 30
0.0
 10
5.305497028
 20
3.4169411945
 30
0.0
  0
LINE
  5
405
100
AcDbEntity
  8
0
100
AcDbLine
 62
7
  6
CONTINUOUS
 10
5.3415954064
 20
3.430749033
 11
5.3436872211
 21
3.4229418855
  0
LINE
  5
406
100
AcDbEntity
  8
0
100
AcDbLine
 62
7
  6
CONTINUOUS
 10
5.2803744529
 20
3.4423084377
 11
5.3105952054
 21
3.4366023424
  0
LINE
  5
407
100
AcDbEntity
  8
0
100
AcDbLine
 62
7
  6
CONTINUOUS
 10
5.3105952054
 20
3.4366023424
 11
5.3208420003
 21
3.4346675964
  0
LINE
  5
408
100
AcDbEntity
  8
0
100
AcDbLine
 62
7
  6
CONTINUOUS
 10
5.3208420003
 20
3.4346675964
 11
5.3311754005
 21
3.4327164932
  0
LINE
  5
409
100
AcDbEntity
  8
0
100
AcDbLine
 62
7
  6
CONTINUOUS
 10
5.3311754005
 20
3.4327164932
 11
5.3415954064
 21
3.430749033
  0
SPLINE
  5
40A
100
AcDbEntity
  8
0
100
AcDbSpline
 62
7
  6
CONTINUOUS
 70
0
 71
3
 72
14
 73
10
 74
0
 42
0.0000001
 43
0.0000001
 44
0.0000000001
 40
0.0
 40
0.0
 40
0.0
 40
0.0
 40
0.1250458944
 40
0.2501046952
 40
0.3751416503
 40
0.500164894
 40
0.6251604016
 40
0.7501318252
 40
1.0
 40
1.0
 40
1.0
 40
1.0
 10
3.8862002361
 20
2.711128003
 30
0.0
 10
3.8856173957
 20
2.7115128419
 30
0.0
 10
3.884321359
 20
2.7120988983
 30
0.0
 10
3.8822304258
 20
2.7124097557
 30
0.0
 10
3.8801284635
 20
2.7122994842
 30
0.0
 10
3.8780675648
 20
2.7118991866
 30
0.0
 10
3.8760589635
 20
2.7112968023
 30
0.0
 10
3.8734493167
 20
2.7103003022
 30
0.0
 10
3.8715596234
 20
2.70938989
 30
0.0
 10
3.8703244008
 20
2.7087403108
 30
0.0
  0
SPLINE
  5
40B
100
AcDbEntity
  8
0
100
AcDbSpline
 62
7
  6
CONTINUOUS
 70
0
 71
3
 72
13
 73
9
 74
0
 42
0.0000001
 43
0.0000001
 44
0.0000000001
 40
0.0
 40
0.0
 40
0.0
 40
0.0
 40
0.2499615863
 40
0.4998997688
 40
0.6249229236
 40
0.7498715476
 40
0.8749927999
 40
1.0
 40
1.0
 40
1.0
 40
1.0
 10
3.895909396
 20
2.6992261203
 30
0.0
 10
3.8952617021
 20
2.7003477004
 30
0.0
 10
3.8939320825
 20
2.7025710525
 30
0.0
 10
3.8921407294
 20
2.7052717241
 30
0.0
 10
3.8905741818
 20
2.707335533
 30
0.0
 10
3.889303447
 20
2.7088097093
 30
0.0
 10
3.8878949964
 20
2.7101508718
 30
0.0
 10
3.886797785
 20
2.7108780534
 30
0.0
 10
3.8862002361
 20
2.711128003
 30
0.0
  0
LINE
  5
40C
100
AcDbEntity
  8
0
100
AcDbLine
 62
7
  6
CONTINUOUS
 10
3.8709610434
 20
2.7360076215
 11
3.8710642846
 21
2.7372903762
  0
SPLINE
  5
40D
100
AcDbEntity
  8
0
100
AcDbSpline
 62
7
  6
CONTINUOUS
 70
0
 71
3
 72
14
 73
10
 74
0
 42
0.0000001
 43
0.0000001
 44
0.0000000001
 40
0.0
 40
0.0
 40
0.0
 40
0.0
 40
0.0628745556
 40
0.1253903932
 40
0.250259742
 40
0.3752555752
 40
0.5002037876
 40
0.7500970422
 40
1.0
 40
1.0
 40
1.0
 40
1.0
 10
3.8710642846
 20
2.7372903762
 30
0.0
 10
3.8710541573
 20
2.7376183644
 30
0.0
 10
3.8709915434
 20
2.7382712487
 30
0.0
 10
3.8707615182
 20
2.7395577608
 30
0.0
 10
3.8703282966
 20
2.7411324711
 30
0.0
 10
3.8696822962
 20
2.7429795838
 30
0.0
 10
3.8687050189
 20
2.7453990988
 30
0.0
 10
3.8673338637
 20
2.7483591684
 30
0.0
 10
3.8661429148
 20
2.7506803457
 30
0.0
 10
3.865531436
 20
2.7518323732
 30
0.0
  0
SPLINE
  5
40E
100
AcDbEntity
  8
0
100
AcDbSpline
 62
7
  6
CONTINUOUS
 70
0
 71
3
 72
12
 73
8
 74
0
 42
0.0000001
 43
0.0000001
 44
0.0000000001
 40
0.0
 40
0.0
 40
0.0
 40
0.0
 40
0.249819165
 40
0.3748252359
 40
0.4998624819
 40
0.7501146271
 40
1.0
 40
1.0
 40
1.0
 40
1.0
 10
3.8609814868
 20
2.7249197649
 30
0.0
 10
3.8620848554
 20
2.7255567951
 30
0.0
 10
3.8636966251
 20
2.7265947384
 30
0.0
 10
3.8656972151
 20
2.72817757
 30
0.0
 10
3.8675779971
 20
2.7299053586
 30
0.0
 10
3.8696181637
 20
2.7323819071
 30
0.0
 10
3.8706903238
 20
2.7347623099
 30
0.0
 10
3.8709610434
 20
2.7360076215
 30
0.0
  0
LINE
  5
40F
100
AcDbEntity
  8
0
100
AcDbLine
 62
7
  6
CONTINUOUS
 10
3.789756614
 20
2.6369525633
 11
3.7830583608
 21
2.6411584735
  0
LINE
  5
410
100
AcDbEntity
  8
0
100
AcDbLine
 62
7
  6
CONTINUOUS
 10
3.7830583608
 20
2.6411584735
 11
3.7767944245
 21
2.6450916997
  0
LINE
  5
411
100
AcDbEntity
  8
0
100
AcDbLine
 62
7
  6
CONTINUOUS
 10
3.7767944245
 20
2.6450916997
 11
3.7508894823
 21
2.6613581164
  0
SPLINE
  5
412
100
AcDbEntity
  8
0
100
AcDbSpline
 62
7
  6
CONTINUOUS
 70
0
 71
3
 72
11
 73
7
 74
0
 42
0.0000001
 43
0.0000001
 44
0.0000000001
 40
0.0
 40
0.0
 40
0.0
 40
0.0
 40
0.2454638173
 40
0.4870763551
 40
0.735241856
 40
1.0
 40
1.0
 40
1.0
 40
1.0
 10
3.6985098763
 20
2.7744880455
 30
0.0
 10
3.6991780571
 20
2.7769830919
 30
0.0
 10
3.7009728296
 20
2.7818270102
 30
0.0
 10
3.70514361
 20
2.788410351
 30
0.0
 10
3.7107371696
 20
2.7941206158
 30
0.0
 10
3.7152115621
 20
2.7971987533
 30
0.0
 10
3.7176242983
 20
2.7985917677
 30
0.0
  0
SPLINE
  5
413
100
AcDbEntity
  8
0
100
AcDbSpline
 62
7
  6
CONTINUOUS
 70
0
 71
3
 72
9
 73
5
 74
0
 42
0.0000001
 43
0.0000001
 44
0.0000000001
 40
0.0
 40
0.0
 40
0.0
 40
0.0
 40
0.4999898865
 40
1.0
 40
1.0
 40
1.0
 40
1.0
 10
3.7024699141
 20
2.745215705
 30
0.0
 10
3.6999564585
 20
2.7495690034
 30
0.0
 10
3.6963561949
 20
2.7592857314
 30
0.0
 10
3.6972093564
 20
2.7696321654
 30
0.0
 10
3.6985098616
 20
2.7744880275
 30
0.0
  0
SPLINE
  5
414
100
AcDbEntity
  8
0
100
AcDbSpline
 62
7
  6
CONTINUOUS
 70
0
 71
3
 72
12
 73
8
 74
0
 42
0.0000001
 43
0.0000001
 44
0.0000000001
 40
0.0
 40
0.0
 40
0.0
 40
0.0
 40
0.2500617845
 40
0.3751922382
 40
0.5003380131
 40
0.750516527
 40
1.0
 40
1.0
 40
1.0
 40
1.0
 10
3.7220592282
 20
2.726790576
 30
0.0
 10
3.7200197051
 20
2.7277958743
 30
0.0
 10
3.7170576423
 20
2.729519876
 30
0.0
 10
3.7134051711
 20
2.7322384531
 30
0.0
 10
3.7099790101
 20
2.7352402771
 30
0.0
 10
3.7061514561
 20
2.7394684546
 30
0.0
 10
3.7036042234
 20
2.7432510843
 30
0.0
 10
3.7024699141
 20
2.745215705
 30
0.0
  0
SPLINE
  5
415
100
AcDbEntity
  8
0
100
AcDbSpline
 62
7
  6
CONTINUOUS
 70
0
 71
3
 72
9
 73
5
 74
0
 42
0.0000001
 43
0.0000001
 44
0.0000000001
 40
0.0
 40
0.0
 40
0.0
 40
0.0
 40
0.7497907891
 40
1.0
 40
1.0
 40
1.0
 40
1.0
 10
3.7634811651
 20
2.7247192483
 30
0.0
 10
3.7604311294
 20
2.7238038298
 30
0.0
 10
3.756286291
 20
2.7228076681
 30
0.0
 10
3.7520803391
 20
2.7222088733
 30
0.0
 10
3.7510248131
 20
2.7220858827
 30
0.0
  0
SPLINE
  5
416
100
AcDbEntity
  8
0
100
AcDbSpline
 62
7
  6
CONTINUOUS
 70
0
 71
3
 72
9
 73
5
 74
0
 42
0.0000001
 43
0.0000001
 44
0.0000000001
 40
0.0
 40
0.0
 40
0.0
 40
0.0
 40
0.4997912432
 40
1.0
 40
1.0
 40
1.0
 40
1.0
 10
3.7468761517
 20
2.721745292
 30
0.0
 10
3.744200126
 20
2.7216196073
 30
0.0
 10
3.7388188636
 20
2.7217394878
 30
0.0
 10
3.7335210418
 20
2.7227210693
 30
0.0
 10
3.7309337317
 20
2.7234244417
 30
0.0
  0
LINE
  5
417
100
AcDbEntity
  8
0
100
AcDbLine
 62
7
  6
CONTINUOUS
 10
5.1271013412
 20
2.8485686347
 11
5.2076415685
 21
2.7399107079
  0
SPLINE
  5
418
100
AcDbEntity
  8
0
100
AcDbSpline
 62
7
  6
CONTINUOUS
 70
0
 71
3
 72
9
 73
5
 74
0
 42
0.0000001
 43
0.0000001
 44
0.0000000001
 40
0.0
 40
0.0
 40
0.0
 40
0.0
 40
0.4934259694
 40
1.0
 40
1.0
 40
1.0
 40
1.0
 10
3.7505868513
 20
2.7897234189
 30
0.0
 10
3.7478954352
 20
2.7891213722
 30
0.0
 10
3.7425285699
 20
2.7874731149
 30
0.0
 10
3.737476187
 20
2.7850278951
 30
0.0
 10
3.7350240986
 20
2.7836121974
 30
0.0
  0
SPLINE
  5
419
100
AcDbEntity
  8
0
100
AcDbSpline
 62
7
  6
CONTINUOUS
 70
0
 71
3
 72
9
 73
5
 74
0
 42
0.0000001
 43
0.0000001
 44
0.0000000001
 40
0.0
 40
0.0
 40
0.0
 40
0.0
 40
0.4864083843
 40
1.0
 40
1.0
 40
1.0
 40
1.0
 10
3.7663146891
 20
2.7913308524
 30
0.0
 10
3.763747616
 20
2.7914166539
 30
0.0
 10
3.7584522543
 20
2.7912021077
 30
0.0
 10
3.7532335188
 20
2.7903154668
 30
0.0
 10
3.750586878
 20
2.7897234343
 30
0.0
  0
SPLINE
  5
41A
100
AcDbEntity
  8
0
100
AcDbSpline
 62
7
  6
CONTINUOUS
 70
0
 71
3
 72
9
 73
5
 74
0
 42
0.0000001
 43
0.0000001
 44
0.0000000001
 40
0.0
 40
0.0
 40
0.0
 40
0.0
 40
0.2524030866
 40
1.0
 40
1.0
 40
1.0
 40
1.0
 10
3.7913754353
 20
2.7889022558
 30
0.0
 10
3.789281847
 20
2.7892297734
 30
0.0
 10
3.7809702488
 20
2.7904139099
 30
0.0
 10
3.7725877421
 20
2.7911212496
 30
0.0
 10
3.7663147904
 20
2.7913309109
 30
0.0
  0
LINE
  5
41B
100
AcDbEntity
  8
0
100
AcDbLine
 62
7
  6
CONTINUOUS
 10
3.8264133764
 20
2.7820104174
 11
3.8218435703
 21
2.7829603414
  0
SPLINE
  5
41C
100
AcDbEntity
  8
0
100
AcDbSpline
 62
7
  6
CONTINUOUS
 70
0
 71
3
 72
9
 73
5
 74
0
 42
0.0000001
 43
0.0000001
 44
0.0000000001
 40
0.0
 40
0.0
 40
0.0
 40
0.0
 40
0.5490455043
 40
1.0
 40
1.0
 40
1.0
 40
1.0
 10
3.8103854995
 20
2.7853288801
 30
0.0
 10
3.8069168255
 20
2.7860369814
 30
0.0
 10
3.8005950519
 20
2.7873058433
 30
0.0
 10
3.7942485824
 20
2.7884530488
 30
0.0
 10
3.791375795
 20
2.7889024634
 30
0.0
  0
LINE
  5
41D
100
AcDbEntity
  8
0
100
AcDbLine
 62
7
  6
CONTINUOUS
 10
3.8535819004
 20
2.7763691016
 11
3.8400699295
 21
2.7791748477
  0
LINE
  5
41E
100
AcDbEntity
  8
0
100
AcDbLine
 62
7
  6
CONTINUOUS
 10
3.8400699295
 20
2.7791748477
 11
3.82641373
 21
2.7820105858
  0
LINE
  5
41F
100
AcDbEntity
  8
0
100
AcDbLine
 62
7
  6
CONTINUOUS
 10
5.2594107107
 20
2.7801663334
 11
5.2234671555
 21
2.7288299221
  0
LINE
  5
420
100
AcDbEntity
  8
0
100
AcDbLine
 62
7
  6
CONTINUOUS
 10
5.2234671555
 20
2.7288299221
 11
5.2115873912
 21
2.7118634353
  0
LINE
  5
421
100
AcDbEntity
  8
0
100
AcDbLine
 62
7
  6
CONTINUOUS
 10
5.238360249
 20
2.8113278325
 11
5.2418227556
 21
2.8062022088
  0
LINE
  5
422
100
AcDbEntity
  8
0
100
AcDbLine
 62
7
  6
CONTINUOUS
 10
5.2418227556
 20
2.8062022088
 11
5.2453036237
 21
2.8010494014
  0
LINE
  5
423
100
AcDbEntity
  8
0
100
AcDbLine
 62
7
  6
CONTINUOUS
 10
5.2453036237
 20
2.8010494014
 11
5.2479208496
 21
2.797175061
  0
LINE
  5
424
100
AcDbEntity
  8
0
100
AcDbLine
 62
7
  6
CONTINUOUS
 10
5.2479208496
 20
2.797175061
 11
5.2594107107
 21
2.7801663334
  0
LINE
  5
425
100
AcDbEntity
  8
0
100
AcDbLine
 62
7
  6
CONTINUOUS
 10
3.7812102113
 20
2.8434394439
 11
3.7805683377
 21
2.8477533979
  0
SPLINE
  5
426
100
AcDbEntity
  8
0
100
AcDbSpline
 62
7
  6
CONTINUOUS
 70
0
 71
3
 72
14
 73
10
 74
0
 42
0.0000001
 43
0.0000001
 44
0.0000000001
 40
0.0
 40
0.0
 40
0.0
 40
0.0
 40
0.1249906339
 40
0.1877993806
 40
0.2503739569
 40
0.3752803629
 40
0.5002430684
 40
0.7501261643
 40
1.0
 40
1.0
 40
1.0
 40
1.0
 10
3.7971966417
 20
2.8392318969
 30
0.0
 10
3.7966700481
 20
2.8396893178
 30
0.0
 10
3.7957754509
 20
2.8402590219
 30
0.0
 10
3.7945108369
 20
2.8408521373
 30
0.0
 10
3.7932107806
 20
2.8413658907
 30
0.0
 10
3.7915410492
 20
2.8418759669
 30
0.0
 10
3.7888243879
 20
2.8425120862
 30
0.0
 10
3.7853764842
 20
2.843054844
 30
0.0
 10
3.7826003249
 20
2.8433296698
 30
0.0
 10
3.7812102113
 20
2.8434394439
 30
0.0
  0
SPLINE
  5
427
100
AcDbEntity
  8
0
100
AcDbSpline
 62
7
  6
CONTINUOUS
 70
0
 71
3
 72
12
 73
8
 74
0
 42
0.0000001
 43
0.0000001
 44
0.0000000001
 40
0.0
 40
0.0
 40
0.0
 40
0.0
 40
0.3260459828
 40
0.6006041659
 40
0.8246262964
 40
0.9182309403
 40
1.0
 40
1.0
 40
1.0
 40
1.0
 10
3.8065902542
 20
2.826163705
 30
0.0
 10
3.805712652
 20
2.8276837564
 30
0.0
 10
3.8040515277
 20
2.8304589942
 30
0.0
 10
3.8015944247
 20
2.834158021
 30
0.0
 10
3.7996555739
 20
2.8366946142
 30
0.0
 10
3.7982111105
 20
2.8382887255
 30
0.0
 10
3.7975289474
 20
2.8389432231
 30
0.0
 10
3.797196627
 20
2.8392318895
 30
0.0
  0
LINE
  5
428
100
AcDbEntity
  8
0
100
AcDbLine
 62
7
  6
CONTINUOUS
 10
3.8277830775
 20
2.7894581687
 11
3.8065902637
 21
2.8261637103
  0
SPLINE
  5
429
100
AcDbEntity
  8
0
100
AcDbSpline
 62
7
  6
CONTINUOUS
 70
0
 71
3
 72
9
 73
5
 74
0
 42
0.0000001
 43
0.0000001
 44
0.0000000001
 40
0.0
 40
0.0
 40
0.0
 40
0.0
 40
0.4999983979
 40
1.0
 40
1.0
 40
1.0
 40
1.0
 10
5.0611600577
 20
2.7225732676
 30
0.0
 10
5.0623822745
 20
2.7182822389
 30
0.0
 10
5.0664336542
 20
2.710060763
 30
0.0
 10
5.0731264877
 20
2.7038977153
 30
0.0
 10
5.0767813195
 20
2.7013385746
 30
0.0
  0
SPLINE
  5
42A
100
AcDbEntity
  8
0
100
AcDbSpline
 62
7
  6
CONTINUOUS
 70
0
 71
3
 72
10
 73
6
 74
0
 42
0.0000001
 43
0.0000001
 44
0.0000000001
 40
0.0
 40
0.0
 40
0.0
 40
0.0
 40
0.4995567274
 40
0.7499302562
 40
1.0
 40
1.0
 40
1.0
 40
1.0
 10
5.0640957246
 20
2.7446286126
 30
0.0
 10
5.0631321686
 20
2.7432525966
 30
0.0
 10
5.0618949741
 20
2.7410262558
 30
0.0
 10
5.060762516
 20
2.7378547163
 30
0.0
 10
5.0603834776
 20
2.7362104099
 30
0.0
 10
5.0602392342
 20
2.7353819741
 30
0.0
  0
SPLINE
  5
42B
100
AcDbEntity
  8
0
100
AcDbSpline
 62
7
  6
CONTINUOUS
 70
0
 71
3
 72
9
 73
5
 74
0
 42
0.0000001
 43
0.0000001
 44
0.0000000001
 40
0.0
 40
0.0
 40
0.0
 40
0.0
 40
0.5001726044
 40
1.0
 40
1.0
 40
1.0
 40
1.0
 10
5.0602392342
 20
2.7353819741
 30
0.0
 10
5.0598696066
 20
2.7332590857
 30
0.0
 10
5.059723152
 20
2.728897379
 30
0.0
 10
5.0605701817
 20
2.7246442382
 30
0.0
 10
5.0611600577
 20
2.7225732676
 30
0.0
  0
SPLINE
  5
42C
100
AcDbEntity
  8
0
100
AcDbSpline
 62
7
  6
CONTINUOUS
 70
0
 71
3
 72
9
 73
5
 74
0
 42
0.0000001
 43
0.0000001
 44
0.0000000001
 40
0.0
 40
0.0
 40
0.0
 40
0.0
 40
0.4999567889
 40
1.0
 40
1.0
 40
1.0
 40
1.0
 10
5.074740831
 20
2.7529453377
 30
0.0
 10
5.0726138037
 20
2.7521305697
 30
0.0
 10
5.0685495129
 20
2.7498989248
 30
0.0
 10
5.0654024613
 20
2.7464947115
 30
0.0
 10
5.0640957246
 20
2.7446286126
 30
0.0
  0
SPLINE
  5
42D
100
AcDbEntity
  8
0
100
AcDbSpline
 62
7
  6
CONTINUOUS
 70
0
 71
3
 72
11
 73
7
 74
0
 42
0.0000001
 43
0.0000001
 44
0.0000000001
 40
0.0
 40
0.0
 40
0.0
 40
0.0
 40
0.2497255536
 40
0.5002791967
 40
0.7502859063
 40
1.0
 40
1.0
 40
1.0
 40
1.0
 10
3.6483346258
 20
2.8819435237
 30
0.0
 10
3.650539805
 20
2.8860260715
 30
0.0
 10
3.6557384618
 20
2.893799745
 30
0.0
 10
3.6652717712
 20
2.9040374935
 30
0.0
 10
3.6761271193
 20
2.9128435941
 30
0.0
 10
3.6839689298
 20
2.9178481863
 30
0.0
 10
3.6879871417
 20
2.920168102
 30
0.0
  0
SPLINE
  5
42E
100
AcDbEntity
  8
0
100
AcDbSpline
 62
7
  6
CONTINUOUS
 70
0
 71
3
 72
11
 73
7
 74
0
 42
0.0000001
 43
0.0000001
 44
0.0000000001
 40
0.0
 40
0.0
 40
0.0
 40
0.0
 40
0.2496342264
 40
0.4999848378
 40
0.750069663
 40
1.0
 40
1.0
 40
1.0
 40
1.0
 10
3.6477561765
 20
2.8399861506
 30
0.0
 10
3.6469456261
 20
2.8413902092
 30
0.0
 10
3.6454684645
 20
2.8442901662
 30
0.0
 10
3.6437535131
 20
2.8488610257
 30
0.0
 10
3.6426119949
 20
2.8536127019
 30
0.0
 10
3.6422915521
 20
2.8568558195
 30
0.0
 10
3.6422357819
 20
2.8584780098
 30
0.0
  0
SPLINE
  5
42F
100
AcDbEntity
  8
0
100
AcDbSpline
 62
7
  6
CONTINUOUS
 70
0
 71
3
 72
11
 73
7
 74
0
 42
0.0000001
 43
0.0000001
 44
0.0000000001
 40
0.0
 40
0.0
 40
0.0
 40
0.0
 40
0.2503636823
 40
0.500521606
 40
0.7504098646
 40
1.0
 40
1.0
 40
1.0
 40
1.0
 10
3.6422357819
 20
2.8584780098
 30
0.0
 10
3.6421654713
 20
2.860523136
 30
0.0
 10
3.6423540635
 20
2.8646296896
 30
0.0
 10
3.6435637456
 20
2.8706639857
 30
0.0
 10
3.6455900353
 20
2.8764634282
 30
0.0
 10
3.647365111
 20
2.880148617
 30
0.0
 10
3.6483346258
 20
2.8819435237
 30
0.0
  0
SPLINE
  5
430
100
AcDbEntity
  8
0
100
AcDbSpline
 62
7
  6
CONTINUOUS
 70
0
 71
3
 72
11
 73
7
 74
0
 42
0.0000001
 43
0.0000001
 44
0.0000000001
 40
0.0
 40
0.0
 40
0.0
 40
0.0
 40
0.249867484
 40
0.4998897899
 40
0.7498709177
 40
1.0
 40
1.0
 40
1.0
 40
1.0
 10
3.6866283748
 20
2.8194054353
 30
0.0
 10
3.6845514291
 20
2.8193592603
 30
0.0
 10
3.6803879949
 20
2.819460216
 30
0.0
 10
3.6741973116
 20
2.8203231446
 30
0.0
 10
3.6681728385
 20
2.8220188496
 30
0.0
 10
3.6643795418
 20
2.8237761046
 30
0.0
 10
3.662572297
 20
2.8248050573
 30
0.0
  0
SPLINE
  5
431
100
AcDbEntity
  8
0
100
AcDbSpline
 62
7
  6
CONTINUOUS
 70
0
 71
3
 72
9
 73
5
 74
0
 42
0.0000001
 43
0.0000001
 44
0.0000000001
 40
0.0
 40
0.0
 40
0.0
 40
0.0
 40
0.5000003139
 40
1.0
 40
1.0
 40
1.0
 40
1.0
 10
3.6599729603
 20
2.8264323867
 30
0.0
 10
3.6574499008
 20
2.8281646082
 30
0.0
 10
3.6528321874
 20
2.832290369
 30
0.0
 10
3.6492862873
 20
2.8373356492
 30
0.0
 10
3.6477561765
 20
2.8399861506
 30
0.0
  0
SPLINE
  5
432
100
AcDbEntity
  8
0
100
AcDbSpline
 62
7
  6
CONTINUOUS
 70
0
 71
3
 72
11
 73
7
 74
0
 42
0.0000001
 43
0.0000001
 44
0.0000000001
 40
0.0
 40
0.0
 40
0.0
 40
0.0
 40
0.2498089075
 40
0.499880021
 40
0.7501985905
 40
1.0
 40
1.0
 40
1.0
 40
1.0
 10
3.7398065214
 20
2.8353145487
 30
0.0
 10
3.7357633473
 20
2.8329802211
 30
0.0
 10
3.7274438378
 20
2.8286893661
 30
0.0
 10
3.7143132715
 20
2.8236766575
 30
0.0
 10
3.7006364719
 20
2.8204134563
 30
0.0
 10
3.6912957367
 20
2.8195092011
 30
0.0
 10
3.6866283748
 20
2.8194054353
 30
0.0
  0
LINE
  5
433
100
AcDbEntity
  8
0
100
AcDbLine
 62
7
  6
CONTINUOUS
 10
5.0854650713
 20
2.7573056556
 11
5.0747409092
 21
2.752945283
  0
SPLINE
  5
434
100
AcDbEntity
  8
0
100
AcDbSpline
 62
7
  6
CONTINUOUS
 70
0
 71
3
 72
9
 73
5
 74
0
 42
0.0000001
 43
0.0000001
 44
0.0000000001
 40
0.0
 40
0.0
 40
0.0
 40
0.0
 40
0.4999694424
 40
1.0
 40
1.0
 40
1.0
 40
1.0
 10
5.0938509913
 20
2.7636753409
 30
0.0
 10
5.09283608
 20
2.7622259227
 30
0.0
 10
5.0901820496
 20
2.7597638249
 30
0.0
 10
5.0870682976
 20
2.7580549385
 30
0.0
 10
5.0854651346
 20
2.7573056109
 30
0.0
  0
LINE
  5
435
100
AcDbEntity
  8
0
100
AcDbLine
 62
7
  6
CONTINUOUS
 10
5.0959343319
 20
2.7718612518
 11
5.0961297485
 21
2.7704169383
  0
SPLINE
  5
436
100
AcDbEntity
  8
0
100
AcDbSpline
 62
7
  6
CONTINUOUS
 70
0
 71
3
 72
10
 73
6
 74
0
 42
0.0000001
 43
0.0000001
 44
0.0000000001
 40
0.0
 40
0.0
 40
0.0
 40
0.0
 40
0.2513881884
 40
0.5024275904
 40
1.0
 40
1.0
 40
1.0
 40
1.0
 10
5.0961297485
 20
2.7704169383
 30
0.0
 10
5.0961544068
 20
2.7698114783
 30
0.0
 10
5.0960702222
 20
2.7685929034
 30
0.0
 10
5.095443425
 20
2.7662532865
 30
0.0
 10
5.0945389353
 20
2.7646578097
 30
0.0
 10
5.0938509913
 20
2.7636753409
 30
0.0
  0
LINE
  5
437
100
AcDbEntity
  8
0
100
AcDbLine
 62
7
  6
CONTINUOUS
 10
3.7654857971
 20
3.5161901416
 11
3.7565049142
 21
3.5088847276
  0
SPLINE
  5
438
100
AcDbEntity
  8
0
100
AcDbSpline
 62
7
  6
CONTINUOUS
 70
0
 71
3
 72
11
 73
7
 74
0
 42
0.0000001
 43
0.0000001
 44
0.0000000001
 40
0.0
 40
0.0
 40
0.0
 40
0.0
 40
0.2877939463
 40
0.5472227873
 40
0.7827274372
 40
1.0
 40
1.0
 40
1.0
 40
1.0
 10
3.7565049142
 20
3.5088847276
 30
0.0
 10
3.7557468361
 20
3.5082008983
 30
0.0
 10
3.7543556755
 20
3.5068423692
 30
0.0
 10
3.752578511
 20
3.5047008071
 30
0.0
 10
3.7512249424
 20
3.5025580583
 30
0.0
 10
3.7505860388
 20
3.5010744762
 30
0.0
 10
3.7503478601
 20
3.5003414375
 30
0.0
  0
SPLINE
  5
439
100
AcDbEntity
  8
0
100
AcDbSpline
 62
7
  6
CONTINUOUS
 70
0
 71
3
 72
11
 73
7
 74
0
 42
0.0000001
 43
0.0000001
 44
0.0000000001
 40
0.0
 40
0.0
 40
0.0
 40
0.0
 40
0.2501087843
 40
0.4972730997
 40
0.7442914491
 40
1.0
 40
1.0
 40
1.0
 40
1.0
 10
3.7434739844
 20
3.5849701305
 30
0.0
 10
3.7402920987
 20
3.5859904761
 30
0.0
 10
3.7337870614
 20
3.5875184034
 30
0.0
 10
3.7237953053
 20
3.5879774617
 30
0.0
 10
3.7138285991
 20
3.586485962
 30
0.0
 10
3.7074494465
 20
3.5842579243
 30
0.0
 10
3.7043271955
 20
3.5828724204
 30
0.0
  0
SPLINE
  5
43A
100
AcDbEntity
  8
0
100
AcDbSpline
 62
7
  6
CONTINUOUS
 70
0
 71
3
 72
15
 73
11
 74
0
 42
0.0000001
 43
0.0000001
 44
0.0000000001
 40
0.0
 40
0.0
 40
0.0
 40
0.0
 40
0.0993513598
 40
0.203695277
 40
0.3144602651
 40
0.4328500972
 40
0.5598589394
 40
0.6962992572
 40
0.8428328871
 40
1.0
 40
1.0
 40
1.0
 40
1.0
 10
3.7043271955
 20
3.5828724204
 30
0.0
 10
3.7026896018
 20
3.5821457355
 30
0.0
 10
3.6994317996
 20
3.5804222603
 30
0.0
 10
3.6947784042
 20
3.5771599796
 30
0.0
 10
3.690261333
 20
3.5731726132
 30
0.0
 10
3.6858819554
 20
3.5684623029
 30
0.0
 10
3.6816399319
 20
3.5630291647
 30
0.0
 10
3.6775357976
 20
3.5568725528
 30
0.0
 10
3.6735705741
 20
3.5499915841
 30
0.0
 10
3.6711089419
 20
3.5450960453
 30
0.0
 10
3.6698969644
 20
3.542534088
 30
0.0
  0
SPLINE
  5
43B
100
AcDbEntity
  8
0
100
AcDbSpline
 62
7
  6
CONTINUOUS
 70
0
 71
3
 72
11
 73
7
 74
0
 42
0.0000001
 43
0.0000001
 44
0.0000000001
 40
0.0
 40
0.0
 40
0.0
 40
0.0
 40
0.2539648494
 40
0.4995162134
 40
0.7453158169
 40
1.0
 40
1.0
 40
1.0
 40
1.0
 10
5.0918958132
 20
2.7778169319
 30
0.0
 10
5.0924058809
 20
2.7774597747
 30
0.0
 10
5.0933544846
 20
2.7766733339
 30
0.0
 10
5.0945278485
 20
2.7752582915
 30
0.0
 10
5.0954089417
 20
2.7736429986
 30
0.0
 10
5.095790063
 20
2.7724687973
 30
0.0
 10
5.0959343561
 20
2.7718612535
 30
0.0
  0
SPLINE
  5
43C
100
AcDbEntity
  8
0
100
AcDbSpline
 62
7
  6
CONTINUOUS
 70
0
 71
3
 72
13
 73
9
 74
0
 42
0.0000001
 43
0.0000001
 44
0.0000000001
 40
0.0
 40
0.0
 40
0.0
 40
0.0
 40
0.24983201
 40
0.374931015
 40
0.500021848
 40
0.6251105717
 40
0.7501993845
 40
1.0
 40
1.0
 40
1.0
 40
1.0
 10
5.1137299607
 20
2.6712964349
 30
0.0
 10
5.1103950943
 20
2.6708912089
 30
0.0
 10
5.105323957
 20
2.6706875297
 30
0.0
 10
5.098625397
 20
2.6713547939
 30
0.0
 10
5.0936689933
 20
2.672346138
 30
0.0
 10
5.0888311927
 20
2.673809912
 30
0.0
 10
5.0826098238
 20
2.6763793856
 30
0.0
 10
5.0782333003
 20
2.678947457
 30
0.0
 10
5.07548179
 20
2.6808740853
 30
0.0
  0
SPLINE
  5
43D
100
AcDbEntity
  8
0
100
AcDbSpline
 62
7
  6
CONTINUOUS
 70
0
 71
3
 72
14
 73
10
 74
0
 42
0.0000001
 43
0.0000001
 44
0.0000000001
 40
0.0
 40
0.0
 40
0.0
 40
0.0
 40
0.2499120731
 40
0.3748986951
 40
0.4998902806
 40
0.6248973807
 40
0.7499017166
 40
0.8749744604
 40
1.0
 40
1.0
 40
1.0
 40
1.0
 10
5.1584505105
 20
2.6998048662
 30
0.0
 10
5.1554168176
 20
2.6964730057
 30
0.0
 10
5.1506716778
 20
2.6916412817
 30
0.0
 10
5.1438616433
 20
2.6857301699
 30
0.0
 10
5.138477074
 20
2.6816315544
 30
0.0
 10
5.1327857362
 20
2.6779657485
 30
0.0
 10
5.1267615669
 20
2.6748625487
 30
0.0
 10
5.1204028469
 20
2.6725050685
 30
0.0
 10
5.1159677841
 20
2.6715683571
 30
0.0
 10
5.1137299607
 20
2.6712964349
 30
0.0
  0
SPLINE
  5
43E
100
AcDbEntity
  8
0
100
AcDbSpline
 62
7
  6
CONTINUOUS
 70
0
 71
3
 72
11
 73
7
 74
0
 42
0.0000001
 43
0.0000001
 44
0.0000000001
 40
0.0
 40
0.0
 40
0.0
 40
0.0
 40
0.2499929441
 40
0.5000087468
 40
0.7500205491
 40
1.0
 40
1.0
 40
1.0
 40
1.0
 10
5.0639621405
 20
2.7447222384
 30
0.0
 10
5.0646172071
 20
2.7456577705
 30
0.0
 10
5.066054718
 20
2.7474445524
 30
0.0
 10
5.0685894857
 20
2.7497703071
 30
0.0
 10
5.071458605
 20
2.7516682591
 30
0.0
 10
5.0735402711
 20
2.7526304578
 30
0.0
 10
5.0746067138
 20
2.7530389814
 30
0.0
  0
LINE
  5
43F
100
AcDbEntity
  8
0
100
AcDbLine
 62
7
  6
CONTINUOUS
 10
5.0746067138
 20
2.7530389814
 11
5.0853310794
 21
2.7573994284
  0
SPLINE
  5
440
100
AcDbEntity
  8
0
100
AcDbSpline
 62
7
  6
CONTINUOUS
 70
0
 71
3
 72
11
 73
7
 74
0
 42
0.0000001
 43
0.0000001
 44
0.0000000001
 40
0.0
 40
0.0
 40
0.0
 40
0.0
 40
0.2877937317
 40
0.5472225502
 40
0.7827272947
 40
1.0
 40
1.0
 40
1.0
 40
1.0
 10
5.0853310794
 20
2.7573994284
 30
0.0
 10
5.0862559637
 20
2.7578317369
 30
0.0
 10
5.0879835303
 20
2.7587241688
 30
0.0
 10
5.0903091706
 20
2.7602525618
 30
0.0
 10
5.0922300726
 20
2.7619059373
 30
0.0
 10
5.0932748164
 20
2.7631378963
 30
0.0
 10
5.0937169076
 20
2.763769268
 30
0.0
  0
SPLINE
  5
441
100
AcDbEntity
  8
0
100
AcDbSpline
 62
7
  6
CONTINUOUS
 70
0
 71
3
 72
12
 73
8
 74
0
 42
0.0000001
 43
0.0000001
 44
0.0000000001
 40
0.0
 40
0.0
 40
0.0
 40
0.0
 40
0.2499996537
 40
0.3750112033
 40
0.5000276955
 40
0.7500379009
 40
1.0
 40
1.0
 40
1.0
 40
1.0
 10
3.6991456829
 20
2.9015851279
 30
0.0
 10
3.7029012054
 20
2.9037533798
 30
0.0
 10
3.7085937621
 20
2.90690684
 30
0.0
 10
3.7163334602
 20
2.9108235814
 30
0.0
 10
3.7241805291
 20
2.9145225445
 30
0.0
 10
3.734222077
 20
2.9186283664
 30
0.0
 10
3.7425858774
 20
2.9210645091
 30
0.0
 10
3.7468461005
 20
2.9218708069
 30
0.0
  0
SPLINE
  5
442
100
AcDbEntity
  8
0
100
AcDbSpline
 62
7
  6
CONTINUOUS
 70
0
 71
3
 72
11
 73
7
 74
0
 42
0.0000001
 43
0.0000001
 44
0.0000000001
 40
0.0
 40
0.0
 40
0.0
 40
0.0
 40
0.2545979562
 40
0.5002825748
 40
0.745822157
 40
1.0
 40
1.0
 40
1.0
 40
1.0
 10
5.0753494016
 20
2.6809667771
 30
0.0
 10
5.0781521338
 20
2.6790042829
 30
0.0
 10
5.0839897639
 20
2.675586795
 30
0.0
 10
5.0934869453
 20
2.6721992981
 30
0.0
 10
5.1034542301
 20
2.6707116441
 30
0.0
 10
5.1102060627
 20
2.6709772442
 30
0.0
 10
5.1135969706
 20
2.6713893506
 30
0.0
  0
SPLINE
  5
443
100
AcDbEntity
  8
0
100
AcDbSpline
 62
7
  6
CONTINUOUS
 70
0
 71
3
 72
15
 73
11
 74
0
 42
0.0000001
 43
0.0000001
 44
0.0000000001
 40
0.0
 40
0.0
 40
0.0
 40
0.0
 40
0.0993513041
 40
0.2036952031
 40
0.3144602019
 40
0.4328500624
 40
0.5598589382
 40
0.6962992815
 40
0.842832916
 40
1.0
 40
1.0
 40
1.0
 40
1.0
 10
5.1135969706
 20
2.6713893506
 30
0.0
 10
5.1153754702
 20
2.6716054965
 30
0.0
 10
5.1189948156
 20
2.6723011753
 30
0.0
 10
5.1243986764
 20
2.67406039
 30
0.0
 10
5.1298841652
 20
2.6765528655
 30
0.0
 10
5.1354493462
 20
2.6797769534
 30
0.0
 10
5.1410945095
 20
2.6837324433
 30
0.0
 10
5.1468193319
 20
2.6884201086
 30
0.0
 10
5.1526230941
 20
2.6938410921
 30
0.0
 10
5.1564084814
 20
2.6978030068
 30
0.0
 10
5.1583165446
 20
2.6998986701
 30
0.0
  0
LINE
  5
444
100
AcDbEntity
  8
0
100
AcDbLine
 62
7
  6
CONTINUOUS
 10
5.1843371618
 20
2.6729465991
 11
5.1507169925
 21
2.6249355373
  0
LINE
  5
445
100
AcDbEntity
  8
0
100
AcDbLine
 62
7
  6
CONTINUOUS
 10
5.1538403003
 20
2.7272746786
 11
5.1666702714
 21
2.7044189987
  0
LINE
  5
446
100
AcDbEntity
  8
0
100
AcDbLine
 62
7
  6
CONTINUOUS
 10
5.1666702714
 20
2.7044189987
 11
5.1688985724
 21
2.7004494334
  0
LINE
  5
447
100
AcDbEntity
  8
0
100
AcDbLine
 62
7
  6
CONTINUOUS
 10
5.1688985724
 20
2.7004494334
 11
5.1740025113
 21
2.6913571097
  0
LINE
  5
448
100
AcDbEntity
  8
0
100
AcDbLine
 62
7
  6
CONTINUOUS
 10
5.1740025113
 20
2.6913571097
 11
5.1761552553
 21
2.6875221384
  0
LINE
  5
449
100
AcDbEntity
  8
0
100
AcDbLine
 62
7
  6
CONTINUOUS
 10
5.1761552553
 20
2.6875221384
 11
5.1843371618
 21
2.6729465991
  0
SPLINE
  5
44A
100
AcDbEntity
  8
0
100
AcDbSpline
 62
7
  6
CONTINUOUS
 70
0
 71
3
 72
11
 73
7
 74
0
 42
0.0000001
 43
0.0000001
 44
0.0000000001
 40
0.0
 40
0.0
 40
0.0
 40
0.0
 40
0.2951082434
 40
0.5587973162
 40
0.7928918167
 40
1.0
 40
1.0
 40
1.0
 40
1.0
 10
5.2430517298
 20
3.5149825721
 30
0.0
 10
5.2409977694
 20
3.5170776185
 30
0.0
 10
5.2369969108
 20
3.520938443
 30
0.0
 10
5.2309345232
 20
3.5259907916
 30
0.0
 10
5.2251540817
 20
3.5299721401
 30
0.0
 10
5.2212615508
 20
3.5320283994
 30
0.0
 10
5.2193703807
 20
3.5328427409
 30
0.0
  0
SPLINE
  5
44B
100
AcDbEntity
  8
0
100
AcDbSpline
 62
7
  6
CONTINUOUS
 70
0
 71
3
 72
11
 73
7
 74
0
 42
0.0000001
 43
0.0000001
 44
0.0000000001
 40
0.0
 40
0.0
 40
0.0
 40
0.0
 40
0.2570045643
 40
0.50239768
 40
0.7466221646
 40
1.0
 40
1.0
 40
1.0
 40
1.0
 10
5.3014893394
 20
3.5475239376
 30
0.0
 10
5.2993815382
 20
3.5487517627
 30
0.0
 10
5.2950407963
 20
3.5508054166
 30
0.0
 10
5.2881074087
 20
3.5524981925
 30
0.0
 10
5.2810075873
 20
3.5526920998
 30
0.0
 10
5.2763243169
 20
3.5518614436
 30
0.0
 10
5.2740013452
 20
3.5512390052
 30
0.0
  0
SPLINE
  5
44C
100
AcDbEntity
  8
0
100
AcDbSpline
 62
7
  6
CONTINUOUS
 70
0
 71
3
 72
12
 73
8
 74
0
 42
0.0000001
 43
0.0000001
 44
0.0000000001
 40
0.0
 40
0.0
 40
0.0
 40
0.0
 40
0.192900145
 40
0.3024599368
 40
0.4214960277
 40
0.6896216386
 40
1.0
 40
1.0
 40
1.0
 40
1.0
 10
5.2406738081
 20
3.4606699818
 30
0.0
 10
5.2423092065
 20
3.4623293621
 30
0.0
 10
5.2445848408
 20
3.4652189358
 30
0.0
 10
5.2472976681
 20
3.4695270138
 30
0.0
 10
5.2501718071
 20
3.4747979615
 30
0.0
 10
5.2535941939
 20
3.4825099289
 30
0.0
 10
5.2559376062
 20
3.4890977881
 30
0.0
 10
5.2570991053
 20
3.4926620178
 30
0.0
  0
SPLINE
  5
44D
100
AcDbEntity
  8
0
100
AcDbSpline
 62
7
  6
CONTINUOUS
 70
0
 71
3
 72
11
 73
7
 74
0
 42
0.0000001
 43
0.0000001
 44
0.0000000001
 40
0.0
 40
0.0
 40
0.0
 40
0.0
 40
0.2378967205
 40
0.4809488548
 40
0.733719591
 40
1.0
 40
1.0
 40
1.0
 40
1.0
 10
5.2210506939
 20
3.4486287545
 30
0.0
 10
5.222834114
 20
3.4491066204
 30
0.0
 10
5.2263706511
 20
3.450351919
 30
0.0
 10
5.2314222085
 20
3.4530194277
 30
0.0
 10
5.2362454639
 20
3.4564702715
 30
0.0
 10
5.239223162
 20
3.4591980632
 30
0.0
 10
5.2406738081
 20
3.4606699818
 30
0.0
  0
SPLINE
  5
44E
100
AcDbEntity
  8
0
100
AcDbSpline
 62
7
  6
CONTINUOUS
 70
0
 71
3
 72
16
 73
12
 74
0
 42
0.0000001
 43
0.0000001
 44
0.0000000001
 40
0.0
 40
0.0
 40
0.0
 40
0.0
 40
0.1248893999
 40
0.1876013518
 40
0.2502836336
 40
0.3128380379
 40
0.3753244451
 40
0.5002385805
 40
0.6251625642
 40
0.7501068955
 40
1.0
 40
1.0
 40
1.0
 40
1.0
 10
3.7698289613
 20
2.8865987601
 30
0.0
 10
3.7685105458
 20
2.8846104066
 30
0.0
 10
3.7662329082
 20
2.8818170493
 30
0.0
 10
3.7628762253
 20
2.8784127642
 30
0.0
 10
3.7602436575
 20
2.8759694458
 30
0.0
 10
3.7575323207
 20
2.8736216754
 30
0.0
 10
3.7538253558
 20
2.8706109433
 30
0.0
 10
3.7490420235
 20
2.8670410824
 30
0.0
 10
3.7431501401
 20
2.8629719617
 30
0.0
 10
3.7351419286
 20
2.8577728051
 30
0.0
 10
3.7289938098
 20
2.8540971972
 30
0.0
 10
3.7248596909
 20
2.8517103625
 30
0.0
  0
SPLINE
  5
44F
100
AcDbEntity
  8
0
100
AcDbSpline
 62
7
  6
CONTINUOUS
 70
0
 71
3
 72
11
 73
7
 74
0
 42
0.0000001
 43
0.0000001
 44
0.0000000001
 40
0.0
 40
0.0
 40
0.0
 40
0.0
 40
0.24625692
 40
0.4902530182
 40
0.7392990093
 40
1.0
 40
1.0
 40
1.0
 40
1.0
 10
5.2193703807
 20
3.5328427409
 30
0.0
 10
5.2176183261
 20
3.533597179
 30
0.0
 10
5.2139935604
 20
3.5348054232
 30
0.0
 10
5.2082953496
 20
3.535620571
 30
0.0
 10
5.2024326919
 20
3.5354290025
 30
0.0
 10
5.1985405705
 20
3.534666766
 30
0.0
 10
5.1965899113
 20
3.5341440884
 30
0.0
  0
SPLINE
  5
450
100
AcDbEntity
  8
0
100
AcDbSpline
 62
7
  6
CONTINUOUS
 70
0
 71
3
 72
11
 73
7
 74
0
 42
0.0000001
 43
0.0000001
 44
0.0000000001
 40
0.0
 40
0.0
 40
0.0
 40
0.0
 40
0.2757738373
 40
0.5313773209
 40
0.771094187
 40
1.0
 40
1.0
 40
1.0
 40
1.0
 10
3.6881245136
 20
2.9202474025
 30
0.0
 10
3.6836868639
 20
2.9176853243
 30
0.0
 10
3.6753739417
 20
2.9123130628
 30
0.0
 10
3.6643451581
 20
2.9031041426
 30
0.0
 10
3.6552861984
 20
2.8930900996
 30
0.0
 10
3.6504945231
 20
2.8857659584
 30
0.0
 10
3.6484732173
 20
2.882023647
 30
0.0
  0
SPLINE
  5
451
100
AcDbEntity
  8
0
100
AcDbSpline
 62
7
  6
CONTINUOUS
 70
0
 71
3
 72
13
 73
9
 74
0
 42
0.0000001
 43
0.0000001
 44
0.0000000001
 40
0.0
 40
0.0
 40
0.0
 40
0.0
 40
0.2498482806
 40
0.3749487878
 40
0.500020562
 40
0.6250912453
 40
0.7501804643
 40
1.0
 40
1.0
 40
1.0
 40
1.0
 10
5.1841354534
 20
3.5035065831
 30
0.0
 10
5.1851279327
 20
3.5052260813
 30
0.0
 10
5.1868439105
 20
3.5076893069
 30
0.0
 10
5.189580551
 20
3.5105778534
 30
0.0
 10
5.1918553741
 20
3.5125146543
 30
0.0
 10
5.1943203636
 20
3.5142025565
 30
0.0
 10
5.1978234962
 20
3.5160888026
 30
0.0
 10
5.2006474363
 20
3.5171047548
 30
0.0
 10
5.2025649347
 20
3.517618547
 30
0.0
  0
SPLINE
  5
452
100
AcDbEntity
  8
0
100
AcDbSpline
 62
7
  6
CONTINUOUS
 70
0
 71
3
 72
12
 73
8
 74
0
 42
0.0000001
 43
0.0000001
 44
0.0000000001
 40
0.0
 40
0.0
 40
0.0
 40
0.0
 40
0.2500175778
 40
0.3751386656
 40
0.5005366191
 40
0.7506798934
 40
1.0
 40
1.0
 40
1.0
 40
1.0
 10
5.2605313713
 20
3.5025344312
 30
0.0
 10
5.2616799407
 20
3.5059629182
 30
0.0
 10
5.2635742494
 20
3.5110573294
 30
0.0
 10
5.2666757533
 20
3.5176037977
 30
0.0
 10
5.2702191882
 20
3.5239221602
 30
0.0
 10
5.2756624217
 20
3.5312223974
 30
0.0
 10
5.2820609149
 20
3.5352720173
 30
0.0
 10
5.2855437297
 20
3.5362052347
 30
0.0
  0
SPLINE
  5
453
100
AcDbEntity
  8
0
100
AcDbSpline
 62
7
  6
CONTINUOUS
 70
0
 71
3
 72
10
 73
6
 74
0
 42
0.0000001
 43
0.0000001
 44
0.0000000001
 40
0.0
 40
0.0
 40
0.0
 40
0.0
 40
0.4995915402
 40
0.7498147711
 40
1.0
 40
1.0
 40
1.0
 40
1.0
 10
5.2962509522
 20
3.490884146
 30
0.0
 10
5.2936995251
 20
3.4902004932
 30
0.0
 10
5.2897347831
 20
3.4895808289
 30
0.0
 10
5.2844398294
 20
3.48976857
 30
0.0
 10
5.2818214416
 20
3.4902111759
 30
0.0
 10
5.2805348221
 20
3.4905183307
 30
0.0
  0
SPLINE
  5
454
100
AcDbEntity
  8
0
100
AcDbSpline
 62
7
  6
CONTINUOUS
 70
0
 71
3
 72
9
 73
5
 74
0
 42
0.0000001
 43
0.0000001
 44
0.0000000001
 40
0.0
 40
0.0
 40
0.0
 40
0.0
 40
0.2412907992
 40
1.0
 40
1.0
 40
1.0
 40
1.0
 10
5.3053400899
 20
3.4168797999
 30
0.0
 10
5.3052852202
 20
3.4177884084
 30
0.0
 10
5.3050193747
 20
3.4215516665
 30
0.0
 10
5.3046056027
 20
3.4253039595
 30
0.0
 10
5.3042229617
 20
3.4281404795
 30
0.0
  0
SPLINE
  5
455
100
AcDbEntity
  8
0
100
AcDbSpline
 62
7
  6
CONTINUOUS
 70
0
 71
3
 72
11
 73
7
 74
0
 42
0.0000001
 43
0.0000001
 44
0.0000000001
 40
0.0
 40
0.0
 40
0.0
 40
0.0
 40
0.2877937317
 40
0.5472225502
 40
0.7827272947
 40
1.0
 40
1.0
 40
1.0
 40
1.0
 10
5.2132606726
 20
3.4091911444
 30
0.0
 10
5.2135240093
 20
3.4101775295
 30
0.0
 10
5.2139508251
 20
3.4120745664
 30
0.0
 10
5.214274901
 20
3.4148385423
 30
0.0
 10
5.2142430739
 20
3.4173728079
 30
0.0
 10
5.2139708869
 20
3.4189650161
 30
0.0
 10
5.2137713988
 20
3.4197095155
 30
0.0
  0
LINE
  5
456
100
AcDbEntity
  8
0
100
AcDbLine
 62
7
  6
CONTINUOUS
 10
5.2097074795
 20
3.3981729624
 11
5.2132606726
 21
3.4091911444
  0
LINE
  5
457
100
AcDbEntity
  8
0
100
AcDbLine
 62
7
  6
CONTINUOUS
 10
3.7437036852
 20
3.5848959839
 11
3.7434739844
 21
3.5849701305
  0
ENDSEC
  0
SECTION
  2
OBJECTS
  0
DICTIONARY
  5
C
100
AcDbDictionary
280
0
281
1
  3
ACAD_GROUP
350
D
  3
ACAD_MLINESTYLE
350
17
  3
ACAD_LAYOUT
350
1A
  3
ACAD_PLOTSETTINGS
350
19
  3
ACAD_PLOTSTYLENAME
350
E
  0
DICTIONARY
  5
D
102
{ACAD_REACTORS
330
C
102
}
100
AcDbDictionary
280
0
281
1
  0
ACDBDICTIONARYWDFLT
  5
E
102
{ACAD_REACTORS
330
C
102
}
100
AcDbDictionary
281
1
  3
Normal
350
F
100
AcDbDictionaryWithDefault
340
F
  0
DICTIONARY
  5
17
102
{ACAD_REACTORS
330
C
102
}
100
AcDbDictionary
280
0
281
1
  3
Standard
350
18
  0
DICTIONARY
  5
19
102
{ACAD_REACTORS
330
C
102
}
100
AcDbDictionary
281
1
  0
DICTIONARY
  5
1A
102
{ACAD_REACTORS
330
C
102
}
100
AcDbDictionary
281
1
  3
Model
350
458
  3
Layout1
350
459
  0
ACDBPLACEHOLDER
  5
F
102
{ACAD_REACTORS
330
E
102
}
  0
MLINESTYLE
  5
18
102
{ACAD_REACTORS
330
17
102
}
100
AcDbMlineStyle
  2
STANDARD
 70
0
  3

 62
256
 51
90.0
 52
90.0
 71
2
 49
0.5
 62
256
  6
BYLAYER
 49
-0.5
 62
256
  6
BYLAYER
  0
LAYOUT
  5
458
102
{ACAD_REACTORS
330
1A
102
}
100
AcDbPlotSettings
  1

  2
none_device
  4
ANSI_A_(11.00_x_8.50_Inches)
  6

 40
0.0
 41
0.0
 42
0.0
 43
0.0
 44
279.4
 45
215.9
 46
0.0
 47
0.0
 48
0.0
 49
0.0
140
0.0
141
0.0
142
1.0
143
1.0
 70
1024
 72
0
 73
0
 74
0
  7

 75
0
147
1.0
148
0.0
149
0.0
100
AcDbLayout
  1
Model
 70
0
 71
0
 10
0.0
 20
0.0
 11
11.0
 21
8.5
 12
0.0
 22
0.0
 32
0.0
 14
0.0
 24
0.0
 34
0.0
 15
0.0
 25
0.0
 35
0.0
146
0.0
 13
0.0
 23
0.0
 33
0.0
 16
1.0
 26
0.0
 36
0.0
 17
0.0
 27
1.0
 37
0.0
 76
0
330
221
345
0
346
0
  0
LAYOUT
  5
459
102
{ACAD_REACTORS
330
1A
102
}
100
AcDbPlotSettings
  1

  2
none_device
  4
ANSI_A_(11.00_x_8.50_Inches)
  6

 40
0.0
 41
0.0
 42
0.0
 43
0.0
 44
279.4
 45
215.9
 46
0.0
 47
0.0
 48
0.0
 49
0.0
140
0.0
141
0.0
142
1.0
143
1.0
 70
0
 72
0
 73
0
 74
0
  7

 75
0
147
1.0
148
0.0
149
0.0
100
AcDbLayout
  1
Layout1
 70
0
 71
1
 10
0.0
 20
0.0
 11
11.0
 21
8.5
 12
0.0
 22
0.0
 32
0.0
 14
0.0
 24
0.0
 34
0.0
 15
0.0
 25
0.0
 35
0.0
146
0.0
 13
0.0
 23
0.0
 33
0.0
 16
1.0
 26
0.0
 36
0.0
 17
0.0
 27
1.0
 37
0.0
 76
0
330
222
345
0
346
0
  0
ENDSEC
  0
EOF
