999
DXF file: 3-924ts_RIGHT.dxf
999
Pro/ENGINEER 2018400 by Parametric Technology Corporation
  0
SECTION
  2
HEADER
  9
$ACADVER
  1
AC1027
  9
$DWGCODEPAGE
  3
ANSI_1252
  9
$EXTMAX
 10
11.0
 20
8.5
 30
0.0
  9
$EXTMIN
 10
0.0
 20
0.0
 30
0.0
  9
$LIMMIN
 10
0.0
 20
0.0
  9
$LIMMAX
 10
11.0
 20
8.5
  9
$VIEWCTR
 10
5.5
 20
4.25
  9
$VIEWSIZE
 40
8.5
  9
$CLAYER
  8
0
  9
$LTSCALE
 40
0.605
  9
$CELTYPE
  6
BYLAYER
  9
$DIMSCALE
 40
1.0
  9
$DIMASZ
 40
0.1
  9
$DIMEXO
 40
0.0625
  9
$DIMDLI
 40
0.418
  9
$DIMEXE
 40
0.125
  9
$DIMCEN
 40
0.099
  9
$DIMLFAC
 40
1.0
  9
$DIMBLK
  1
_FILLED
  9
$DIMALT
 70
1
  9
$DIMALTD
 70
2
  9
$DIMALTTD
 70
2
  9
$DIMALTF
 40
25.4
  9
$DIMTXT
 40
0.08
  9
$DIMTOL
 70
1
  9
$DIMLIM
 70
0
  9
$DIMTFAC
 40
1.0
  9
$DIMTP
 40
0.001
  9
$DIMTM
 40
0.001
  9
$DIMGAP
 40
0.09
  9
$DIMDSEP
 70
46
  9
$AUNITS
 70
0
  9
$PDMODE
 70
3
  9
$PDSIZE
 40
0.3125
  9
$HANDSEED
  5
483
  9
$TILEMODE
 70
1
  9
$MEASUREMENT
 70
0
  9
$INSUNITS
 70
1
  0
ENDSEC
  0
SECTION
  2
CLASSES
  0
CLASS
  1
ACDBDICTIONARYWDFLT
  2
AcDbDictionaryWithDefault
  3
AutoCAD 2000
 90
0
 91
1
280
0
281
0
  0
CLASS
  1
ACDBPLACEHOLDER
  2
AcDbPlaceHolder
  3
AutoCAD 2000
 90
0
 91
1
280
0
281
0
  0
CLASS
  1
LAYOUT
  2
AcDbLayout
  3
AutoCAD 2000
 90
0
 91
0
280
0
281
0
  0
ENDSEC
  0
SECTION
  2
TABLES
  0
TABLE
  2
VPORT
  5
8
100
AcDbSymbolTable
 70
2
  0
VPORT
  5
1F4
100
AcDbSymbolTableRecord
100
AcDbViewportTableRecord
  2
*ACTIVE
 70
0
 10
0.0
 20
0.0
 11
1.0
 21
1.0
 12
5.5
 22
4.25
 13
0.0
 23
0.0
 14
1.0
 24
1.0
 15
0.0
 25
0.0
 16
0.0
 26
0.0
 36
1.0
 17
0.0
 27
0.0
 37
0.0
 40
8.5
 41
1.2941176471
 42
50.0
 43
0.0
 44
0.0
 50
0.0
 51
0.0
 71
0
 72
100
 73
1
 74
1
 75
0
 76
0
 77
0
 78
0
  0
ENDTAB
  0
TABLE
  2
LTYPE
  5
5
100
AcDbSymbolTable
 70
6
  0
LTYPE
  5
14
100
AcDbSymbolTableRecord
100
AcDbLinetypeTableRecord
  2
BYBLOCK
 70
0
  3

 72
65
 73
0
 40
0.0
  0
LTYPE
  5
15
100
AcDbSymbolTableRecord
100
AcDbLinetypeTableRecord
  2
BYLAYER
 70
0
  3

 72
65
 73
0
 40
0.0
  0
LTYPE
  5
16
100
AcDbSymbolTableRecord
100
AcDbLinetypeTableRecord
  2
CONTINUOUS
 70
64
  3
Solid line
 72
65
 73
0
 40
0.0
  0
LTYPE
  5
1F5
100
AcDbSymbolTableRecord
100
AcDbLinetypeTableRecord
  2
CENTER
 70
64
  3
____ _ ____ _ ____ _ ____ _ ____ _ ____ _ ____
 72
65
 73
4
 40
0.6
 49
0.375
 74
0
 49
-0.075
 74
0
 49
0.075
 74
0
 49
-0.075
 74
0
  0
LTYPE
  5
1F6
100
AcDbSymbolTableRecord
100
AcDbLinetypeTableRecord
  2
HIDDEN
 70
64
  3
- - - - - - - - - - - - - - - - - - - -
 72
65
 73
2
 40
0.2
 49
0.1
 74
0
 49
-0.1
 74
0
  0
LTYPE
  5
1F7
100
AcDbSymbolTableRecord
100
AcDbLinetypeTableRecord
  2
PHANTOM
 70
64
  3
_____ _ _ _____ _ _ _____ _ _ _____
 72
65
 73
6
 40
0.8
 49
0.45
 74
0
 49
-0.05
 74
0
 49
0.1
 74
0
 49
-0.05
 74
0
 49
0.1
 74
0
 49
-0.05
 74
0
  0
LTYPE
  5
1F8
100
AcDbSymbolTableRecord
100
AcDbLinetypeTableRecord
  2
DOT
 70
64
  3
. . . . . . . . . . . . . . . . . . . .
 72
65
 73
2
 40
0.2
 49
0.1
 74
0
 49
-0.1
 74
0
  0
LTYPE
  5
1F9
100
AcDbSymbolTableRecord
100
AcDbLinetypeTableRecord
  2
DASHED
 70
64
  3
- - - - - - - - - - - - - - - - - - - -
 72
65
 73
2
 40
0.2
 49
0.1
 74
0
 49
-0.1
 74
0
  0
ENDTAB
  0
TABLE
  2
LAYER
  5
2
100
AcDbSymbolTable
 70
36
  0
LAYER
  5
10
100
AcDbSymbolTableRecord
100
AcDbLayerTableRecord
  2
0
 70
0
 62
7
  6
CONTINUOUS
370
-3
390
F
  0
LAYER
  5
1FA
100
AcDbSymbolTableRecord
100
AcDbLayerTableRecord
  2
DEFAULT_1
 70
0
 62
7
  6
CENTER
370
-3
390
F
  0
LAYER
  5
1FB
100
AcDbSymbolTableRecord
100
AcDbLayerTableRecord
  2
DEFAULT_2
 70
0
 62
8
  6
HIDDEN
370
-3
390
F
  0
LAYER
  5
1FC
100
AcDbSymbolTableRecord
100
AcDbLayerTableRecord
  2
DEFAULT_3
 70
0
 62
7
  6
PHANTOM
370
-3
390
F
  0
LAYER
  5
1FD
100
AcDbSymbolTableRecord
100
AcDbLayerTableRecord
  2
2-265_ASSY_PLANES
 70
0
 62
7
  6
CONTINUOUS
370
-3
390
F
  0
LAYER
  5
1FE
100
AcDbSymbolTableRecord
100
AcDbLayerTableRecord
  2
AA
 70
0
 62
7
  6
CONTINUOUS
370
-3
390
F
  0
LAYER
  5
1FF
100
AcDbSymbolTableRecord
100
AcDbLayerTableRecord
  2
ALL_ASSEMBLY_MEMBERS
 70
0
 62
7
  6
CONTINUOUS
370
-3
390
F
  0
LAYER
  5
200
100
AcDbSymbolTableRecord
100
AcDbLayerTableRecord
  2
ALL_FEATURES
 70
0
 62
7
  6
CONTINUOUS
370
-3
390
F
  0
LAYER
  5
201
100
AcDbSymbolTableRecord
100
AcDbLayerTableRecord
  2
AXES_FEATURES
 70
0
 62
7
  6
CONTINUOUS
370
-3
390
F
  0
LAYER
  5
202
100
AcDbSymbolTableRecord
100
AcDbLayerTableRecord
  2
CHAMFER_FEATURES
 70
0
 62
7
  6
CONTINUOUS
370
-3
390
F
  0
LAYER
  5
203
100
AcDbSymbolTableRecord
100
AcDbLayerTableRecord
  2
CURVE
 70
0
 62
7
  6
CONTINUOUS
370
-3
390
F
  0
LAYER
  5
204
100
AcDbSymbolTableRecord
100
AcDbLayerTableRecord
  2
CUT_FEATURES
 70
0
 62
7
  6
CONTINUOUS
370
-3
390
F
  0
LAYER
  5
205
100
AcDbSymbolTableRecord
100
AcDbLayerTableRecord
  2
DATUM_CURVES
 70
0
 62
7
  6
CONTINUOUS
370
-3
390
F
  0
LAYER
  5
206
100
AcDbSymbolTableRecord
100
AcDbLayerTableRecord
  2
DATUM_PLANES
 70
0
 62
7
  6
CONTINUOUS
370
-3
390
F
  0
LAYER
  5
207
100
AcDbSymbolTableRecord
100
AcDbLayerTableRecord
  2
DATUM_POINTS
 70
0
 62
7
  6
CONTINUOUS
370
-3
390
F
  0
LAYER
  5
208
100
AcDbSymbolTableRecord
100
AcDbLayerTableRecord
  2
DEFAULT_COORDINATE_SYSTEM
 70
0
 62
7
  6
CONTINUOUS
370
-3
390
F
  0
LAYER
  5
209
100
AcDbSymbolTableRecord
100
AcDbLayerTableRecord
  2
DEFAULT_DATUM_AXES
 70
0
 62
7
  6
CONTINUOUS
370
-3
390
F
  0
LAYER
  5
20A
100
AcDbSymbolTableRecord
100
AcDbLayerTableRecord
  2
DEFAULT_DATUM_CURVES
 70
0
 62
7
  6
CONTINUOUS
370
-3
390
F
  0
LAYER
  5
20B
100
AcDbSymbolTableRecord
100
AcDbLayerTableRecord
  2
DEFAULT_DATUM_PLANES
 70
0
 62
7
  6
CONTINUOUS
370
-3
390
F
  0
LAYER
  5
20C
100
AcDbSymbolTableRecord
100
AcDbLayerTableRecord
  2
DEFAULT_SURFACES
 70
0
 62
7
  6
CONTINUOUS
370
-3
390
F
  0
LAYER
  5
20D
100
AcDbSymbolTableRecord
100
AcDbLayerTableRecord
  2
DIMENSIONS
 70
0
 62
7
  6
CONTINUOUS
370
-3
390
F
  0
LAYER
  5
20E
100
AcDbSymbolTableRecord
100
AcDbLayerTableRecord
  2
HOLE_FEATURES
 70
0
 62
7
  6
CONTINUOUS
370
-3
390
F
  0
LAYER
  5
20F
100
AcDbSymbolTableRecord
100
AcDbLayerTableRecord
  2
LAY0001
 70
0
 62
7
  6
CONTINUOUS
370
-3
390
F
  0
LAYER
  5
210
100
AcDbSymbolTableRecord
100
AcDbLayerTableRecord
  2
NOTES
 70
0
 62
7
  6
CONTINUOUS
370
-3
390
F
  0
LAYER
  5
211
100
AcDbSymbolTableRecord
100
AcDbLayerTableRecord
  2
PART_REFERENCE_DIMENSIONS
 70
0
 62
7
  6
CONTINUOUS
370
-3
390
F
  0
LAYER
  5
212
100
AcDbSymbolTableRecord
100
AcDbLayerTableRecord
  2
PLATED_SURAFCE
 70
0
 62
7
  6
CONTINUOUS
370
-3
390
F
  0
LAYER
  5
213
100
AcDbSymbolTableRecord
100
AcDbLayerTableRecord
  2
PLATED_SURFACE_AREA
 70
0
 62
7
  6
CONTINUOUS
370
-3
390
F
  0
LAYER
  5
214
100
AcDbSymbolTableRecord
100
AcDbLayerTableRecord
  2
POINTS
 70
0
 62
7
  6
CONTINUOUS
370
-3
390
F
  0
LAYER
  5
215
100
AcDbSymbolTableRecord
100
AcDbLayerTableRecord
  2
PROTRUSION
 70
0
 62
7
  6
CONTINUOUS
370
-3
390
F
  0
LAYER
  5
216
100
AcDbSymbolTableRecord
100
AcDbLayerTableRecord
  2
PROTRUSION_FEATURES
 70
0
 62
7
  6
CONTINUOUS
370
-3
390
F
  0
LAYER
  5
217
100
AcDbSymbolTableRecord
100
AcDbLayerTableRecord
  2
QUILT
 70
0
 62
7
  6
CONTINUOUS
370
-3
390
F
  0
LAYER
  5
218
100
AcDbSymbolTableRecord
100
AcDbLayerTableRecord
  2
QUILTS
 70
0
 62
7
  6
CONTINUOUS
370
-3
390
F
  0
LAYER
  5
219
100
AcDbSymbolTableRecord
100
AcDbLayerTableRecord
  2
REFERENCE_DIMENSIONS
 70
0
 62
7
  6
CONTINUOUS
370
-3
390
F
  0
LAYER
  5
21A
100
AcDbSymbolTableRecord
100
AcDbLayerTableRecord
  2
ROUND_FEATURES
 70
0
 62
7
  6
CONTINUOUS
370
-3
390
F
  0
LAYER
  5
21B
100
AcDbSymbolTableRecord
100
AcDbLayerTableRecord
  2
SHELL_FEATURES
 70
0
 62
7
  6
CONTINUOUS
370
-3
390
F
  0
LAYER
  5
21C
100
AcDbSymbolTableRecord
100
AcDbLayerTableRecord
  2
XSEC_DATUMS
 70
0
 62
7
  6
CONTINUOUS
370
-3
390
F
  0
ENDTAB
  0
TABLE
  2
STYLE
  5
3
100
AcDbSymbolTable
 70
1
  0
STYLE
  5
11
100
AcDbSymbolTableRecord
100
AcDbTextStyleTableRecord
  2
STANDARD
 70
0
 40
0.0
 41
0.8
 50
0.0
 71
0
 42
0.2
  3
txt
  4

  0
STYLE
  5
21D
100
AcDbSymbolTableRecord
100
AcDbTextStyleTableRecord
  2
TEXTSTYLE_1
 70
0
 40
0.0
 41
0.8
 50
0.0
 71
0
 42
0.2
  3
gdt
  4

  0
ENDTAB
  0
TABLE
  2
VIEW
  5
6
100
AcDbSymbolTable
 70
0
  0
ENDTAB
  0
TABLE
  2
UCS
  5
7
100
AcDbSymbolTable
 70
0
  0
ENDTAB
  0
TABLE
  2
APPID
  5
9
100
AcDbSymbolTable
 70
1
  0
APPID
  5
21E
100
AcDbSymbolTableRecord
100
AcDbRegAppTableRecord
  2
ACAD
 70
0
  0
ENDTAB
  0
TABLE
  2
BLOCK_RECORD
  5
1
100
AcDbSymbolTable
 70
0
  0
BLOCK_RECORD
  5
21F
100
AcDbSymbolTableRecord
100
AcDbBlockTableRecord
  2
*Model_Space
  0
BLOCK_RECORD
  5
220
100
AcDbSymbolTableRecord
100
AcDbBlockTableRecord
  2
*Paper_Space
  0
BLOCK_RECORD
  5
221
100
AcDbSymbolTableRecord
100
AcDbBlockTableRecord
  2
_FILLED
  0
ENDTAB
  0
TABLE
  2
DIMSTYLE
  5
A
100
AcDbSymbolTable
 70
1
100
AcDbDimStyleTable
 71
0
  0
DIMSTYLE
105
222
100
AcDbSymbolTableRecord
100
AcDbDimStyleTableRecord
  2
STANDARD
 70
0
  3

  4

 40
1.0
 41
0.1
 42
0.0625
 43
0.38
 44
0.125
 45
0.0
 46
0.0
 47
0.001
 48
0.001
140
0.08
141
0.09
142
0.0
143
25.4
144
1.0
145
0.0
146
1.0
147
0.09
 71
1.0
 72
0.0
 73
1
 74
1
 75
0
 76
0
 77
0
 78
4
 79
1
170
1
171
2
172
0
173
0
174
0
175
0
176
0
177
0
178
0
270
2
179
3
271
3
272
3
273
2
274
2
275
0
280
0
281
0
282
0
283
1
284
4
285
0
286
0
287
3
288
0
340
11
278
46
341
221
342
221
343
221
344
221
  0
ENDTAB
  0
ENDSEC
  0
SECTION
  2
BLOCKS
  0
BLOCK
  5
20
100
AcDbEntity
  8
0
100
AcDbBlockBegin
  2
*Model_Space
 70
0
 10
0.0
 20
0.0
 30
0.0
  3
*Model_Space
  1

  0
ENDBLK
  5
21
100
AcDbEntity
  8
0
100
AcDbBlockEnd
  0
BLOCK
  5
1C
100
AcDbEntity
  8
0
100
AcDbBlockBegin
  2
*Paper_Space
 70
0
 10
0.0
 20
0.0
 30
0.0
  3
*Paper_Space
  1

  0
ENDBLK
  5
1D
100
AcDbEntity
  8
0
100
AcDbBlockEnd
  0
BLOCK
  5
223
100
AcDbEntity
  8
0
100
AcDbBlockBegin
  2
_FILLED
 70
64
 10
0.0
 20
0.0
  3
_FILLED
  1

  0
SOLID
  5
224
100
AcDbEntity
  8
0
  6
BYBLOCK
 62
0
100
AcDbTrace
 10
0.0
 20
0.0
 11
-1.0
 21
0.2
 12
-1.0
 22
-0.2
 13
-1.0
 23
-0.2
  0
ENDBLK
  5
225
100
AcDbEntity
  8
0
  6
BYBLOCK
 62
0
100
AcDbBlockEnd
  0
ENDSEC
  0
SECTION
  2
ENTITIES
  0
MTEXT
  5
226
100
AcDbEntity
  8
0
100
AcDbMText
 62
2
  6
CONTINUOUS
  7
STANDARD
 71
3
 72
1
 10
3.1015810143
 20
2.4204697205
 30
0.0
 11
1.0
 21
0.0
 31
0.0
 73
2
 44
0.9
  1
SCALE  .500
 40
0.08
 41
0.704
  0
LINE
  5
227
100
AcDbEntity
  8
0
100
AcDbLine
 62
7
  6
CONTINUOUS
 10
0.0
 20
0.0
 11
0.0
 21
8.5
  0
LINE
  5
228
100
AcDbEntity
  8
0
100
AcDbLine
 62
7
  6
CONTINUOUS
 10
0.0
 20
0.0
 11
11.0
 21
0.0
  0
LINE
  5
229
100
AcDbEntity
  8
0
100
AcDbLine
 62
7
  6
CONTINUOUS
 10
0.0
 20
8.5
 11
11.0
 21
8.5
  0
LINE
  5
22A
100
AcDbEntity
  8
0
100
AcDbLine
 62
7
  6
CONTINUOUS
 10
11.0
 20
0.0
 11
11.0
 21
8.5
  0
LINE
  5
22B
100
AcDbEntity
  8
ALL_ASSEMBLY_MEMBERS
100
AcDbLine
 62
7
  6
CONTINUOUS
 10
5.8847970913
 20
3.0804153727
 11
5.9787970913
 21
3.0804153727
  0
LINE
  5
22C
100
AcDbEntity
  8
ALL_ASSEMBLY_MEMBERS
100
AcDbLine
 62
7
  6
CONTINUOUS
 10
4.0386670509
 20
4.5078430444
 11
4.0386670509
 21
4.9029877009
  0
LINE
  5
22D
100
AcDbEntity
  8
ALL_ASSEMBLY_MEMBERS
100
AcDbLine
 62
7
  6
CONTINUOUS
 10
4.0505716976
 20
4.4781618945
 11
4.0505716976
 21
4.9326688508
  0
LINE
  5
22E
100
AcDbEntity
  8
ALL_ASSEMBLY_MEMBERS
100
AcDbLine
 62
7
  6
CONTINUOUS
 10
4.0601120215
 20
4.4487982965
 11
4.0601120215
 21
4.9620324488
  0
LINE
  5
22F
100
AcDbEntity
  8
ALL_ASSEMBLY_MEMBERS
100
AcDbLine
 62
7
  6
CONTINUOUS
 10
4.069929649
 20
4.4416653727
 11
4.069929649
 21
4.9691653727
  0
LINE
  5
230
100
AcDbEntity
  8
ALL_ASSEMBLY_MEMBERS
100
AcDbLine
 62
7
  6
CONTINUOUS
 10
4.0505716976
 20
4.9326703507
 11
4.0601120215
 21
4.9620324488
  0
LINE
  5
231
100
AcDbEntity
  8
ALL_ASSEMBLY_MEMBERS
100
AcDbLine
 62
7
  6
CONTINUOUS
 10
4.0505716976
 20
4.4781603946
 11
4.0601120215
 21
4.4487982965
  0
LINE
  5
232
100
AcDbEntity
  8
ALL_ASSEMBLY_MEMBERS
100
AcDbLine
 62
7
  6
CONTINUOUS
 10
4.1055716976
 20
4.4416653727
 11
4.1055716976
 21
4.9691653727
  0
LINE
  5
233
100
AcDbEntity
  8
ALL_ASSEMBLY_MEMBERS
100
AcDbLine
 62
7
  6
CONTINUOUS
 10
4.1133216976
 20
4.4550887664
 11
4.1133216976
 21
4.9557419789
  0
LINE
  5
234
100
AcDbEntity
  8
ALL_ASSEMBLY_MEMBERS
100
AcDbLine
 62
7
  6
CONTINUOUS
 10
4.1210716976
 20
4.4416653727
 11
4.1210716976
 21
4.9691653727
  0
LINE
  5
235
100
AcDbEntity
  8
ALL_ASSEMBLY_MEMBERS
100
AcDbLine
 62
7
  6
CONTINUOUS
 10
4.1610716976
 20
4.4266653727
 11
4.1610716976
 21
4.9841653727
  0
LINE
  5
236
100
AcDbEntity
  8
ALL_ASSEMBLY_MEMBERS
100
AcDbLine
 62
7
  6
CONTINUOUS
 10
4.1655716976
 20
4.525454584
 11
4.1655716976
 21
4.5313103822
  0
LINE
  5
237
100
AcDbEntity
  8
ALL_ASSEMBLY_MEMBERS
100
AcDbLine
 62
7
  6
CONTINUOUS
 10
4.1655716976
 20
4.8795224166
 11
4.1655716976
 21
4.8853761614
  0
LINE
  5
238
100
AcDbEntity
  8
ALL_ASSEMBLY_MEMBERS
100
AcDbLine
 62
7
  6
CONTINUOUS
 10
4.1133216976
 20
4.9557419789
 11
4.1210716976
 21
4.9691653727
  0
LINE
  5
239
100
AcDbEntity
  8
ALL_ASSEMBLY_MEMBERS
100
AcDbLine
 62
7
  6
CONTINUOUS
 10
4.1133216976
 20
4.4550887664
 11
4.1210716976
 21
4.4416653727
  0
LINE
  5
23A
100
AcDbEntity
  8
ALL_ASSEMBLY_MEMBERS
100
AcDbLine
 62
7
  6
CONTINUOUS
 10
4.0601120215
 20
4.9620324488
 11
4.069929649
 21
4.9691653727
  0
LINE
  5
23B
100
AcDbEntity
  8
ALL_ASSEMBLY_MEMBERS
100
AcDbLine
 62
7
  6
CONTINUOUS
 10
4.0601120215
 20
4.4487982965
 11
4.069929649
 21
4.4416653727
  0
LINE
  5
23C
100
AcDbEntity
  8
ALL_ASSEMBLY_MEMBERS
100
AcDbLine
 62
7
  6
CONTINUOUS
 10
4.3615716976
 20
4.525454584
 11
4.3615716976
 21
4.5313103896
  0
LINE
  5
23D
100
AcDbEntity
  8
ALL_ASSEMBLY_MEMBERS
100
AcDbLine
 62
7
  6
CONTINUOUS
 10
4.3615716976
 20
4.8795230259
 11
4.3615716976
 21
4.8853761614
  0
LINE
  5
23E
100
AcDbEntity
  8
ALL_ASSEMBLY_MEMBERS
100
AcDbLine
 62
7
  6
CONTINUOUS
 10
4.3660716976
 20
4.4266653727
 11
4.3660716976
 21
4.9841653727
  0
LINE
  5
23F
100
AcDbEntity
  8
ALL_ASSEMBLY_MEMBERS
100
AcDbLine
 62
7
  6
CONTINUOUS
 10
4.4055716976
 20
4.4416653727
 11
4.4055716976
 21
4.9691653727
  0
LINE
  5
240
100
AcDbEntity
  8
ALL_ASSEMBLY_MEMBERS
100
AcDbLine
 62
7
  6
CONTINUOUS
 10
4.4310716976
 20
4.5201653727
 11
4.4310716976
 21
4.8906653727
  0
LINE
  5
241
100
AcDbEntity
  8
ALL_ASSEMBLY_MEMBERS
100
AcDbLine
 62
7
  6
CONTINUOUS
 10
4.3604006832
 20
4.8764513022
 11
4.3603273348
 21
4.8762588998
  0
LINE
  5
242
100
AcDbEntity
  8
ALL_ASSEMBLY_MEMBERS
100
AcDbLine
 62
7
  6
CONTINUOUS
 10
4.360406786
 20
4.876451768
 11
4.3603273348
 21
4.8762588998
  0
LINE
  5
243
100
AcDbEntity
  8
ALL_ASSEMBLY_MEMBERS
100
AcDbLine
 62
7
  6
CONTINUOUS
 10
4.1055716976
 20
4.4416653727
 11
4.1133216976
 21
4.4550887664
  0
LINE
  5
244
100
AcDbEntity
  8
ALL_ASSEMBLY_MEMBERS
100
AcDbLine
 62
7
  6
CONTINUOUS
 10
4.3234666744
 20
4.9971645525
 11
4.3439851189
 21
5.0119578154
  0
LINE
  5
245
100
AcDbEntity
  8
ALL_ASSEMBLY_MEMBERS
100
AcDbLine
 62
7
  6
CONTINUOUS
 10
4.3234666744
 20
4.4136661929
 11
4.3439851189
 21
4.3988729299
  0
LINE
  5
246
100
AcDbEntity
  8
ALL_ASSEMBLY_MEMBERS
100
AcDbLine
 62
7
  6
CONTINUOUS
 10
4.1055716976
 20
4.9691653727
 11
4.1133216976
 21
4.9557419789
  0
LINE
  5
247
100
AcDbEntity
  8
ALL_ASSEMBLY_MEMBERS
100
AcDbLine
 62
7
  6
CONTINUOUS
 10
4.4055716976
 20
4.4416653727
 11
4.4310716976
 21
4.5201653727
  0
LINE
  5
248
100
AcDbEntity
  8
ALL_ASSEMBLY_MEMBERS
100
AcDbLine
 62
7
  6
CONTINUOUS
 10
4.5215246922
 20
4.7254153727
 11
4.5099776868
 21
4.7054153727
  0
LINE
  5
249
100
AcDbEntity
  8
ALL_ASSEMBLY_MEMBERS
100
AcDbLine
 62
7
  6
CONTINUOUS
 10
4.1210716976
 20
4.9691653727
 11
4.1610716976
 21
4.9841653727
  0
LINE
  5
24A
100
AcDbEntity
  8
ALL_ASSEMBLY_MEMBERS
100
AcDbLine
 62
7
  6
CONTINUOUS
 10
4.1210716976
 20
4.4416653727
 11
4.1610716976
 21
4.4266653727
  0
LINE
  5
24B
100
AcDbEntity
  8
ALL_ASSEMBLY_MEMBERS
100
AcDbLine
 62
7
  6
CONTINUOUS
 10
4.5099776868
 20
4.7054153727
 11
4.5215246922
 21
4.6854153727
  0
LINE
  5
24C
100
AcDbEntity
  8
ALL_ASSEMBLY_MEMBERS
100
AcDbLine
 62
7
  6
CONTINUOUS
 10
4.4055716976
 20
4.9691653727
 11
4.4310716976
 21
4.8906653727
  0
LINE
  5
24D
100
AcDbEntity
  8
ALL_ASSEMBLY_MEMBERS
100
AcDbLine
 62
7
  6
CONTINUOUS
 10
4.6105716976
 20
4.5336653727
 11
4.6105716976
 21
4.8771653727
  0
LINE
  5
24E
100
AcDbEntity
  8
ALL_ASSEMBLY_MEMBERS
100
AcDbLine
 62
7
  6
CONTINUOUS
 10
4.6260716976
 20
4.8804370937
 11
4.6260716976
 21
4.5303936517
  0
LINE
  5
24F
100
AcDbEntity
  8
ALL_ASSEMBLY_MEMBERS
100
AcDbLine
 62
7
  6
CONTINUOUS
 10
4.6484042428
 20
4.9116653727
 11
4.6484042428
 21
4.4991653727
  0
LINE
  5
250
100
AcDbEntity
  8
ALL_ASSEMBLY_MEMBERS
100
AcDbLine
 62
7
  6
CONTINUOUS
 10
4.5446187029
 20
4.6854153727
 11
4.5561657083
 21
4.7054153727
  0
LINE
  5
251
100
AcDbEntity
  8
ALL_ASSEMBLY_MEMBERS
100
AcDbLine
 62
7
  6
CONTINUOUS
 10
5.5729220913
 20
4.2129153727
 11
5.7427970913
 21
4.2129153727
  0
LINE
  5
252
100
AcDbEntity
  8
ALL_ASSEMBLY_MEMBERS
100
AcDbLine
 62
7
  6
CONTINUOUS
 10
5.3760716976
 20
4.2204153727
 11
4.9486077722
 21
4.2204153727
  0
LINE
  5
253
100
AcDbEntity
  8
ALL_ASSEMBLY_MEMBERS
100
AcDbLine
 62
7
  6
CONTINUOUS
 10
5.5208551621
 20
4.2206653727
 11
5.5099111192
 21
4.2206653727
  0
LINE
  5
254
100
AcDbEntity
  8
ALL_ASSEMBLY_MEMBERS
100
AcDbLine
 62
7
  6
CONTINUOUS
 10
5.4861990211
 20
4.2206933219
 11
5.4752549782
 21
4.2206933219
  0
LINE
  5
255
100
AcDbEntity
  8
ALL_ASSEMBLY_MEMBERS
100
AcDbLine
 62
7
  6
CONTINUOUS
 10
5.5099111192
 20
4.2223990801
 11
5.4861990211
 21
4.2223990801
  0
LINE
  5
256
100
AcDbEntity
  8
ALL_ASSEMBLY_MEMBERS
100
AcDbLine
 62
7
  6
CONTINUOUS
 10
5.4752549782
 20
4.2223990801
 11
5.4351268157
 21
4.2223990801
  0
LINE
  5
257
100
AcDbEntity
  8
ALL_ASSEMBLY_MEMBERS
100
AcDbLine
 62
7
  6
CONTINUOUS
 10
5.3760716976
 20
4.2231319081
 11
5.4351268157
 21
4.2231319081
  0
LINE
  5
258
100
AcDbEntity
  8
ALL_ASSEMBLY_MEMBERS
100
AcDbLine
 62
7
  6
CONTINUOUS
 10
5.5208551621
 20
4.2231319081
 11
5.5729220913
 21
4.2231319081
  0
LINE
  5
259
100
AcDbEntity
  8
ALL_ASSEMBLY_MEMBERS
100
AcDbLine
 62
7
  6
CONTINUOUS
 10
5.5208551621
 20
4.2231699137
 11
5.4351268157
 21
4.2231699137
  0
LINE
  5
25A
100
AcDbEntity
  8
ALL_ASSEMBLY_MEMBERS
100
AcDbLine
 62
7
  6
CONTINUOUS
 10
5.4931578621
 20
4.2256493252
 11
5.4351268157
 21
4.2256493252
  0
LINE
  5
25B
100
AcDbEntity
  8
ALL_ASSEMBLY_MEMBERS
100
AcDbLine
 62
7
  6
CONTINUOUS
 10
4.5561657083
 20
4.7054153727
 11
4.5446187029
 21
4.7254153727
  0
LINE
  5
25C
100
AcDbEntity
  8
ALL_ASSEMBLY_MEMBERS
100
AcDbLine
 62
7
  6
CONTINUOUS
 10
4.7510716976
 20
5.0286865835
 11
4.7510716976
 21
4.3821441619
  0
LINE
  5
25D
100
AcDbEntity
  8
ALL_ASSEMBLY_MEMBERS
100
AcDbLine
 62
7
  6
CONTINUOUS
 10
4.2036767207
 20
4.4136661929
 11
4.1831582762
 21
4.3988729299
  0
LINE
  5
25E
100
AcDbEntity
  8
ALL_ASSEMBLY_MEMBERS
100
AcDbLine
 62
7
  6
CONTINUOUS
 10
5.7427970913
 20
5.2354153727
 11
5.8222970913
 21
5.2654153727
  0
LINE
  5
25F
100
AcDbEntity
  8
ALL_ASSEMBLY_MEMBERS
100
AcDbLine
 62
7
  6
CONTINUOUS
 10
4.069929649
 20
4.4416653727
 11
4.1055716976
 21
4.4416653727
  0
LINE
  5
260
100
AcDbEntity
  8
ALL_ASSEMBLY_MEMBERS
100
AcDbLine
 62
7
  6
CONTINUOUS
 10
5.7427970913
 20
4.1754153727
 11
5.8222970913
 21
4.1454153727
  0
LINE
  5
261
100
AcDbEntity
  8
ALL_ASSEMBLY_MEMBERS
100
AcDbLine
 62
7
  6
CONTINUOUS
 10
4.2036767207
 20
4.9971645525
 11
4.1831582762
 21
5.0119578154
  0
LINE
  5
262
100
AcDbEntity
  8
ALL_ASSEMBLY_MEMBERS
100
AcDbLine
 62
7
  6
CONTINUOUS
 10
4.9486077722
 20
5.1904153727
 11
4.9486077722
 21
4.2204153727
  0
LINE
  5
263
100
AcDbEntity
  8
ALL_ASSEMBLY_MEMBERS
100
AcDbLine
 62
7
  6
CONTINUOUS
 10
4.9830716976
 20
5.1874040539
 11
4.9830716976
 21
5.3011986407
  0
LINE
  5
264
100
AcDbEntity
  8
ALL_ASSEMBLY_MEMBERS
100
AcDbLine
 62
7
  6
CONTINUOUS
 10
4.3232090178
 20
4.4668481418
 11
4.3231289533
 21
4.4668011751
  0
LINE
  5
265
100
AcDbEntity
  8
ALL_ASSEMBLY_MEMBERS
100
AcDbLine
 62
7
  6
CONTINUOUS
 10
4.3232086724
 20
4.4668484357
 11
4.3231276802
 21
4.4668022613
  0
LINE
  5
266
100
AcDbEntity
  8
ALL_ASSEMBLY_MEMBERS
100
AcDbLine
 62
7
  6
CONTINUOUS
 10
5.4861990211
 20
4.4768045669
 11
5.4697829567
 21
4.4768045669
  0
LINE
  5
267
100
AcDbEntity
  8
ALL_ASSEMBLY_MEMBERS
100
AcDbLine
 62
7
  6
CONTINUOUS
 10
5.4843750139
 20
4.4829468486
 11
5.4716069639
 21
4.4829468486
  0
LINE
  5
268
100
AcDbEntity
  8
ALL_ASSEMBLY_MEMBERS
100
AcDbLine
 62
7
  6
CONTINUOUS
 10
5.4843750139
 20
4.483797418
 11
5.4716069639
 21
4.483797418
  0
LINE
  5
269
100
AcDbEntity
  8
ALL_ASSEMBLY_MEMBERS
100
AcDbLine
 62
7
  6
CONTINUOUS
 10
5.4843750139
 20
4.5154342688
 11
5.4716069639
 21
4.5154342688
  0
LINE
  5
26A
100
AcDbEntity
  8
ALL_ASSEMBLY_MEMBERS
100
AcDbLine
 62
7
  6
CONTINUOUS
 10
5.4861990211
 20
4.5217861661
 11
5.4697829567
 21
4.5217861661
  0
LINE
  5
26B
100
AcDbEntity
  8
ALL_ASSEMBLY_MEMBERS
100
AcDbLine
 62
7
  6
CONTINUOUS
 10
5.4861990211
 20
4.5226304311
 11
5.4697829567
 21
4.5226304311
  0
LINE
  5
26C
100
AcDbEntity
  8
ALL_ASSEMBLY_MEMBERS
100
AcDbLine
 62
7
  6
CONTINUOUS
 10
5.5007910834
 20
4.5320187445
 11
5.497143064
 21
4.5320187445
  0
LINE
  5
26D
100
AcDbEntity
  8
ALL_ASSEMBLY_MEMBERS
100
AcDbLine
 62
7
  6
CONTINUOUS
 10
5.4442468527
 20
4.5320187445
 11
5.4351268157
 21
4.5320187445
  0
LINE
  5
26E
100
AcDbEntity
  8
ALL_ASSEMBLY_MEMBERS
100
AcDbLine
 62
7
  6
CONTINUOUS
 10
4.4310716976
 20
4.5336653727
 11
4.4855216976
 21
4.5336653727
  0
LINE
  5
26F
100
AcDbEntity
  8
ALL_ASSEMBLY_MEMBERS
100
AcDbLine
 62
7
  6
CONTINUOUS
 10
4.5806216976
 20
4.5336653727
 11
4.6105716976
 21
4.5336653727
  0
LINE
  5
270
100
AcDbEntity
  8
ALL_ASSEMBLY_MEMBERS
100
AcDbLine
 62
7
  6
CONTINUOUS
 10
5.5007910834
 20
4.5397492536
 11
5.497143064
 21
4.5397492536
  0
LINE
  5
271
100
AcDbEntity
  8
ALL_ASSEMBLY_MEMBERS
100
AcDbLine
 62
7
  6
CONTINUOUS
 10
5.5007910834
 20
4.5405928585
 11
5.497143064
 21
4.5405928585
  0
LINE
  5
272
100
AcDbEntity
  8
ALL_ASSEMBLY_MEMBERS
100
AcDbLine
 62
7
  6
CONTINUOUS
 10
5.4442468527
 20
4.5791234803
 11
5.4351268157
 21
4.5791234803
  0
LINE
  5
273
100
AcDbEntity
  8
ALL_ASSEMBLY_MEMBERS
100
AcDbLine
 62
7
  6
CONTINUOUS
 10
5.4442468527
 20
4.5799701935
 11
5.4351268157
 21
4.5799701935
  0
LINE
  5
274
100
AcDbEntity
  8
ALL_ASSEMBLY_MEMBERS
100
AcDbLine
 62
7
  6
CONTINUOUS
 10
5.5208551621
 20
4.5898275452
 11
5.4351268157
 21
4.5898275452
  0
LINE
  5
275
100
AcDbEntity
  8
ALL_ASSEMBLY_MEMBERS
100
AcDbLine
 62
7
  6
CONTINUOUS
 10
5.1130716976
 20
5.1874045286
 11
5.1130716976
 21
5.3011986407
  0
LINE
  5
276
100
AcDbEntity
  8
ALL_ASSEMBLY_MEMBERS
100
AcDbLine
 62
7
  6
CONTINUOUS
 10
4.3660716976
 20
4.4266653727
 11
4.4055716976
 21
4.4416653727
  0
LINE
  5
277
100
AcDbEntity
  8
ALL_ASSEMBLY_MEMBERS
100
AcDbLine
 62
7
  6
CONTINUOUS
 10
5.5062631049
 20
4.5979126061
 11
5.4351268157
 21
4.5979126061
  0
LINE
  5
278
100
AcDbEntity
  8
ALL_ASSEMBLY_MEMBERS
100
AcDbLine
 62
7
  6
CONTINUOUS
 10
5.5049250086
 20
4.5987629262
 11
5.4351268157
 21
4.5987629262
  0
LINE
  5
279
100
AcDbEntity
  8
ALL_ASSEMBLY_MEMBERS
100
AcDbLine
 62
7
  6
CONTINUOUS
 10
5.508087112
 20
4.6060468593
 11
5.4934950497
 21
4.6060468593
  0
LINE
  5
27A
100
AcDbEntity
  8
ALL_ASSEMBLY_MEMBERS
100
AcDbLine
 62
7
  6
CONTINUOUS
 10
5.508087112
 20
4.6068991612
 11
5.4934950497
 21
4.6068991612
  0
LINE
  5
27B
100
AcDbEntity
  8
ALL_ASSEMBLY_MEMBERS
100
AcDbLine
 62
7
  6
CONTINUOUS
 10
4.6260716976
 20
4.6135408092
 11
4.6105716976
 21
4.6135408092
  0
LINE
  5
27C
100
AcDbEntity
  8
ALL_ASSEMBLY_MEMBERS
100
AcDbLine
 62
7
  6
CONTINUOUS
 10
4.6260716976
 20
4.6164249121
 11
4.6105716976
 21
4.6164249121
  0
LINE
  5
27D
100
AcDbEntity
  8
ALL_ASSEMBLY_MEMBERS
100
AcDbLine
 62
7
  6
CONTINUOUS
 10
4.6260716976
 20
4.6246437758
 11
4.6105716976
 21
4.6246437758
  0
LINE
  5
27E
100
AcDbEntity
  8
ALL_ASSEMBLY_MEMBERS
100
AcDbLine
 62
7
  6
CONTINUOUS
 10
4.6260716976
 20
4.6328570058
 11
4.6105716976
 21
4.6328570058
  0
LINE
  5
27F
100
AcDbEntity
  8
ALL_ASSEMBLY_MEMBERS
100
AcDbLine
 62
7
  6
CONTINUOUS
 10
4.6105716976
 20
4.6443075355
 11
4.6260716976
 21
4.6443075355
  0
LINE
  5
280
100
AcDbEntity
  8
ALL_ASSEMBLY_MEMBERS
100
AcDbLine
 62
7
  6
CONTINUOUS
 10
4.6260716976
 20
4.6480434858
 11
4.6105716976
 21
4.6480434858
  0
LINE
  5
281
100
AcDbEntity
  8
ALL_ASSEMBLY_MEMBERS
100
AcDbLine
 62
7
  6
CONTINUOUS
 10
4.6260716976
 20
4.6603354532
 11
4.6105716976
 21
4.6603354532
  0
LINE
  5
282
100
AcDbEntity
  8
ALL_ASSEMBLY_MEMBERS
100
AcDbLine
 62
7
  6
CONTINUOUS
 10
4.6105716976
 20
4.6697402291
 11
4.6260716976
 21
4.6697402291
  0
LINE
  5
283
100
AcDbEntity
  8
ALL_ASSEMBLY_MEMBERS
100
AcDbLine
 62
7
  6
CONTINUOUS
 10
4.6105716976
 20
4.6786302279
 11
4.6260716976
 21
4.6786302279
  0
LINE
  5
284
100
AcDbEntity
  8
ALL_ASSEMBLY_MEMBERS
100
AcDbLine
 62
7
  6
CONTINUOUS
 10
4.6260716976
 20
4.6801775455
 11
4.6105716976
 21
4.6801775455
  0
LINE
  5
285
100
AcDbEntity
  8
ALL_ASSEMBLY_MEMBERS
100
AcDbLine
 62
7
  6
CONTINUOUS
 10
4.5215246922
 20
4.6854153727
 11
4.5446187029
 21
4.6854153727
  0
LINE
  5
286
100
AcDbEntity
  8
ALL_ASSEMBLY_MEMBERS
100
AcDbLine
 62
7
  6
CONTINUOUS
 10
5.5237094928
 20
4.6926200971
 11
5.4351268157
 21
4.6926200971
  0
LINE
  5
287
100
AcDbEntity
  8
ALL_ASSEMBLY_MEMBERS
100
AcDbLine
 62
7
  6
CONTINUOUS
 10
4.6260716976
 20
4.6946769097
 11
4.6105716976
 21
4.6946769097
  0
LINE
  5
288
100
AcDbEntity
  8
ALL_ASSEMBLY_MEMBERS
100
AcDbLine
 62
7
  6
CONTINUOUS
 10
4.6105716976
 20
4.70060414
 11
4.6260716976
 21
4.70060414
  0
LINE
  5
289
100
AcDbEntity
  8
ALL_ASSEMBLY_MEMBERS
100
AcDbLine
 62
7
  6
CONTINUOUS
 10
4.6105716976
 20
4.7102266054
 11
4.6260716976
 21
4.7102266054
  0
LINE
  5
28A
100
AcDbEntity
  8
ALL_ASSEMBLY_MEMBERS
100
AcDbLine
 62
7
  6
CONTINUOUS
 10
4.6260716976
 20
4.7161538356
 11
4.6105716976
 21
4.7161538356
  0
LINE
  5
28B
100
AcDbEntity
  8
ALL_ASSEMBLY_MEMBERS
100
AcDbLine
 62
7
  6
CONTINUOUS
 10
5.5237094928
 20
4.7182106483
 11
5.4351268157
 21
4.7182106483
  0
LINE
  5
28C
100
AcDbEntity
  8
ALL_ASSEMBLY_MEMBERS
100
AcDbLine
 62
7
  6
CONTINUOUS
 10
4.3660716976
 20
4.9841653727
 11
4.4055716976
 21
4.9691653727
  0
LINE
  5
28D
100
AcDbEntity
  8
ALL_ASSEMBLY_MEMBERS
100
AcDbLine
 62
7
  6
CONTINUOUS
 10
4.5446187029
 20
4.7254153727
 11
4.5215246922
 21
4.7254153727
  0
LINE
  5
28E
100
AcDbEntity
  8
ALL_ASSEMBLY_MEMBERS
100
AcDbLine
 62
7
  6
CONTINUOUS
 10
4.6260716976
 20
4.7306531998
 11
4.6105716976
 21
4.7306531998
  0
LINE
  5
28F
100
AcDbEntity
  8
ALL_ASSEMBLY_MEMBERS
100
AcDbLine
 62
7
  6
CONTINUOUS
 10
4.6105716976
 20
4.7322005174
 11
4.6260716976
 21
4.7322005174
  0
LINE
  5
290
100
AcDbEntity
  8
ALL_ASSEMBLY_MEMBERS
100
AcDbLine
 62
7
  6
CONTINUOUS
 10
4.6105716976
 20
4.7410905162
 11
4.6260716976
 21
4.7410905162
  0
LINE
  5
291
100
AcDbEntity
  8
ALL_ASSEMBLY_MEMBERS
100
AcDbLine
 62
7
  6
CONTINUOUS
 10
4.6260716976
 20
4.7504952921
 11
4.6105716976
 21
4.7504952921
  0
LINE
  5
292
100
AcDbEntity
  8
ALL_ASSEMBLY_MEMBERS
100
AcDbLine
 62
7
  6
CONTINUOUS
 10
4.6260716976
 20
4.7627872595
 11
4.6105716976
 21
4.7627872595
  0
LINE
  5
293
100
AcDbEntity
  8
ALL_ASSEMBLY_MEMBERS
100
AcDbLine
 62
7
  6
CONTINUOUS
 10
4.6105716976
 20
4.7665232099
 11
4.6260716976
 21
4.7665232099
  0
LINE
  5
294
100
AcDbEntity
  8
ALL_ASSEMBLY_MEMBERS
100
AcDbLine
 62
7
  6
CONTINUOUS
 10
4.6260716976
 20
4.7779737395
 11
4.6105716976
 21
4.7779737395
  0
LINE
  5
295
100
AcDbEntity
  8
ALL_ASSEMBLY_MEMBERS
100
AcDbLine
 62
7
  6
CONTINUOUS
 10
4.6260716976
 20
4.7861869695
 11
4.6105716976
 21
4.7861869695
  0
LINE
  5
296
100
AcDbEntity
  8
ALL_ASSEMBLY_MEMBERS
100
AcDbLine
 62
7
  6
CONTINUOUS
 10
4.6260716976
 20
4.7944058333
 11
4.6105716976
 21
4.7944058333
  0
LINE
  5
297
100
AcDbEntity
  8
ALL_ASSEMBLY_MEMBERS
100
AcDbLine
 62
7
  6
CONTINUOUS
 10
4.6260716976
 20
4.7972899361
 11
4.6105716976
 21
4.7972899361
  0
LINE
  5
298
100
AcDbEntity
  8
ALL_ASSEMBLY_MEMBERS
100
AcDbLine
 62
7
  6
CONTINUOUS
 10
5.4661349398
 20
4.8059662341
 11
5.4588389112
 21
4.8059662341
  0
LINE
  5
299
100
AcDbEntity
  8
ALL_ASSEMBLY_MEMBERS
100
AcDbLine
 62
7
  6
CONTINUOUS
 10
5.4661349398
 20
4.8068180166
 11
5.4588389112
 21
4.8068180166
  0
LINE
  5
29A
100
AcDbEntity
  8
ALL_ASSEMBLY_MEMBERS
100
AcDbLine
 62
7
  6
CONTINUOUS
 10
5.5208551621
 20
4.8094891469
 11
5.5117351264
 21
4.8094891469
  0
LINE
  5
29B
100
AcDbEntity
  8
ALL_ASSEMBLY_MEMBERS
100
AcDbLine
 62
7
  6
CONTINUOUS
 10
5.5208551621
 20
4.8103400675
 11
5.5117351264
 21
4.8103400675
  0
LINE
  5
29C
100
AcDbEntity
  8
ALL_ASSEMBLY_MEMBERS
100
AcDbLine
 62
7
  6
CONTINUOUS
 10
5.4643109327
 20
4.8156058216
 11
5.4606629184
 21
4.8156058216
  0
LINE
  5
29D
100
AcDbEntity
  8
ALL_ASSEMBLY_MEMBERS
100
AcDbLine
 62
7
  6
CONTINUOUS
 10
5.3760716976
 20
5.1904153727
 11
5.3760716976
 21
4.2204153727
  0
LINE
  5
29E
100
AcDbEntity
  8
ALL_ASSEMBLY_MEMBERS
100
AcDbLine
 62
7
  6
CONTINUOUS
 10
5.5117351264
 20
4.8595385552
 11
5.4830962663
 21
4.8595385552
  0
LINE
  5
29F
100
AcDbEntity
  8
ALL_ASSEMBLY_MEMBERS
100
AcDbLine
 62
7
  6
CONTINUOUS
 10
5.5117351264
 20
4.8603823975
 11
5.4825510068
 21
4.8603823975
  0
LINE
  5
2A0
100
AcDbEntity
  8
ALL_ASSEMBLY_MEMBERS
100
AcDbLine
 62
7
  6
CONTINUOUS
 10
5.5208551621
 20
4.8688180477
 11
5.473430971
 21
4.8688180477
  0
LINE
  5
2A1
100
AcDbEntity
  8
ALL_ASSEMBLY_MEMBERS
100
AcDbLine
 62
7
  6
CONTINUOUS
 10
4.4310716976
 20
4.8771653727
 11
4.6105716976
 21
4.8771653727
  0
LINE
  5
2A2
100
AcDbEntity
  8
ALL_ASSEMBLY_MEMBERS
100
AcDbLine
 62
7
  6
CONTINUOUS
 10
5.5208551621
 20
4.8813541791
 11
5.4351268157
 21
4.8813541791
  0
LINE
  5
2A3
100
AcDbEntity
  8
ALL_ASSEMBLY_MEMBERS
100
AcDbLine
 62
7
  6
CONTINUOUS
 10
5.5208551621
 20
4.8821980329
 11
5.4351268157
 21
4.8821980329
  0
LINE
  5
2A4
100
AcDbEntity
  8
ALL_ASSEMBLY_MEMBERS
100
AcDbLine
 62
7
  6
CONTINUOUS
 10
5.5062631049
 20
4.8921384155
 11
5.4351268157
 21
4.8921384155
  0
LINE
  5
2A5
100
AcDbEntity
  8
ALL_ASSEMBLY_MEMBERS
100
AcDbLine
 62
7
  6
CONTINUOUS
 10
5.508087112
 20
4.9019975067
 11
5.4934950497
 21
4.9019975067
  0
LINE
  5
2A6
100
AcDbEntity
  8
ALL_ASSEMBLY_MEMBERS
100
AcDbLine
 62
7
  6
CONTINUOUS
 10
5.5208551621
 20
4.9141682461
 11
5.4351268157
 21
4.9141682461
  0
LINE
  5
2A7
100
AcDbEntity
  8
ALL_ASSEMBLY_MEMBERS
100
AcDbLine
 62
7
  6
CONTINUOUS
 10
5.5208551621
 20
4.9150159454
 11
5.4351268157
 21
4.9150159454
  0
LINE
  5
2A8
100
AcDbEntity
  8
ALL_ASSEMBLY_MEMBERS
100
AcDbLine
 62
7
  6
CONTINUOUS
 10
5.5062631049
 20
4.9246839255
 11
5.4351268157
 21
4.9246839255
  0
LINE
  5
2A9
100
AcDbEntity
  8
ALL_ASSEMBLY_MEMBERS
100
AcDbLine
 62
7
  6
CONTINUOUS
 10
5.508087112
 20
4.9342690897
 11
5.4934950497
 21
4.9342690897
  0
LINE
  5
2AA
100
AcDbEntity
  8
ALL_ASSEMBLY_MEMBERS
100
AcDbLine
 62
7
  6
CONTINUOUS
 10
4.069929649
 20
4.9691653727
 11
4.1055716976
 21
4.9691653727
  0
LINE
  5
2AB
100
AcDbEntity
  8
ALL_ASSEMBLY_MEMBERS
100
AcDbLine
 62
7
  6
CONTINUOUS
 10
5.4351268157
 20
5.1898797202
 11
5.4351268157
 21
5.1856993385
  0
LINE
  5
2AC
100
AcDbEntity
  8
ALL_ASSEMBLY_MEMBERS
100
AcDbLine
 62
7
  6
CONTINUOUS
 10
5.4351268157
 20
4.2223990801
 11
5.4351268157
 21
4.2256493252
  0
LINE
  5
2AD
100
AcDbEntity
  8
ALL_ASSEMBLY_MEMBERS
100
AcDbLine
 62
7
  6
CONTINUOUS
 10
5.4351268157
 20
4.5320187445
 11
5.4351268157
 21
4.5799701935
  0
LINE
  5
2AE
100
AcDbEntity
  8
ALL_ASSEMBLY_MEMBERS
100
AcDbLine
 62
7
  6
CONTINUOUS
 10
5.4351268157
 20
4.5898275452
 11
5.4351268157
 21
4.5987629262
  0
LINE
  5
2AF
100
AcDbEntity
  8
ALL_ASSEMBLY_MEMBERS
100
AcDbLine
 62
7
  6
CONTINUOUS
 10
5.4351268157
 20
4.6926200971
 11
5.4351268157
 21
4.7182106483
  0
LINE
  5
2B0
100
AcDbEntity
  8
ALL_ASSEMBLY_MEMBERS
100
AcDbLine
 62
7
  6
CONTINUOUS
 10
5.4351268157
 20
4.8330092748
 11
5.4351268157
 21
4.8433420425
  0
LINE
  5
2B1
100
AcDbEntity
  8
ALL_ASSEMBLY_MEMBERS
100
AcDbLine
 62
7
  6
CONTINUOUS
 10
5.4351268157
 20
4.8813541791
 11
5.4351268157
 21
4.8921384155
  0
LINE
  5
2B2
100
AcDbEntity
  8
ALL_ASSEMBLY_MEMBERS
100
AcDbLine
 62
7
  6
CONTINUOUS
 10
5.4351268157
 20
4.9141682461
 11
5.4351268157
 21
4.9246839255
  0
LINE
  5
2B3
100
AcDbEntity
  8
ALL_ASSEMBLY_MEMBERS
100
AcDbLine
 62
7
  6
CONTINUOUS
 10
5.4351268157
 20
5.0930007282
 11
5.4351268157
 21
5.1097000407
  0
LINE
  5
2B4
100
AcDbEntity
  8
ALL_ASSEMBLY_MEMBERS
100
AcDbLine
 62
7
  6
CONTINUOUS
 10
5.436950823
 20
5.1873550342
 11
5.436950823
 21
5.1848740414
  0
LINE
  5
2B5
100
AcDbEntity
  8
ALL_ASSEMBLY_MEMBERS
100
AcDbLine
 62
7
  6
CONTINUOUS
 10
5.436950823
 20
5.1900928002
 11
5.436950823
 21
5.1888549379
  0
LINE
  5
2B6
100
AcDbEntity
  8
ALL_ASSEMBLY_MEMBERS
100
AcDbLine
 62
7
  6
CONTINUOUS
 10
5.436950823
 20
4.8243361197
 11
5.436950823
 21
4.8234881532
  0
LINE
  5
2B7
100
AcDbEntity
  8
ALL_ASSEMBLY_MEMBERS
100
AcDbLine
 62
7
  6
CONTINUOUS
 10
5.436950823
 20
4.5065979152
 11
5.436950823
 21
4.5074438185
  0
LINE
  5
2B8
100
AcDbEntity
  8
ALL_ASSEMBLY_MEMBERS
100
AcDbLine
 62
7
  6
CONTINUOUS
 10
5.4424228449
 20
5.186561669
 11
5.4424228449
 21
5.1840765641
  0
LINE
  5
2B9
100
AcDbEntity
  8
ALL_ASSEMBLY_MEMBERS
100
AcDbLine
 62
7
  6
CONTINUOUS
 10
5.4424228449
 20
5.1901630159
 11
5.4424228449
 21
5.1893124495
  0
LINE
  5
2BA
100
AcDbEntity
  8
ALL_ASSEMBLY_MEMBERS
100
AcDbLine
 62
7
  6
CONTINUOUS
 10
5.4424228449
 20
4.8156058216
 11
5.4424228449
 21
4.8147561006
  0
LINE
  5
2BB
100
AcDbEntity
  8
ALL_ASSEMBLY_MEMBERS
100
AcDbLine
 62
7
  6
CONTINUOUS
 10
5.4424228449
 20
4.5129028885
 11
5.4424228449
 21
4.5137479879
  0
LINE
  5
2BC
100
AcDbEntity
  8
ALL_ASSEMBLY_MEMBERS
100
AcDbLine
 62
7
  6
CONTINUOUS
 10
5.4442468527
 20
4.5320187445
 11
5.4442468527
 21
4.5685057705
  0
LINE
  5
2BD
100
AcDbEntity
  8
ALL_ASSEMBLY_MEMBERS
100
AcDbLine
 62
7
  6
CONTINUOUS
 10
5.4442468527
 20
4.5791234803
 11
5.4442468527
 21
4.5799701935
  0
LINE
  5
2BE
100
AcDbEntity
  8
ALL_ASSEMBLY_MEMBERS
100
AcDbLine
 62
7
  6
CONTINUOUS
 10
5.4442468527
 20
4.8330092748
 11
5.4442468527
 21
4.8433420425
  0
LINE
  5
2BF
100
AcDbEntity
  8
ALL_ASSEMBLY_MEMBERS
100
AcDbLine
 62
7
  6
CONTINUOUS
 10
5.4460708599
 20
5.1887516455
 11
5.4460708599
 21
5.1875017819
  0
LINE
  5
2C0
100
AcDbEntity
  8
ALL_ASSEMBLY_MEMBERS
100
AcDbLine
 62
7
  6
CONTINUOUS
 10
5.4460708599
 20
4.8501852723
 11
5.4460708599
 21
4.8493407779
  0
LINE
  5
2C1
100
AcDbEntity
  8
ALL_ASSEMBLY_MEMBERS
100
AcDbLine
 62
7
  6
CONTINUOUS
 10
5.4460708599
 20
4.4928455419
 11
5.4460708599
 21
4.4936938318
  0
LINE
  5
2C2
100
AcDbEntity
  8
ALL_ASSEMBLY_MEMBERS
100
AcDbLine
 62
7
  6
CONTINUOUS
 10
5.447894867
 20
5.1901583242
 11
5.447894867
 21
5.1895398726
  0
LINE
  5
2C3
100
AcDbEntity
  8
ALL_ASSEMBLY_MEMBERS
100
AcDbLine
 62
7
  6
CONTINUOUS
 10
5.447894867
 20
5.1860378036
 11
5.447894867
 21
5.1835499759
  0
LINE
  5
2C4
100
AcDbEntity
  8
ALL_ASSEMBLY_MEMBERS
100
AcDbLine
 62
7
  6
CONTINUOUS
 10
5.447894867
 20
4.5167019731
 11
5.447894867
 21
4.5175466735
  0
LINE
  5
2C5
100
AcDbEntity
  8
ALL_ASSEMBLY_MEMBERS
100
AcDbLine
 62
7
  6
CONTINUOUS
 10
5.4497188742
 20
5.1890497263
 11
5.4497188742
 21
5.1870496254
  0
LINE
  5
2C6
100
AcDbEntity
  8
ALL_ASSEMBLY_MEMBERS
100
AcDbLine
 62
7
  6
CONTINUOUS
 10
5.4497188742
 20
4.8552939813
 11
5.4497188742
 21
4.854449865
  0
LINE
  5
2C7
100
AcDbEntity
  8
ALL_ASSEMBLY_MEMBERS
100
AcDbLine
 62
7
  6
CONTINUOUS
 10
5.4497188742
 20
4.8103400675
 11
5.4497188742
 21
4.8094891469
  0
LINE
  5
2C8
100
AcDbEntity
  8
ALL_ASSEMBLY_MEMBERS
100
AcDbLine
 62
7
  6
CONTINUOUS
 10
5.4497188742
 20
4.4891233206
 11
5.4497188742
 21
4.4899724109
  0
LINE
  5
2C9
100
AcDbEntity
  8
ALL_ASSEMBLY_MEMBERS
100
AcDbLine
 62
7
  6
CONTINUOUS
 10
5.4551908969
 20
5.1901356881
 11
5.4551908969
 21
5.1896719017
  0
LINE
  5
2CA
100
AcDbEntity
  8
ALL_ASSEMBLY_MEMBERS
100
AcDbLine
 62
7
  6
CONTINUOUS
 10
5.4551908969
 20
5.1856685522
 11
5.4551908969
 21
5.1831788017
  0
LINE
  5
2CB
100
AcDbEntity
  8
ALL_ASSEMBLY_MEMBERS
100
AcDbLine
 62
7
  6
CONTINUOUS
 10
5.4551908969
 20
4.5192413927
 11
5.4551908969
 21
4.5200858615
  0
LINE
  5
2CC
100
AcDbEntity
  8
ALL_ASSEMBLY_MEMBERS
100
AcDbLine
 62
7
  6
CONTINUOUS
 10
5.4570149041
 20
4.8578445917
 11
5.4570149041
 21
4.8688180477
  0
LINE
  5
2CD
100
AcDbEntity
  8
ALL_ASSEMBLY_MEMBERS
100
AcDbLine
 62
7
  6
CONTINUOUS
 10
5.4588389112
 20
4.8068180166
 11
5.4588389112
 21
4.8059662341
  0
LINE
  5
2CE
100
AcDbEntity
  8
ALL_ASSEMBLY_MEMBERS
100
AcDbLine
 62
7
  6
CONTINUOUS
 10
5.4606629184
 20
5.1901185169
 11
5.4606629184
 21
5.1897320455
  0
LINE
  5
2CF
100
AcDbEntity
  8
ALL_ASSEMBLY_MEMBERS
100
AcDbLine
 62
7
  6
CONTINUOUS
 10
5.4606629184
 20
5.1893921765
 11
5.4606629184
 21
5.1869216804
  0
LINE
  5
2D0
100
AcDbEntity
  8
ALL_ASSEMBLY_MEMBERS
100
AcDbLine
 62
7
  6
CONTINUOUS
 10
5.4606629184
 20
5.1854779117
 11
5.4606629184
 21
5.1829871673
  0
LINE
  5
2D1
100
AcDbEntity
  8
ALL_ASSEMBLY_MEMBERS
100
AcDbLine
 62
7
  6
CONTINUOUS
 10
5.4606629184
 20
4.4841794095
 11
5.4606629184
 21
4.4850296686
  0
LINE
  5
2D2
100
AcDbEntity
  8
ALL_ASSEMBLY_MEMBERS
100
AcDbLine
 62
7
  6
CONTINUOUS
 10
5.4606629184
 20
4.5205131141
 11
5.4606629184
 21
4.5213574775
  0
LINE
  5
2D3
100
AcDbEntity
  8
ALL_ASSEMBLY_MEMBERS
100
AcDbLine
 62
7
  6
CONTINUOUS
 10
5.4661349398
 20
4.8068180166
 11
5.4661349398
 21
4.8059662341
  0
LINE
  5
2D4
100
AcDbEntity
  8
ALL_ASSEMBLY_MEMBERS
100
AcDbLine
 62
7
  6
CONTINUOUS
 10
5.4697829567
 20
5.1900974431
 11
5.4697829567
 21
5.189788277
  0
LINE
  5
2D5
100
AcDbEntity
  8
ALL_ASSEMBLY_MEMBERS
100
AcDbLine
 62
7
  6
CONTINUOUS
 10
5.4697829567
 20
5.1852832543
 11
5.4697829567
 21
5.1827914943
  0
LINE
  5
2D6
100
AcDbEntity
  8
ALL_ASSEMBLY_MEMBERS
100
AcDbLine
 62
7
  6
CONTINUOUS
 10
5.4697829567
 20
4.5217861661
 11
5.4697829567
 21
4.5226304311
  0
LINE
  5
2D7
100
AcDbEntity
  8
ALL_ASSEMBLY_MEMBERS
100
AcDbLine
 62
7
  6
CONTINUOUS
 10
5.4716069639
 20
5.1894679838
 11
5.4716069639
 21
5.1869978765
  0
LINE
  5
2D8
100
AcDbEntity
  8
ALL_ASSEMBLY_MEMBERS
100
AcDbLine
 62
7
  6
CONTINUOUS
 10
5.4716069639
 20
4.4829468486
 11
5.4716069639
 21
4.483797418
  0
LINE
  5
2D9
100
AcDbEntity
  8
ALL_ASSEMBLY_MEMBERS
100
AcDbLine
 62
7
  6
CONTINUOUS
 10
5.473430971
 20
4.8561483586
 11
5.473430971
 21
4.8688180477
  0
LINE
  5
2DA
100
AcDbEntity
  8
ALL_ASSEMBLY_MEMBERS
100
AcDbLine
 62
7
  6
CONTINUOUS
 10
5.4752549782
 20
4.8103400675
 11
5.4752549782
 21
4.8094891469
  0
LINE
  5
2DB
100
AcDbEntity
  8
ALL_ASSEMBLY_MEMBERS
100
AcDbLine
 62
7
  6
CONTINUOUS
 10
5.4752549782
 20
4.2206933219
 11
5.4752549782
 21
4.2223990801
  0
LINE
  5
2DC
100
AcDbEntity
  8
ALL_ASSEMBLY_MEMBERS
100
AcDbLine
 62
7
  6
CONTINUOUS
 10
5.4807269996
 20
4.8330092748
 11
5.4807269996
 21
4.8433420425
  0
LINE
  5
2DD
100
AcDbEntity
  8
ALL_ASSEMBLY_MEMBERS
100
AcDbLine
 62
7
  6
CONTINUOUS
 10
5.4825510068
 20
4.8156058216
 11
5.4825510068
 21
4.8147561006
  0
LINE
  5
2DE
100
AcDbEntity
  8
ALL_ASSEMBLY_MEMBERS
100
AcDbLine
 62
7
  6
CONTINUOUS
 10
5.4843750139
 20
5.1894679838
 11
5.4843750139
 21
5.1869978765
  0
LINE
  5
2DF
100
AcDbEntity
  8
ALL_ASSEMBLY_MEMBERS
100
AcDbLine
 62
7
  6
CONTINUOUS
 10
5.4843750139
 20
4.4829468486
 11
5.4843750139
 21
4.483797418
  0
LINE
  5
2E0
100
AcDbEntity
  8
ALL_ASSEMBLY_MEMBERS
100
AcDbLine
 62
7
  6
CONTINUOUS
 10
5.4861990211
 20
5.1900974431
 11
5.4861990211
 21
5.189788277
  0
LINE
  5
2E1
100
AcDbEntity
  8
ALL_ASSEMBLY_MEMBERS
100
AcDbLine
 62
7
  6
CONTINUOUS
 10
5.4861990211
 20
5.1852832543
 11
5.4861990211
 21
5.1827914943
  0
LINE
  5
2E2
100
AcDbEntity
  8
ALL_ASSEMBLY_MEMBERS
100
AcDbLine
 62
7
  6
CONTINUOUS
 10
5.4861990211
 20
4.2206933219
 11
5.4861990211
 21
4.2223990801
  0
LINE
  5
2E3
100
AcDbEntity
  8
ALL_ASSEMBLY_MEMBERS
100
AcDbLine
 62
7
  6
CONTINUOUS
 10
5.4861990211
 20
4.5217861661
 11
5.4861990211
 21
4.5226304311
  0
LINE
  5
2E4
100
AcDbEntity
  8
ALL_ASSEMBLY_MEMBERS
100
AcDbLine
 62
7
  6
CONTINUOUS
 10
5.4880230282
 20
4.8243361197
 11
5.4880230282
 21
4.8234881532
  0
LINE
  5
2E5
100
AcDbEntity
  8
ALL_ASSEMBLY_MEMBERS
100
AcDbLine
 62
7
  6
CONTINUOUS
 10
5.4898470354
 20
4.5423367632
 11
5.4898470354
 21
4.543180383
  0
LINE
  5
2E6
100
AcDbEntity
  8
ALL_ASSEMBLY_MEMBERS
100
AcDbLine
 62
7
  6
CONTINUOUS
 10
5.4898470354
 20
4.8330092748
 11
5.4898470354
 21
4.8433420425
  0
LINE
  5
2E7
100
AcDbEntity
  8
ALL_ASSEMBLY_MEMBERS
100
AcDbLine
 62
7
  6
CONTINUOUS
 10
5.4902449259
 20
4.2296030906
 11
5.4902449259
 21
4.2271031837
  0
LINE
  5
2E8
100
AcDbEntity
  8
ALL_ASSEMBLY_MEMBERS
100
AcDbLine
 62
7
  6
CONTINUOUS
 10
5.4934950497
 20
4.9342690897
 11
5.4934950497
 21
4.9334167878
  0
LINE
  5
2E9
100
AcDbEntity
  8
ALL_ASSEMBLY_MEMBERS
100
AcDbLine
 62
7
  6
CONTINUOUS
 10
5.4934950497
 20
4.9019975067
 11
5.4934950497
 21
4.9011519089
  0
LINE
  5
2EA
100
AcDbEntity
  8
ALL_ASSEMBLY_MEMBERS
100
AcDbLine
 62
7
  6
CONTINUOUS
 10
5.4934950497
 20
4.6060468593
 11
5.4934950497
 21
4.6068991612
  0
LINE
  5
2EB
100
AcDbEntity
  8
ALL_ASSEMBLY_MEMBERS
100
AcDbLine
 62
7
  6
CONTINUOUS
 10
5.4953190569
 20
5.1901185169
 11
5.4953190569
 21
5.1897320455
  0
LINE
  5
2EC
100
AcDbEntity
  8
ALL_ASSEMBLY_MEMBERS
100
AcDbLine
 62
7
  6
CONTINUOUS
 10
5.4953190569
 20
5.1893921765
 11
5.4953190569
 21
5.1869216804
  0
LINE
  5
2ED
100
AcDbEntity
  8
ALL_ASSEMBLY_MEMBERS
100
AcDbLine
 62
7
  6
CONTINUOUS
 10
5.4953190569
 20
5.1854779117
 11
5.4953190569
 21
5.1829871673
  0
LINE
  5
2EE
100
AcDbEntity
  8
ALL_ASSEMBLY_MEMBERS
100
AcDbLine
 62
7
  6
CONTINUOUS
 10
5.4953190569
 20
4.4841794095
 11
5.4953190569
 21
4.4850296686
  0
LINE
  5
2EF
100
AcDbEntity
  8
ALL_ASSEMBLY_MEMBERS
100
AcDbLine
 62
7
  6
CONTINUOUS
 10
5.4953190569
 20
4.5205131141
 11
5.4953190569
 21
4.5213574775
  0
LINE
  5
2F0
100
AcDbEntity
  8
ALL_ASSEMBLY_MEMBERS
100
AcDbLine
 62
7
  6
CONTINUOUS
 10
5.497143064
 20
4.5397492536
 11
5.497143064
 21
4.5405928585
  0
LINE
  5
2F1
100
AcDbEntity
  8
ALL_ASSEMBLY_MEMBERS
100
AcDbLine
 62
7
  6
CONTINUOUS
 10
5.5007910834
 20
5.1901356881
 11
5.5007910834
 21
5.1896719017
  0
LINE
  5
2F2
100
AcDbEntity
  8
ALL_ASSEMBLY_MEMBERS
100
AcDbLine
 62
7
  6
CONTINUOUS
 10
5.5007910834
 20
5.1856685522
 11
5.5007910834
 21
5.1831788017
  0
LINE
  5
2F3
100
AcDbEntity
  8
ALL_ASSEMBLY_MEMBERS
100
AcDbLine
 62
7
  6
CONTINUOUS
 10
5.5007910834
 20
4.5192413927
 11
5.5007910834
 21
4.5200858615
  0
LINE
  5
2F4
100
AcDbEntity
  8
ALL_ASSEMBLY_MEMBERS
100
AcDbLine
 62
7
  6
CONTINUOUS
 10
5.5007910834
 20
4.5397492536
 11
5.5007910834
 21
4.5405928585
  0
LINE
  5
2F5
100
AcDbEntity
  8
ALL_ASSEMBLY_MEMBERS
100
AcDbLine
 62
7
  6
CONTINUOUS
 10
5.5007910834
 20
4.571152126
 11
5.5007910834
 21
4.5786380627
  0
LINE
  5
2F6
100
AcDbEntity
  8
ALL_ASSEMBLY_MEMBERS
100
AcDbLine
 62
7
  6
CONTINUOUS
 10
5.5062631049
 20
5.1890497263
 11
5.5062631049
 21
5.1870496254
  0
LINE
  5
2F7
100
AcDbEntity
  8
ALL_ASSEMBLY_MEMBERS
100
AcDbLine
 62
7
  6
CONTINUOUS
 10
5.5062631049
 20
4.4891233206
 11
5.5062631049
 21
4.4899724109
  0
LINE
  5
2F8
100
AcDbEntity
  8
ALL_ASSEMBLY_MEMBERS
100
AcDbLine
 62
7
  6
CONTINUOUS
 10
5.5062631049
 20
4.5423367632
 11
5.5062631049
 21
4.543180383
  0
LINE
  5
2F9
100
AcDbEntity
  8
ALL_ASSEMBLY_MEMBERS
100
AcDbLine
 62
7
  6
CONTINUOUS
 10
5.508087112
 20
5.1901583242
 11
5.508087112
 21
5.1895398726
  0
LINE
  5
2FA
100
AcDbEntity
  8
ALL_ASSEMBLY_MEMBERS
100
AcDbLine
 62
7
  6
CONTINUOUS
 10
5.508087112
 20
5.1860378036
 11
5.508087112
 21
5.1835499759
  0
LINE
  5
2FB
100
AcDbEntity
  8
ALL_ASSEMBLY_MEMBERS
100
AcDbLine
 62
7
  6
CONTINUOUS
 10
5.508087112
 20
4.5167019731
 11
5.508087112
 21
4.5175466735
  0
LINE
  5
2FC
100
AcDbEntity
  8
ALL_ASSEMBLY_MEMBERS
100
AcDbLine
 62
7
  6
CONTINUOUS
 10
5.508087112
 20
4.5764609751
 11
5.508087112
 21
4.577307287
  0
LINE
  5
2FD
100
AcDbEntity
  8
ALL_ASSEMBLY_MEMBERS
100
AcDbLine
 62
7
  6
CONTINUOUS
 10
5.508087112
 20
4.6060468593
 11
5.508087112
 21
4.6068991612
  0
LINE
  5
2FE
100
AcDbEntity
  8
ALL_ASSEMBLY_MEMBERS
100
AcDbLine
 62
7
  6
CONTINUOUS
 10
5.5099111192
 20
5.1887516455
 11
5.5099111192
 21
5.1875017819
  0
LINE
  5
2FF
100
AcDbEntity
  8
ALL_ASSEMBLY_MEMBERS
100
AcDbLine
 62
7
  6
CONTINUOUS
 10
5.5099111192
 20
4.2206653781
 11
5.5099111192
 21
4.2223990801
  0
LINE
  5
300
100
AcDbEntity
  8
ALL_ASSEMBLY_MEMBERS
100
AcDbLine
 62
7
  6
CONTINUOUS
 10
5.5099111192
 20
4.4928455419
 11
5.5099111192
 21
4.4936938318
  0
LINE
  5
301
100
AcDbEntity
  8
ALL_ASSEMBLY_MEMBERS
100
AcDbLine
 62
7
  6
CONTINUOUS
 10
5.5099111192
 20
4.54622804
 11
5.5099111192
 21
4.5470717335
  0
LINE
  5
302
100
AcDbEntity
  8
ALL_ASSEMBLY_MEMBERS
100
AcDbLine
 62
7
  6
CONTINUOUS
 10
5.5117351264
 20
4.5527402019
 11
5.5117351264
 21
4.5579739768
  0
LINE
  5
303
100
AcDbEntity
  8
ALL_ASSEMBLY_MEMBERS
100
AcDbLine
 62
7
  6
CONTINUOUS
 10
5.5117351264
 20
4.8094891469
 11
5.5117351264
 21
4.8603823975
  0
LINE
  5
304
100
AcDbEntity
  8
ALL_ASSEMBLY_MEMBERS
100
AcDbLine
 62
7
  6
CONTINUOUS
 10
5.5135591335
 20
5.1901630159
 11
5.5135591335
 21
5.1893124495
  0
LINE
  5
305
100
AcDbEntity
  8
ALL_ASSEMBLY_MEMBERS
100
AcDbLine
 62
7
  6
CONTINUOUS
 10
5.5135591335
 20
5.186561669
 11
5.5135591335
 21
5.1840765641
  0
LINE
  5
306
100
AcDbEntity
  8
ALL_ASSEMBLY_MEMBERS
100
AcDbLine
 62
7
  6
CONTINUOUS
 10
5.5135591335
 20
4.5129028885
 11
5.5135591335
 21
4.5137479879
  0
LINE
  5
307
100
AcDbEntity
  8
ALL_ASSEMBLY_MEMBERS
100
AcDbLine
 62
7
  6
CONTINUOUS
 10
5.5153831407
 20
4.571152126
 11
5.5153831407
 21
4.5719977195
  0
LINE
  5
308
100
AcDbEntity
  8
ALL_ASSEMBLY_MEMBERS
100
AcDbLine
 62
7
  6
CONTINUOUS
 10
5.5237094928
 20
5.0930007282
 11
5.4351268157
 21
5.0930007282
  0
LINE
  5
309
100
AcDbEntity
  8
ALL_ASSEMBLY_MEMBERS
100
AcDbLine
 62
7
  6
CONTINUOUS
 10
5.5237094928
 20
5.0950219036
 11
5.4351268157
 21
5.0950219036
  0
LINE
  5
30A
100
AcDbEntity
  8
ALL_ASSEMBLY_MEMBERS
100
AcDbLine
 62
7
  6
CONTINUOUS
 10
5.5237094928
 20
5.1097000407
 11
5.4351268157
 21
5.1097000407
  0
LINE
  5
30B
100
AcDbEntity
  8
ALL_ASSEMBLY_MEMBERS
100
AcDbLine
 62
7
  6
CONTINUOUS
 10
5.519031155
 20
5.1900928002
 11
5.519031155
 21
5.1888549379
  0
LINE
  5
30C
100
AcDbEntity
  8
ALL_ASSEMBLY_MEMBERS
100
AcDbLine
 62
7
  6
CONTINUOUS
 10
5.519031155
 20
5.1873550342
 11
5.519031155
 21
5.1848740414
  0
LINE
  5
30D
100
AcDbEntity
  8
ALL_ASSEMBLY_MEMBERS
100
AcDbLine
 62
7
  6
CONTINUOUS
 10
5.519031155
 20
4.5065979152
 11
5.519031155
 21
4.5074438185
  0
LINE
  5
30E
100
AcDbEntity
  8
ALL_ASSEMBLY_MEMBERS
100
AcDbLine
 62
7
  6
CONTINUOUS
 10
5.519031155
 20
4.5658647803
 11
5.519031155
 21
4.566709767
  0
LINE
  5
30F
100
AcDbEntity
  8
ALL_ASSEMBLY_MEMBERS
100
AcDbLine
 62
7
  6
CONTINUOUS
 10
5.5208551621
 20
5.1898797202
 11
5.5208551621
 21
5.1856993385
  0
LINE
  5
310
100
AcDbEntity
  8
ALL_ASSEMBLY_MEMBERS
100
AcDbLine
 62
7
  6
CONTINUOUS
 10
5.5208551621
 20
4.2206653822
 11
5.5208551621
 21
4.2256493252
  0
LINE
  5
311
100
AcDbEntity
  8
ALL_ASSEMBLY_MEMBERS
100
AcDbLine
 62
7
  6
CONTINUOUS
 10
5.5208551621
 20
4.5514350964
 11
5.5208551621
 21
4.5566635287
  0
LINE
  5
312
100
AcDbEntity
  8
ALL_ASSEMBLY_MEMBERS
100
AcDbLine
 62
7
  6
CONTINUOUS
 10
5.5208551621
 20
4.5898275452
 11
5.5208551621
 21
4.5987629262
  0
LINE
  5
313
100
AcDbEntity
  8
ALL_ASSEMBLY_MEMBERS
100
AcDbLine
 62
7
  6
CONTINUOUS
 10
5.5208551621
 20
4.8094891469
 11
5.5208551621
 21
4.8688180477
  0
LINE
  5
314
100
AcDbEntity
  8
ALL_ASSEMBLY_MEMBERS
100
AcDbLine
 62
7
  6
CONTINUOUS
 10
5.5208551621
 20
4.8813541791
 11
5.5208551621
 21
4.8921384155
  0
LINE
  5
315
100
AcDbEntity
  8
ALL_ASSEMBLY_MEMBERS
100
AcDbLine
 62
7
  6
CONTINUOUS
 10
5.5208551621
 20
4.9141682461
 11
5.5208551621
 21
4.9246839255
  0
LINE
  5
316
100
AcDbEntity
  8
ALL_ASSEMBLY_MEMBERS
100
AcDbLine
 62
7
  6
CONTINUOUS
 10
5.5237094928
 20
4.2296030906
 11
5.5237094928
 21
4.2271031837
  0
LINE
  5
317
100
AcDbEntity
  8
ALL_ASSEMBLY_MEMBERS
100
AcDbLine
 62
7
  6
CONTINUOUS
 10
5.5237094928
 20
4.6926200971
 11
5.5237094928
 21
4.7182106483
  0
LINE
  5
318
100
AcDbEntity
  8
ALL_ASSEMBLY_MEMBERS
100
AcDbLine
 62
7
  6
CONTINUOUS
 10
5.5237094928
 20
5.0930007282
 11
5.5237094928
 21
5.1097000407
  0
LINE
  5
319
100
AcDbEntity
  8
ALL_ASSEMBLY_MEMBERS
100
AcDbLine
 62
7
  6
CONTINUOUS
 10
5.5729220913
 20
5.1979153727
 11
5.5729220913
 21
4.2129153727
  0
LINE
  5
31A
100
AcDbEntity
  8
ALL_ASSEMBLY_MEMBERS
100
AcDbLine
 62
7
  6
CONTINUOUS
 10
5.7179318121
 20
5.1979153726
 11
5.7175558107
 21
5.1979080712
  0
LINE
  5
31B
100
AcDbEntity
  8
ALL_ASSEMBLY_MEMBERS
100
AcDbLine
 62
7
  6
CONTINUOUS
 10
5.7175609511
 20
5.1979081888
 11
5.7179318121
 21
5.1979153726
  0
LINE
  5
31C
100
AcDbEntity
  8
ALL_ASSEMBLY_MEMBERS
100
AcDbLine
 62
7
  6
CONTINUOUS
 10
5.4861990211
 20
5.1827914943
 11
5.4697829567
 21
5.1827914943
  0
LINE
  5
31D
100
AcDbEntity
  8
ALL_ASSEMBLY_MEMBERS
100
AcDbLine
 62
7
  6
CONTINUOUS
 10
5.4861990211
 20
5.1852832543
 11
5.4697829567
 21
5.1852832543
  0
LINE
  5
31E
100
AcDbEntity
  8
ALL_ASSEMBLY_MEMBERS
100
AcDbLine
 62
7
  6
CONTINUOUS
 10
5.4843750139
 20
5.1862164227
 11
5.4716069639
 21
5.1862164227
  0
LINE
  5
31F
100
AcDbEntity
  8
ALL_ASSEMBLY_MEMBERS
100
AcDbLine
 62
7
  6
CONTINUOUS
 10
5.4843750139
 20
5.1869978765
 11
5.4716069639
 21
5.1869978765
  0
LINE
  5
320
100
AcDbEntity
  8
ALL_ASSEMBLY_MEMBERS
100
AcDbLine
 62
7
  6
CONTINUOUS
 10
5.3760716976
 20
5.1876988372
 11
5.4351268157
 21
5.1876988372
  0
LINE
  5
321
100
AcDbEntity
  8
ALL_ASSEMBLY_MEMBERS
100
AcDbLine
 62
7
  6
CONTINUOUS
 10
5.5208551621
 20
5.1876988372
 11
5.5729220913
 21
5.1876988372
  0
LINE
  5
322
100
AcDbEntity
  8
ALL_ASSEMBLY_MEMBERS
100
AcDbLine
 62
7
  6
CONTINUOUS
 10
5.4843750139
 20
5.1894679838
 11
5.4716069639
 21
5.1894679838
  0
LINE
  5
323
100
AcDbEntity
  8
ALL_ASSEMBLY_MEMBERS
100
AcDbLine
 62
7
  6
CONTINUOUS
 10
5.4861990211
 20
5.189788277
 11
5.4697829567
 21
5.189788277
  0
LINE
  5
324
100
AcDbEntity
  8
ALL_ASSEMBLY_MEMBERS
100
AcDbLine
 62
7
  6
CONTINUOUS
 10
5.4861990211
 20
5.1900974431
 11
5.4697829567
 21
5.1900974431
  0
LINE
  5
325
100
AcDbEntity
  8
ALL_ASSEMBLY_MEMBERS
100
AcDbLine
 62
7
  6
CONTINUOUS
 10
5.3760716976
 20
5.1904153727
 11
5.1355716976
 21
5.1904153727
  0
LINE
  5
326
100
AcDbEntity
  8
ALL_ASSEMBLY_MEMBERS
100
AcDbLine
 62
7
  6
CONTINUOUS
 10
4.9605716976
 20
5.1904153727
 11
4.9486077722
 21
5.1904153727
  0
LINE
  5
327
100
AcDbEntity
  8
ALL_ASSEMBLY_MEMBERS
100
AcDbLine
 62
7
  6
CONTINUOUS
 10
5.7079220913
 20
5.1978138498
 11
5.6279220913
 21
5.1978138498
  0
LINE
  5
328
100
AcDbEntity
  8
ALL_ASSEMBLY_MEMBERS
100
AcDbLine
 62
7
  6
CONTINUOUS
 10
5.5729220913
 20
5.1979153727
 11
5.6179220913
 21
5.1979153727
  0
LINE
  5
329
100
AcDbEntity
  8
ALL_ASSEMBLY_MEMBERS
100
AcDbLine
 62
7
  6
CONTINUOUS
 10
5.7179220913
 20
5.1979153727
 11
5.7427970913
 21
5.1979153727
  0
LINE
  5
32A
100
AcDbEntity
  8
ALL_ASSEMBLY_MEMBERS
100
AcDbLine
 62
7
  6
CONTINUOUS
 10
5.6179123755
 20
5.1979153727
 11
5.6182820378
 21
5.197908212
  0
LINE
  5
32B
100
AcDbEntity
  8
ALL_ASSEMBLY_MEMBERS
100
AcDbLine
 62
7
  6
CONTINUOUS
 10
5.6182876606
 20
5.1979080884
 11
5.6179123734
 21
5.1979153726
  0
LINE
  5
32C
100
AcDbEntity
  8
ALL_ASSEMBLY_MEMBERS
100
AcDbLine
 62
7
  6
CONTINUOUS
 10
5.7427970913
 20
4.1754163922
 11
5.7427970913
 21
5.2354143531
  0
LINE
  5
32D
100
AcDbEntity
  8
ALL_ASSEMBLY_MEMBERS
100
AcDbLine
 62
7
  6
CONTINUOUS
 10
4.9830716976
 20
5.3011986407
 11
5.1130716976
 21
5.3011986407
  0
LINE
  5
32E
100
AcDbEntity
  8
ALL_ASSEMBLY_MEMBERS
100
AcDbLine
 62
7
  6
CONTINUOUS
 10
5.0926171521
 20
5.329639532
 11
5.003526243
 21
5.329639532
  0
LINE
  5
32F
100
AcDbEntity
  8
ALL_ASSEMBLY_MEMBERS
100
AcDbLine
 62
7
  6
CONTINUOUS
 10
5.8222970913
 20
3.1379153727
 11
5.8222970913
 21
6.2729153727
  0
LINE
  5
330
100
AcDbEntity
  8
ALL_ASSEMBLY_MEMBERS
100
AcDbLine
 62
7
  6
CONTINUOUS
 10
5.8847970913
 20
3.0804153727
 11
5.8847970913
 21
6.3304153727
  0
LINE
  5
331
100
AcDbEntity
  8
ALL_ASSEMBLY_MEMBERS
100
AcDbLine
 62
7
  6
CONTINUOUS
 10
5.9787970913
 20
3.0804153727
 11
5.9787970913
 21
6.3304153727
  0
LINE
  5
332
100
AcDbEntity
  8
ALL_ASSEMBLY_MEMBERS
100
AcDbLine
 62
7
  6
CONTINUOUS
 10
5.8847970913
 20
6.3304153727
 11
5.9787970913
 21
6.3304153727
  0
ARC
  5
333
100
AcDbEntity
  8
ALL_ASSEMBLY_MEMBERS
100
AcDbCircle
 62
7
  6
CONTINUOUS
 10
4.2635716976
 20
3.9653459282
 40
0.4725694444
100
AcDbArc
 50
77.4730187713
 51
80.8518157563
  0
ARC
  5
334
100
AcDbEntity
  8
ALL_ASSEMBLY_MEMBERS
100
AcDbCircle
 62
7
  6
CONTINUOUS
 10
4.2635716976
 20
3.9653459282
 40
0.4725694444
100
AcDbArc
 50
99.1458461547
 51
102.5269812287
  0
ARC
  5
335
100
AcDbEntity
  8
ALL_ASSEMBLY_MEMBERS
100
AcDbCircle
 62
7
  6
CONTINUOUS
 10
4.597895461
 20
4.3513042031
 40
0.15625
100
AcDbArc
 50
11.3835410059
 51
71.1400389567
  0
ARC
  5
336
100
AcDbEntity
  8
ALL_ASSEMBLY_MEMBERS
100
AcDbCircle
 62
7
  6
CONTINUOUS
 10
4.2635716976
 20
4.2873384883
 40
0.1375
100
AcDbArc
 50
125.7906197352
 51
54.2093802648
  0
ARC
  5
337
100
AcDbEntity
  8
ALL_ASSEMBLY_MEMBERS
100
AcDbCircle
 62
7
  6
CONTINUOUS
 10
4.2732922141
 20
4.553827062
 40
0.1004329347
100
AcDbArc
 50
298.5530815526
 51
299.8436466908
  0
ARC
  5
338
100
AcDbEntity
  8
ALL_ASSEMBLY_MEMBERS
100
AcDbCircle
 62
7
  6
CONTINUOUS
 10
4.2533757398
 20
4.552978985
 40
0.099460762
100
AcDbArc
 50
239.4643152206
 51
241.4630364549
  0
ARC
  5
339
100
AcDbEntity
  8
ALL_ASSEMBLY_MEMBERS
100
AcDbCircle
 62
7
  6
CONTINUOUS
 10
4.2752099988
 20
4.5485853577
 40
0.0947886002
100
AcDbArc
 50
299.1399214621
 51
300.3668729741
  0
ARC
  5
33A
100
AcDbEntity
  8
ALL_ASSEMBLY_MEMBERS
100
AcDbCircle
 62
7
  6
CONTINUOUS
 10
4.2518180482
 20
4.5483785508
 40
0.0945518247
100
AcDbArc
 50
238.8474324972
 51
240.8718922755
  0
ARC
  5
33B
100
AcDbEntity
  8
ALL_ASSEMBLY_MEMBERS
100
AcDbCircle
 62
7
  6
CONTINUOUS
 10
4.2515731622
 20
4.4995446025
 40
0.0917097254
100
AcDbArc
 50
157.4196334259
 51
157.6796998133
  0
ARC
  5
33C
100
AcDbEntity
  8
ALL_ASSEMBLY_MEMBERS
100
AcDbCircle
 62
7
  6
CONTINUOUS
 10
4.2755720341
 20
4.4995453128
 40
0.0917077896
100
AcDbArc
 50
22.3203614977
 51
22.5784733955
  0
ARC
  5
33D
100
AcDbEntity
  8
ALL_ASSEMBLY_MEMBERS
100
AcDbCircle
 62
7
  6
CONTINUOUS
 10
4.2184767322
 20
4.3856858098
 40
0.0529050346
100
AcDbArc
 50
180.0006776199
 51
182.0220225078
  0
ARC
  5
33E
100
AcDbEntity
  8
ALL_ASSEMBLY_MEMBERS
100
AcDbCircle
 62
7
  6
CONTINUOUS
 10
4.3086683776
 20
4.3856858166
 40
0.05290332
100
AcDbArc
 50
357.9766857167
 51
359.9993150524
  0
ARC
  5
33F
100
AcDbEntity
  8
ALL_ASSEMBLY_MEMBERS
100
AcDbCircle
 62
7
  6
CONTINUOUS
 10
4.2148143136
 20
4.5254465888
 40
0.0492426167
100
AcDbArc
 50
171.4829627771
 51
179.9906972753
  0
ARC
  5
340
100
AcDbEntity
  8
ALL_ASSEMBLY_MEMBERS
100
AcDbCircle
 62
7
  6
CONTINUOUS
 10
4.312332391
 20
4.5254468624
 40
0.0492393071
100
AcDbArc
 50
0.0089849212
 51
8.5362514934
  0
ARC
  5
341
100
AcDbEntity
  8
ALL_ASSEMBLY_MEMBERS
100
AcDbCircle
 62
7
  6
CONTINUOUS
 10
4.5330250625
 20
4.7054042369
 40
0.040952444
100
AcDbArc
 50
182.2906379137
 51
185.5051144431
  0
ARC
  5
342
100
AcDbEntity
  8
ALL_ASSEMBLY_MEMBERS
100
AcDbCircle
 62
7
  6
CONTINUOUS
 10
4.5331779454
 20
4.7038434584
 40
0.0409519999
100
AcDbArc
 50
183.5724441289
 51
184.5113159831
  0
ARC
  5
343
100
AcDbEntity
  8
ALL_ASSEMBLY_MEMBERS
100
AcDbCircle
 62
7
  6
CONTINUOUS
 10
4.5331174465
 20
4.7038397528
 40
0.0408913876
100
AcDbArc
 50
177.7917422856
 51
183.5725440008
  0
ARC
  5
344
100
AcDbEntity
  8
ALL_ASSEMBLY_MEMBERS
100
AcDbCircle
 62
7
  6
CONTINUOUS
 10
4.5330957404
 20
4.7052241999
 40
0.040807338
100
AcDbArc
 50
274.9748499611
 51
275.9737912178
  0
ARC
  5
345
100
AcDbEntity
  8
ALL_ASSEMBLY_MEMBERS
100
AcDbCircle
 62
7
  6
CONTINUOUS
 10
4.5327989753
 20
4.7053829618
 40
0.0407253587
100
AcDbArc
 50
185.5058356942
 51
186.7129839413
  0
ARC
  5
346
100
AcDbEntity
  8
ALL_ASSEMBLY_MEMBERS
100
AcDbCircle
 62
7
  6
CONTINUOUS
 10
4.5331076627
 20
4.705109431
 40
0.0406919515
100
AcDbArc
 50
275.9739135059
 51
276.6844531744
  0
ARC
  5
347
100
AcDbEntity
  8
ALL_ASSEMBLY_MEMBERS
100
AcDbCircle
 62
7
  6
CONTINUOUS
 10
4.5388874193
 20
4.7050140206
 40
0.0403334204
100
AcDbArc
 50
264.6473852939
 51
268.5179660545
  0
ARC
  5
348
100
AcDbEntity
  8
ALL_ASSEMBLY_MEMBERS
100
AcDbCircle
 62
7
  6
CONTINUOUS
 10
4.6590716976
 20
4.5303936517
 40
0.033
100
AcDbArc
 50
180.0
 51
251.1400389567
  0
ARC
  5
349
100
AcDbEntity
  8
ALL_ASSEMBLY_MEMBERS
100
AcDbCircle
 62
7
  6
CONTINUOUS
 10
4.053171871
 20
4.5116653727
 40
0.015
100
AcDbArc
 50
194.7630312681
 51
260.0088442167
  0
ARC
  5
34A
100
AcDbEntity
  8
ALL_ASSEMBLY_MEMBERS
100
AcDbCircle
 62
7
  6
CONTINUOUS
 10
4.7884067053
 20
4.7054153727
 40
0.7753350077
100
AcDbArc
 50
165.2369687319
 51
194.7630312681
  0
ARC
  5
34B
100
AcDbEntity
  8
ALL_ASSEMBLY_MEMBERS
100
AcDbCircle
 62
7
  6
CONTINUOUS
 10
4.2635716976
 20
5.4454848171
 40
0.4725694444
100
AcDbArc
 50
279.1481675645
 51
282.5269812287
  0
ARC
  5
34C
100
AcDbEntity
  8
ALL_ASSEMBLY_MEMBERS
100
AcDbCircle
 62
7
  6
CONTINUOUS
 10
4.2635716976
 20
5.4454848171
 40
0.4725694444
100
AcDbArc
 50
257.4730187713
 51
260.8542899529
  0
ARC
  5
34D
100
AcDbEntity
  8
ALL_ASSEMBLY_MEMBERS
100
AcDbCircle
 62
7
  6
CONTINUOUS
 10
4.597895461
 20
5.0595265422
 40
0.15625
100
AcDbArc
 50
288.8599610433
 51
348.6164589941
  0
ARC
  5
34E
100
AcDbEntity
  8
ALL_ASSEMBLY_MEMBERS
100
AcDbCircle
 62
7
  6
CONTINUOUS
 10
4.2635716976
 20
5.123492257
 40
0.1375
100
AcDbArc
 50
305.7906197352
 51
234.2093802648
  0
ARC
  5
34F
100
AcDbEntity
  8
ALL_ASSEMBLY_MEMBERS
100
AcDbCircle
 62
7
  6
CONTINUOUS
 10
4.2635715124
 20
4.9591850427
 40
0.1319747438
100
AcDbArc
 50
270.2376767615
 51
270.8392995126
  0
ARC
  5
350
100
AcDbEntity
  8
ALL_ASSEMBLY_MEMBERS
100
AcDbCircle
 62
7
  6
CONTINUOUS
 10
4.2635716852
 20
4.9591472673
 40
0.1319369681
100
AcDbArc
 50
270.0000053879
 51
270.2376697933
  0
ARC
  5
351
100
AcDbEntity
  8
ALL_ASSEMBLY_MEMBERS
100
AcDbCircle
 62
7
  6
CONTINUOUS
 10
4.2628135058
 20
4.9529571476
 40
0.1256951824
100
AcDbArc
 50
258.6432330888
 51
260.1511032555
  0
ARC
  5
352
100
AcDbEntity
  8
ALL_ASSEMBLY_MEMBERS
100
AcDbCircle
 62
7
  6
CONTINUOUS
 10
4.2561964725
 20
4.9325000158
 40
0.1041436986
100
AcDbArc
 50
245.107634177
 51
245.808184857
  0
ARC
  5
353
100
AcDbEntity
  8
ALL_ASSEMBLY_MEMBERS
100
AcDbCircle
 62
7
  6
CONTINUOUS
 10
4.2737710446
 20
4.8578592269
 40
0.099452618
100
AcDbArc
 50
59.4550480771
 51
61.4572636159
  0
ARC
  5
354
100
AcDbEntity
  8
ALL_ASSEMBLY_MEMBERS
100
AcDbCircle
 62
7
  6
CONTINUOUS
 10
4.2753711448
 20
4.8625402348
 40
0.0944527321
100
AcDbArc
 50
58.8632832904
 51
60.8770869665
  0
ARC
  5
355
100
AcDbEntity
  8
ALL_ASSEMBLY_MEMBERS
100
AcDbCircle
 62
7
  6
CONTINUOUS
 10
4.2513566819
 20
4.8632518276
 40
0.0936288352
100
AcDbArc
 50
119.1244034718
 51
121.3393379953
  0
ARC
  5
356
100
AcDbEntity
  8
ALL_ASSEMBLY_MEMBERS
100
AcDbCircle
 62
7
  6
CONTINUOUS
 10
4.2514525979
 20
4.91123733
 40
0.0915796597
100
AcDbArc
 50
202.3234223663
 51
202.4662049258
  0
ARC
  5
357
100
AcDbEntity
  8
ALL_ASSEMBLY_MEMBERS
100
AcDbCircle
 62
7
  6
CONTINUOUS
 10
4.2501367139
 20
4.9211626651
 40
0.0912797565
100
AcDbArc
 50
237.6329445912
 51
238.3942198435
  0
ARC
  5
358
100
AcDbEntity
  8
ALL_ASSEMBLY_MEMBERS
100
AcDbCircle
 62
7
  6
CONTINUOUS
 10
4.5330721311
 20
4.7160890315
 40
0.0529413354
100
AcDbArc
 50
274.0034499138
 51
275.3211412063
  0
ARC
  5
359
100
AcDbEntity
  8
ALL_ASSEMBLY_MEMBERS
100
AcDbCircle
 62
7
  6
CONTINUOUS
 10
4.2148050794
 20
4.8853820374
 40
0.0492331759
100
AcDbArc
 50
180.0068380964
 51
188.6875481406
  0
ARC
  5
35A
100
AcDbEntity
  8
ALL_ASSEMBLY_MEMBERS
100
AcDbCircle
 62
7
  6
CONTINUOUS
 10
4.3123472385
 20
4.8853814512
 40
0.0492242531
100
AcDbArc
 50
351.3015173033
 51
359.9938429387
  0
ARC
  5
35B
100
AcDbEntity
  8
ALL_ASSEMBLY_MEMBERS
100
AcDbCircle
 62
7
  6
CONTINUOUS
 10
4.5330716976
 20
4.7054153727
 40
0.0409999999
100
AcDbArc
 50
186.7134151261
 51
276.6846050058
  0
ARC
  5
35C
100
AcDbEntity
  8
ALL_ASSEMBLY_MEMBERS
100
AcDbCircle
 62
7
  6
CONTINUOUS
 10
4.6590716976
 20
4.8804370937
 40
0.033
100
AcDbArc
 50
108.8599610433
 51
180.0
  0
ARC
  5
35D
100
AcDbEntity
  8
ALL_ASSEMBLY_MEMBERS
100
AcDbCircle
 62
7
  6
CONTINUOUS
 10
4.5330716976
 20
4.7054153727
 40
0.03255
100
AcDbArc
 50
318.6960901809
 51
239.622466147
  0
CIRCLE
  5
35E
100
AcDbEntity
  8
ALL_ASSEMBLY_MEMBERS
100
AcDbCircle
 62
7
  6
CONTINUOUS
 10
4.5330716976
 20
4.7054153727
 40
0.031
  0
ARC
  5
35F
100
AcDbEntity
  8
ALL_ASSEMBLY_MEMBERS
100
AcDbCircle
 62
7
  6
CONTINUOUS
 10
4.053171871
 20
4.8991653727
 40
0.015
100
AcDbArc
 50
99.9911557833
 51
165.2369687319
  0
ARC
  5
360
100
AcDbEntity
  8
ALL_ASSEMBLY_MEMBERS
100
AcDbCircle
 62
7
  6
CONTINUOUS
 10
4.9486077722
 20
4.4219153727
 40
0.2015
100
AcDbArc
 50
191.3835410059
 51
270.0
  0
ARC
  5
361
100
AcDbEntity
  8
ALL_ASSEMBLY_MEMBERS
100
AcDbCircle
 62
7
  6
CONTINUOUS
 10
5.8222970913
 20
3.0751979814
 40
0.0627173913
100
AcDbArc
 50
4.7718880608
 51
90.0
  0
ARC
  5
362
100
AcDbEntity
  8
ALL_ASSEMBLY_MEMBERS
100
AcDbCircle
 62
7
  6
CONTINUOUS
 10
5.5069770989
 20
4.2714440104
 40
0.0454241773
100
AcDbArc
 50
270.0001392816
 51
270.9972673085
  0
ARC
  5
363
100
AcDbEntity
  8
ALL_ASSEMBLY_MEMBERS
100
AcDbCircle
 62
7
  6
CONTINUOUS
 10
5.7079216039
 20
5.6903247573
 40
0.4925109075
100
AcDbArc
 50
270.0000566929
 51
271.1214557203
  0
ARC
  5
364
100
AcDbEntity
  8
ALL_ASSEMBLY_MEMBERS
100
AcDbCircle
 62
7
  6
CONTINUOUS
 10
5.6279154225
 20
5.6895944077
 40
0.4917805579
100
AcDbArc
 50
268.8775733666
 51
270.0007769503
  0
ARC
  5
365
100
AcDbEntity
  8
ALL_ASSEMBLY_MEMBERS
100
AcDbCircle
 62
7
  6
CONTINUOUS
 10
4.9486077722
 20
4.9889153727
 40
0.2015
100
AcDbArc
 50
90.0
 51
168.6164589941
  0
ARC
  5
366
100
AcDbEntity
  8
ALL_ASSEMBLY_MEMBERS
100
AcDbCircle
 62
7
  6
CONTINUOUS
 10
5.0480716976
 20
5.1969153727
 40
0.14
100
AcDbArc
 50
71.446995465
 51
108.553004535
  0
ARC
  5
367
100
AcDbEntity
  8
ALL_ASSEMBLY_MEMBERS
100
AcDbCircle
 62
7
  6
CONTINUOUS
 10
5.8222970913
 20
6.335632764
 40
0.0627173913
100
AcDbArc
 50
270.0
 51
355.2281119392
  0
ARC
  5
368
100
AcDbEntity
  8
ALL_ASSEMBLY_MEMBERS
100
AcDbCircle
 62
7
  6
CONTINUOUS
 10
5.0130716976
 20
5.3011986407
 40
0.03
100
AcDbArc
 50
108.553004535
 51
180.0
  0
ARC
  5
369
100
AcDbEntity
  8
ALL_ASSEMBLY_MEMBERS
100
AcDbCircle
 62
7
  6
CONTINUOUS
 10
5.0830716976
 20
5.3011986407
 40
0.03
100
AcDbArc
 50
0.0
 51
71.446995465
  0
SPLINE
  5
36A
100
AcDbEntity
  8
ALL_ASSEMBLY_MEMBERS
100
AcDbSpline
 62
7
  6
CONTINUOUS
 70
0
 71
3
 72
18
 73
14
 74
0
 42
0.0000001
 43
0.0000001
 44
0.0000000001
 40
0.0
 40
0.0
 40
0.0
 40
0.0
 40
0.059670732
 40
0.1193569148
 40
0.1791696894
 40
0.2392102357
 40
0.3601828236
 40
0.4828524533
 40
0.5450346997
 40
0.6078360499
 40
0.7354647856
 40
0.8661288082
 40
1.0
 40
1.0
 40
1.0
 40
1.0
 10
4.1655716976
 20
4.525454584
 30
0.0
 10
4.1655716976
 20
4.5240168465
 30
0.0
 10
4.1656813895
 20
4.5211398024
 30
0.0
 10
4.166172205
 20
4.5168469142
 30
0.0
 10
4.1669858038
 20
4.5125938532
 30
0.0
 10
4.1684985759
 20
4.5069873126
 30
0.0
 10
4.1711749399
 20
4.5001482383
 30
0.0
 10
4.174804192
 20
4.4937080553
 30
0.0
 10
4.1782302766
 20
4.4888183533
 30
0.0
 10
4.1820353113
 20
4.4840631413
 30
0.0
 10
4.1874209292
 20
4.4784807991
 30
0.0
 10
4.1947293842
 20
4.4724635668
 30
0.0
 10
4.2000640803
 20
4.4689511033
 30
0.0
 10
4.2028422229
 20
4.4673121486
 30
0.0
  0
SPLINE
  5
36B
100
AcDbEntity
  8
ALL_ASSEMBLY_MEMBERS
100
AcDbSpline
 62
7
  6
CONTINUOUS
 70
0
 71
3
 72
20
 73
16
 74
0
 42
0.0000001
 43
0.0000001
 44
0.0000000001
 40
0.0
 40
0.0
 40
0.0
 40
0.0
 40
0.1340490227
 40
0.2648372005
 40
0.3290815473
 40
0.3925844727
 40
0.4553910339
 40
0.517561609
 40
0.6401626311
 40
0.7008137262
 40
0.7610962767
 40
0.8210687554
 40
0.8808078767
 40
0.9404145648
 40
1.0
 40
1.0
 40
1.0
 40
1.0
 10
4.3232711437
 20
4.4667128785
 30
0.0
 10
4.3261191001
 20
4.4683470142
 30
0.0
 10
4.3315899052
 20
4.4718575343
 30
0.0
 10
4.3378819942
 20
4.4769242639
 30
0.0
 10
4.3424523791
 20
4.4813124685
 30
0.0
 10
4.3456219049
 20
4.4847427889
 30
0.0
 10
4.3485408997
 20
4.4883239331
 30
0.0
 10
4.3520639915
 20
4.4932635823
 30
0.0
 10
4.355064077
 20
4.4984991291
 30
0.0
 10
4.3574633769
 20
4.5039651052
 30
0.0
 10
4.358948044
 20
4.5081446103
 30
0.0
 10
4.3601144304
 20
4.5124006135
 30
0.0
 10
4.3609527964
 20
4.5167165894
 30
0.0
 10
4.3614586272
 20
4.5210742501
 30
0.0
 10
4.3615716976
 20
4.5239950603
 30
0.0
 10
4.3615716976
 20
4.525454584
 30
0.0
  0
SPLINE
  5
36C
100
AcDbEntity
  8
ALL_ASSEMBLY_MEMBERS
100
AcDbSpline
 62
7
  6
CONTINUOUS
 70
0
 71
3
 72
14
 73
10
 74
0
 42
0.0000001
 43
0.0000001
 44
0.0000000001
 40
0.0
 40
0.0
 40
0.0
 40
0.0
 40
0.1077950011
 40
0.2225025545
 40
0.3428959677
 40
0.467942251
 40
0.5968911283
 40
0.7290260587
 40
1.0
 40
1.0
 40
1.0
 40
1.0
 10
4.2060574694
 20
4.4437406938
 30
0.0
 10
4.2061880087
 20
4.4441095803
 30
0.0
 10
4.2064412492
 20
4.4448768338
 30
0.0
 10
4.206782625
 20
4.4460741977
 30
0.0
 10
4.2070870178
 20
4.4473460679
 30
0.0
 10
4.2073446927
 20
4.4486808948
 30
0.0
 10
4.2075521173
 20
4.4500675902
 30
0.0
 10
4.2077578482
 20
4.4519883639
 30
0.0
 10
4.2078216976
 20
4.453452668
 30
0.0
 10
4.2078216976
 20
4.4544363205
 30
0.0
  0
SPLINE
  5
36D
100
AcDbEntity
  8
ALL_ASSEMBLY_MEMBERS
100
AcDbSpline
 62
7
  6
CONTINUOUS
 70
0
 71
3
 72
13
 73
9
 74
0
 42
0.0000001
 43
0.0000001
 44
0.0000000001
 40
0.0
 40
0.0
 40
0.0
 40
0.0
 40
0.2713759394
 40
0.5324754804
 40
0.6574339044
 40
0.7776752622
 40
0.8922692156
 40
1.0
 40
1.0
 40
1.0
 40
1.0
 10
4.3193216976
 20
4.4544363205
 30
0.0
 10
4.3193216976
 20
4.45345059
 30
0.0
 10
4.3194066191
 20
4.4515155691
 30
0.0
 10
4.3197096361
 20
4.4491439736
 30
0.0
 10
4.3200583166
 20
4.4473377734
 30
0.0
 10
4.3203621601
 20
4.4460662283
 30
0.0
 10
4.320704394
 20
4.4448695267
 30
0.0
 10
4.3209584259
 20
4.4441026831
 30
0.0
 10
4.321089309
 20
4.4437339052
 30
0.0
  0
SPLINE
  5
36E
100
AcDbEntity
  8
ALL_ASSEMBLY_MEMBERS
100
AcDbSpline
 62
7
  6
CONTINUOUS
 70
0
 71
3
 72
18
 73
14
 74
0
 42
0.0000001
 43
0.0000001
 44
0.0000000001
 40
0.0
 40
0.0
 40
0.0
 40
0.0
 40
0.1662291351
 40
0.3273516122
 40
0.4051957737
 40
0.4807722301
 40
0.5537351637
 40
0.623620411
 40
0.7518231499
 40
0.8605656841
 40
0.9449293168
 40
0.9764533211
 40
1.0
 40
1.0
 40
1.0
 40
1.0
 10
4.2078216976
 20
4.4544363205
 30
0.0
 10
4.2078216976
 20
4.4552984202
 30
0.0
 10
4.207756418
 20
4.4569967393
 30
0.0
 10
4.2075222786
 20
4.4590870151
 30
0.0
 10
4.2072515288
 20
4.460696
 30
0.0
 10
4.2070138936
 20
4.4618460663
 30
0.0
 10
4.2067418508
 20
4.4629460186
 30
0.0
 10
4.2063525029
 20
4.4642970221
 30
0.0
 10
4.2058319661
 20
4.4658022527
 30
0.0
 10
4.2051777268
 20
4.467336482
 30
0.0
 10
4.2046379733
 20
4.4683703048
 30
0.0
 10
4.2042673979
 20
4.4689913966
 30
0.0
 10
4.204112832
 20
4.4692316534
 30
0.0
 10
4.2040445633
 20
4.4693329066
 30
0.0
  0
SPLINE
  5
36F
100
AcDbEntity
  8
ALL_ASSEMBLY_MEMBERS
100
AcDbSpline
 62
7
  6
CONTINUOUS
 70
0
 71
3
 72
45
 73
41
 74
0
 42
0.0000001
 43
0.0000001
 44
0.0000000001
 40
0.0
 40
0.0
 40
0.0
 40
0.0
 40
0.0135108578
 40
0.0270385559
 40
0.0406054212
 40
0.0542329222
 40
0.0817368845
 40
0.0956631968
 40
0.1097221468
 40
0.1382902854
 40
0.1675603697
 40
0.1976093881
 40
0.2284807196
 40
0.2601840791
 40
0.2926965515
 40
0.3259628263
 40
0.3599013018
 40
0.3944060981
 40
0.4293526875
 40
0.4646016428
 40
0.5000041634
 40
0.5354065684
 40
0.5706553528
 40
0.6056015392
 40
0.6401059225
 40
0.6740437185
 40
0.7073093468
 40
0.7398210258
 40
0.77152362
 40
0.8023941004
 40
0.8324423398
 40
0.86171167
 40
0.8902791677
 40
0.9043378005
 40
0.9182637801
 40
0.9457673419
 40
0.9593948171
 40
0.9729617264
 40
0.9864893958
 40
1.0
 40
1.0
 40
1.0
 40
1.0
 10
4.3615716976
 20
4.3856851841
 30
0.0
 10
4.3615716976
 20
4.3868928896
 30
0.0
 10
4.3614887075
 20
4.3893106228
 30
0.0
 10
4.3611171051
 20
4.3929238003
 30
0.0
 10
4.3605003263
 20
4.3965142124
 30
0.0
 10
4.359350328
 20
4.4012693389
 30
0.0
 10
4.3577183292
 20
4.4059297941
 30
0.0
 10
4.3556426659
 20
4.4104373207
 30
0.0
 10
4.3532463641
 20
4.4148917823
 30
0.0
 10
4.3496926796
 20
4.4202658645
 30
0.0
 10
4.3446354027
 20
4.4262976265
 30
0.0
 10
4.3388206232
 20
4.4319023817
 30
0.0
 10
4.3323088246
 20
4.4370361806
 30
0.0
 10
4.3251648916
 20
4.4416625937
 30
0.0
 10
4.3174555694
 20
4.4457464741
 30
0.0
 10
4.3092524539
 20
4.4492581015
 30
0.0
 10
4.3006302975
 20
4.452170044
 30
0.0
 10
4.2916678177
 20
4.4544595172
 30
0.0
 10
4.2824470523
 20
4.4561086487
 30
0.0
 10
4.2730524597
 20
4.4571030711
 30
0.0
 10
4.2635705873
 20
4.4574359388
 30
0.0
 10
4.2540887394
 20
4.457102895
 30
0.0
 10
4.2446942146
 20
4.456108393
 30
0.0
 10
4.2354735821
 20
4.4544590304
 30
0.0
 10
4.2265112398
 20
4.4521695556
 30
0.0
 10
4.2178893139
 20
4.4492574183
 30
0.0
 10
4.2096863853
 20
4.4457458378
 30
0.0
 10
4.2019773373
 20
4.4416618592
 30
0.0
 10
4.1948336152
 20
4.4370355212
 30
0.0
 10
4.1883220649
 20
4.4319017508
 30
0.0
 10
4.1825074977
 20
4.4262970867
 30
0.0
 10
4.1774503855
 20
4.4202654395
 30
0.0
 10
4.1738968438
 20
4.4148914473
 30
0.0
 10
4.171500613
 20
4.4104370797
 30
0.0
 10
4.1694249771
 20
4.4059296435
 30
0.0
 10
4.1677930349
 20
4.4012692396
 30
0.0
 10
4.1666430568
 20
4.3965141439
 30
0.0
 10
4.1660262876
 20
4.392923731
 30
0.0
 10
4.1656546893
 20
4.3893105749
 30
0.0
 10
4.1655716976
 20
4.3868928669
 30
0.0
 10
4.1655716976
 20
4.3856851841
 30
0.0
  0
SPLINE
  5
370
100
AcDbEntity
  8
ALL_ASSEMBLY_MEMBERS
100
AcDbSpline
 62
7
  6
CONTINUOUS
 70
0
 71
3
 72
39
 73
35
 74
0
 42
0.0000001
 43
0.0000001
 44
0.0000000001
 40
0.0
 40
0.0
 40
0.0
 40
0.0
 40
0.0272117338
 40
0.049311968
 40
0.058484327
 40
0.0664241735
 40
0.0731453085
 40
0.0786608754
 40
0.0829850132
 40
0.0861410757
 40
0.0881555626
 40
0.089054557
 40
0.0905015769
 40
0.0927975986
 40
0.0961097307
 40
0.1004144505
 40
0.1056888139
 40
0.1119104836
 40
0.1190577579
 40
0.1360378678
 40
0.156429262
 40
0.1800289759
 40
0.2066395404
 40
0.2360697795
 40
0.2681356131
 40
0.3026593081
 40
0.33945674
 40
0.419115795
 40
0.5056426688
 40
0.5976216763
 40
0.6938816407
 40
0.79356981
 40
0.8958721995
 40
1.0
 40
1.0
 40
1.0
 40
1.0
 10
4.3221940047
 20
4.4684894931
 30
0.0
 10
4.3223107804
 20
4.4685960978
 30
0.0
 10
4.3225201919
 20
4.4687917125
 30
0.0
 10
4.3227626192
 20
4.4690299432
 30
0.0
 10
4.3229218614
 20
4.4691928724
 30
0.0
 10
4.3230174464
 20
4.4692931855
 30
0.0
 10
4.3230971448
 20
4.4693788899
 30
0.0
 10
4.323162186
 20
4.469450592
 30
0.0
 10
4.3232113999
 20
4.46950588
 30
0.0
 10
4.3232498077
 20
4.4695502323
 30
0.0
 10
4.3232684719
 20
4.4695718212
 30
0.0
 10
4.3232926141
 20
4.4696009787
 30
0.0
 10
4.3232623624
 20
4.4695622079
 30
0.0
 10
4.3232446428
 20
4.4695382659
 30
0.0
 10
4.3232073606
 20
4.4694879154
 30
0.0
 10
4.3231649653
 20
4.4694286033
 30
0.0
 10
4.3231120121
 20
4.4693527088
 30
0.0
 10
4.3230514392
 20
4.4692631915
 30
0.0
 10
4.3229545917
 20
4.4691156853
 30
0.0
 10
4.3228175705
 20
4.468896305
 30
0.0
 10
4.3226376131
 20
4.4685910613
 30
0.0
 10
4.3224381722
 20
4.4682325232
 30
0.0
 10
4.322223403
 20
4.4678225585
 30
0.0
 10
4.3219975152
 20
4.4673630681
 30
0.0
 10
4.3217646656
 20
4.4668559679
 30
0.0
 10
4.3215292046
 20
4.4663032062
 30
0.0
 10
4.321207015
 20
4.4654871279
 30
0.0
 10
4.3208170403
 20
4.4643734215
 30
0.0
 10
4.3203921182
 20
4.4629341119
 30
0.0
 10
4.3200202645
 20
4.4613806576
 30
0.0
 10
4.3197188191
 20
4.4597342134
 30
0.0
 10
4.3194942222
 20
4.4580150437
 30
0.0
 10
4.3193540136
 20
4.4562410927
 30
0.0
 10
4.3193216976
 20
4.4550413692
 30
0.0
 10
4.3193216976
 20
4.4544363205
 30
0.0
  0
SPLINE
  5
371
100
AcDbEntity
  8
ALL_ASSEMBLY_MEMBERS
100
AcDbSpline
 62
7
  6
CONTINUOUS
 70
0
 71
3
 72
19
 73
15
 74
0
 42
0.0000001
 43
0.0000001
 44
0.0000000001
 40
0.0
 40
0.0
 40
0.0
 40
0.0
 40
0.1169997193
 40
0.1473654263
 40
0.1781204123
 40
0.2406801544
 40
0.3690703479
 40
0.5
 40
0.6309296521
 40
0.7593198456
 40
0.8218795877
 40
0.8526345737
 40
0.8830002807
 40
1.0
 40
1.0
 40
1.0
 40
1.0
 10
4.203676802
 20
4.4136661365
 30
0.0
 10
4.2076896692
 20
4.4165590021
 30
0.0
 10
4.2131108836
 20
4.4197213488
 30
0.0
 10
4.219967023
 20
4.4228361782
 30
0.0
 10
4.2248133777
 20
4.4248054104
 30
0.0
 10
4.2337013763
 20
4.4278112541
 30
0.0
 10
4.247058739
 20
4.4306845288
 30
0.0
 10
4.2635716976
 20
4.4318368293
 30
0.0
 10
4.2800846561
 20
4.4306845288
 30
0.0
 10
4.2934420188
 20
4.4278112541
 30
0.0
 10
4.3023300175
 20
4.4248054104
 30
0.0
 10
4.3071763721
 20
4.4228361782
 30
0.0
 10
4.3140325116
 20
4.4197213488
 30
0.0
 10
4.3194537259
 20
4.4165590021
 30
0.0
 10
4.3234665931
 20
4.4136661365
 30
0.0
  0
SPLINE
  5
372
100
AcDbEntity
  8
ALL_ASSEMBLY_MEMBERS
100
AcDbSpline
 62
7
  6
CONTINUOUS
 70
0
 71
3
 72
33
 73
29
 74
0
 42
0.0000001
 43
0.0000001
 44
0.0000000001
 40
0.0
 40
0.0
 40
0.0
 40
0.0
 40
0.0257445882
 40
0.0520110357
 40
0.0789446109
 40
0.1066531963
 40
0.1352112826
 40
0.1646632701
 40
0.195024454
 40
0.2262825013
 40
0.2912693794
 40
0.3249030803
 40
0.3591607808
 40
0.4290637467
 40
0.5000328945
 40
0.5710002731
 40
0.6408980679
 40
0.6751520336
 40
0.7087813235
 40
0.773757753
 40
0.8050100406
 40
0.8353652827
 40
0.8648113495
 40
0.8933636979
 40
0.9210669453
 40
0.9479957592
 40
0.9742582928
 40
1.0
 40
1.0
 40
1.0
 40
1.0
 10
4.1744808997
 20
4.3920630166
 30
0.0
 10
4.1749385719
 20
4.3939119579
 30
0.0
 10
4.1760914889
 20
4.397594458
 30
0.0
 10
4.1784748171
 20
4.4029398915
 30
0.0
 10
4.1815086891
 20
4.4081139235
 30
0.0
 10
4.1851666238
 20
4.4130780005
 30
0.0
 10
4.1894214561
 20
4.4177940617
 30
0.0
 10
4.1942390201
 20
4.422227378
 30
0.0
 10
4.1995831036
 20
4.4263449751
 30
0.0
 10
4.207454767
 20
4.4314376513
 30
0.0
 10
4.2161181897
 20
4.4356911675
 30
0.0
 10
4.2253507936
 20
4.4390843749
 30
0.0
 10
4.2351429385
 20
4.4419471178
 30
0.0
 10
4.2479147137
 20
4.444347986
 30
0.0
 10
4.2635974664
 20
4.4453083009
 30
0.0
 10
4.2792794522
 20
4.444341699
 30
0.0
 10
4.2920494626
 20
4.4419356748
 30
0.0
 10
4.3018394207
 20
4.4390689551
 30
0.0
 10
4.3110692002
 20
4.4356720491
 30
0.0
 10
4.3197292277
 20
4.4314150383
 30
0.0
 10
4.3275968638
 20
4.4263191458
 30
0.0
 10
4.332937629
 20
4.4221993723
 30
0.0
 10
4.3377516348
 20
4.4177641058
 30
0.0
 10
4.3420026615
 20
4.4130462986
 30
0.0
 10
4.345656606
 20
4.408080731
 30
0.0
 10
4.3486862987
 20
4.4029054445
 30
0.0
 10
4.3510653154
 20
4.3975590204
 30
0.0
 10
4.3522152264
 20
4.3938761032
 30
0.0
 10
4.3526713933
 20
4.3920270095
 30
0.0
  0
SPLINE
  5
373
100
AcDbEntity
  8
ALL_ASSEMBLY_MEMBERS
100
AcDbSpline
 62
7
  6
CONTINUOUS
 70
0
 71
3
 72
19
 73
15
 74
0
 42
0.0000001
 43
0.0000001
 44
0.0000000001
 40
0.0
 40
0.0
 40
0.0
 40
0.0
 40
0.1180388679
 40
0.1793382655
 40
0.2418920375
 40
0.3054852441
 40
0.369878314
 40
0.4999591332
 40
0.6300466107
 40
0.6944479446
 40
0.75805237
 40
0.8206192856
 40
0.8819329515
 40
1.0
 40
1.0
 40
1.0
 40
1.0
 10
4.197822033
 20
4.5768402793
 30
0.0
 10
4.2023933896
 20
4.579764766
 30
0.0
 10
4.2097333438
 20
4.583618875
 30
0.0
 10
4.2200969051
 20
4.5876674671
 30
0.0
 10
4.2283360321
 20
4.5902210979
 30
0.0
 10
4.2368694954
 20
4.5922302334
 30
0.0
 10
4.248582543
 20
4.5941668099
 30
0.0
 10
4.2635174848
 20
4.5951376689
 30
0.0
 10
4.2784535549
 20
4.5941784776
 30
0.0
 10
4.2901693275
 20
4.5922510714
 30
0.0
 10
4.298705911
 20
4.5902486701
 30
0.0
 10
4.3069488905
 20
4.5877014967
 30
0.0
 10
4.3173184296
 20
4.5836612189
 30
0.0
 10
4.3246638081
 20
4.5798133432
 30
0.0
 10
4.3292392128
 20
4.5768927851
 30
0.0
  0
SPLINE
  5
374
100
AcDbEntity
  8
ALL_ASSEMBLY_MEMBERS
100
AcDbSpline
 62
7
  6
CONTINUOUS
 70
0
 71
3
 72
33
 73
29
 74
0
 42
0.0000001
 43
0.0000001
 44
0.0000000001
 40
0.0
 40
0.0
 40
0.0
 40
0.0
 40
0.0247995211
 40
0.0497303434
 40
0.0749151852
 40
0.1004702689
 40
0.1264980539
 40
0.1530866963
 40
0.1803079117
 40
0.2082163123
 40
0.236847902
 40
0.2662223507
 40
0.3271550002
 40
0.3587080033
 40
0.390925637
 40
0.4237584325
 40
0.4571456795
 40
0.4910198116
 40
0.5253046292
 40
0.5599191444
 40
0.5947778292
 40
0.6648475749
 40
0.7348071747
 40
0.8039332776
 40
0.8715465962
 40
0.9046084741
 40
0.9370776984
 40
1.0
 40
1.0
 40
1.0
 40
1.0
 10
4.1702327296
 20
4.5176198289
 30
0.0
 10
4.1702327296
 20
4.5192119939
 30
0.0
 10
4.170396624
 20
4.5224071406
 30
0.0
 10
4.1711320897
 20
4.5271681649
 30
0.0
 10
4.1723533834
 20
4.5318786781
 30
0.0
 10
4.1740534323
 20
4.5365128922
 30
0.0
 10
4.1762230179
 20
4.5410464521
 30
0.0
 10
4.1788501959
 20
4.5454555312
 30
0.0
 10
4.1819206423
 20
4.5497174301
 30
0.0
 10
4.1854183604
 20
4.5538097087
 30
0.0
 10
4.1893245735
 20
4.5577120246
 30
0.0
 10
4.1951197007
 20
4.5626931334
 30
0.0
 10
4.2015904561
 20
4.5671416957
 30
0.0
 10
4.2085941204
 20
4.571027739
 30
0.0
 10
4.2141966543
 20
4.573697866
 30
0.0
 10
4.220056592
 20
4.5760738867
 30
0.0
 10
4.2261435886
 20
4.5781447955
 30
0.0
 10
4.2324261036
 20
4.5798984805
 30
0.0
 10
4.2388709526
 20
4.5813272379
 30
0.0
 10
4.2454449711
 20
4.582422429
 30
0.0
 10
4.2543499742
 20
4.5834330509
 30
0.0
 10
4.2655922854
 20
4.5838343751
 30
0.0
 10
4.2790139098
 20
4.5829434375
 30
0.0
 10
4.2921172798
 20
4.5806990767
 30
0.0
 10
4.3026275115
 20
4.5777157321
 30
0.0
 10
4.3106258052
 20
4.5746866743
 30
0.0
 10
4.3181567346
 20
4.5713184752
 30
0.0
 10
4.323518175
 20
4.5683139759
 30
0.0
 10
4.3269004433
 20
4.5661050268
 30
0.0
  0
SPLINE
  5
375
100
AcDbEntity
  8
ALL_ASSEMBLY_MEMBERS
100
AcDbSpline
 62
7
  6
CONTINUOUS
 70
0
 71
3
 72
20
 73
16
 74
0
 42
0.0000001
 43
0.0000001
 44
0.0000000001
 40
0.0
 40
0.0
 40
0.0
 40
0.0
 40
0.1396838166
 40
0.2077141813
 40
0.2745186642
 40
0.4044714854
 40
0.5298756444
 40
0.5910574287
 40
0.6513178572
 40
0.7107578909
 40
0.7694913899
 40
0.8276433504
 40
0.8853484779
 40
0.942752685
 40
1.0
 40
1.0
 40
1.0
 40
1.0
 10
4.3269004433
 20
4.5661050268
 30
0.0
 10
4.3292178236
 20
4.5645915528
 30
0.0
 10
4.3325626178
 20
4.5621781527
 30
0.0
 10
4.3367183095
 20
4.5586653186
 30
0.0
 10
4.3405430371
 20
4.5550705762
 30
0.0
 10
4.3448351287
 20
4.5503262875
 30
0.0
 10
4.3484790367
 20
4.5452004683
 30
0.0
 10
4.3509233859
 20
4.5409604432
 30
0.0
 10
4.3525097288
 20
4.5377434677
 30
0.0
 10
4.3538593433
 20
4.5344726354
 30
0.0
 10
4.3549686688
 20
4.531156586
 30
0.0
 10
4.3558346465
 20
4.5278042593
 30
0.0
 10
4.3564548906
 20
4.5244245515
 30
0.0
 10
4.3568277013
 20
4.5210268591
 30
0.0
 10
4.3569106655
 20
4.5187541804
 30
0.0
 10
4.3569106655
 20
4.5176198289
 30
0.0
  0
SPLINE
  5
376
100
AcDbEntity
  8
ALL_ASSEMBLY_MEMBERS
100
AcDbSpline
 62
7
  6
CONTINUOUS
 70
0
 71
3
 72
19
 73
15
 74
0
 42
0.0000001
 43
0.0000001
 44
0.0000000001
 40
0.0
 40
0.0
 40
0.0
 40
0.0
 40
0.0567514144
 40
0.113681133
 40
0.1709466249
 40
0.2287112709
 40
0.287124685
 40
0.3463233434
 40
0.4064295478
 40
0.467550961
 40
0.593118707
 40
0.723607556
 40
0.8592481185
 40
1.0
 40
1.0
 40
1.0
 40
1.0
 10
4.3569106655
 20
4.5176198289
 30
0.0
 10
4.3569106655
 20
4.5164132739
 30
0.0
 10
4.3568167507
 20
4.5139953309
 30
0.0
 10
4.3563948819
 20
4.5103820647
 30
0.0
 10
4.3556931859
 20
4.5067904509
 30
0.0
 10
4.3547137614
 20
4.5032318706
 30
0.0
 10
4.3534599073
 20
4.4997168958
 30
0.0
 10
4.3519351833
 20
4.4962563776
 30
0.0
 10
4.3501445689
 20
4.4928604597
 30
0.0
 10
4.3473854499
 20
4.4883935217
 30
0.0
 10
4.3432776158
 20
4.4830206656
 30
0.0
 10
4.3374391701
 20
4.4770564382
 30
0.0
 10
4.3307180151
 20
4.4715845658
 30
0.0
 10
4.3257893801
 20
4.4683635277
 30
0.0
 10
4.3232090178
 20
4.4668481418
 30
0.0
  0
SPLINE
  5
377
100
AcDbEntity
  8
ALL_ASSEMBLY_MEMBERS
100
AcDbSpline
 62
7
  6
CONTINUOUS
 70
0
 71
3
 72
20
 73
16
 74
0
 42
0.0000001
 43
0.0000001
 44
0.0000000001
 40
0.0
 40
0.0
 40
0.0
 40
0.0
 40
0.1404601434
 40
0.2088229176
 40
0.2759088856
 40
0.4062420652
 40
0.5317566431
 40
0.5928908839
 40
0.6530365599
 40
0.7122987558
 40
0.770798074
 40
0.8286680088
 40
0.8860534099
 40
0.9431116174
 40
1.0
 40
1.0
 40
1.0
 40
1.0
 10
4.2029046197
 20
4.4674617784
 30
0.0
 10
4.2003971492
 20
4.4689781038
 30
0.0
 10
4.1967725887
 20
4.4714124102
 30
0.0
 10
4.1922585435
 20
4.4749873192
 30
0.0
 10
4.1881018536
 20
4.4786605521
 30
0.0
 10
4.1834298414
 20
4.4835361684
 30
0.0
 10
4.1794518247
 20
4.4888424548
 30
0.0
 10
4.1767809137
 20
4.4932479864
 30
0.0
 10
4.1750473343
 20
4.4965952105
 30
0.0
 10
4.1735717274
 20
4.5000041027
 30
0.0
 10
4.1723582272
 20
4.5034647452
 30
0.0
 10
4.1714106321
 20
4.5069669825
 30
0.0
 10
4.170731713
 20
4.5105005976
 30
0.0
 10
4.1703235681
 20
4.5140548539
 30
0.0
 10
4.1702327296
 20
4.5164330157
 30
0.0
 10
4.1702327296
 20
4.5176198289
 30
0.0
  0
SPLINE
  5
378
100
AcDbEntity
  8
ALL_ASSEMBLY_MEMBERS
100
AcDbSpline
 62
7
  6
CONTINUOUS
 70
0
 71
3
 72
39
 73
35
 74
0
 42
0.0000001
 43
0.0000001
 44
0.0000000001
 40
0.0
 40
0.0
 40
0.0
 40
0.0
 40
0.0256712488
 40
0.0517602471
 40
0.0784477313
 40
0.1058841757
 40
0.1341758209
 40
0.1633940248
 40
0.1935740357
 40
0.2247175079
 40
0.2567939869
 40
0.2897457518
 40
0.3234911308
 40
0.3579279116
 40
0.3929375603
 40
0.4283879052
 40
0.4641374183
 40
0.5000377541
 40
0.5359375409
 40
0.5716854088
 40
0.6071330585
 40
0.6421390081
 40
0.6765711849
 40
0.7103111448
 40
0.7432568312
 40
0.7753267095
 40
0.8064632707
 40
0.8366362488
 40
0.8658475647
 40
0.8941327002
 40
0.9215632836
 40
0.9482458269
 40
0.9743311244
 40
1.0
 40
1.0
 40
1.0
 40
1.0
 10
4.1694870629
 20
4.3876189414
 30
0.0
 10
4.1697744206
 20
4.38967091
 30
0.0
 10
4.1706231058
 20
4.3937752699
 30
0.0
 10
4.1726810709
 20
4.3997794279
 30
0.0
 10
4.1755100145
 20
4.4056197825
 30
0.0
 10
4.1790845499
 20
4.4112460067
 30
0.0
 10
4.1833722167
 20
4.4166122325
 30
0.0
 10
4.1883363067
 20
4.4216731288
 30
0.0
 10
4.1939336066
 20
4.4263875381
 30
0.0
 10
4.2001166227
 20
4.4307167011
 30
0.0
 10
4.2068332587
 20
4.4346247393
 30
0.0
 10
4.2140266772
 20
4.4380799013
 30
0.0
 10
4.2216367403
 20
4.4410528023
 30
0.0
 10
4.229599109
 20
4.4435198654
 30
0.0
 10
4.2378472603
 20
4.4454592289
 30
0.0
 10
4.2463115374
 20
4.4468562878
 30
0.0
 10
4.2549210495
 20
4.447697667
 30
0.0
 10
4.2636032453
 20
4.4479781753
 30
0.0
 10
4.2722851755
 20
4.4476935767
 30
0.0
 10
4.2808938941
 20
4.4468481371
 30
0.0
 10
4.2893568566
 20
4.4454470944
 30
0.0
 10
4.2976031811
 20
4.4435038361
 30
0.0
 10
4.3055632315
 20
4.4410330268
 30
0.0
 10
4.3131704956
 20
4.4380565264
 30
0.0
 10
4.3203606708
 20
4.4345979781
 30
0.0
 10
4.3270736281
 20
4.430686754
 30
0.0
 10
4.3332525831
 20
4.4263546733
 30
0.0
 10
4.3388454445
 20
4.4216375957
 30
0.0
 10
4.3438047853
 20
4.4165743417
 30
0.0
 10
4.3480873911
 20
4.4112060532
 30
0.0
 10
4.351656637
 20
4.4055781158
 30
0.0
 10
4.3544800607
 20
4.3997363808
 30
0.0
 10
4.3565323524
 20
4.3937312129
 30
0.0
 10
4.3573771192
 20
4.3896265422
 30
0.0
 10
4.3576625352
 20
4.387574496
 30
0.0
  0
SPLINE
  5
379
100
AcDbEntity
  8
ALL_ASSEMBLY_MEMBERS
100
AcDbSpline
 62
7
  6
CONTINUOUS
 70
0
 71
3
 72
25
 73
21
 74
0
 42
0.0000001
 43
0.0000001
 44
0.0000000001
 40
0.0
 40
0.0
 40
0.0
 40
0.0
 40
0.0576243491
 40
0.1170481843
 40
0.1781213781
 40
0.2092227007
 40
0.2406578981
 40
0.3043920894
 40
0.3690623402
 40
0.4343698138
 40
0.5
 40
0.5656301862
 40
0.6309376598
 40
0.6956079106
 40
0.7593421019
 40
0.7907772993
 40
0.8218786219
 40
0.8829518157
 40
0.9423756509
 40
1.0
 40
1.0
 40
1.0
 40
1.0
 10
4.1831584778
 20
4.3988727901
 30
0.0
 10
4.1858133706
 20
4.4007868527
 30
0.0
 10
4.1913948015
 20
4.4044188898
 30
0.0
 10
4.2003385984
 20
4.4091718516
 30
0.0
 10
4.208260814
 20
4.4125713654
 30
0.0
 10
4.2148663501
 20
4.4149542622
 30
0.0
 10
4.2217032198
 20
4.4171258853
 30
0.0
 10
4.2305076609
 20
4.419377254
 30
0.0
 10
4.2413471675
 20
4.4213172199
 30
0.0
 10
4.2524048031
 20
4.4224882659
 30
0.0
 10
4.2635716976
 20
4.4228805206
 30
0.0
 10
4.2747385921
 20
4.4224882659
 30
0.0
 10
4.2857962276
 20
4.4213172199
 30
0.0
 10
4.2966357343
 20
4.419377254
 30
0.0
 10
4.3054401753
 20
4.4171258853
 30
0.0
 10
4.312277045
 20
4.4149542622
 30
0.0
 10
4.3188825812
 20
4.4125713654
 30
0.0
 10
4.3268047968
 20
4.4091718516
 30
0.0
 10
4.3357485937
 20
4.4044188898
 30
0.0
 10
4.3413300246
 20
4.4007868527
 30
0.0
 10
4.3439849173
 20
4.3988727901
 30
0.0
  0
SPLINE
  5
37A
100
AcDbEntity
  8
ALL_ASSEMBLY_MEMBERS
100
AcDbSpline
 62
7
  6
CONTINUOUS
 70
0
 71
3
 72
22
 73
18
 74
0
 42
0.0000001
 43
0.0000001
 44
0.0000000001
 40
0.0
 40
0.0
 40
0.0
 40
0.0
 40
0.0676411571
 40
0.1344463504
 40
0.2004120926
 40
0.2655482976
 40
0.3933787739
 40
0.4562075373
 40
0.518367224
 40
0.5799199858
 40
0.6409327861
 40
0.7014907302
 40
0.7616627391
 40
0.8215092505
 40
0.8811092721
 40
0.9405674135
 40
1.0
 40
1.0
 40
1.0
 40
1.0
 10
4.2058528602
 20
4.9452246745
 30
0.0
 10
4.2043524176
 20
4.9444082954
 30
0.0
 10
4.2014104977
 20
4.9427098379
 30
0.0
 10
4.197164918
 20
4.9399508347
 30
0.0
 10
4.1931266383
 20
4.9370015062
 30
0.0
 10
4.1880701943
 20
4.9328516788
 30
0.0
 10
4.1834405044
 20
4.9283194221
 30
0.0
 10
4.1793211649
 20
4.9234369793
 30
0.0
 10
4.1765236828
 20
4.919642248
 30
0.0
 10
4.1740146285
 20
4.9157052368
 30
0.0
 10
4.1718063207
 20
4.9116376356
 30
0.0
 10
4.1699128696
 20
4.9074522894
 30
0.0
 10
4.1683450537
 20
4.9031655937
 30
0.0
 10
4.1671124775
 20
4.8987957125
 30
0.0
 10
4.1662261297
 20
4.8943608284
 30
0.0
 10
4.1656912867
 20
4.8898807499
 30
0.0
 10
4.1655716976
 20
4.8868770262
 30
0.0
 10
4.1655716976
 20
4.8853761614
 30
0.0
  0
SPLINE
  5
37B
100
AcDbEntity
  8
ALL_ASSEMBLY_MEMBERS
100
AcDbSpline
 62
7
  6
CONTINUOUS
 70
0
 71
3
 72
18
 73
14
 74
0
 42
0.0000001
 43
0.0000001
 44
0.0000000001
 40
0.0
 40
0.0
 40
0.0
 40
0.0
 40
0.0596697824
 40
0.119357651
 40
0.1791727972
 40
0.2392147358
 40
0.3601861266
 40
0.4828543503
 40
0.5450357803
 40
0.6078365305
 40
0.7354657551
 40
0.866130385
 40
1.0
 40
1.0
 40
1.0
 40
1.0
 10
4.3615716976
 20
4.8853761614
 30
0.0
 10
4.3615716976
 20
4.8868135738
 30
0.0
 10
4.3614620407
 20
4.88969003
 30
0.0
 10
4.3609714221
 20
4.8939821005
 30
0.0
 10
4.3601581305
 20
4.8982344253
 30
0.0
 10
4.3586459919
 20
4.9038399357
 30
0.0
 10
4.3559706424
 20
4.9106777104
 30
0.0
 10
4.352342818
 20
4.9171168067
 30
0.0
 10
4.3489180398
 20
4.9220058091
 30
0.0
 10
4.3451143651
 20
4.9267604389
 30
0.0
 10
4.33973065
 20
4.9323423625
 30
0.0
 10
4.3324245459
 20
4.9383593013
 30
0.0
 10
4.3270915391
 20
4.9418718352
 30
0.0
 10
4.3243142778
 20
4.9435108749
 30
0.0
  0
SPLINE
  5
37C
100
AcDbEntity
  8
ALL_ASSEMBLY_MEMBERS
100
AcDbSpline
 62
7
  6
CONTINUOUS
 70
0
 71
3
 72
26
 73
22
 74
0
 42
0.0000001
 43
0.0000001
 44
0.0000000001
 40
0.0
 40
0.0
 40
0.0
 40
0.0
 40
0.0270680406
 40
0.054157816
 40
0.0813112519
 40
0.1085683037
 40
0.1635269286
 40
0.1913381248
 40
0.2194066402
 40
0.2764260167
 40
0.3348418115
 40
0.394822833
 40
0.4564700968
 40
0.519812714
 40
0.5848114986
 40
0.6513601877
 40
0.7192931799
 40
0.7883877643
 40
0.858401454
 40
0.9290667365
 40
1.0
 40
1.0
 40
1.0
 40
1.0
 10
4.1656047212
 20
5.0270141158
 30
0.0
 10
4.1655613778
 20
5.0257882665
 30
0.0
 10
4.1655601631
 20
5.0233316921
 30
0.0
 10
4.1658145688
 20
5.01965302
 30
0.0
 10
4.1663230169
 20
5.0159917872
 30
0.0
 10
4.1673395172
 20
5.0111378937
 30
0.0
 10
4.1688589581
 20
5.0063706673
 30
0.0
 10
4.1708420897
 20
5.0017531934
 30
0.0
 10
4.1731572333
 20
4.9971873451
 30
0.0
 10
4.1766345428
 20
4.9916718346
 30
0.0
 10
4.181637518
 20
4.9854734832
 30
0.0
 10
4.1874327652
 20
4.9797088317
 30
0.0
 10
4.1939567774
 20
4.9744244925
 30
0.0
 10
4.2011420051
 20
4.9696593077
 30
0.0
 10
4.2089189314
 20
4.9654505449
 30
0.0
 10
4.2172129045
 20
4.9618297901
 30
0.0
 10
4.2259455911
 20
4.958826289
 30
0.0
 10
4.2350346952
 20
4.9564635587
 30
0.0
 10
4.244395952
 20
4.9547612049
 30
0.0
 10
4.2539382696
 20
4.9537352812
 30
0.0
 10
4.2603572857
 20
4.9535059509
 30
0.0
 10
4.2635716976
 20
4.9535059509
 30
0.0
  0
SPLINE
  5
37D
100
AcDbEntity
  8
ALL_ASSEMBLY_MEMBERS
100
AcDbSpline
 62
7
  6
CONTINUOUS
 70
0
 71
3
 72
44
 73
40
 74
0
 42
0.0000001
 43
0.0000001
 44
0.0000000001
 40
0.0
 40
0.0
 40
0.0
 40
0.0
 40
0.0005533916
 40
0.0008314054
 40
0.000868141
 40
0.000899154
 40
0.0009974475
 40
0.0011626655
 40
0.0016924003
 40
0.0024854454
 40
0.0035389446
 40
0.0048496603
 40
0.0064134377
 40
0.0082260264
 40
0.0125807624
 40
0.0178805434
 40
0.024092597
 40
0.0311847734
 40
0.03912559
 40
0.0478842773
 40
0.057430828
 40
0.0787708372
 40
0.1029183174
 40
0.1296404802
 40
0.1587067888
 40
0.1898927025
 40
0.2229811175
 40
0.2577640403
 40
0.2940465489
 40
0.370349269
 40
0.4504136249
 40
0.4914122234
 40
0.5328230924
 40
0.6162072258
 40
0.6992290771
 40
0.780527574
 40
0.8587411364
 40
0.9324146845
 40
1.0
 40
1.0
 40
1.0
 40
1.0
 10
4.2038725121
 20
4.9412552616
 30
0.0
 10
4.2038693693
 20
4.9412514482
 30
0.0
 10
4.203863944
 20
4.9412447149
 30
0.0
 10
4.203860622
 20
4.941240723
 30
0.0
 10
4.203857629
 20
4.9412367754
 30
0.0
 10
4.2038591122
 20
4.9412385149
 30
0.0
 10
4.2038603481
 20
4.9412401034
 30
0.0
 10
4.2038650837
 20
4.9412460444
 30
0.0
 10
4.2038729213
 20
4.9412562372
 30
0.0
 10
4.2038858791
 20
4.9412733231
 30
0.0
 10
4.20390261
 20
4.9412959023
 30
0.0
 10
4.2039232593
 20
4.9413242987
 30
0.0
 10
4.2039475818
 20
4.9413583468
 30
0.0
 10
4.2039872724
 20
4.9414148404
 30
0.0
 10
4.204045131
 20
4.9414993275
 30
0.0
 10
4.2041234801
 20
4.9416173854
 30
0.0
 10
4.2042133075
 20
4.941757142
 30
0.0
 10
4.2043135033
 20
4.9419182464
 30
0.0
 10
4.2044229548
 20
4.9421003469
 30
0.0
 10
4.20454055
 20
4.9423030928
 30
0.0
 10
4.2047132476
 20
4.9426121506
 30
0.0
 10
4.2049418806
 20
4.9430472888
 30
0.0
 10
4.2052219815
 20
4.9436282202
 30
0.0
 10
4.205511354
 20
4.9442808717
 30
0.0
 10
4.20580383
 20
4.9450004941
 30
0.0
 10
4.2060933348
 20
4.9457822587
 30
0.0
 10
4.2063738586
 20
4.9466213221
 30
0.0
 10
4.2066390483
 20
4.9475129749
 30
0.0
 10
4.2069718071
 20
4.9487863824
 30
0.0
 10
4.2073257889
 20
4.9504711218
 30
0.0
 10
4.2075801971
 20
4.9522163612
 30
0.0
 10
4.2077196438
 20
4.9536607396
 30
0.0
 10
4.2078119207
 20
4.9551386015
 30
0.0
 10
4.2078371533
 20
4.9569955479
 30
0.0
 10
4.2077291011
 20
4.9592062464
 30
0.0
 10
4.2074854919
 20
4.9613598872
 30
0.0
 10
4.2071123451
 20
4.9634100182
 30
0.0
 10
4.2066411479
 20
4.9653135545
 30
0.0
 10
4.2062622545
 20
4.9665178072
 30
0.0
 10
4.2060609425
 20
4.9670867629
 30
0.0
  0
SPLINE
  5
37E
100
AcDbEntity
  8
ALL_ASSEMBLY_MEMBERS
100
AcDbSpline
 62
7
  6
CONTINUOUS
 70
0
 71
3
 72
23
 73
19
 74
0
 42
0.0000001
 43
0.0000001
 44
0.0000000001
 40
0.0
 40
0.0
 40
0.0
 40
0.0
 40
0.0618976863
 40
0.1289845603
 40
0.2001110382
 40
0.2741549112
 40
0.3119358934
 40
0.3500476928
 40
0.4267514878
 40
0.5032508775
 40
0.5785105954
 40
0.7210841498
 40
0.7862285258
 40
0.845673591
 40
0.8981748262
 40
0.9423727173
 40
0.9768037363
 40
1.0
 40
1.0
 40
1.0
 40
1.0
 10
4.3210832742
 20
4.9670866787
 30
0.0
 10
4.320900251
 20
4.9665720841
 30
0.0
 10
4.3205517579
 20
4.965487752
 30
0.0
 10
4.320114992
 20
4.9637758505
 30
0.0
 10
4.319755793
 20
4.96193671
 30
0.0
 10
4.3195370312
 20
4.9603362664
 30
0.0
 10
4.3194163251
 20
4.9590185924
 30
0.0
 10
4.3193347941
 20
4.9576743957
 30
0.0
 10
4.3193073118
 20
4.9559854812
 30
0.0
 10
4.3193894155
 20
4.9539701146
 30
0.0
 10
4.3196438291
 20
4.9513843026
 30
0.0
 10
4.3201111036
 20
4.9489243965
 30
0.0
 10
4.3207490625
 20
4.9466540179
 30
0.0
 10
4.3212591228
 20
4.9451759007
 30
0.0
 10
4.3217880288
 20
4.943902805
 30
0.0
 10
4.3222913411
 20
4.9428603103
 30
0.0
 10
4.3227262245
 20
4.9420734843
 30
0.0
 10
4.3229996256
 20
4.9416443075
 30
0.0
 10
4.3231156825
 20
4.9414757121
 30
0.0
  0
SPLINE
  5
37F
100
AcDbEntity
  8
ALL_ASSEMBLY_MEMBERS
100
AcDbSpline
 62
7
  6
CONTINUOUS
 70
0
 71
3
 72
26
 73
22
 74
0
 42
0.0000001
 43
0.0000001
 44
0.0000000001
 40
0.0
 40
0.0
 40
0.0
 40
0.0
 40
0.0709361275
 40
0.1416038494
 40
0.2116194582
 40
0.2807156171
 40
0.3486496687
 40
0.4151987665
 40
0.4801974965
 40
0.5435396359
 40
0.6051860803
 40
0.6651659623
 40
0.6945709164
 40
0.7236041401
 40
0.7806224442
 40
0.808690969
 40
0.8365020279
 40
0.891460508
 40
0.9458404772
 40
0.9729308415
 40
1.0
 40
1.0
 40
1.0
 40
1.0
 10
4.2635716976
 20
4.9535059509
 30
0.0
 10
4.266786582
 20
4.9535059509
 30
0.0
 10
4.273206524
 20
4.9537353466
 30
0.0
 10
4.2827501711
 20
4.9547615662
 30
0.0
 10
4.2921126499
 20
4.9564643922
 30
0.0
 10
4.3012028351
 20
4.9588277765
 30
0.0
 10
4.3099364436
 20
4.9618320549
 30
0.0
 10
4.318231134
 20
4.9654537665
 30
0.0
 10
4.3260085491
 20
4.9696635459
 30
0.0
 10
4.3331941149
 20
4.9744299658
 30
0.0
 10
4.3397179085
 20
4.97971524
 30
0.0
 10
4.3445798522
 20
4.9845530602
 30
0.0
 10
4.3480620699
 20
4.988640183
 30
0.0
 10
4.3512266732
 20
4.9928099516
 30
0.0
 10
4.3539923784
 20
4.9971978845
 30
0.0
 10
4.3563065432
 20
5.0017644948
 30
0.0
 10
4.3582890283
 20
5.0063832213
 30
0.0
 10
4.360181536
 20
5.0123240825
 30
0.0
 10
4.3612456613
 20
5.0184361764
 30
0.0
 10
4.3615838599
 20
5.0233467631
 30
0.0
 10
4.3615817815
 20
5.0258037713
 30
0.0
 10
4.3615380486
 20
5.0270297884
 30
0.0
  0
SPLINE
  5
380
100
AcDbEntity
  8
ALL_ASSEMBLY_MEMBERS
100
AcDbSpline
 62
7
  6
CONTINUOUS
 70
0
 71
3
 72
26
 73
22
 74
0
 42
0.0000001
 43
0.0000001
 44
0.0000000001
 40
0.0
 40
0.0
 40
0.0
 40
0.0
 40
0.0255896578
 40
0.0513436681
 40
0.0773111214
 40
0.1035373396
 40
0.1569075658
 40
0.2117697523
 40
0.2398404922
 40
0.2683600514
 40
0.3267847581
 40
0.3871334268
 40
0.449409257
 40
0.5135514079
 40
0.5794455639
 40
0.6469299323
 40
0.7157961774
 40
0.7858025087
 40
0.8567029936
 40
0.9282274894
 40
1.0
 40
1.0
 40
1.0
 40
1.0
 10
4.3576620704
 20
5.0232507736
 30
0.0
 10
4.3575196562
 20
5.0222277182
 30
0.0
 10
4.3571675385
 20
5.0201836638
 30
0.0
 10
4.3564421152
 20
5.0171464769
 30
0.0
 10
4.3555193379
 20
5.0141362633
 30
0.0
 10
4.3540211628
 20
5.010144843
 30
0.0
 10
4.3516532888
 20
5.0052460158
 30
0.0
 10
4.3486993414
 20
5.0005903132
 30
0.0
 10
4.3459907438
 20
4.996996136
 30
0.0
 10
4.3430044324
 20
4.9934390538
 30
0.0
 10
4.3388363334
 20
4.9891845559
 30
0.0
 10
4.3332414589
 20
4.9844674907
 30
0.0
 10
4.3270601382
 20
4.9801353217
 30
0.0
 10
4.3203448257
 20
4.9762243101
 30
0.0
 10
4.3131521589
 20
4.9727661526
 30
0.0
 10
4.3055423408
 20
4.9697904547
 30
0.0
 10
4.2975801013
 20
4.9673206893
 30
0.0
 10
4.28933169
 20
4.9653783467
 30
0.0
 10
4.2808654097
 20
4.9639786982
 30
0.0
 10
4.2722546686
 20
4.9631355078
 30
0.0
 10
4.2664687772
 20
4.9629468834
 30
0.0
 10
4.2635716976
 20
4.9629468834
 30
0.0
  0
SPLINE
  5
381
100
AcDbEntity
  8
ALL_ASSEMBLY_MEMBERS
100
AcDbSpline
 62
7
  6
CONTINUOUS
 70
0
 71
3
 72
14
 73
10
 74
0
 42
0.0000001
 43
0.0000001
 44
0.0000000001
 40
0.0
 40
0.0
 40
0.0
 40
0.0
 40
0.2339249847
 40
0.3561061634
 40
0.481187021
 40
0.6086735993
 40
0.7380524514
 40
0.8687585588
 40
1.0
 40
1.0
 40
1.0
 40
1.0
 10
4.2036768608
 20
4.9971646496
 30
0.0
 10
4.2076894312
 20
4.9942714296
 30
0.0
 10
4.2142390356
 20
4.9904512938
 30
0.0
 10
4.2235960712
 20
4.9864376045
 30
0.0
 10
4.2311115682
 20
4.983895078
 30
0.0
 10
4.2389437602
 20
4.9818921946
 30
0.0
 10
4.2470188243
 20
4.9804468105
 30
0.0
 10
4.2552548952
 20
4.9795754141
 30
0.0
 10
4.2607963066
 20
4.9793803338
 30
0.0
 10
4.2635716976
 20
4.9793803338
 30
0.0
  0
SPLINE
  5
382
100
AcDbEntity
  8
ALL_ASSEMBLY_MEMBERS
100
AcDbSpline
 62
7
  6
CONTINUOUS
 70
0
 71
3
 72
35
 73
31
 74
0
 42
0.0000001
 43
0.0000001
 44
0.0000000001
 40
0.0
 40
0.0
 40
0.0
 40
0.0
 40
0.0653258851
 40
0.0967682772
 40
0.1273852476
 40
0.1572027766
 40
0.1862687062
 40
0.2146510347
 40
0.2424404441
 40
0.2697457963
 40
0.296694818
 40
0.3234275219
 40
0.3500927824
 40
0.3768413024
 40
0.4038213698
 40
0.4311719203
 40
0.4590188654
 40
0.4874688759
 40
0.5166103366
 40
0.5465085182
 40
0.5772090688
 40
0.6087351764
 40
0.6410914961
 40
0.7081783315
 40
0.7428680826
 40
0.7782342183
 40
0.8506717117
 40
0.8876034576
 40
0.9248747115
 40
1.0
 40
1.0
 40
1.0
 40
1.0
 10
4.324210947
 20
4.9433857191
 30
0.0
 10
4.327690353
 20
4.9412830405
 30
0.0
 10
4.3326513086
 20
4.9378214597
 30
0.0
 10
4.3386022915
 20
4.9325750312
 30
0.0
 10
4.3425855517
 20
4.9284638647
 30
0.0
 10
4.3461197091
 20
4.9241502612
 30
0.0
 10
4.3491857823
 20
4.9196589025
 30
0.0
 10
4.3517641644
 20
4.9150141581
 30
0.0
 10
4.3538411708
 20
4.9102432854
 30
0.0
 10
4.355402439
 20
4.905372753
 30
0.0
 10
4.3564399587
 20
4.9004312547
 30
0.0
 10
4.3569458353
 20
4.8954472028
 30
0.0
 10
4.3569178803
 20
4.8904500513
 30
0.0
 10
4.3563557838
 20
4.8854691067
 30
0.0
 10
4.3552630189
 20
4.8805337005
 30
0.0
 10
4.3536469996
 20
4.8756723261
 30
0.0
 10
4.3515167065
 20
4.8709134525
 30
0.0
 10
4.3488864012
 20
4.8662835913
 30
0.0
 10
4.3457702937
 20
4.861809921
 30
0.0
 10
4.3421882057
 20
4.8575165209
 30
0.0
 10
4.3381597683
 20
4.8534285746
 30
0.0
 10
4.3337089554
 20
4.8495676415
 30
0.0
 10
4.3271677342
 20
4.8446951976
 30
0.0
 10
4.3199538917
 20
4.8404354861
 30
0.0
 10
4.3122224292
 20
4.8368115786
 30
0.0
 10
4.303971849
 20
4.8335479511
 30
0.0
 10
4.2953104196
 20
4.8309912682
 30
0.0
 10
4.2863696433
 20
4.8291449388
 30
0.0
 10
4.2771757313
 20
4.8277669305
 30
0.0
 10
4.2701794279
 20
4.8272929406
 30
0.0
 10
4.2655046806
 20
4.8272244581
 30
0.0
  0
SPLINE
  5
383
100
AcDbEntity
  8
ALL_ASSEMBLY_MEMBERS
100
AcDbSpline
 62
7
  6
CONTINUOUS
 70
0
 71
3
 72
13
 73
9
 74
0
 42
0.0000001
 43
0.0000001
 44
0.0000000001
 40
0.0
 40
0.0
 40
0.0
 40
0.0
 40
0.2601378203
 40
0.3889296914
 40
0.5161264906
 40
0.6412487478
 40
0.7638676406
 40
1.0
 40
1.0
 40
1.0
 40
1.0
 10
4.2635716976
 20
4.8160796968
 30
0.0
 10
4.2575777664
 20
4.8160796968
 30
0.0
 10
4.248601179
 20
4.8166605241
 30
0.0
 10
4.2368621556
 20
4.8186015459
 30
0.0
 10
4.2283078384
 20
4.8206166383
 30
0.0
 10
4.2200492075
 20
4.8231793773
 30
0.0
 10
4.2096614227
 20
4.8272437216
 30
0.0
 10
4.2023057742
 20
4.8311143438
 30
0.0
 10
4.1977262045
 20
4.8340520268
 30
0.0
  0
SPLINE
  5
384
100
AcDbEntity
  8
ALL_ASSEMBLY_MEMBERS
100
AcDbSpline
 62
7
  6
CONTINUOUS
 70
0
 71
3
 72
9
 73
5
 74
0
 42
0.0000001
 43
0.0000001
 44
0.0000000001
 40
0.0
 40
0.0
 40
0.0
 40
0.0
 40
0.2512153451
 40
1.0
 40
1.0
 40
1.0
 40
1.0
 10
4.2635716976
 20
4.8272102992
 30
0.0
 10
4.2616997182
 20
4.8272102992
 30
0.0
 10
4.2542489873
 20
4.8273687104
 30
0.0
 10
4.2468107606
 20
4.8281599254
 30
0.0
 10
4.2413132954
 20
4.8291144254
 30
0.0
  0
SPLINE
  5
385
100
AcDbEntity
  8
ALL_ASSEMBLY_MEMBERS
100
AcDbSpline
 62
7
  6
CONTINUOUS
 70
0
 71
3
 72
10
 73
6
 74
0
 42
0.0000001
 43
0.0000001
 44
0.0000000001
 40
0.0
 40
0.0
 40
0.0
 40
0.0
 40
0.2552376814
 40
0.6320234257
 40
1.0
 40
1.0
 40
1.0
 40
1.0
 10
4.2380619108
 20
4.8297230718
 30
0.0
 10
4.2359104342
 20
4.8301553101
 30
0.0
 10
4.2306102995
 20
4.8313664731
 30
0.0
 10
4.2223677333
 20
4.8338455739
 30
0.0
 10
4.2164050534
 20
4.8362058508
 30
0.0
 10
4.2135191419
 20
4.8375023557
 30
0.0
  0
SPLINE
  5
386
100
AcDbEntity
  8
ALL_ASSEMBLY_MEMBERS
100
AcDbSpline
 62
7
  6
CONTINUOUS
 70
0
 71
3
 72
9
 73
5
 74
0
 42
0.0000001
 43
0.0000001
 44
0.0000000001
 40
0.0
 40
0.0
 40
0.0
 40
0.0
 40
0.2537323123
 40
1.0
 40
1.0
 40
1.0
 40
1.0
 10
4.2123608324
 20
4.8380312557
 30
0.0
 10
4.2114848412
 20
4.8384377544
 30
0.0
 10
4.2080550682
 20
4.8400880213
 30
0.0
 10
4.2047185791
 20
4.8419335145
 30
0.0
 10
4.2022995651
 20
4.8434220635
 30
0.0
  0
SPLINE
  5
387
100
AcDbEntity
  8
ALL_ASSEMBLY_MEMBERS
100
AcDbSpline
 62
7
  6
CONTINUOUS
 70
0
 71
3
 72
33
 73
29
 74
0
 42
0.0000001
 43
0.0000001
 44
0.0000000001
 40
0.0
 40
0.0
 40
0.0
 40
0.0
 40
0.0698370985
 40
0.1038324694
 40
0.1372021295
 40
0.1699516997
 40
0.20209444
 40
0.2646256023
 40
0.3250896283
 40
0.354683282
 40
0.3839173979
 40
0.4128593329
 40
0.4415810486
 40
0.4701585741
 40
0.4986711701
 40
0.5271986709
 40
0.5558209295
 40
0.5846162878
 40
0.6136592317
 40
0.6430203392
 40
0.6727641522
 40
0.7029474328
 40
0.7336207281
 40
0.7648268738
 40
0.7965993427
 40
0.8619156014
 40
0.9297162193
 40
1.0
 40
1.0
 40
1.0
 40
1.0
 10
4.2012708973
 20
4.8440645074
 30
0.0
 10
4.198853132
 20
4.845596996
 30
0.0
 10
4.1953624649
 20
4.8480483679
 30
0.0
 10
4.1910264427
 20
4.8516326653
 30
0.0
 10
4.1880069174
 20
4.8544146369
 30
0.0
 10
4.1852001314
 20
4.857306383
 30
0.0
 10
4.1817845765
 20
4.8612608693
 30
0.0
 10
4.1780634988
 20
4.8664385493
 30
0.0
 10
4.1750909576
 20
4.8719644389
 30
0.0
 10
4.1732320592
 20
4.876490653
 30
0.0
 10
4.1721030706
 20
4.8799098273
 30
0.0
 10
4.1712325243
 20
4.883366855
 30
0.0
 10
4.1706226799
 20
4.8868520644
 30
0.0
 10
4.1702762134
 20
4.8903555881
 30
0.0
 10
4.1701936126
 20
4.8938672729
 30
0.0
 10
4.1703747601
 20
4.8973770963
 30
0.0
 10
4.1708199387
 20
4.900874944
 30
0.0
 10
4.1715274919
 20
4.9043507706
 30
0.0
 10
4.1724948351
 20
4.9077948174
 30
0.0
 10
4.1737198308
 20
4.9111971134
 30
0.0
 10
4.1751987465
 20
4.914547976
 30
0.0
 10
4.1769267149
 20
4.9178382034
 30
0.0
 10
4.1788992495
 20
4.9210582339
 30
0.0
 10
4.1811108339
 20
4.9241989748
 30
0.0
 10
4.1843985376
 20
4.9283067017
 30
0.0
 10
4.1890899357
 20
4.9331947105
 30
0.0
 10
4.1954992423
 20
4.9385490775
 30
0.0
 10
4.2001993552
 20
4.9417219
 30
0.0
 10
4.2026597965
 20
4.9432203972
 30
0.0
  0
SPLINE
  5
388
100
AcDbEntity
  8
ALL_ASSEMBLY_MEMBERS
100
AcDbSpline
 62
7
  6
CONTINUOUS
 70
0
 71
3
 72
16
 73
12
 74
0
 42
0.0000001
 43
0.0000001
 44
0.0000000001
 40
0.0
 40
0.0
 40
0.0
 40
0.0
 40
0.1152484333
 40
0.2340953091
 40
0.3562435732
 40
0.4184481244
 40
0.4813188413
 40
0.6087765015
 40
0.7381164383
 40
0.8687812347
 40
1.0
 40
1.0
 40
1.0
 40
1.0
 10
4.1831584767
 20
5.0119579545
 30
0.0
 10
4.1858133657
 20
5.0100438999
 30
0.0
 10
4.1913947744
 20
5.0064118881
 30
0.0
 10
4.2003385565
 20
5.0016588497
 30
0.0
 10
4.2082608788
 20
4.9982593596
 30
0.0
 10
4.2148665537
 20
4.9958765084
 30
0.0
 10
4.2217032027
 20
4.9937049849
 30
0.0
 10
4.2305072277
 20
4.9914533887
 30
0.0
 10
4.2413479417
 20
4.9895131532
 30
0.0
 10
4.2524054271
 20
4.9883428966
 30
0.0
 10
4.2598452328
 20
4.988081191
 30
0.0
 10
4.2635716976
 20
4.988081191
 30
0.0
  0
SPLINE
  5
389
100
AcDbEntity
  8
ALL_ASSEMBLY_MEMBERS
100
AcDbSpline
 62
7
  6
CONTINUOUS
 70
0
 71
3
 72
24
 73
20
 74
0
 42
0.0000001
 43
0.0000001
 44
0.0000000001
 40
0.0
 40
0.0
 40
0.0
 40
0.0
 40
0.0514640817
 40
0.1039854749
 40
0.1578368904
 40
0.2132342365
 40
0.2703295754
 40
0.3292132524
 40
0.3593447177
 40
0.3899291189
 40
0.452423257
 40
0.5166353716
 40
0.5824453586
 40
0.6496952276
 40
0.7181855215
 40
0.7877031851
 40
0.8580309683
 40
0.928913392
 40
1.0
 40
1.0
 40
1.0
 40
1.0
 10
4.1744755721
 20
5.0187899949
 30
0.0
 10
4.1749325485
 20
5.0169412859
 30
0.0
 10
4.1760828473
 20
5.013258256
 30
0.0
 10
4.1784644291
 20
5.0079123441
 30
0.0
 10
4.1814949681
 20
5.0027364479
 30
0.0
 10
4.1851515295
 20
4.9977716879
 30
0.0
 10
4.1894038039
 20
4.9930542513
 30
0.0
 10
4.1933868763
 20
4.9893865927
 30
0.0
 10
4.1968314534
 20
4.9866062065
 30
0.0
 10
4.2004980977
 20
4.9838945454
 30
0.0
 10
4.2053896668
 20
4.980727822
 30
0.0
 10
4.2116582463
 20
4.9773297273
 30
0.0
 10
4.218320602
 20
4.9743309329
 30
0.0
 10
4.225325984
 20
4.9717550125
 30
0.0
 10
4.2326207371
 20
4.969619642
 30
0.0
 10
4.2401507104
 20
4.9679424339
 30
0.0
 10
4.247859626
 20
4.9667347919
 30
0.0
 10
4.2556864745
 20
4.9660077944
 30
0.0
 10
4.2609412445
 20
4.9658450176
 30
0.0
 10
4.2635716976
 20
4.9658450176
 30
0.0
  0
SPLINE
  5
38A
100
AcDbEntity
  8
ALL_ASSEMBLY_MEMBERS
100
AcDbSpline
 62
7
  6
CONTINUOUS
 70
0
 71
3
 72
13
 73
9
 74
0
 42
0.0000001
 43
0.0000001
 44
0.0000000001
 40
0.0
 40
0.0
 40
0.0
 40
0.0
 40
0.2361921419
 40
0.3588211926
 40
0.4839430155
 40
0.6111298167
 40
0.7399050401
 40
1.0
 40
1.0
 40
1.0
 40
1.0
 10
4.329268402
 20
4.8339566939
 30
0.0
 10
4.3246939306
 20
4.8310342447
 30
0.0
 10
4.3173500582
 20
4.82718407
 30
0.0
 10
4.3069828247
 20
4.8231410326
 30
0.0
 10
4.2987430741
 20
4.8205920983
 30
0.0
 10
4.2902099188
 20
4.8185878782
 30
0.0
 10
4.2785015811
 20
4.8166573854
 30
0.0
 10
4.2695493513
 20
4.8160796968
 30
0.0
 10
4.2635716976
 20
4.8160796968
 30
0.0
  0
SPLINE
  5
38B
100
AcDbEntity
  8
ALL_ASSEMBLY_MEMBERS
100
AcDbSpline
 62
7
  6
CONTINUOUS
 70
0
 71
3
 72
24
 73
20
 74
0
 42
0.0000001
 43
0.0000001
 44
0.0000000001
 40
0.0
 40
0.0
 40
0.0
 40
0.0
 40
0.0514646475
 40
0.1039870177
 40
0.1578396367
 40
0.2132382634
 40
0.270334808
 40
0.3292195152
 40
0.3593513948
 40
0.3899361353
 40
0.452430715
 40
0.5166429177
 40
0.5824526388
 40
0.649701894
 40
0.7181912602
 40
0.787707738
 40
0.858034133
 40
0.9289150123
 40
1.0
 40
1.0
 40
1.0
 40
1.0
 10
4.3526651103
 20
5.018779026
 30
0.0
 10
4.3522077338
 20
5.0169305938
 30
0.0
 10
4.3510566959
 20
5.01324815
 30
0.0
 10
4.34867422
 20
5.007903182
 30
0.0
 10
4.3456429916
 20
5.0027282533
 30
0.0
 10
4.3419859355
 20
4.9977644722
 30
0.0
 10
4.3377333649
 20
4.993048002
 30
0.0
 10
4.3337501951
 20
4.9893811215
 30
0.0
 10
4.3303056272
 20
4.9866013361
 30
0.0
 10
4.3266390599
 20
4.9838902769
 30
0.0
 10
4.3217476952
 20
4.9807242733
 30
0.0
 10
4.3154795077
 20
4.9773269608
 30
0.0
 10
4.3088176829
 20
4.9743288728
 30
0.0
 10
4.3018129567
 20
4.971753567
 30
0.0
 10
4.2945189641
 20
4.9696187138
 30
0.0
 10
4.2869898373
 20
4.9679419156
 30
0.0
 10
4.2792818337
 20
4.9667345716
 30
0.0
 10
4.2714559416
 20
4.966007754
 30
0.0
 10
4.2662018233
 20
4.9658450176
 30
0.0
 10
4.2635716976
 20
4.9658450176
 30
0.0
  0
SPLINE
  5
38C
100
AcDbEntity
  8
ALL_ASSEMBLY_MEMBERS
100
AcDbSpline
 62
7
  6
CONTINUOUS
 70
0
 71
3
 72
26
 73
22
 74
0
 42
0.0000001
 43
0.0000001
 44
0.0000000001
 40
0.0
 40
0.0
 40
0.0
 40
0.0
 40
0.0255896891
 40
0.0513436004
 40
0.0773108436
 40
0.1035367607
 40
0.1569061731
 40
0.2117673998
 40
0.2398376493
 40
0.2683567275
 40
0.3267805559
 40
0.387128525
 40
0.4494039009
 40
0.5135458724
 40
0.5794401405
 40
0.6469249037
 40
0.7157918092
 40
0.7857990231
 40
0.8567005621
 40
0.9282262401
 40
1.0
 40
1.0
 40
1.0
 40
1.0
 10
4.1694800277
 20
5.0232600977
 30
0.0
 10
4.1696222525
 20
5.0222369337
 30
0.0
 10
4.1699740043
 20
5.0201926552
 30
0.0
 10
4.1706989212
 20
5.0171551091
 30
0.0
 10
4.1716212365
 20
5.0141445233
 30
0.0
 10
4.1731188493
 20
5.0101525949
 30
0.0
 10
4.1754861285
 20
5.0052530994
 30
0.0
 10
4.1784396427
 20
5.0005967187
 30
0.0
 10
4.1811479758
 20
4.9970020015
 30
0.0
 10
4.1841340775
 20
4.9934443691
 30
0.0
 10
4.1883020289
 20
4.989189191
 30
0.0
 10
4.1938968848
 20
4.984471345
 30
0.0
 10
4.2000783426
 20
4.9801384395
 30
0.0
 10
4.2067939331
 20
4.9762267438
 30
0.0
 10
4.2139870081
 20
4.9727679698
 30
0.0
 10
4.2215973482
 20
4.9697917304
 30
0.0
 10
4.229560208
 20
4.9673215103
 30
0.0
 10
4.2378093191
 20
4.9653788051
 30
0.0
 10
4.2462763602
 20
4.9639788934
 30
0.0
 10
4.2548879033
 20
4.9631355434
 30
0.0
 10
4.2606743425
 20
4.9629468834
 30
0.0
 10
4.2635716976
 20
4.9629468834
 30
0.0
  0
SPLINE
  5
38D
100
AcDbEntity
  8
ALL_ASSEMBLY_MEMBERS
100
AcDbSpline
 62
7
  6
CONTINUOUS
 70
0
 71
3
 72
14
 73
10
 74
0
 42
0.0000001
 43
0.0000001
 44
0.0000000001
 40
0.0
 40
0.0
 40
0.0
 40
0.0
 40
0.2339249847
 40
0.3561061634
 40
0.481187021
 40
0.6086735993
 40
0.7380524514
 40
0.8687585588
 40
1.0
 40
1.0
 40
1.0
 40
1.0
 10
4.3234665343
 20
4.9971646496
 30
0.0
 10
4.3194539639
 20
4.9942714296
 30
0.0
 10
4.3129043595
 20
4.9904512938
 30
0.0
 10
4.3035473239
 20
4.9864376045
 30
0.0
 10
4.2960318269
 20
4.983895078
 30
0.0
 10
4.2881996349
 20
4.9818921946
 30
0.0
 10
4.2801245709
 20
4.9804468105
 30
0.0
 10
4.2718884999
 20
4.9795754141
 30
0.0
 10
4.2663470886
 20
4.9793803338
 30
0.0
 10
4.2635716976
 20
4.9793803338
 30
0.0
  0
SPLINE
  5
38E
100
AcDbEntity
  8
ALL_ASSEMBLY_MEMBERS
100
AcDbSpline
 62
7
  6
CONTINUOUS
 70
0
 71
3
 72
16
 73
12
 74
0
 42
0.0000001
 43
0.0000001
 44
0.0000000001
 40
0.0
 40
0.0
 40
0.0
 40
0.0
 40
0.1152484333
 40
0.2340953091
 40
0.3562435732
 40
0.4184481244
 40
0.4813188413
 40
0.6087765015
 40
0.7381164383
 40
0.8687812347
 40
1.0
 40
1.0
 40
1.0
 40
1.0
 10
4.3439849184
 20
5.0119579545
 30
0.0
 10
4.3413300295
 20
5.0100438999
 30
0.0
 10
4.3357486207
 20
5.0064118881
 30
0.0
 10
4.3268048386
 20
5.0016588497
 30
0.0
 10
4.3188825164
 20
4.9982593596
 30
0.0
 10
4.3122768414
 20
4.9958765084
 30
0.0
 10
4.3054401924
 20
4.9937049849
 30
0.0
 10
4.2966361674
 20
4.9914533887
 30
0.0
 10
4.2857954534
 20
4.9895131532
 30
0.0
 10
4.274737968
 20
4.9883428966
 30
0.0
 10
4.2672981623
 20
4.988081191
 30
0.0
 10
4.2635716976
 20
4.988081191
 30
0.0
  0
SPLINE
  5
38F
100
AcDbEntity
  8
ALL_ASSEMBLY_MEMBERS
100
AcDbSpline
 62
7
  6
CONTINUOUS
 70
0
 71
3
 72
20
 73
16
 74
0
 42
0.0000001
 43
0.0000001
 44
0.0000000001
 40
0.0
 40
0.0
 40
0.0
 40
0.0
 40
0.0161728331
 40
0.0258036186
 40
0.0369209756
 40
0.0643334836
 40
0.0992315881
 40
0.1417947005
 40
0.1919721843
 40
0.2494665808
 40
0.313814204
 40
0.4610154349
 40
0.6286948361
 40
0.8109417894
 40
1.0
 40
1.0
 40
1.0
 40
1.0
 10
5.5138667029
 20
4.227103201
 30
0.0
 10
5.5138667012
 20
4.2271417533
 30
0.0
 10
5.5138458157
 20
4.2272035286
 30
0.0
 10
5.5137924396
 20
4.2272735924
 30
0.0
 10
5.5137088664
 20
4.2273530451
 30
0.0
 10
5.5135603361
 20
4.2274478537
 30
0.0
 10
5.5133331928
 20
4.2275530215
 30
0.0
 10
5.5130462503
 20
4.227655259
 30
0.0
 10
5.5127016515
 20
4.2277533464
 30
0.0
 10
5.5123021189
 20
4.2278462346
 30
0.0
 10
5.5116721797
 20
4.2279672549
 30
0.0
 10
5.5107765407
 20
4.228093726
 30
0.0
 10
5.5095963556
 20
4.2282043552
 30
0.0
 10
5.5083130597
 20
4.2282727664
 30
0.0
 10
5.5074278805
 20
4.2282884723
 30
0.0
 10
5.5069772094
 20
4.2282884723
 30
0.0
  0
SPLINE
  5
390
100
AcDbEntity
  8
ALL_ASSEMBLY_MEMBERS
100
AcDbSpline
 62
7
  6
CONTINUOUS
 70
0
 71
3
 72
23
 73
19
 74
0
 42
0.0000001
 43
0.0000001
 44
0.0000000001
 40
0.0
 40
0.0
 40
0.0
 40
0.0
 40
0.0078034152
 40
0.0161641464
 40
0.0256081261
 40
0.0365034451
 40
0.0490751587
 40
0.0634558353
 40
0.0979038589
 40
0.1401458142
 40
0.1900907423
 40
0.247437934
 40
0.3118120388
 40
0.3826710245
 40
0.459367591
 40
0.6275128975
 40
0.8101911166
 40
1.0
 40
1.0
 40
1.0
 40
1.0
 10
5.5237092697
 20
4.2271032245
 30
0.0
 10
5.5237092715
 20
4.2270582675
 30
0.0
 10
5.523694934
 20
4.2269646307
 30
0.0
 10
5.5236317976
 20
4.2268295677
 30
0.0
 10
5.523528983
 20
4.2266986733
 30
0.0
 10
5.5233874817
 20
4.226571456
 30
0.0
 10
5.5232077545
 20
4.2264472203
 30
0.0
 10
5.5228983128
 20
4.2262749759
 30
0.0
 10
5.5224121878
 20
4.2260736926
 30
0.0
 10
5.5217149116
 20
4.2258573113
 30
0.0
 10
5.5208769466
 20
4.2256552891
 30
0.0
 10
5.5199054346
 20
4.2254687625
 30
0.0
 10
5.5188087224
 20
4.2252995272
 30
0.0
 10
5.517597014
 20
4.2251483315
 30
0.0
 10
5.5157872032
 20
4.2249662102
 30
0.0
 10
5.5133295141
 20
4.2247953961
 30
0.0
 10
5.5102168227
 20
4.2246745548
 30
0.0
 10
5.5080707355
 20
4.2246476678
 30
0.0
 10
5.5069772094
 20
4.2246476678
 30
0.0
  0
SPLINE
  5
391
100
AcDbEntity
  8
ALL_ASSEMBLY_MEMBERS
100
AcDbSpline
 62
7
  6
CONTINUOUS
 70
0
 71
3
 72
20
 73
16
 74
0
 42
0.0000001
 43
0.0000001
 44
0.0000000001
 40
0.0
 40
0.0
 40
0.0
 40
0.0
 40
0.189057575
 40
0.3713042276
 40
0.5389848736
 40
0.6861864316
 40
0.7505333508
 40
0.8080268943
 40
0.8582038084
 40
0.9007670648
 40
0.9356657355
 40
0.9630788201
 40
0.9741963456
 40
0.9838271894
 40
1.0
 40
1.0
 40
1.0
 40
1.0
 10
5.5069772094
 20
4.2282884723
 30
0.0
 10
5.5065265398
 20
4.2282884723
 30
0.0
 10
5.5056413628
 20
4.2282727673
 30
0.0
 10
5.5043580662
 20
4.2282043553
 30
0.0
 10
5.5031778782
 20
4.2280937246
 30
0.0
 10
5.5022822368
 20
4.2279672554
 30
0.0
 10
5.5016523004
 20
4.2278462362
 30
0.0
 10
5.5012527728
 20
4.2277533489
 30
0.0
 10
5.5009081772
 20
4.2276552612
 30
0.0
 10
5.5006212345
 20
4.2275530233
 30
0.0
 10
5.5003940882
 20
4.2274478549
 30
0.0
 10
5.5002455544
 20
4.227353046
 30
0.0
 10
5.5001619789
 20
4.2272735929
 30
0.0
 10
5.5001086022
 20
4.2272035289
 30
0.0
 10
5.500087717
 20
4.2271417533
 30
0.0
 10
5.5000877158
 20
4.227103201
 30
0.0
  0
SPLINE
  5
392
100
AcDbEntity
  8
ALL_ASSEMBLY_MEMBERS
100
AcDbSpline
 62
7
  6
CONTINUOUS
 70
0
 71
3
 72
23
 73
19
 74
0
 42
0.0000001
 43
0.0000001
 44
0.0000000001
 40
0.0
 40
0.0
 40
0.0
 40
0.0
 40
0.1898090382
 40
0.3724871401
 40
0.5406320978
 40
0.6173287805
 40
0.6881879839
 40
0.752562232
 40
0.8099093563
 40
0.859854115
 40
0.9020959549
 40
0.9365440101
 40
0.9509247321
 40
0.9634964936
 40
0.9743918508
 40
0.9838358491
 40
0.9921965845
 40
1.0
 40
1.0
 40
1.0
 40
1.0
 10
5.5069772094
 20
4.2246476678
 30
0.0
 10
5.5058836823
 20
4.2246476678
 30
0.0
 10
5.5037375949
 20
4.2246745552
 30
0.0
 10
5.5006249054
 20
4.2247953956
 30
0.0
 10
5.4981672183
 20
4.22496621
 30
0.0
 10
5.4963574076
 20
4.2251483317
 30
0.0
 10
5.4951456964
 20
4.2252995276
 30
0.0
 10
5.4940489826
 20
4.2254687626
 30
0.0
 10
5.493077471
 20
4.2256552887
 30
0.0
 10
5.492239508
 20
4.2258573105
 30
0.0
 10
5.4915422334
 20
4.2260736921
 30
0.0
 10
5.4910561087
 20
4.2262749754
 30
0.0
 10
5.4907466661
 20
4.2264472198
 30
0.0
 10
5.4905669382
 20
4.2265714557
 30
0.0
 10
5.4904254361
 20
4.226698673
 30
0.0
 10
5.490322621
 20
4.2268295674
 30
0.0
 10
5.4902594845
 20
4.2269646306
 30
0.0
 10
5.4902451472
 20
4.2270582675
 30
0.0
 10
5.4902451491
 20
4.2271032245
 30
0.0
  0
LINE
  5
393
100
AcDbEntity
  8
ALL_ASSEMBLY_MEMBERS
100
AcDbLine
 62
7
  6
CONTINUOUS
 10
5.5069772094
 20
4.2301600986
 11
5.5145874808
 21
4.2297959495
  0
SPLINE
  5
394
100
AcDbEntity
  8
ALL_ASSEMBLY_MEMBERS
100
AcDbSpline
 62
7
  6
CONTINUOUS
 70
0
 71
3
 72
19
 73
15
 74
0
 42
0.0000001
 43
0.0000001
 44
0.0000000001
 40
0.0
 40
0.0
 40
0.0
 40
0.0
 40
0.20355588
 40
0.388916636
 40
0.5529760947
 40
0.6930837406
 40
0.7535900277
 40
0.8074763989
 40
0.8546516999
 40
0.8951680966
 40
0.9292150896
 40
0.95723513
 40
0.9801956094
 40
1.0
 40
1.0
 40
1.0
 40
1.0
 10
5.5145874808
 20
4.2297959495
 30
0.0
 10
5.5152483309
 20
4.2297295121
 30
0.0
 10
5.5165091051
 20
4.2295828073
 30
0.0
 10
5.5182929262
 20
4.2293085409
 30
0.0
 10
5.519860191
 20
4.2289976333
 30
0.0
 10
5.5210139063
 20
4.2287024413
 30
0.0
 10
5.5218049127
 20
4.2284488935
 30
0.0
 10
5.5222989245
 20
4.2282641446
 30
0.0
 10
5.5227214159
 20
4.2280764458
 30
0.0
 10
5.5230710883
 20
4.2278868661
 30
0.0
 10
5.5233472611
 20
4.227696181
 30
0.0
 10
5.5235496162
 20
4.2275040745
 30
0.0
 10
5.523677597
 20
4.2273081561
 30
0.0
 10
5.523709267
 20
4.2271678441
 30
0.0
 10
5.5237092697
 20
4.2271032245
 30
0.0
  0
SPLINE
  5
395
100
AcDbEntity
  8
ALL_ASSEMBLY_MEMBERS
100
AcDbSpline
 62
7
  6
CONTINUOUS
 70
0
 71
3
 72
18
 73
14
 74
0
 42
0.0000001
 43
0.0000001
 44
0.0000000001
 40
0.0
 40
0.0
 40
0.0
 40
0.0
 40
0.0196331412
 40
0.0421488034
 40
0.0696179638
 40
0.1031481057
 40
0.143227933
 40
0.1900563012
 40
0.3040558468
 40
0.4444578624
 40
0.6090795544
 40
0.7953332078
 40
1.0
 40
1.0
 40
1.0
 40
1.0
 10
5.5000877158
 20
4.227103201
 30
0.0
 10
5.5000877149
 20
4.227076679
 30
0.0
 10
5.5001006637
 20
4.2270193373
 30
0.0
 10
5.5001541968
 20
4.2269403109
 30
0.0
 10
5.5002388799
 20
4.2268646883
 30
0.0
 10
5.5003544821
 20
4.2267912814
 30
0.0
 10
5.500500833
 20
4.2267196793
 30
0.0
 10
5.5007536222
 20
4.2266203225
 30
0.0
 10
5.5011453129
 20
4.226507329
 30
0.0
 10
5.501699292
 20
4.2263899324
 30
0.0
 10
5.5023549209
 20
4.2262854569
 30
0.0
 10
5.5031002026
 20
4.2261962298
 30
0.0
 10
5.5036263282
 20
4.226149785
 30
0.0
 10
5.5039020227
 20
4.2261289555
 30
0.0
  0
LINE
  5
396
100
AcDbEntity
  8
ALL_ASSEMBLY_MEMBERS
100
AcDbLine
 62
7
  6
CONTINUOUS
 10
5.5039020227
 20
4.2261289555
 11
5.5069772094
 21
4.226019833
  0
SPLINE
  5
397
100
AcDbEntity
  8
ALL_ASSEMBLY_MEMBERS
100
AcDbSpline
 62
7
  6
CONTINUOUS
 70
0
 71
3
 72
23
 73
19
 74
0
 42
0.0000001
 43
0.0000001
 44
0.0000000001
 40
0.0
 40
0.0
 40
0.0
 40
0.0
 40
0.0078812127
 40
0.0164536615
 40
0.0261985843
 40
0.0374419714
 40
0.0503770288
 40
0.0651150352
 40
0.1002079959
 40
0.1429471231
 40
0.1932146859
 40
0.2507048315
 40
0.3150490248
 40
0.385731092
 40
0.4621336633
 40
0.6294611839
 40
0.8111746924
 40
1.0
 40
1.0
 40
1.0
 40
1.0
 10
5.5237092674
 20
4.229603132
 30
0.0
 10
5.5237092651
 20
4.2296488888
 30
0.0
 10
5.5236944948
 20
4.2297448513
 30
0.0
 10
5.5236311956
 20
4.2298847051
 30
0.0
 10
5.5235283928
 20
4.2300233613
 30
0.0
 10
5.5233868864
 20
4.2301612242
 30
0.0
 10
5.5232071152
 20
4.2302987531
 30
0.0
 10
5.5228983209
 20
4.2304929629
 30
0.0
 10
5.5224133623
 20
4.2307278561
 30
0.0
 10
5.5217170651
 20
4.2309907154
 30
0.0
 10
5.5208807499
 20
4.231245508
 30
0.0
 10
5.5199113977
 20
4.2314891225
 30
0.0
 10
5.5188170749
 20
4.2317178304
 30
0.0
 10
5.5176076049
 20
4.2319286859
 30
0.0
 10
5.515800773
 20
4.2321899677
 30
0.0
 10
5.5133429601
 20
4.2324460273
 30
0.0
 10
5.5102250409
 20
4.2326335603
 30
0.0
 10
5.5080734937
 20
4.2326761706
 30
0.0
 10
5.5069772094
 20
4.2326761706
 30
0.0
  0
SPLINE
  5
398
100
AcDbEntity
  8
ALL_ASSEMBLY_MEMBERS
100
AcDbSpline
 62
7
  6
CONTINUOUS
 70
0
 71
3
 72
19
 73
15
 74
0
 42
0.0000001
 43
0.0000001
 44
0.0000000001
 40
0.0
 40
0.0
 40
0.0
 40
0.0
 40
0.0198049523
 40
0.0427658196
 40
0.0707860016
 40
0.1048329554
 40
0.1453492186
 40
0.1925243779
 40
0.2464106673
 40
0.3069168988
 40
0.4470242174
 40
0.6110828505
 40
0.7964431978
 40
1.0
 40
1.0
 40
1.0
 40
1.0
 10
5.4902451491
 20
4.2271032245
 30
0.0
 10
5.4902451518
 20
4.2271678413
 30
0.0
 10
5.4902768189
 20
4.2273081461
 30
0.0
 10
5.4904047879
 20
4.2275040559
 30
0.0
 10
5.4906071248
 20
4.2276961545
 30
0.0
 10
5.4908832734
 20
4.2278868315
 30
0.0
 10
5.4912329159
 20
4.2280764034
 30
0.0
 10
5.4916553725
 20
4.2282640949
 30
0.0
 10
5.4921493448
 20
4.228448837
 30
0.0
 10
5.4929402888
 20
4.2287023765
 30
0.0
 10
5.4940939125
 20
4.2289975609
 30
0.0
 10
5.4956610544
 20
4.229308464
 30
0.0
 10
5.4974447417
 20
4.2295827296
 30
0.0
 10
5.4987054241
 20
4.2297294376
 30
0.0
 10
5.4993662283
 20
4.2297958778
 30
0.0
  0
LINE
  5
399
100
AcDbEntity
  8
ALL_ASSEMBLY_MEMBERS
100
AcDbLine
 62
7
  6
CONTINUOUS
 10
5.4993662283
 20
4.2297958778
 11
5.5069772094
 21
4.2301600986
  0
LINE
  5
39A
100
AcDbEntity
  8
ALL_ASSEMBLY_MEMBERS
100
AcDbLine
 62
7
  6
CONTINUOUS
 10
5.507767694
 20
4.2260267136
 11
5.5100523217
 21
4.2261289506
  0
SPLINE
  5
39B
100
AcDbEntity
  8
ALL_ASSEMBLY_MEMBERS
100
AcDbSpline
 62
7
  6
CONTINUOUS
 70
0
 71
3
 72
18
 73
14
 74
0
 42
0.0000001
 43
0.0000001
 44
0.0000000001
 40
0.0
 40
0.0
 40
0.0
 40
0.0
 40
0.2046682898
 40
0.3909226323
 40
0.5555427642
 40
0.6959425846
 40
0.8099416072
 40
0.856770528
 40
0.8968510988
 40
0.9303819048
 40
0.9578513979
 40
0.9803670226
 40
1.0
 40
1.0
 40
1.0
 40
1.0
 10
5.5100523217
 20
4.2261289506
 30
0.0
 10
5.5103280233
 20
4.2261497801
 30
0.0
 10
5.5108541616
 20
4.2261962251
 30
0.0
 10
5.5115994581
 20
4.2262854507
 30
0.0
 10
5.5122550955
 20
4.2263899248
 30
0.0
 10
5.5128090793
 20
4.2265073216
 30
0.0
 10
5.5132007742
 20
4.2266203166
 30
0.0
 10
5.5134535696
 20
4.226719674
 30
0.0
 10
5.5135999263
 20
4.2267912772
 30
0.0
 10
5.5137155337
 20
4.2268646849
 30
0.0
 10
5.5138002206
 20
4.2269403084
 30
0.0
 10
5.5138537553
 20
4.2270193361
 30
0.0
 10
5.513866704
 20
4.2270766788
 30
0.0
 10
5.5138667029
 20
4.227103201
 30
0.0
  0
SPLINE
  5
39C
100
AcDbEntity
  8
ALL_ASSEMBLY_MEMBERS
100
AcDbSpline
 62
7
  6
CONTINUOUS
 70
0
 71
3
 72
23
 73
19
 74
0
 42
0.0000001
 43
0.0000001
 44
0.0000000001
 40
0.0
 40
0.0
 40
0.0
 40
0.0
 40
0.1888229036
 40
0.3705327349
 40
0.5378605567
 40
0.6142646738
 40
0.6849485675
 40
0.7492938873
 40
0.8067841067
 40
0.8570512933
 40
0.899790283
 40
0.9348837029
 40
0.9496220702
 40
0.9625575115
 40
0.9738012536
 40
0.9835463683
 40
0.9921188286
 40
1.0
 40
1.0
 40
1.0
 40
1.0
 10
5.5069772094
 20
4.2326761706
 30
0.0
 10
5.5058809391
 20
4.2326761706
 30
0.0
 10
5.5037294271
 20
4.2326335651
 30
0.0
 10
5.5006115415
 20
4.2324460325
 30
0.0
 10
5.4981537387
 20
4.2321899794
 30
0.0
 10
5.4963468858
 20
4.231928694
 30
0.0
 10
5.4951373895
 20
4.2317178372
 30
0.0
 10
5.4940430486
 20
4.23148913
 30
0.0
 10
5.4930736911
 20
4.2312455173
 30
0.0
 10
5.4922373781
 20
4.230990726
 30
0.0
 10
5.4915410818
 20
4.2307278653
 30
0.0
 10
5.4910561198
 20
4.2304929702
 30
0.0
 10
5.4907473185
 20
4.2302987584
 30
0.0
 10
5.490567541
 20
4.2301612274
 30
0.0
 10
5.4904260282
 20
4.2300233634
 30
0.0
 10
5.4903232208
 20
4.2298847064
 30
0.0
 10
5.4902599215
 20
4.2297448512
 30
0.0
 10
5.490245153
 20
4.2296488886
 30
0.0
 10
5.4902451515
 20
4.229603132
 30
0.0
  0
SPLINE
  5
39D
100
AcDbEntity
  8
ALL_ASSEMBLY_MEMBERS
100
AcDbSpline
 62
7
  6
CONTINUOUS
 70
0
 71
3
 72
23
 73
19
 74
0
 42
0.0000001
 43
0.0000001
 44
0.0000000001
 40
0.0
 40
0.0
 40
0.0
 40
0.0
 40
0.0433572115
 40
0.1586993866
 40
0.2347581442
 40
0.2759758353
 40
0.3188357412
 40
0.4081251245
 40
0.4539004561
 40
0.4999967111
 40
0.5460929606
 40
0.591868251
 40
0.6811574526
 40
0.7240174315
 40
0.7652352172
 40
0.8412948781
 40
0.9566396308
 40
1.0
 40
1.0
 40
1.0
 40
1.0
 10
4.4855216976
 20
4.5336653727
 30
0.0
 10
4.4868756365
 20
4.5339589701
 30
0.0
 10
4.4918404554
 20
4.5349938728
 30
0.0
 10
4.4992302909
 20
4.5363017297
 30
0.0
 10
4.5065966743
 20
4.5373062109
 30
0.0
 10
4.5116829424
 20
4.5378700841
 30
0.0
 10
4.5171997967
 20
4.5383779189
 30
0.0
 10
4.5228760937
 20
4.53873348
 30
0.0
 10
4.5286625327
 20
4.5389160955
 30
0.0
 10
4.5330713823
 20
4.5389634841
 30
0.0
 10
4.5374802303
 20
4.5389160955
 30
0.0
 10
4.5432666639
 20
4.5387335397
 30
0.0
 10
4.5489429564
 20
4.5383779747
 30
0.0
 10
4.5544598111
 20
4.5378701503
 30
0.0
 10
4.5595461139
 20
4.5373062793
 30
0.0
 10
4.5669126134
 20
4.5363018051
 30
0.0
 10
4.5743026629
 20
4.5349939374
 30
0.0
 10
4.5792676607
 20
4.5339589946
 30
0.0
 10
4.5806216976
 20
4.5336653727
 30
0.0
  0
SPLINE
  5
39E
100
AcDbEntity
  8
ALL_ASSEMBLY_MEMBERS
100
AcDbSpline
 62
7
  6
CONTINUOUS
 70
0
 71
3
 72
11
 73
7
 74
0
 42
0.0000001
 43
0.0000001
 44
0.0000000001
 40
0.0
 40
0.0
 40
0.0
 40
0.0
 40
0.2324265468
 40
0.476861094
 40
0.7329474506
 40
1.0
 40
1.0
 40
1.0
 40
1.0
 10
4.3660716976
 20
4.9025213879
 30
0.0
 10
4.3660716976
 20
4.9004423755
 30
0.0
 10
4.3658106106
 20
4.8961741229
 30
0.0
 10
4.36471643
 20
4.8896993642
 30
0.0
 10
4.3629233347
 20
4.8830620642
 30
0.0
 10
4.3613141205
 20
4.8786614743
 30
0.0
 10
4.360406786
 20
4.876451768
 30
0.0
  0
SPLINE
  5
39F
100
AcDbEntity
  8
ALL_ASSEMBLY_MEMBERS
100
AcDbSpline
 62
7
  6
CONTINUOUS
 70
0
 71
3
 72
22
 73
18
 74
0
 42
0.0000001
 43
0.0000001
 44
0.0000000001
 40
0.0
 40
0.0
 40
0.0
 40
0.0
 40
0.0560758695
 40
0.1138328088
 40
0.1730289216
 40
0.2334446885
 40
0.2948746288
 40
0.357130628
 40
0.4200569218
 40
0.4835171649
 40
0.6115125392
 40
0.6759580103
 40
0.7405822661
 40
0.8053440822
 40
0.8701840553
 40
0.9350814376
 40
1.0
 40
1.0
 40
1.0
 40
1.0
 10
4.3603273348
 20
4.8762588998
 30
0.0
 10
4.3594333799
 20
4.8740958151
 30
0.0
 10
4.3574503925
 20
4.8697727266
 30
0.0
 10
4.3539860854
 20
4.8634299453
 30
0.0
 10
4.3500122581
 20
4.8571774469
 30
0.0
 10
4.3455567037
 20
4.8510681638
 30
0.0
 10
4.340645962
 20
4.8451513997
 30
0.0
 10
4.3353038602
 20
4.839476247
 30
0.0
 10
4.3295507929
 20
4.834092068
 30
0.0
 10
4.3213415328
 20
4.8273503348
 30
0.0
 10
4.312408707
 20
4.8214172638
 30
0.0
 10
4.3028617415
 20
4.816502108
 30
0.0
 10
4.2953923453
 20
4.8133700901
 30
0.0
 10
4.2876738005
 20
4.8108607498
 30
0.0
 10
4.2797556208
 20
4.8090217982
 30
0.0
 10
4.2716974931
 20
4.8079036531
 30
0.0
 10
4.2662759484
 20
4.8076508137
 30
0.0
 10
4.2635663341
 20
4.8076509799
 30
0.0
  0
SPLINE
  5
3A0
100
AcDbEntity
  8
ALL_ASSEMBLY_MEMBERS
100
AcDbSpline
 62
7
  6
CONTINUOUS
 70
0
 71
3
 72
22
 73
18
 74
0
 42
0.0000001
 43
0.0000001
 44
0.0000000001
 40
0.0
 40
0.0
 40
0.0
 40
0.0
 40
0.0649175236
 40
0.1298138351
 40
0.1946525817
 40
0.2594130601
 40
0.32403604
 40
0.3884803598
 40
0.5164739182
 40
0.5799335433
 40
0.6428594372
 40
0.7051153961
 40
0.7665458039
 40
0.8269626715
 40
0.8861606551
 40
0.9439203543
 40
1.0
 40
1.0
 40
1.0
 40
1.0
 10
4.2635663341
 20
4.8076509799
 30
0.0
 10
4.2608574084
 20
4.807651146
 30
0.0
 10
4.2554372761
 20
4.807904522
 30
0.0
 10
4.2473813071
 20
4.809023065
 30
0.0
 10
4.2394652747
 20
4.8108620066
 30
0.0
 10
4.2317488175
 20
4.8133709806
 30
0.0
 10
4.2242813937
 20
4.8165022934
 30
0.0
 10
4.2147368259
 20
4.8214161224
 30
0.0
 10
4.2058060701
 20
4.8273473863
 30
0.0
 10
4.1975984757
 20
4.8340869711
 30
0.0
 10
4.1918464303
 20
4.8394694269
 30
0.0
 10
4.186505117
 20
4.8451427705
 30
0.0
 10
4.1815949075
 20
4.8510576757
 30
0.0
 10
4.1771396101
 20
4.8571650912
 30
0.0
 10
4.1731657408
 20
4.8634157515
 30
0.0
 10
4.1697010688
 20
4.8697567676
 30
0.0
 10
4.1677176209
 20
4.8740786939
 30
0.0
 10
4.1668233681
 20
4.8762412227
 30
0.0
  0
SPLINE
  5
3A1
100
AcDbEntity
  8
ALL_ASSEMBLY_MEMBERS
100
AcDbSpline
 62
7
  6
CONTINUOUS
 70
0
 71
3
 72
11
 73
7
 74
0
 42
0.0000001
 43
0.0000001
 44
0.0000000001
 40
0.0
 40
0.0
 40
0.0
 40
0.0
 40
0.2670516952
 40
0.5231378225
 40
0.7675729649
 40
1.0
 40
1.0
 40
1.0
 40
1.0
 10
4.1667364197
 20
4.8764522294
 30
0.0
 10
4.1658291173
 20
4.8786618926
 30
0.0
 10
4.1642199531
 20
4.8830623975
 30
0.0
 10
4.1624269225
 20
4.8896995783
 30
0.0
 10
4.1613327839
 20
4.8961742273
 30
0.0
 10
4.1610716976
 20
4.9004424097
 30
0.0
 10
4.1610716976
 20
4.9025213879
 30
0.0
  0
SPLINE
  5
3A2
100
AcDbEntity
  8
ALL_ASSEMBLY_MEMBERS
100
AcDbSpline
 62
7
  6
CONTINUOUS
 70
0
 71
3
 72
11
 73
7
 74
0
 42
0.0000001
 43
0.0000001
 44
0.0000000001
 40
0.0
 40
0.0
 40
0.0
 40
0.0
 40
0.2324213081
 40
0.4768506978
 40
0.7329404799
 40
1.0
 40
1.0
 40
1.0
 40
1.0
 10
4.1610716976
 20
4.5083093574
 30
0.0
 10
4.1610716976
 20
4.510387947
 30
0.0
 10
4.1613326452
 20
4.5146553359
 30
0.0
 10
4.1624264488
 20
4.5211288907
 30
0.0
 10
4.164219001
 20
4.5277650946
 30
0.0
 10
4.1658277103
 20
4.5321650631
 30
0.0
 10
4.1667347681
 20
4.5343744836
 30
0.0
  0
SPLINE
  5
3A3
100
AcDbEntity
  8
ALL_ASSEMBLY_MEMBERS
100
AcDbSpline
 62
7
  6
CONTINUOUS
 70
0
 71
3
 72
35
 73
31
 74
0
 42
0.0000001
 43
0.0000001
 44
0.0000000001
 40
0.0
 40
0.0
 40
0.0
 40
0.0
 40
0.0280625329
 40
0.0569608638
 40
0.0865743292
 40
0.1167930489
 40
0.1475152262
 40
0.1786471149
 40
0.2101119064
 40
0.2418428123
 40
0.3058383691
 40
0.3380583987
 40
0.3703671687
 40
0.402744559
 40
0.4351615606
 40
0.4676078707
 40
0.500064978
 40
0.5649006988
 40
0.6296349945
 40
0.6619437389
 40
0.694163707
 40
0.7581591439
 40
0.789889979
 40
0.8213546731
 40
0.8524864097
 40
0.8832083685
 40
0.9134268142
 40
0.9430399465
 40
0.9719378991
 40
1.0
 40
1.0
 40
1.0
 40
1.0
 10
4.1668937349
 20
4.5347592062
 30
0.0
 10
4.1677916355
 20
4.5369183736
 30
0.0
 10
4.1697814626
 20
4.5412330596
 30
0.0
 10
4.1732534418
 20
4.5475626611
 30
0.0
 10
4.1772322705
 20
4.5538008977
 30
0.0
 10
4.1816903538
 20
4.5598951305
 30
0.0
 10
4.1866013648
 20
4.5657962647
 30
0.0
 10
4.1919414916
 20
4.5714556912
 30
0.0
 10
4.197690692
 20
4.5768242638
 30
0.0
 10
4.2058923207
 20
4.5835455646
 30
0.0
 10
4.2148141464
 20
4.589459954
 30
0.0
 10
4.224347278
 20
4.5943587793
 30
0.0
 10
4.2318046106
 20
4.5974801661
 30
0.0
 10
4.2395099911
 20
4.5999808521
 30
0.0
 10
4.2474137735
 20
4.6018133261
 30
0.0
 10
4.2554582137
 20
4.6029276554
 30
0.0
 10
4.2662703657
 20
4.6034317535
 30
0.0
 10
4.2797958958
 20
4.6021731192
 30
0.0
 10
4.292854276
 20
4.5985205512
 30
0.0
 10
4.3027990021
 20
4.5943573835
 30
0.0
 10
4.3123325515
 20
4.5894580442
 30
0.0
 10
4.3212539174
 20
4.5835434717
 30
0.0
 10
4.3294553709
 20
4.5768219311
 30
0.0
 10
4.33520439
 20
4.5714532152
 30
0.0
 10
4.3405443339
 20
4.565793667
 30
0.0
 10
4.3454551435
 20
4.5598924359
 30
0.0
 10
4.3499130153
 20
4.5537981334
 30
0.0
 10
4.3538916195
 20
4.5475598508
 30
0.0
 10
4.3573633608
 20
4.5412302273
 30
0.0
 10
4.359353022
 20
4.536915539
 30
0.0
 10
4.3602508375
 20
4.5347563752
 30
0.0
  0
SPLINE
  5
3A4
100
AcDbEntity
  8
ALL_ASSEMBLY_MEMBERS
100
AcDbSpline
 62
7
  6
CONTINUOUS
 70
0
 71
3
 72
11
 73
7
 74
0
 42
0.0000001
 43
0.0000001
 44
0.0000000001
 40
0.0
 40
0.0
 40
0.0
 40
0.0
 40
0.2670591521
 40
0.5231487575
 40
0.7675784387
 40
1.0
 40
1.0
 40
1.0
 40
1.0
 10
4.3604086001
 20
4.5343745494
 30
0.0
 10
4.3613156615
 20
4.5321651272
 30
0.0
 10
4.3629243788
 20
4.5277651535
 30
0.0
 10
4.3647169369
 20
4.5211289345
 30
0.0
 10
4.3658107452
 20
4.5146553598
 30
0.0
 10
4.3660716976
 20
4.5103879549
 30
0.0
 10
4.3660716976
 20
4.5083093574
 30
0.0
  0
SPLINE
  5
3A5
100
AcDbEntity
  8
ALL_ASSEMBLY_MEMBERS
100
AcDbSpline
 62
7
  6
CONTINUOUS
 70
0
 71
3
 72
39
 73
35
 74
0
 42
0.0000001
 43
0.0000001
 44
0.0000000001
 40
0.0
 40
0.0
 40
0.0
 40
0.0
 40
0.0312271367
 40
0.0624972646
 40
0.0937650171
 40
0.1250186311
 40
0.1562679673
 40
0.1875212432
 40
0.2187746916
 40
0.2500258301
 40
0.2812750658
 40
0.3125234793
 40
0.3437728515
 40
0.375022361
 40
0.4062734258
 40
0.4375239439
 40
0.4687740184
 40
0.500023305
 40
0.531271919
 40
0.5625209693
 40
0.5937701137
 40
0.6250206566
 40
0.6562699967
 40
0.6875186415
 40
0.7187655469
 40
0.750011625
 40
0.7812581429
 40
0.812507135
 40
0.8437574061
 40
0.8750036781
 40
0.9062504904
 40
0.9375097633
 40
0.9687779182
 40
1.0
 40
1.0
 40
1.0
 40
1.0
 10
4.4922564258
 20
4.7054153727
 30
0.0
 10
4.4923048381
 20
4.7066687046
 30
0.0
 10
4.4925184936
 20
4.709174096
 30
0.0
 10
4.4931835738
 20
4.712886268
 30
0.0
 10
4.4941914827
 20
4.7165219296
 30
0.0
 10
4.4955342504
 20
4.7200466809
 30
0.0
 10
4.4972003773
 20
4.7234300522
 30
0.0
 10
4.4991776693
 20
4.7266415097
 30
0.0
 10
4.5014477847
 20
4.7296532632
 30
0.0
 10
4.5039935169
 20
4.732435821
 30
0.0
 10
4.5067914484
 20
4.7349643506
 30
0.0
 10
4.5098178511
 20
4.7372144283
 30
0.0
 10
4.5130457768
 20
4.7391644449
 30
0.0
 10
4.51644599
 20
4.740796029
 30
0.0
 10
4.5199881417
 20
4.7420910809
 30
0.0
 10
4.5236387795
 20
4.7430384105
 30
0.0
 10
4.527364403
 20
4.7436251168
 30
0.0
 10
4.5311293814
 20
4.7438464848
 30
0.0
 10
4.534897953
 20
4.743697261
 30
0.0
 10
4.5386336012
 20
4.7431782683
 30
0.0
 10
4.5422999375
 20
4.742293005
 30
0.0
 10
4.5458601879
 20
4.7410478153
 30
0.0
 10
4.5492792667
 20
4.7394552559
 30
0.0
 10
4.5525211521
 20
4.7375276328
 30
0.0
 10
4.5555538162
 20
4.7352853421
 30
0.0
 10
4.5583441028
 20
4.732747805
 30
0.0
 10
4.5608638663
 20
4.72994129
 30
0.0
 10
4.5630844472
 20
4.7268922454
 30
0.0
 10
4.564982382
 20
4.7236325746
 30
0.0
 10
4.5665361498
 20
4.7201954851
 30
0.0
 10
4.5677270212
 20
4.7166160385
 30
0.0
 10
4.5685413047
 20
4.7129315006
 30
0.0
 10
4.5689665756
 20
4.7091835282
 30
0.0
 10
4.5689891172
 20
4.7066682262
 30
0.0
 10
4.5689340397
 20
4.7054153727
 30
0.0
  0
SPLINE
  5
3A6
100
AcDbEntity
  8
ALL_ASSEMBLY_MEMBERS
100
AcDbSpline
 62
7
  6
CONTINUOUS
 70
0
 71
3
 72
27
 73
23
 74
0
 42
0.0000001
 43
0.0000001
 44
0.0000000001
 40
0.0
 40
0.0
 40
0.0
 40
0.0
 40
0.0624592019
 40
0.1249928679
 40
0.1874884781
 40
0.2499724673
 40
0.2812358931
 40
0.3125000842
 40
0.3437632877
 40
0.3750258495
 40
0.4375163619
 40
0.5000104122
 40
0.5625054734
 40
0.6249995672
 40
0.6562623534
 40
0.6875244684
 40
0.7187866113
 40
0.7500468999
 40
0.8125234589
 40
0.875012192
 40
0.9375475427
 40
1.0
 40
1.0
 40
1.0
 40
1.0
 10
4.5689340397
 20
4.7054153727
 30
0.0
 10
4.568868295
 20
4.7039198694
 30
0.0
 10
4.568547455
 20
4.7009320761
 30
0.0
 10
4.567509221
 20
4.6965483464
 30
0.0
 10
4.5659223867
 20
4.6923308356
 30
0.0
 10
4.5641632346
 20
4.6890125186
 30
0.0
 10
4.5625107441
 20
4.686511262
 30
0.0
 10
4.5611531359
 20
4.6847176666
 30
0.0
 10
4.5596826181
 20
4.6830153868
 30
0.0
 10
4.5575796012
 20
4.6808787872
 30
0.0
 10
4.5546975271
 20
4.6784697759
 30
0.0
 10
4.5508922932
 20
4.6760565416
 30
0.0
 10
4.5468042255
 20
4.6741609465
 30
0.0
 10
4.5432168008
 20
4.6730454225
 30
0.0
 10
4.5402796572
 20
4.6724438198
 30
0.0
 10
4.5380506548
 20
4.6721406622
 30
0.0
 10
4.5358064043
 20
4.6719877219
 30
0.0
 10
4.5328087312
 20
4.6719841677
 30
0.0
 10
4.5290708569
 20
4.6723587397
 30
0.0
 10
4.5246876178
 20
4.6734103162
 30
0.0
 10
4.5204899021
 20
4.6750501511
 30
0.0
 10
4.5178644729
 20
4.6765155936
 30
0.0
 10
4.5166113082
 20
4.6773340963
 30
0.0
  0
SPLINE
  5
3A7
100
AcDbEntity
  8
ALL_ASSEMBLY_MEMBERS
100
AcDbSpline
 62
7
  6
CONTINUOUS
 70
0
 71
3
 72
9
 73
5
 74
0
 42
0.0000001
 43
0.0000001
 44
0.0000000001
 40
0.0
 40
0.0
 40
0.0
 40
0.0
 40
0.4941435037
 40
1.0
 40
1.0
 40
1.0
 40
1.0
 10
4.1627062591
 20
4.8888962161
 30
0.0
 10
4.1633041062
 20
4.8912368001
 30
0.0
 10
4.1648372165
 20
4.8958958812
 30
0.0
 10
4.1669548587
 20
4.900317852
 30
0.0
 10
4.1681548483
 20
4.9024801922
 30
0.0
  0
SPLINE
  5
3A8
100
AcDbEntity
  8
ALL_ASSEMBLY_MEMBERS
100
AcDbSpline
 62
7
  6
CONTINUOUS
 70
0
 71
3
 72
9
 73
5
 74
0
 42
0.0000001
 43
0.0000001
 44
0.0000000001
 40
0.0
 40
0.0
 40
0.0
 40
0.0
 40
0.505861557
 40
1.0
 40
1.0
 40
1.0
 40
1.0
 10
4.3589834722
 20
4.9024893345
 30
0.0
 10
4.3601846485
 20
4.9003257195
 30
0.0
 10
4.3623043228
 20
4.8959010415
 30
0.0
 10
4.3638387299
 20
4.8912388871
 30
0.0
 10
4.3644369979
 20
4.8888967567
 30
0.0
  0
SPLINE
  5
3A9
100
AcDbEntity
  8
ALL_ASSEMBLY_MEMBERS
100
AcDbSpline
 62
7
  6
CONTINUOUS
 70
0
 71
3
 72
9
 73
5
 74
0
 42
0.0000001
 43
0.0000001
 44
0.0000000001
 40
0.0
 40
0.0
 40
0.0
 40
0.0
 40
0.4941480079
 40
1.0
 40
1.0
 40
1.0
 40
1.0
 10
4.162706817
 20
4.5219323454
 30
0.0
 10
4.163304362
 20
4.5195933541
 30
0.0
 10
4.1648364038
 20
4.5149374493
 30
0.0
 10
4.1669522078
 20
4.5105183081
 30
0.0
 10
4.168151102
 20
4.508357305
 30
0.0
  0
SPLINE
  5
3AA
100
AcDbEntity
  8
ALL_ASSEMBLY_MEMBERS
100
AcDbSpline
 62
7
  6
CONTINUOUS
 70
0
 71
3
 72
9
 73
5
 74
0
 42
0.0000001
 43
0.0000001
 44
0.0000000001
 40
0.0
 40
0.0
 40
0.0
 40
0.0
 40
0.5058598736
 40
1.0
 40
1.0
 40
1.0
 40
1.0
 10
4.3589846781
 20
4.508343583
 30
0.0
 10
4.3601854349
 20
4.5105066475
 30
0.0
 10
4.3623044146
 20
4.5149301626
 30
0.0
 10
4.3638384439
 20
4.5195910189
 30
0.0
 10
4.3644366175
 20
4.5219324996
 30
0.0
  0
SPLINE
  5
3AB
100
AcDbEntity
  8
ALL_ASSEMBLY_MEMBERS
100
AcDbSpline
 62
7
  6
CONTINUOUS
 70
0
 71
3
 72
23
 73
19
 74
0
 42
0.0000001
 43
0.0000001
 44
0.0000000001
 40
0.0
 40
0.0
 40
0.0
 40
0.0
 40
0.0639535654
 40
0.1257867845
 40
0.1857520572
 40
0.2442338202
 40
0.3017454534
 40
0.3588034406
 40
0.4159478739
 40
0.4736976336
 40
0.5325009917
 40
0.5927692031
 40
0.6548504548
 40
0.719010651
 40
0.785467648
 40
0.8543877849
 40
0.9258793588
 40
1.0
 40
1.0
 40
1.0
 40
1.0
 10
4.3660716976
 20
4.5083093575
 30
0.0
 10
4.3660716976
 20
4.5068164893
 30
0.0
 10
4.3659422568
 20
4.5038782018
 30
0.0
 10
4.365339524
 20
4.4995775271
 30
0.0
 10
4.3643344106
 20
4.4954830641
 30
0.0
 10
4.3629326634
 20
4.4916137671
 30
0.0
 10
4.3611492747
 20
4.4879802394
 30
0.0
 10
4.3589960758
 20
4.4845899547
 30
0.0
 10
4.3564887778
 20
4.4814460627
 30
0.0
 10
4.3536451925
 20
4.4785463585
 30
0.0
 10
4.3504805007
 20
4.4758873744
 30
0.0
 10
4.3470102693
 20
4.4734621632
 30
0.0
 10
4.3432490642
 20
4.4712610798
 30
0.0
 10
4.3392096572
 20
4.4692741042
 30
0.0
 10
4.3349037519
 20
4.4674906233
 30
0.0
 10
4.3303420437
 20
4.4658994453
 30
0.0
 10
4.3255349606
 20
4.4644894041
 30
0.0
 10
4.3222331277
 20
4.4636776288
 30
0.0
 10
4.3205453844
 20
4.4632966981
 30
0.0
  0
SPLINE
  5
3AC
100
AcDbEntity
  8
ALL_ASSEMBLY_MEMBERS
100
AcDbSpline
 62
7
  6
CONTINUOUS
 70
0
 71
3
 72
23
 73
19
 74
0
 42
0.0000001
 43
0.0000001
 44
0.0000000001
 40
0.0
 40
0.0
 40
0.0
 40
0.0
 40
0.0741187509
 40
0.145608643
 40
0.2145273297
 40
0.2809831238
 40
0.345142376
 40
0.4072229797
 40
0.4674908748
 40
0.5262942636
 40
0.5840443792
 40
0.6411894644
 40
0.6982483452
 40
0.7557610065
 40
0.8142439975
 40
0.8742107284
 40
0.9360452957
 40
1.0
 40
1.0
 40
1.0
 40
1.0
 10
4.2065917049
 20
4.4632981214
 30
0.0
 10
4.2049041785
 20
4.4636790878
 30
0.0
 10
4.2016027711
 20
4.4644909311
 30
0.0
 10
4.1967963179
 20
4.4659010619
 30
0.0
 10
4.1922352145
 20
4.467492314
 30
0.0
 10
4.1879298881
 20
4.4692758497
 30
0.0
 10
4.1838910323
 20
4.4712628575
 30
0.0
 10
4.1801303487
 20
4.4734639478
 30
0.0
 10
4.1766606056
 20
4.4758891378
 30
0.0
 10
4.1734963662
 20
4.4785480696
 30
0.0
 10
4.170653193
 20
4.4814476863
 30
0.0
 10
4.1681462633
 20
4.4845914533
 30
0.0
 10
4.1659933858
 20
4.4879815731
 30
0.0
 10
4.1642102599
 20
4.4916148942
 30
0.0
 10
4.1628087231
 20
4.4954839551
 30
0.0
 10
4.1618037694
 20
4.4995781524
 30
0.0
 10
4.1612011217
 20
4.5038785262
 30
0.0
 10
4.1610716976
 20
4.5068166004
 30
0.0
 10
4.1610716976
 20
4.5083093574
 30
0.0
  0
SPLINE
  5
3AD
100
AcDbEntity
  8
ALL_ASSEMBLY_MEMBERS
100
AcDbSpline
 62
7
  6
CONTINUOUS
 70
0
 71
3
 72
18
 73
14
 74
0
 42
0.0000001
 43
0.0000001
 44
0.0000000001
 40
0.0
 40
0.0
 40
0.0
 40
0.0
 40
0.1245932418
 40
0.2493302775
 40
0.311790591
 40
0.3742813841
 40
0.4367985929
 40
0.4993337428
 40
0.5618931151
 40
0.6244713528
 40
0.7495671303
 40
0.8747251152
 40
1.0
 40
1.0
 40
1.0
 40
1.0
 10
4.5015442851
 20
4.6973206357
 30
0.0
 10
4.5016968425
 20
4.6952198542
 30
0.0
 10
4.5024195343
 20
4.6910359456
 30
0.0
 10
4.5042979047
 20
4.6860768159
 30
0.0
 10
4.5063264815
 20
4.6823694227
 30
0.0
 10
4.5080966783
 20
4.679735226
 30
0.0
 10
4.5100959973
 20
4.6772691858
 30
0.0
 10
4.5123067784
 20
4.6749893408
 30
0.0
 10
4.514708301
 20
4.6729096584
 30
0.0
 10
4.5181363796
 20
4.6704236747
 30
0.0
 10
4.522801385
 20
4.6678745048
 30
0.0
 10
4.5288235684
 20
4.6657830444
 30
0.0
 10
4.5330157936
 20
4.6650540774
 30
0.0
 10
4.5351243943
 20
4.6648565003
 30
0.0
  0
SPLINE
  5
3AE
100
AcDbEntity
  8
ALL_ASSEMBLY_MEMBERS
100
AcDbSpline
 62
7
  6
CONTINUOUS
 70
0
 71
3
 72
37
 73
33
 74
0
 42
0.0000001
 43
0.0000001
 44
0.0000000001
 40
0.0
 40
0.0
 40
0.0
 40
0.0
 40
0.0313345077
 40
0.0626963469
 40
0.0940098525
 40
0.1252776567
 40
0.156496932
 40
0.1876859693
 40
0.218844941
 40
0.2499900811
 40
0.2811430546
 40
0.3123146585
 40
0.3435205763
 40
0.3747635464
 40
0.4060451686
 40
0.437360419
 40
0.4999983604
 40
0.562636209
 40
0.5939513203
 40
0.6252327235
 40
0.6564755542
 40
0.6876813041
 40
0.7188528045
 40
0.7500057727
 40
0.7811506685
 40
0.8123097613
 40
0.8434982243
 40
0.874717537
 40
0.9059859558
 40
0.9373008381
 40
0.9686647398
 40
1.0
 40
1.0
 40
1.0
 40
1.0
 10
4.4855216976
 20
4.7054153727
 30
0.0
 10
4.4855216976
 20
4.7068886639
 30
0.0
 10
4.485698877
 20
4.7098393539
 30
0.0
 10
4.4864798457
 20
4.7141998286
 30
0.0
 10
4.4877650196
 20
4.7184361743
 30
0.0
 10
4.4895169456
 20
4.7224935742
 30
0.0
 10
4.4917024896
 20
4.7263275192
 30
0.0
 10
4.4942780395
 20
4.7299039361
 30
0.0
 10
4.49720273
 20
4.7331956274
 30
0.0
 10
4.5004362531
 20
4.7361812044
 30
0.0
 10
4.503938951
 20
4.7388461125
 30
0.0
 10
4.5076746405
 20
4.7411778881
 30
0.0
 10
4.5116077778
 20
4.743167327
 30
0.0
 10
4.5157048143
 20
4.7448058339
 30
0.0
 10
4.5199325569
 20
4.7460875796
 30
0.0
 10
4.5256979742
 20
4.7473129874
 30
0.0
 10
4.5330714573
 20
4.747929815
 30
0.0
 10
4.5404449431
 20
4.7473130667
 30
0.0
 10
4.546210346
 20
4.7460876962
 30
0.0
 10
4.5504380837
 20
4.7448060158
 30
0.0
 10
4.5545351109
 20
4.7431675515
 30
0.0
 10
4.558468254
 20
4.7411781683
 30
0.0
 10
4.5622039629
 20
4.7388464477
 30
0.0
 10
4.5657066777
 20
4.7361815905
 30
0.0
 10
4.5689402442
 20
4.7331960669
 30
0.0
 10
4.5718649244
 20
4.7299044147
 30
0.0
 10
4.5744405958
 20
4.7263281071
 30
0.0
 10
4.5766261158
 20
4.7224941433
 30
0.0
 10
4.5783782127
 20
4.7184367171
 30
0.0
 10
4.5796634704
 20
4.7142001894
 30
0.0
 10
4.5804444295
 20
4.7098395166
 30
0.0
 10
4.5806216976
 20
4.7068886993
 30
0.0
 10
4.5806216976
 20
4.7054153727
 30
0.0
  0
SPLINE
  5
3AF
100
AcDbEntity
  8
ALL_ASSEMBLY_MEMBERS
100
AcDbSpline
 62
7
  6
CONTINUOUS
 70
0
 71
3
 72
22
 73
18
 74
0
 42
0.0000001
 43
0.0000001
 44
0.0000000001
 40
0.0
 40
0.0
 40
0.0
 40
0.0
 40
0.0626828801
 40
0.1254317038
 40
0.1880943966
 40
0.2506657239
 40
0.3131447431
 40
0.375553077
 40
0.4379095423
 40
0.5002161934
 40
0.5625235924
 40
0.6248520294
 40
0.7495641037
 40
0.812076423
 40
0.8746605877
 40
0.9373069518
 40
1.0
 40
1.0
 40
1.0
 40
1.0
 10
4.5806216976
 20
4.7054153727
 30
0.0
 10
4.5806216976
 20
4.7040443762
 30
0.0
 10
4.5804681169
 20
4.7012986691
 30
0.0
 10
4.5797912296
 20
4.6972328391
 30
0.0
 10
4.578675196
 20
4.6932672136
 30
0.0
 10
4.5771479639
 20
4.6894481507
 30
0.0
 10
4.575237371
 20
4.6858123741
 30
0.0
 10
4.5729752882
 20
4.6823905109
 30
0.0
 10
4.5703969645
 20
4.6792055189
 30
0.0
 10
4.5675338663
 20
4.676277624
 30
0.0
 10
4.5644188852
 20
4.6736202716
 30
0.0
 10
4.5599719946
 20
4.6704538676
 30
0.0
 10
4.5551321783
 20
4.667865629
 30
0.0
 10
4.5500322249
 20
4.6658934
 30
0.0
 10
4.5460918442
 20
4.6647213115
 30
0.0
 10
4.5420680628
 20
4.663863475
 30
0.0
 10
4.5393471134
 20
4.663503011
 30
0.0
 10
4.537981804
 20
4.6633758443
 30
0.0
  0
SPLINE
  5
3B0
100
AcDbEntity
  8
ALL_ASSEMBLY_MEMBERS
100
AcDbSpline
 62
7
  6
CONTINUOUS
 70
0
 71
3
 72
23
 73
19
 74
0
 42
0.0000001
 43
0.0000001
 44
0.0000000001
 40
0.0
 40
0.0
 40
0.0
 40
0.0
 40
0.0626935097
 40
0.1253810348
 40
0.18803364
 40
0.2506278829
 40
0.3131455994
 40
0.3755833781
 40
0.4379440158
 40
0.5002453982
 40
0.5625208889
 40
0.6248010907
 40
0.6871407579
 40
0.7495398001
 40
0.8120378453
 40
0.874635772
 40
0.9373430843
 40
1.0
 40
1.0
 40
1.0
 40
1.0
 10
4.5367683119
 20
4.663276881
 30
0.0
 10
4.5352208441
 20
4.663168576
 30
0.0
 10
4.532114797
 20
4.6630880134
 30
0.0
 10
4.5274654597
 20
4.6633767263
 30
0.0
 10
4.5228614181
 20
4.6640721747
 30
0.0
 10
4.5183413248
 20
4.6651725088
 30
0.0
 10
4.5139428469
 20
4.666671712
 30
0.0
 10
4.5097045179
 20
4.6685636455
 30
0.0
 10
4.5056653135
 20
4.6708397955
 30
0.0
 10
4.5018653361
 20
4.6734898499
 30
0.0
 10
4.4983466842
 20
4.6765011321
 30
0.0
 10
4.4951532909
 20
4.6798575779
 30
0.0
 10
4.4923330185
 20
4.6835377377
 30
0.0
 10
4.4899318344
 20
4.6875113541
 30
0.0
 10
4.4880016283
 20
4.6917416032
 30
0.0
 10
4.4865821534
 20
4.6961784981
 30
0.0
 10
4.4857179625
 20
4.7007597967
 30
0.0
 10
4.4855216976
 20
4.7038650248
 30
0.0
 10
4.4855216976
 20
4.7054153727
 30
0.0
  0
SPLINE
  5
3B1
100
AcDbEntity
  8
ALL_ASSEMBLY_MEMBERS
100
AcDbSpline
 62
7
  6
CONTINUOUS
 70
0
 71
3
 72
23
 73
19
 74
0
 42
0.0000001
 43
0.0000001
 44
0.0000000001
 40
0.0
 40
0.0
 40
0.0
 40
0.0
 40
0.0639539268
 40
0.1257874571
 40
0.1857522344
 40
0.2442316502
 40
0.30173965
 40
0.3587941712
 40
0.4159366923
 40
0.4736840478
 40
0.5324847219
 40
0.5927528528
 40
0.6548348322
 40
0.7189964113
 40
0.7854572517
 40
0.8543818244
 40
0.9258766487
 40
1.0
 40
1.0
 40
1.0
 40
1.0
 10
4.1610716976
 20
4.9025213879
 30
0.0
 10
4.1610716976
 20
4.9040143716
 30
0.0
 10
4.1612011754
 20
4.9069528862
 30
0.0
 10
4.1618040223
 20
4.9112538631
 30
0.0
 10
4.1628092209
 20
4.9153485554
 30
0.0
 10
4.164211074
 20
4.9192179692
 30
0.0
 10
4.1659946205
 20
4.922851502
 30
0.0
 10
4.1681480532
 20
4.9262417276
 30
0.0
 10
4.1706554611
 20
4.9293856623
 30
0.0
 10
4.1734991977
 20
4.9322854045
 30
0.0
 10
4.1766641784
 20
4.9349443189
 30
0.0
 10
4.1801346889
 20
4.9373695725
 30
0.0
 10
4.1838962664
 20
4.9395707359
 30
0.0
 10
4.1879361733
 20
4.9415577445
 30
0.0
 10
4.1922426701
 20
4.9433412599
 30
0.0
 10
4.1968050178
 20
4.9449324739
 30
0.0
 10
4.2016127274
 20
4.9463425199
 30
0.0
 10
4.2049149647
 20
4.9471542563
 30
0.0
 10
4.2066029058
 20
4.9475351623
 30
0.0
  0
SPLINE
  5
3B2
100
AcDbEntity
  8
ALL_ASSEMBLY_MEMBERS
100
AcDbSpline
 62
7
  6
CONTINUOUS
 70
0
 71
3
 72
23
 73
19
 74
0
 42
0.0000001
 43
0.0000001
 44
0.0000000001
 40
0.0
 40
0.0
 40
0.0
 40
0.0
 40
0.0741248798
 40
0.1456210588
 40
0.2145467406
 40
0.2810084616
 40
0.345170721
 40
0.4072531275
 40
0.467521417
 40
0.5263220201
 40
0.5840689981
 40
0.6412108643
 40
0.6982645677
 40
0.7557715618
 40
0.8142500167
 40
0.8742141002
 40
0.936046878
 40
1.0
 40
1.0
 40
1.0
 40
1.0
 10
4.3205355708
 20
4.9475362719
 30
0.0
 10
4.3222236822
 20
4.9471553933
 30
0.0
 10
4.3255262535
 20
4.9463437092
 30
0.0
 10
4.3303344562
 20
4.944933733
 30
0.0
 10
4.3348972748
 20
4.943342577
 30
0.0
 10
4.33920422
 20
4.9415591051
 30
0.0
 10
4.3432445526
 20
4.9395721234
 30
0.0
 10
4.347006533
 20
4.9373709693
 30
0.0
 10
4.3504774212
 20
4.9349457033
 30
0.0
 10
4.3536427492
 20
4.9322867502
 30
0.0
 10
4.3564868049
 20
4.9293869473
 30
0.0
 10
4.3589944992
 20
4.9262429252
 30
0.0
 10
4.3611481767
 20
4.9228525807
 30
0.0
 10
4.3629319401
 20
4.9192189017
 30
0.0
 10
4.3643339636
 20
4.915349299
 30
0.0
 10
4.3653392727
 20
4.9112543786
 30
0.0
 10
4.3659422007
 20
4.9069531503
 30
0.0
 10
4.3660716976
 20
4.9040144603
 30
0.0
 10
4.3660716976
 20
4.902521388
 30
0.0
  0
SPLINE
  5
3B3
100
AcDbEntity
  8
ALL_ASSEMBLY_MEMBERS
100
AcDbSpline
 62
7
  6
CONTINUOUS
 70
0
 71
3
 72
15
 73
11
 74
0
 42
0.0000001
 43
0.0000001
 44
0.0000000001
 40
0.0
 40
0.0
 40
0.0
 40
0.0
 40
0.0414433687
 40
0.1545443019
 40
0.3155767614
 40
0.4999968917
 40
0.6844178382
 40
0.8454508257
 40
0.9585536103
 40
1.0
 40
1.0
 40
1.0
 40
1.0
 10
5.1355716976
 20
5.1904153727
 30
0.0
 10
5.1331727211
 20
5.1900487003
 30
0.0
 10
5.1242186437
 20
5.1887338182
 30
0.0
 10
5.1058765927
 20
5.1864549303
 30
0.0
 10
5.0791052169
 20
5.184236897
 30
0.0
 10
5.048072196
 20
5.1833347267
 30
0.0
 10
5.0170391423
 20
5.184236837
 30
0.0
 10
4.9902675762
 20
5.1864548429
 30
0.0
 10
4.971925209
 20
5.1887337523
 30
0.0
 10
4.9629708489
 20
5.1900486732
 30
0.0
 10
4.9605716976
 20
5.1904153727
 30
0.0
  0
ELLIPSE
  5
3B4
100
AcDbEntity
  8
ALL_ASSEMBLY_MEMBERS
100
AcDbEllipse
 62
7
  6
CONTINUOUS
 10
5.4388049731
 20
4.7054153727
 30
0.0
 11
-0.0
 21
0.48475
 31
0.0
 40
0.2210555332
 41
6.3004893413
 42
6.3175170955
  0
ELLIPSE
  5
3B5
100
AcDbEntity
  8
ALL_ASSEMBLY_MEMBERS
100
AcDbEllipse
 62
7
  6
CONTINUOUS
 10
5.4436257622
 20
4.7054153727
 30
0.0
 11
-0.0
 21
0.48475
 31
0.0
 40
0.7957997678
 41
6.2863035852
 42
6.3004893413
  0
ELLIPSE
  5
3B6
100
AcDbEntity
  8
ALL_ASSEMBLY_MEMBERS
100
AcDbEllipse
 62
7
  6
CONTINUOUS
 10
5.5123562163
 20
4.7054153727
 30
0.0
 11
0.0
 21
0.48475
 31
0.0
 40
0.7957996981
 41
-0.0173040341
 42
-0.0031182781
  0
ELLIPSE
  5
3B7
100
AcDbEntity
  8
ALL_ASSEMBLY_MEMBERS
100
AcDbEllipse
 62
7
  6
CONTINUOUS
 10
5.517177005
 20
4.7054153727
 30
0.0
 11
0.0
 21
0.48475
 31
0.0
 40
0.2210555139
 41
-0.0343317884
 42
-0.0173040341
  0
ELLIPSE
  5
3B8
100
AcDbEntity
  8
ALL_ASSEMBLY_MEMBERS
100
AcDbEllipse
 62
7
  6
CONTINUOUS
 10
5.5965597007
 20
4.7054153727
 30
0.0
 11
3.2147129739
 21
0.0
 31
0.0
 40
0.1507910672
 41
1.6102429677
 42
1.6130823074
  0
ELLIPSE
  5
3B9
100
AcDbEntity
  8
ALL_ASSEMBLY_MEMBERS
100
AcDbEllipse
 62
7
  6
CONTINUOUS
 10
5.5422004984
 20
4.7054153727
 30
0.0
 11
1.9288162072
 21
-0.0
 31
0.0
 40
0.2513199538
 41
1.6130823074
 42
1.6159220045
  0
ELLIPSE
  5
3BA
100
AcDbEntity
  8
ALL_ASSEMBLY_MEMBERS
100
AcDbEllipse
 62
7
  6
CONTINUOUS
 10
5.513197474
 20
4.7054153727
 30
0.0
 11
1.2858813755
 21
0.0
 31
0.0
 40
0.3769787861
 41
1.6159220045
 42
1.621602498
  0
ELLIPSE
  5
3BB
100
AcDbEntity
  8
ALL_ASSEMBLY_MEMBERS
100
AcDbEllipse
 62
7
  6
CONTINUOUS
 10
5.4805461375
 20
4.7054153727
 30
0.0
 11
0.6429400371
 21
-0.0
 31
0.0
 40
0.7539583352
 41
1.621602498
 42
1.6301263818
  0
ELLIPSE
  5
3BC
100
AcDbEntity
  8
ALL_ASSEMBLY_MEMBERS
100
AcDbEllipse
 62
7
  6
CONTINUOUS
 10
5.4652968023
 20
4.7054153727
 30
0.0
 11
-0.0
 21
0.48475
 31
0.0
 40
0.7957993124
 41
0.059330055
 42
0.0735464445
  0
ELLIPSE
  5
3BD
100
AcDbEntity
  8
ALL_ASSEMBLY_MEMBERS
100
AcDbEllipse
 62
7
  6
CONTINUOUS
 10
5.4448247121
 20
4.7054153727
 30
0.0
 11
-0.0
 21
0.48475
 31
0.0
 40
0.2210555332
 41
0.0735464445
 42
0.0906260353
  0
ELLIPSE
  5
3BE
100
AcDbEntity
  8
ALL_ASSEMBLY_MEMBERS
100
AcDbEllipse
 62
7
  6
CONTINUOUS
 10
5.5111572665
 20
4.7054153727
 30
0.0
 11
0.0
 21
0.48475
 31
0.0
 40
0.2210555139
 41
-0.0906260353
 42
-0.0735464445
  0
ELLIPSE
  5
3BF
100
AcDbEntity
  8
ALL_ASSEMBLY_MEMBERS
100
AcDbEllipse
 62
7
  6
CONTINUOUS
 10
5.4906851781
 20
4.7054153727
 30
0.0
 11
-0.0
 21
0.48475
 31
0.0
 40
0.7957992427
 41
-0.0735464445
 42
-0.059330055
  0
ELLIPSE
  5
3C0
100
AcDbEntity
  8
ALL_ASSEMBLY_MEMBERS
100
AcDbEllipse
 62
7
  6
CONTINUOUS
 10
5.4754358454
 20
4.7054153727
 30
0.0
 11
0.642939962
 21
-0.0
 31
0.0
 40
0.7539584232
 41
7.794651579
 42
7.8031754627
  0
ELLIPSE
  5
3C1
100
AcDbEntity
  8
ALL_ASSEMBLY_MEMBERS
100
AcDbEllipse
 62
7
  6
CONTINUOUS
 10
5.4427845165
 20
4.7054153727
 30
0.0
 11
1.2858811504
 21
-0.0
 31
0.0
 40
0.3769788521
 41
1.5199901556
 42
1.5256706491
  0
ELLIPSE
  5
3C2
100
AcDbEntity
  8
ALL_ASSEMBLY_MEMBERS
100
AcDbEllipse
 62
7
  6
CONTINUOUS
 10
5.4137814007
 20
4.7054153727
 30
0.0
 11
1.9288180083
 21
0.0
 31
0.0
 40
0.2513197191
 41
1.5256706491
 42
1.5285103462
  0
ELLIPSE
  5
3C3
100
AcDbEntity
  8
ALL_ASSEMBLY_MEMBERS
100
AcDbEllipse
 62
7
  6
CONTINUOUS
 10
5.3594223126
 20
4.7054153727
 30
0.0
 11
3.2147120734
 21
0.0
 31
0.0
 40
0.1507911094
 41
1.5285103462
 42
1.5313496859
  0
ELLIPSE
  5
3C4
100
AcDbEntity
  8
ALL_ASSEMBLY_MEMBERS
100
AcDbEllipse
 62
7
  6
CONTINUOUS
 10
5.5233726055
 20
4.7054153727
 30
0.0
 11
-0.0
 21
0.48475
 31
0.0
 40
0.2652667178
 41
0.0906260353
 42
0.1048790886
  0
ELLIPSE
  5
3C5
100
AcDbEntity
  8
ALL_ASSEMBLY_MEMBERS
100
AcDbEllipse
 62
7
  6
CONTINUOUS
 10
5.5547827232
 20
4.7054153727
 30
0.0
 11
0.0
 21
0.48475
 31
0.0
 40
0.8842220554
 41
0.1048790886
 42
0.1134410125
  0
ELLIPSE
  5
3C6
100
AcDbEntity
  8
ALL_ASSEMBLY_MEMBERS
100
AcDbEllipse
 62
7
  6
CONTINUOUS
 10
5.6154322451
 20
4.7054153727
 30
0.0
 11
0.9644099335
 21
-0.0
 31
0.0
 40
0.5026389538
 41
1.6842373393
 42
1.6956663613
  0
ELLIPSE
  5
3C7
100
AcDbEntity
  8
ALL_ASSEMBLY_MEMBERS
100
AcDbEllipse
 62
7
  6
CONTINUOUS
 10
5.9757736472
 20
4.7054153727
 30
0.0
 11
3.857654488
 21
0.0
 31
0.0
 40
0.1256592578
 41
1.6956663613
 42
1.6985261089
  0
ELLIPSE
  5
3C8
100
AcDbEntity
  8
ALL_ASSEMBLY_MEMBERS
100
AcDbEllipse
 62
7
  6
CONTINUOUS
 10
4.9802082158
 20
4.7054153727
 30
0.0
 11
3.8576553886
 21
0.0
 31
0.0
 40
0.1256592285
 41
1.4430665446
 42
1.4459262923
  0
ELLIPSE
  5
3C9
100
AcDbEntity
  8
ALL_ASSEMBLY_MEMBERS
100
AcDbEllipse
 62
7
  6
CONTINUOUS
 10
5.3405497722
 20
4.7054153727
 30
0.0
 11
0.9644095958
 21
0.0
 31
0.0
 40
0.5026391298
 41
1.4459262923
 42
1.4573553143
  0
ELLIPSE
  5
3CA
100
AcDbEntity
  8
ALL_ASSEMBLY_MEMBERS
100
AcDbEllipse
 62
7
  6
CONTINUOUS
 10
5.4011992558
 20
4.7054153727
 30
0.0
 11
-0.0
 21
0.48475
 31
0.0
 40
0.8842220554
 41
-0.1134410125
 42
-0.1048790886
  0
ELLIPSE
  5
3CB
100
AcDbEntity
  8
ALL_ASSEMBLY_MEMBERS
100
AcDbEllipse
 62
7
  6
CONTINUOUS
 10
5.4326093735
 20
4.7054153727
 30
0.0
 11
0.0
 21
0.48475
 31
0.0
 40
0.2652667178
 41
-0.1048790886
 42
-0.0906260353
  0
ELLIPSE
  5
3CC
100
AcDbEntity
  8
ALL_ASSEMBLY_MEMBERS
100
AcDbEllipse
 62
7
  6
CONTINUOUS
 10
5.5901779047
 20
4.7054153727
 30
0.0
 11
0.5716780154
 21
-0.4744956074
 31
0.0
 40
0.1734875795
 41
1.8341228243
 42
1.8564220296
  0
ELLIPSE
  5
3CD
100
AcDbEntity
  8
ALL_ASSEMBLY_MEMBERS
100
AcDbEllipse
 62
7
  6
CONTINUOUS
 10
5.5476177294
 20
4.7054153727
 30
0.0
 11
0.5716778757
 21
-0.4744956116
 31
0.0
 40
0.1734875871
 41
1.7601616376
 42
1.7823049235
  0
ELLIPSE
  5
3CE
100
AcDbEntity
  8
ALL_ASSEMBLY_MEMBERS
100
AcDbEllipse
 62
7
  6
CONTINUOUS
 10
5.4909522352
 20
4.7054153727
 30
0.0
 11
0.117123106
 21
0.4846535957
 31
0.0
 40
0.0825387411
 41
1.3243861563
 42
1.3391838673
  0
ELLIPSE
  5
3CF
100
AcDbEntity
  8
ALL_ASSEMBLY_MEMBERS
100
AcDbEllipse
 62
7
  6
CONTINUOUS
 10
5.5110342758
 20
4.7054153727
 30
0.0
 11
0.3205164298
 21
0.4819141273
 31
0.0
 40
0.1633544133
 41
1.4274608739
 42
1.438573063
  0
ELLIPSE
  5
3D0
100
AcDbEntity
  8
ALL_ASSEMBLY_MEMBERS
100
AcDbEllipse
 62
7
  6
CONTINUOUS
 10
5.5557582442
 20
4.7054153727
 30
0.0
 11
0.7387483593
 21
0.4700085841
 31
0.0
 40
0.1605905019
 41
1.5775999118
 42
1.5850154544
  0
ELLIPSE
  5
3D1
100
AcDbEntity
  8
ALL_ASSEMBLY_MEMBERS
100
AcDbEllipse
 62
7
  6
CONTINUOUS
 10
5.6417345959
 20
4.7054153727
 30
0.0
 11
1.4844556253
 21
0.4605286781
 31
0.0
 40
0.1019322549
 41
1.6552211679
 42
1.6589312972
  0
ELLIPSE
  5
3D2
100
AcDbEntity
  8
ALL_ASSEMBLY_MEMBERS
100
AcDbEllipse
 62
7
  6
CONTINUOUS
 10
5.283239338
 20
4.7054153727
 30
0.0
 11
1.4844549309
 21
-0.4605286823
 31
0.0
 40
0.1019322941
 41
1.4826613836
 42
1.4863715129
  0
ELLIPSE
  5
3D3
100
AcDbEntity
  8
ALL_ASSEMBLY_MEMBERS
100
AcDbEllipse
 62
7
  6
CONTINUOUS
 10
5.3692155893
 20
4.7054153727
 30
0.0
 11
0.7387485344
 21
-0.47000858
 31
0.0
 40
0.1605904861
 41
1.5565771643
 42
1.5639927069
  0
ELLIPSE
  5
3D4
100
AcDbEntity
  8
ALL_ASSEMBLY_MEMBERS
100
AcDbEllipse
 62
7
  6
CONTINUOUS
 10
5.4139395766
 20
4.7054153727
 30
0.0
 11
-0.3205164298
 21
0.4819141273
 31
0.0
 40
0.1633544133
 41
-1.438573063
 42
-1.4274608739
  0
ELLIPSE
  5
3D5
100
AcDbEntity
  8
ALL_ASSEMBLY_MEMBERS
100
AcDbEllipse
 62
7
  6
CONTINUOUS
 10
5.6784582812
 20
4.7054153727
 30
0.0
 11
3.8575848219
 21
0.456341581
 31
0.0
 40
0.0423861521
 41
-1.6322987713
 42
-1.629457479
  0
ELLIPSE
  5
3D6
100
AcDbEntity
  8
ALL_ASSEMBLY_MEMBERS
100
AcDbEllipse
 62
7
  6
CONTINUOUS
 10
5.4340216171
 20
4.7054153727
 30
0.0
 11
-0.117123106
 21
0.4846535957
 31
0.0
 40
0.0825387411
 41
-1.3391838673
 42
-1.3243861563
  0
ELLIPSE
  5
3D7
100
AcDbEntity
  8
ALL_ASSEMBLY_MEMBERS
100
AcDbEllipse
 62
7
  6
CONTINUOUS
 10
5.5151119085
 20
4.7054153727
 30
0.0
 11
0.9622071635
 21
0.4656770005
 31
0.0
 40
0.1399266045
 41
-1.7062712763
 42
-1.6949013418
  0
ELLIPSE
  5
3D8
100
AcDbEntity
  8
ALL_ASSEMBLY_MEMBERS
100
AcDbEllipse
 62
7
  6
CONTINUOUS
 10
5.4787824139
 20
4.7054153727
 30
0.0
 11
0.4203531079
 21
0.479141308
 31
0.0
 40
0.1749164141
 41
-1.8439863269
 42
-1.8354531791
  0
ELLIPSE
  5
3D9
100
AcDbEntity
  8
ALL_ASSEMBLY_MEMBERS
100
AcDbEllipse
 62
7
  6
CONTINUOUS
 10
5.4558843186
 20
4.7054153727
 30
0.0
 11
0.1217484006
 21
0.4846385345
 31
0.0
 40
0.0853799597
 41
-1.9890427863
 42
-1.9748081556
  0
ELLIPSE
  5
3DA
100
AcDbEntity
  8
ALL_ASSEMBLY_MEMBERS
100
AcDbEllipse
 62
7
  6
CONTINUOUS
 10
5.4622083982
 20
4.7054153727
 30
0.0
 11
0.9880542361
 21
0.465285186
 31
0.0
 40
0.1376303424
 41
1.5113205669
 42
1.5186896574
  0
ELLIPSE
  5
3DB
100
AcDbEntity
  8
ALL_ASSEMBLY_MEMBERS
100
AcDbEllipse
 62
7
  6
CONTINUOUS
 10
5.4580452267
 20
4.7054153727
 30
0.0
 11
0.6553159276
 21
0.4721187462
 31
0.0
 40
0.1677639688
 41
1.4631295299
 42
1.4741845703
  0
ELLIPSE
  5
3DC
100
AcDbEntity
  8
ALL_ASSEMBLY_MEMBERS
100
AcDbEllipse
 62
7
  6
CONTINUOUS
 10
5.4494529194
 20
4.7054153727
 30
0.0
 11
0.2873264341
 21
0.4826711449
 31
0.0
 40
0.1560789432
 41
1.3380452399
 42
1.356477401
  0
ELLIPSE
  5
3DD
100
AcDbEntity
  8
ALL_ASSEMBLY_MEMBERS
100
AcDbEllipse
 62
7
  6
CONTINUOUS
 10
5.4411181837
 20
4.7054153727
 30
0.0
 11
0.0934735408
 21
0.4847090996
 31
0.0
 40
0.0673658948
 41
1.2768224913
 42
1.2952689988
  0
ELLIPSE
  5
3DE
100
AcDbEntity
  8
ALL_ASSEMBLY_MEMBERS
100
AcDbEllipse
 62
7
  6
CONTINUOUS
 10
5.4838556679
 20
4.7054153727
 30
0.0
 11
-0.0934735326
 21
0.4847090996
 31
0.0
 40
0.0673658893
 41
-1.2952689966
 42
-1.2768224891
  0
ELLIPSE
  5
3DF
100
AcDbEntity
  8
ALL_ASSEMBLY_MEMBERS
100
AcDbEllipse
 62
7
  6
CONTINUOUS
 10
5.4755209329
 20
4.7054153727
 30
0.0
 11
-0.287326408
 21
0.4826711454
 31
0.0
 40
0.1560789367
 41
-1.3564773887
 42
-1.3380452276
  0
ELLIPSE
  5
3E0
100
AcDbEntity
  8
ALL_ASSEMBLY_MEMBERS
100
AcDbEllipse
 62
7
  6
CONTINUOUS
 10
5.5000976605
 20
4.7054153727
 30
0.0
 11
-0.1217484006
 21
0.4846385345
 31
0.0
 40
0.0853799597
 41
-4.3083771516
 42
-4.2941425209
  0
ELLIPSE
  5
3E1
100
AcDbEntity
  8
ALL_ASSEMBLY_MEMBERS
100
AcDbEllipse
 62
7
  6
CONTINUOUS
 10
5.4771995652
 20
4.7054153727
 30
0.0
 11
-0.4203531079
 21
0.479141308
 31
0.0
 40
0.1749164141
 41
-4.4477321281
 42
-4.4391989803
  0
ELLIPSE
  5
3E2
100
AcDbEntity
  8
ALL_ASSEMBLY_MEMBERS
100
AcDbEllipse
 62
7
  6
CONTINUOUS
 10
5.4408700477
 20
4.7054153727
 30
0.0
 11
0.962207503
 21
-0.4656769952
 31
0.0
 40
0.1399265741
 41
-1.4466913509
 42
-1.4353214165
  0
ELLIPSE
  5
3E3
100
AcDbEntity
  8
ALL_ASSEMBLY_MEMBERS
100
AcDbEllipse
 62
7
  6
CONTINUOUS
 10
5.2775237449
 20
4.7054153727
 30
0.0
 11
3.8575839213
 21
-0.4563415814
 31
0.0
 40
0.0423861617
 41
-1.5121351722
 42
-1.5092938799
  0
ELLIPSE
  5
3E4
100
AcDbEntity
  8
ALL_ASSEMBLY_MEMBERS
100
AcDbEllipse
 62
7
  6
CONTINUOUS
 10
5.6001065115
 20
4.7054153727
 30
0.0
 11
0.7463252756
 21
-0.4698307894
 31
0.0
 40
0.1599009769
 41
-1.6130857077
 42
-1.5959095904
  0
ELLIPSE
  5
3E5
100
AcDbEntity
  8
ALL_ASSEMBLY_MEMBERS
100
AcDbEllipse
 62
7
  6
CONTINUOUS
 10
5.4797187931
 20
4.7054153727
 30
0.0
 11
0.5597140252
 21
-0.4748533936
 31
0.0
 40
0.1741096516
 41
-1.4868806225
 42
-1.4159149133
  0
ELLIPSE
  5
3E6
100
AcDbEntity
  8
ALL_ASSEMBLY_MEMBERS
100
AcDbEllipse
 62
7
  6
CONTINUOUS
 10
5.4764382901
 20
4.7054153727
 30
0.0
 11
0.9622042765
 21
-0.4656770454
 31
0.0
 40
0.139926863
 41
-1.4949495759
 42
-1.489275252
  0
ELLIPSE
  5
3E7
100
AcDbEntity
  8
ALL_ASSEMBLY_MEMBERS
100
AcDbEllipse
 62
7
  6
CONTINUOUS
 10
5.4540901766
 20
4.7054153727
 30
0.0
 11
2.5716108227
 21
-0.4573304865
 31
0.0
 40
0.0624983615
 41
-1.5457781432
 42
-1.5429408411
  0
ELLIPSE
  5
3E8
100
AcDbEntity
  8
ALL_ASSEMBLY_MEMBERS
100
AcDbEllipse
 62
7
  6
CONTINUOUS
 10
5.5438439708
 20
4.7054153727
 30
0.0
 11
2.5716108227
 21
0.4573304865
 31
0.0
 40
0.0624983615
 41
-1.5986518125
 42
-1.5958145104
  0
ELLIPSE
  5
3E9
100
AcDbEntity
  8
ALL_ASSEMBLY_MEMBERS
100
AcDbEllipse
 62
7
  6
CONTINUOUS
 10
5.5170262884
 20
4.7054153727
 30
0.0
 11
0.6379530235
 21
0.4725921354
 31
0.0
 40
0.1691116546
 41
-1.7093280947
 42
-1.6979797282
  0
ELLIPSE
  5
3EA
100
AcDbEntity
  8
ALL_ASSEMBLY_MEMBERS
100
AcDbEllipse
 62
7
  6
CONTINUOUS
 10
5.5305530578
 20
4.7054153727
 30
0.0
 11
0.10123742
 21
0.4846944896
 31
0.0
 40
0.0724615456
 41
-2.012460577
 42
-1.9953544323
  0
ELLIPSE
  5
3EB
100
AcDbEntity
  8
ALL_ASSEMBLY_MEMBERS
100
AcDbEllipse
 62
7
  6
CONTINUOUS
 10
5.5605100208
 20
4.7054153727
 30
0.0
 11
0.3768576551
 21
0.4804196369
 31
0.0
 40
0.1715483869
 41
-1.9081086021
 42
-1.8938294856
  0
ELLIPSE
  5
3EC
100
AcDbEntity
  8
ALL_ASSEMBLY_MEMBERS
100
AcDbEllipse
 62
7
  6
CONTINUOUS
 10
5.5162047151
 20
4.7054153727
 30
0.0
 11
0.3118799231
 21
0.4821211713
 31
0.0
 40
0.1616508637
 41
-1.8182260229
 42
-1.8068779936
  0
ELLIPSE
  5
3ED
100
AcDbEntity
  8
ALL_ASSEMBLY_MEMBERS
100
AcDbEllipse
 62
7
  6
CONTINUOUS
 10
5.5918105825
 20
4.7054153727
 30
0.0
 11
0.6379533341
 21
0.4725921268
 31
0.0
 40
0.1691116311
 41
-1.8260145634
 42
-1.8174352631
  0
ELLIPSE
  5
3EE
100
AcDbEntity
  8
ALL_ASSEMBLY_MEMBERS
100
AcDbEllipse
 62
7
  6
CONTINUOUS
 10
5.6755337335
 20
4.7054153727
 30
0.0
 11
1.2847916974
 21
0.4619431809
 31
0.0
 40
0.1143679302
 41
-1.7482093125
 42
-1.7424844324
  0
ELLIPSE
  5
3EF
100
AcDbEntity
  8
ALL_ASSEMBLY_MEMBERS
100
AcDbEllipse
 62
7
  6
CONTINUOUS
 10
5.5180890086
 20
4.7054153727
 30
0.0
 11
0.10123742
 21
0.4846944896
 31
0.0
 40
0.0724615456
 41
-1.89593605
 42
-1.8789114217
  0
ELLIPSE
  5
3F0
100
AcDbEntity
  8
ALL_ASSEMBLY_MEMBERS
100
AcDbEllipse
 62
7
  6
CONTINUOUS
 10
5.7629068032
 20
4.7054153727
 30
0.0
 11
1.9284678459
 21
0.4586391126
 31
0.0
 40
0.0813849018
 41
-1.7293289027
 42
-1.7264648042
  0
ELLIPSE
  5
3F1
100
AcDbEntity
  8
ALL_ASSEMBLY_MEMBERS
100
AcDbEllipse
 62
7
  6
CONTINUOUS
 10
5.9412982176
 20
4.7054153727
 30
0.0
 11
3.2146291591
 21
0.4566950122
 31
0.0
 40
0.0505558762
 41
-1.7200233845
 42
-1.7171581365
  0
ELLIPSE
  5
3F2
100
AcDbEntity
  8
ALL_ASSEMBLY_MEMBERS
100
AcDbEllipse
 62
7
  6
CONTINUOUS
 10
5.0146836327
 20
4.7054153727
 30
0.0
 11
3.2146300597
 21
-0.4566950116
 31
0.0
 40
0.0505558626
 41
-1.4244345211
 42
-1.421569273
  0
ELLIPSE
  5
3F3
100
AcDbEntity
  8
ALL_ASSEMBLY_MEMBERS
100
AcDbEllipse
 62
7
  6
CONTINUOUS
 10
5.193075422
 20
4.7054153727
 30
0.0
 11
1.9284660439
 21
-0.458639118
 31
0.0
 40
0.0813849697
 41
-1.4151278149
 42
-1.4122637165
  0
ELLIPSE
  5
3F4
100
AcDbEntity
  8
ALL_ASSEMBLY_MEMBERS
100
AcDbEllipse
 62
7
  6
CONTINUOUS
 10
5.5667266892
 20
4.7054153727
 30
0.0
 11
0.9622070503
 21
-0.4656770023
 31
0.0
 40
0.1399266146
 41
-1.5716017881
 42
-1.5659156053
  0
ELLIPSE
  5
3F5
100
AcDbEntity
  8
ALL_ASSEMBLY_MEMBERS
100
AcDbEllipse
 62
7
  6
CONTINUOUS
 10
5.2804482162
 20
4.7054153727
 30
0.0
 11
1.2847919231
 21
-0.461943179
 31
0.0
 40
0.1143679148
 41
-1.3991082341
 42
-1.393383354
  0
ELLIPSE
  5
3F6
100
AcDbEntity
  8
ALL_ASSEMBLY_MEMBERS
100
AcDbEllipse
 62
7
  6
CONTINUOUS
 10
5.3641713868
 20
4.7054153727
 30
0.0
 11
0.6379534101
 21
-0.4725921247
 31
0.0
 40
0.1691116253
 41
-1.3241574099
 42
-1.3155781096
  0
ELLIPSE
  5
3F7
100
AcDbEntity
  8
ALL_ASSEMBLY_MEMBERS
100
AcDbEllipse
 62
7
  6
CONTINUOUS
 10
5.5331357834
 20
4.7054153727
 30
0.0
 11
-0.4203531079
 21
0.479141308
 31
0.0
 40
0.1749164141
 41
-4.5783263692
 42
-4.5698008357
  0
ELLIPSE
  5
3F8
100
AcDbEntity
  8
ALL_ASSEMBLY_MEMBERS
100
AcDbEllipse
 62
7
  6
CONTINUOUS
 10
5.3954719535
 20
4.7054153727
 30
0.0
 11
-0.3768576893
 21
0.480419636
 31
0.0
 40
0.1715483905
 41
-4.3893558366
 42
-4.3750767201
  0
ELLIPSE
  5
3F9
100
AcDbEntity
  8
ALL_ASSEMBLY_MEMBERS
100
AcDbEllipse
 62
7
  6
CONTINUOUS
 10
5.5168785171
 20
4.7054153727
 30
0.0
 11
-0.1217484712
 21
0.4846385342
 31
0.0
 40
0.0853800028
 41
-4.4389790303
 42
-4.4247782581
  0
ELLIPSE
  5
3FA
100
AcDbEntity
  8
ALL_ASSEMBLY_MEMBERS
100
AcDbEllipse
 62
7
  6
CONTINUOUS
 10
5.4254289192
 20
4.7054153727
 30
0.0
 11
-0.101237429
 21
0.4846944896
 31
0.0
 40
0.0724615514
 41
-4.2878308774
 42
-4.2707247327
  0
ELLIPSE
  5
3FB
100
AcDbEntity
  8
ALL_ASSEMBLY_MEMBERS
100
AcDbEllipse
 62
7
  6
CONTINUOUS
 10
5.4338454278
 20
4.7054153727
 30
0.0
 11
1.9288162072
 21
0.0
 31
0.0
 40
0.2513199538
 41
7.8400775852
 42
7.8429147916
  0
ELLIPSE
  5
3FC
100
AcDbEntity
  8
ALL_ASSEMBLY_MEMBERS
100
AcDbEllipse
 62
7
  6
CONTINUOUS
 10
5.4159668324
 20
4.7054153727
 30
0.0
 11
3.2147129739
 21
0.0
 31
0.0
 40
0.1507910672
 41
7.837240283
 42
7.8400775852
  0
ELLIPSE
  5
3FD
100
AcDbEntity
  8
ALL_ASSEMBLY_MEMBERS
100
AcDbEllipse
 62
7
  6
CONTINUOUS
 10
5.5400151303
 20
4.7054153727
 30
0.0
 11
3.2147120734
 21
0.0
 31
0.0
 40
0.1507911094
 41
1.5847003756
 42
1.5875376778
  0
ELLIPSE
  5
3FE
100
AcDbEntity
  8
ALL_ASSEMBLY_MEMBERS
100
AcDbEllipse
 62
7
  6
CONTINUOUS
 10
5.4558843186
 20
4.7054153727
 30
0.0
 11
0.0
 21
0.48475
 31
0.0
 40
0.2652664142
 41
0.0763914046
 42
0.0906260353
  0
ELLIPSE
  5
3FF
100
AcDbEntity
  8
ALL_ASSEMBLY_MEMBERS
100
AcDbEllipse
 62
7
  6
CONTINUOUS
 10
5.4787824139
 20
4.7054153727
 30
0.0
 11
-0.0
 21
0.48475
 31
0.0
 40
0.8842220554
 41
0.0678582568
 42
0.0763914046
  0
ELLIPSE
  5
400
100
AcDbEntity
  8
ALL_ASSEMBLY_MEMBERS
100
AcDbEllipse
 62
7
  6
CONTINUOUS
 10
5.5151119085
 20
4.7054153727
 30
0.0
 11
0.9644109754
 21
-0.0
 31
0.0
 40
0.5026384108
 41
1.6272846492
 42
1.6386545836
  0
ELLIPSE
  5
401
100
AcDbEntity
  8
ALL_ASSEMBLY_MEMBERS
100
AcDbEllipse
 62
7
  6
CONTINUOUS
 10
5.5151119085
 20
4.7054153727
 30
0.0
 11
0.9595037988
 21
-0.0
 31
0.0
 40
0.5026384108
 41
1.6275738566
 42
1.6336193552
  0
ELLIPSE
  5
402
100
AcDbEntity
  8
ALL_ASSEMBLY_MEMBERS
100
AcDbEllipse
 62
7
  6
CONTINUOUS
 10
5.6784582812
 20
4.7054153727
 30
0.0
 11
3.857633315
 21
-0.0
 31
0.0
 40
0.1256599475
 41
1.6244433569
 42
1.6272846492
  0
ELLIPSE
  5
403
100
AcDbEntity
  8
ALL_ASSEMBLY_MEMBERS
100
AcDbEllipse
 62
7
  6
CONTINUOUS
 10
5.6784582812
 20
4.7054153727
 30
0.0
 11
3.8380046625
 21
-0.0
 31
0.0
 40
0.1256599475
 41
1.6247179887
 42
1.6275738566
  0
ELLIPSE
  5
404
100
AcDbEntity
  8
ALL_ASSEMBLY_MEMBERS
100
AcDbEllipse
 62
7
  6
CONTINUOUS
 10
5.5221365725
 20
4.7054153727
 30
0.0
 11
1.9288180083
 21
-0.0
 31
0.0
 40
0.2513197191
 41
1.5818631691
 42
1.5847003756
  0
ELLIPSE
  5
405
100
AcDbEntity
  8
ALL_ASSEMBLY_MEMBERS
100
AcDbEllipse
 62
7
  6
CONTINUOUS
 10
5.5150214369
 20
4.7054153727
 30
0.0
 11
1.2858811504
 21
0.0
 31
0.0
 40
0.3769788521
 41
1.5761890168
 42
1.5818631691
  0
ELLIPSE
  5
406
100
AcDbEntity
  8
ALL_ASSEMBLY_MEMBERS
100
AcDbEllipse
 62
7
  6
CONTINUOUS
 10
5.5755858753
 20
4.7054153727
 30
0.0
 11
0.57167825
 21
-0.4744956005
 31
0.0
 40
0.1734875667
 41
1.8341227539
 42
1.8564219592
  0
ELLIPSE
  5
407
100
AcDbEntity
  8
ALL_ASSEMBLY_MEMBERS
100
AcDbEllipse
 62
7
  6
CONTINUOUS
 10
5.5755858753
 20
4.7054153727
 30
0.0
 11
0.5687694008
 21
-0.4720812421
 31
0.0
 40
0.1734875667
 41
8.1199044316
 42
8.140341655
  0
ELLIPSE
  5
408
100
AcDbEntity
  8
ALL_ASSEMBLY_MEMBERS
100
AcDbEllipse
 62
7
  6
CONTINUOUS
 10
5.5115542712
 20
4.7054153727
 30
0.0
 11
0.642939962
 21
0.0
 31
0.0
 40
0.7539584232
 41
7.8508633559
 42
7.859374324
  0
ELLIPSE
  5
409
100
AcDbEntity
  8
ALL_ASSEMBLY_MEMBERS
100
AcDbEllipse
 62
7
  6
CONTINUOUS
 10
5.5330256829
 20
4.7054153727
 30
0.0
 11
0.5716781103
 21
-0.4744956046
 31
0.0
 40
0.1734875743
 41
1.7601615672
 42
1.7823048532
  0
ELLIPSE
  5
40A
100
AcDbEntity
  8
ALL_ASSEMBLY_MEMBERS
100
AcDbEllipse
 62
7
  6
CONTINUOUS
 10
5.5330256829
 20
4.7054153727
 30
0.0
 11
0.5687692618
 21
-0.4720812463
 31
0.0
 40
0.1734875743
 41
8.0454832217
 42
8.0658410218
  0
ELLIPSE
  5
40B
100
AcDbEntity
  8
ALL_ASSEMBLY_MEMBERS
100
AcDbEllipse
 62
7
  6
CONTINUOUS
 10
5.4619073672
 20
4.7054153727
 30
0.0
 11
-0.3622025764
 21
0.4808294012
 31
0.0
 40
0.1698707729
 41
-1.3947898515
 42
-1.3800412872
  0
ELLIPSE
  5
40C
100
AcDbEntity
  8
ALL_ASSEMBLY_MEMBERS
100
AcDbEllipse
 62
7
  6
CONTINUOUS
 10
5.4619073672
 20
4.7054153727
 30
0.0
 11
-0.3603595945
 21
0.4783828148
 31
0.0
 40
0.1698707729
 41
-1.3950241974
 42
-1.3802000911
  0
ELLIPSE
  5
40D
100
AcDbEntity
  8
ALL_ASSEMBLY_MEMBERS
100
AcDbEllipse
 62
7
  6
CONTINUOUS
 10
5.4732377881
 20
4.7054153727
 30
0.0
 11
-0.1171229363
 21
0.4846535963
 31
0.0
 40
0.082538636
 41
-1.3022224851
 42
-1.2874639355
  0
ELLIPSE
  5
40E
100
AcDbEntity
  8
ALL_ASSEMBLY_MEMBERS
100
AcDbEllipse
 62
7
  6
CONTINUOUS
 10
5.4732377881
 20
4.7054153727
 30
0.0
 11
-0.116526984
 21
0.4821875514
 31
0.0
 40
0.082538636
 41
4.9806527798
 42
4.9954870257
  0
ELLIPSE
  5
40F
100
AcDbEntity
  8
ALL_ASSEMBLY_MEMBERS
100
AcDbEllipse
 62
7
  6
CONTINUOUS
 10
5.4254289192
 20
4.7054153727
 30
0.0
 11
0.0
 21
0.48475
 31
0.0
 40
0.2210555332
 41
-0.10773218
 42
-0.0906260353
  0
ELLIPSE
  5
410
100
AcDbEntity
  8
ALL_ASSEMBLY_MEMBERS
100
AcDbEllipse
 62
7
  6
CONTINUOUS
 10
5.4254289192
 20
4.7054153727
 30
0.0
 11
0.0
 21
0.4822834646
 31
0.0
 40
0.2210555332
 41
-0.1082853113
 42
-0.0910908057
  0
ELLIPSE
  5
411
100
AcDbEntity
  8
ALL_ASSEMBLY_MEMBERS
100
AcDbEllipse
 62
7
  6
CONTINUOUS
 10
5.3954719535
 20
4.7054153727
 30
0.0
 11
-0.0
 21
0.48475
 31
0.0
 40
0.7958002231
 41
-0.1220112966
 42
-0.10773218
  0
ELLIPSE
  5
412
100
AcDbEntity
  8
ALL_ASSEMBLY_MEMBERS
100
AcDbEllipse
 62
7
  6
CONTINUOUS
 10
5.3954719535
 20
4.7054153727
 30
0.0
 11
-0.0
 21
0.4822834646
 31
0.0
 40
0.7958002231
 41
-0.1226384364
 42
-0.1082853113
  0
ELLIPSE
  5
413
100
AcDbEntity
  8
ALL_ASSEMBLY_MEMBERS
100
AcDbEllipse
 62
7
  6
CONTINUOUS
 10
5.3641713868
 20
4.7054153727
 30
0.0
 11
0.6429400371
 21
0.0
 31
0.0
 40
0.7539583352
 41
1.4402057299
 42
1.4487850302
  0
ELLIPSE
  5
414
100
AcDbEntity
  8
ALL_ASSEMBLY_MEMBERS
100
AcDbEllipse
 62
7
  6
CONTINUOUS
 10
5.3641713868
 20
4.7054153727
 30
0.0
 11
0.6396685892
 21
0.0
 31
0.0
 40
0.7539583352
 41
1.4395339999
 42
1.4481578904
  0
ELLIPSE
  5
415
100
AcDbEntity
  8
ALL_ASSEMBLY_MEMBERS
100
AcDbEllipse
 62
7
  6
CONTINUOUS
 10
5.4517360642
 20
4.7054153727
 30
0.0
 11
0.1171229363
 21
0.4846535963
 31
0.0
 40
0.082538636
 41
1.2874639355
 42
1.3022224851
  0
ELLIPSE
  5
416
100
AcDbEntity
  8
ALL_ASSEMBLY_MEMBERS
100
AcDbEllipse
 62
7
  6
CONTINUOUS
 10
5.4517360642
 20
4.7054153727
 30
0.0
 11
0.116526984
 21
0.4821875514
 31
0.0
 40
0.082538636
 41
1.2876982814
 42
1.3025325273
  0
ELLIPSE
  5
417
100
AcDbEntity
  8
ALL_ASSEMBLY_MEMBERS
100
AcDbEllipse
 62
7
  6
CONTINUOUS
 10
5.4326093735
 20
4.7054153727
 30
0.0
 11
-0.1211290532
 21
0.4821725657
 31
0.0
 40
0.0853800458
 41
-4.2918879649
 42
-4.2793511418
  0
ELLIPSE
  5
418
100
AcDbEntity
  8
ALL_ASSEMBLY_MEMBERS
100
AcDbEllipse
 62
7
  6
CONTINUOUS
 10
5.4611780787
 20
4.7054153727
 30
0.0
 11
0.3205164298
 21
0.4819141273
 31
0.0
 40
0.1633544133
 41
1.364678812
 42
1.3757409965
  0
ELLIPSE
  5
419
100
AcDbEntity
  8
ALL_ASSEMBLY_MEMBERS
100
AcDbEllipse
 62
7
  6
CONTINUOUS
 10
5.4611780787
 20
4.7054153727
 30
0.0
 11
0.318885558
 21
0.4794620215
 31
0.0
 40
0.1633544133
 41
1.3648564897
 42
1.3759753424
  0
ELLIPSE
  5
41A
100
AcDbEntity
  8
ALL_ASSEMBLY_MEMBERS
100
AcDbEllipse
 62
7
  6
CONTINUOUS
 10
5.4840964774
 20
4.7054153727
 30
0.0
 11
0.9880542361
 21
0.465285186
 31
0.0
 40
0.1376303424
 41
1.533430284
 42
1.5408026323
  0
ELLIPSE
  5
41B
100
AcDbEntity
  8
ALL_ASSEMBLY_MEMBERS
100
AcDbEllipse
 62
7
  6
CONTINUOUS
 10
5.4840964774
 20
4.7054153727
 30
0.0
 11
0.9830267564
 21
0.4629176926
 31
0.0
 40
0.1376303424
 41
1.5335702205
 42
1.5409803099
  0
ELLIPSE
  5
41C
100
AcDbEntity
  8
ALL_ASSEMBLY_MEMBERS
100
AcDbEllipse
 62
7
  6
CONTINUOUS
 10
5.4326093735
 20
4.7054153727
 30
0.0
 11
-0.1217485418
 21
0.484638534
 31
0.0
 40
0.0853800458
 41
-4.2941425674
 42
-4.2798895141
  0
ELLIPSE
  5
41D
100
AcDbEntity
  8
ALL_ASSEMBLY_MEMBERS
100
AcDbEllipse
 62
7
  6
CONTINUOUS
 10
5.2804482162
 20
4.7054153727
 30
0.0
 11
1.2858776966
 21
0.0
 31
0.0
 40
0.3769798646
 41
7.7176661569
 42
7.7233910371
  0
ELLIPSE
  5
41E
100
AcDbEntity
  8
ALL_ASSEMBLY_MEMBERS
100
AcDbEllipse
 62
7
  6
CONTINUOUS
 10
5.2804482162
 20
4.7054153727
 30
0.0
 11
1.2793348128
 21
-0.0
 31
0.0
 40
0.3769798646
 41
1.4337793091
 42
1.4395339999
  0
ELLIPSE
  5
41F
100
AcDbEntity
  8
ALL_ASSEMBLY_MEMBERS
100
AcDbEllipse
 62
7
  6
CONTINUOUS
 10
5.4011992558
 20
4.7054153727
 30
0.0
 11
-0.4182142408
 21
0.4767033111
 31
0.0
 40
0.1749164141
 41
-4.4101729241
 42
-4.4015666817
  0
ELLIPSE
  5
420
100
AcDbEntity
  8
ALL_ASSEMBLY_MEMBERS
100
AcDbEllipse
 62
7
  6
CONTINUOUS
 10
5.4011992558
 20
4.7054153727
 30
0.0
 11
-0.4203531079
 21
0.479141308
 31
0.0
 40
0.1749164141
 41
-4.4107112963
 42
-4.4021493725
  0
ELLIPSE
  5
421
100
AcDbEntity
  8
ALL_ASSEMBLY_MEMBERS
100
AcDbEllipse
 62
7
  6
CONTINUOUS
 10
5.193075422
 20
4.7054153727
 30
0.0
 11
1.928827244
 21
-0.0
 31
0.0
 40
0.2513185157
 41
1.4316167513
 42
1.4344808497
  0
ELLIPSE
  5
422
100
AcDbEntity
  8
ALL_ASSEMBLY_MEMBERS
100
AcDbEllipse
 62
7
  6
CONTINUOUS
 10
5.3405497722
 20
4.7054153727
 30
0.0
 11
0.9573098206
 21
-0.463307535
 31
0.0
 40
0.1399267287
 41
-1.3891557708
 42
-1.3776674525
  0
ELLIPSE
  5
423
100
AcDbEntity
  8
ALL_ASSEMBLY_MEMBERS
100
AcDbEllipse
 62
7
  6
CONTINUOUS
 10
5.3405497722
 20
4.7054153727
 30
0.0
 11
0.9622057766
 21
-0.4656770221
 31
0.0
 40
0.1399267287
 41
-1.3897384615
 42
-1.3783094395
  0
ELLIPSE
  5
424
100
AcDbEntity
  8
ALL_ASSEMBLY_MEMBERS
100
AcDbEllipse
 62
7
  6
CONTINUOUS
 10
5.193075422
 20
4.7054153727
 30
0.0
 11
1.9190128639
 21
-0.0
 31
0.0
 40
0.2513185157
 41
1.4309002792
 42
1.4337793091
  0
ELLIPSE
  5
425
100
AcDbEntity
  8
ALL_ASSEMBLY_MEMBERS
100
AcDbEllipse
 62
7
  6
CONTINUOUS
 10
4.9802082158
 20
4.7054153727
 30
0.0
 11
3.8379783783
 21
-0.4540195858
 31
0.0
 40
0.0423859163
 41
-1.4402702398
 42
-1.4373956289
  0
ELLIPSE
  5
426
100
AcDbEntity
  8
ALL_ASSEMBLY_MEMBERS
100
AcDbEllipse
 62
7
  6
CONTINUOUS
 10
4.9802082158
 20
4.7054153727
 30
0.0
 11
3.8576068963
 21
-0.4563415717
 31
0.0
 40
0.0423859163
 41
-1.4409122269
 42
-1.4380524792
  0
ELLIPSE
  5
427
100
AcDbEntity
  8
ALL_ASSEMBLY_MEMBERS
100
AcDbEllipse
 62
7
  6
CONTINUOUS
 10
5.4269466312
 20
4.7054153727
 30
0.0
 11
-0.0934736487
 21
0.4847090994
 31
0.0
 40
0.0673659664
 41
-1.3359330152
 42
-1.3174326445
  0
ELLIPSE
  5
428
100
AcDbEntity
  8
ALL_ASSEMBLY_MEMBERS
100
AcDbEllipse
 62
7
  6
CONTINUOUS
 10
5.4269466312
 20
4.7054153727
 30
0.0
 11
-0.0929980302
 21
0.4822427721
 31
0.0
 40
0.0673659664
 41
-1.3364524313
 42
-1.3178566306
  0
ELLIPSE
  5
429
100
AcDbEntity
  8
ALL_ASSEMBLY_MEMBERS
100
AcDbEllipse
 62
7
  6
CONTINUOUS
 10
5.0146836327
 20
4.7054153727
 30
0.0
 11
3.2147129739
 21
-0.0
 31
0.0
 40
0.1507910672
 41
1.4287515033
 42
1.4316167513
  0
ELLIPSE
  5
42A
100
AcDbEntity
  8
ALL_ASSEMBLY_MEMBERS
100
AcDbEllipse
 62
7
  6
CONTINUOUS
 10
5.4069382476
 20
4.7054153727
 30
0.0
 11
-0.2873264341
 21
0.4826711449
 31
0.0
 40
0.1560789432
 41
-1.4341230973
 42
-1.4155878961
  0
ELLIPSE
  5
42B
100
AcDbEntity
  8
ALL_ASSEMBLY_MEMBERS
100
AcDbEllipse
 62
7
  6
CONTINUOUS
 10
5.4069382476
 20
4.7054153727
 30
0.0
 11
-0.2858644416
 21
0.4802151872
 31
0.0
 40
0.1560789432
 41
-1.4347384861
 42
-1.4161073122
  0
ELLIPSE
  5
42C
100
AcDbEntity
  8
ALL_ASSEMBLY_MEMBERS
100
AcDbEllipse
 62
7
  6
CONTINUOUS
 10
5.3635682142
 20
4.7054153727
 30
0.0
 11
0.6553159276
 21
-0.4721187462
 31
0.0
 40
0.1677639688
 41
1.5601896397
 42
1.5713302259
  0
ELLIPSE
  5
42D
100
AcDbEntity
  8
ALL_ASSEMBLY_MEMBERS
100
AcDbEllipse
 62
7
  6
CONTINUOUS
 10
5.3635682142
 20
4.7054153727
 30
0.0
 11
0.6519815079
 21
-0.4697164819
 31
0.0
 40
0.1677639688
 41
1.5595163628
 42
1.5707148371
  0
ELLIPSE
  5
42E
100
AcDbEntity
  8
ALL_ASSEMBLY_MEMBERS
100
AcDbEllipse
 62
7
  6
CONTINUOUS
 10
5.2881866863
 20
4.7054153727
 30
0.0
 11
1.2364591409
 21
-0.462368365
 31
0.0
 40
0.1177519922
 41
1.4764767822
 42
1.4839128544
  0
ELLIPSE
  5
42F
100
AcDbEntity
  8
ALL_ASSEMBLY_MEMBERS
100
AcDbEllipse
 62
7
  6
CONTINUOUS
 10
5.2881866863
 20
4.7054153727
 30
0.0
 11
1.2301677117
 21
-0.4600157132
 31
0.0
 40
0.1177519922
 41
1.475764772
 42
1.4832395775
  0
ELLIPSE
  5
430
100
AcDbEntity
  8
ALL_ASSEMBLY_MEMBERS
100
AcDbEllipse
 62
7
  6
CONTINUOUS
 10
5.6367871886
 20
4.7054153727
 30
0.0
 11
1.2364593147
 21
0.4623683634
 31
0.0
 40
0.1177519797
 41
1.6576798102
 42
1.6651158823
  0
ELLIPSE
  5
431
100
AcDbEntity
  8
ALL_ASSEMBLY_MEMBERS
100
AcDbEllipse
 62
7
  6
CONTINUOUS
 10
5.6367871886
 20
4.7054153727
 30
0.0
 11
1.2301678846
 21
0.4600157117
 31
0.0
 40
0.1177519797
 41
1.6583530871
 42
1.6658278925
  0
ELLIPSE
  5
432
100
AcDbEntity
  8
ALL_ASSEMBLY_MEMBERS
100
AcDbEllipse
 62
7
  6
CONTINUOUS
 10
5.5614056306
 20
4.7054153727
 30
0.0
 11
0.6553158691
 21
0.4721187478
 31
0.0
 40
0.1677639734
 41
1.5702624133
 42
1.5814029995
  0
ELLIPSE
  5
433
100
AcDbEntity
  8
ALL_ASSEMBLY_MEMBERS
100
AcDbEllipse
 62
7
  6
CONTINUOUS
 10
5.5614056306
 20
4.7054153727
 30
0.0
 11
0.6519814497
 21
0.4697164835
 31
0.0
 40
0.1677639734
 41
1.5708778021
 42
1.5820762764
  0
ELLIPSE
  5
434
100
AcDbEntity
  8
ALL_ASSEMBLY_MEMBERS
100
AcDbEllipse
 62
7
  6
CONTINUOUS
 10
5.518035601
 20
4.7054153727
 30
0.0
 11
0.287326408
 21
0.4826711454
 31
0.0
 40
0.1560789367
 41
1.4155878838
 42
1.434123085
  0
ELLIPSE
  5
435
100
AcDbEntity
  8
ALL_ASSEMBLY_MEMBERS
100
AcDbEllipse
 62
7
  6
CONTINUOUS
 10
5.518035601
 20
4.7054153727
 30
0.0
 11
0.2858644157
 21
0.4802151878
 31
0.0
 40
0.1560789367
 41
1.4161072999
 42
1.4347384738
  0
ELLIPSE
  5
436
100
AcDbEntity
  8
ALL_ASSEMBLY_MEMBERS
100
AcDbEllipse
 62
7
  6
CONTINUOUS
 10
5.4980272192
 20
4.7054153727
 30
0.0
 11
0.0934736405
 21
0.4847090994
 31
0.0
 40
0.0673659609
 41
1.3174326423
 42
1.335933013
  0
ELLIPSE
  5
437
100
AcDbEntity
  8
ALL_ASSEMBLY_MEMBERS
100
AcDbEllipse
 62
7
  6
CONTINUOUS
 10
5.4980272192
 20
4.7054153727
 30
0.0
 11
0.092998022
 21
0.4822427721
 31
0.0
 40
0.0673659609
 41
1.3178566284
 42
1.3364524291
  0
ELLIPSE
  5
438
100
AcDbEntity
  8
ALL_ASSEMBLY_MEMBERS
100
AcDbEllipse
 62
7
  6
CONTINUOUS
 10
5.0146836327
 20
4.7054153727
 30
0.0
 11
3.1983556692
 21
0.0
 31
0.0
 40
0.1507910672
 41
1.4280200816
 42
1.4309002792
  0
ELLIPSE
  5
439
100
AcDbEntity
  8
ALL_ASSEMBLY_MEMBERS
100
AcDbEllipse
 62
7
  6
CONTINUOUS
 10
5.9757736472
 20
4.7054153727
 30
0.0
 11
3.8379774823
 21
0.4540195862
 31
0.0
 40
0.0423859259
 41
-1.704197027
 42
-1.7013224161
  0
ELLIPSE
  5
43A
100
AcDbEntity
  8
ALL_ASSEMBLY_MEMBERS
100
AcDbEllipse
 62
7
  6
CONTINUOUS
 10
5.9757736472
 20
4.7054153727
 30
0.0
 11
3.8576059957
 21
0.4563415721
 31
0.0
 40
0.0423859259
 41
-1.7035401767
 42
-1.700680429
  0
ELLIPSE
  5
43B
100
AcDbEntity
  8
ALL_ASSEMBLY_MEMBERS
100
AcDbEllipse
 62
7
  6
CONTINUOUS
 10
5.6154322451
 20
4.7054153727
 30
0.0
 11
0.9573101584
 21
0.4633075297
 31
0.0
 40
0.1399266983
 41
-1.7639251619
 42
-1.7524368436
  0
ELLIPSE
  5
43C
100
AcDbEntity
  8
ALL_ASSEMBLY_MEMBERS
100
AcDbEllipse
 62
7
  6
CONTINUOUS
 10
5.6154322451
 20
4.7054153727
 30
0.0
 11
0.9622061161
 21
0.4656770168
 31
0.0
 40
0.1399266983
 41
-1.7632831748
 42
-1.7518541529
  0
ELLIPSE
  5
43D
100
AcDbEntity
  8
ALL_ASSEMBLY_MEMBERS
100
AcDbEllipse
 62
7
  6
CONTINUOUS
 10
5.9412982176
 20
4.7054153727
 30
0.0
 11
3.2147120734
 21
-0.0
 31
0.0
 40
0.1507911094
 41
1.7099759023
 42
1.7128411503
  0
ELLIPSE
  5
43E
100
AcDbEntity
  8
ALL_ASSEMBLY_MEMBERS
100
AcDbEllipse
 62
7
  6
CONTINUOUS
 10
5.9412982176
 20
4.7054153727
 30
0.0
 11
3.1983547732
 21
-0.0
 31
0.0
 40
0.1507911094
 41
1.7106923744
 42
1.713572572
  0
ELLIPSE
  5
43F
100
AcDbEntity
  8
ALL_ASSEMBLY_MEMBERS
100
AcDbEllipse
 62
7
  6
CONTINUOUS
 10
5.7629068032
 20
4.7054153727
 30
0.0
 11
1.9288290452
 21
0.0
 31
0.0
 40
0.251318281
 41
1.7071118038
 42
1.7099759023
  0
ELLIPSE
  5
440
100
AcDbEntity
  8
ALL_ASSEMBLY_MEMBERS
100
AcDbEllipse
 62
7
  6
CONTINUOUS
 10
5.5547827232
 20
4.7054153727
 30
0.0
 11
0.4182142408
 21
0.4767033111
 31
0.0
 40
0.1749164141
 41
-1.8816186254
 42
-1.8730123831
  0
ELLIPSE
  5
441
100
AcDbEntity
  8
ALL_ASSEMBLY_MEMBERS
100
AcDbEllipse
 62
7
  6
CONTINUOUS
 10
5.5547827232
 20
4.7054153727
 30
0.0
 11
0.4203531079
 21
0.479141308
 31
0.0
 40
0.1749164141
 41
-1.8810359347
 42
-1.8724740109
  0
ELLIPSE
  5
442
100
AcDbEntity
  8
ALL_ASSEMBLY_MEMBERS
100
AcDbEllipse
 62
7
  6
CONTINUOUS
 10
5.7629068032
 20
4.7054153727
 30
0.0
 11
1.9190146559
 21
-0.0
 31
0.0
 40
0.251318281
 41
1.7078133445
 42
1.7106923744
  0
ELLIPSE
  5
443
100
AcDbEntity
  8
ALL_ASSEMBLY_MEMBERS
100
AcDbEllipse
 62
7
  6
CONTINUOUS
 10
5.5233726055
 20
4.7054153727
 30
0.0
 11
0.1211290532
 21
0.4821725657
 31
0.0
 40
0.0853800458
 41
-2.0038341653
 42
-1.9912973423
  0
ELLIPSE
  5
444
100
AcDbEntity
  8
ALL_ASSEMBLY_MEMBERS
100
AcDbEllipse
 62
7
  6
CONTINUOUS
 10
5.5233726055
 20
4.7054153727
 30
0.0
 11
0.1217485418
 21
0.484638534
 31
0.0
 40
0.0853800458
 41
-2.0032957931
 42
-1.9890427398
  0
ELLIPSE
  5
445
100
AcDbEntity
  8
ALL_ASSEMBLY_MEMBERS
100
AcDbEllipse
 62
7
  6
CONTINUOUS
 10
5.6755337335
 20
4.7054153727
 30
0.0
 11
1.2858774715
 21
-0.0
 31
0.0
 40
0.3769799306
 41
1.7013869237
 42
1.7071118038
  0
ELLIPSE
  5
446
100
AcDbEntity
  8
ALL_ASSEMBLY_MEMBERS
100
AcDbEllipse
 62
7
  6
CONTINUOUS
 10
5.6755337335
 20
4.7054153727
 30
0.0
 11
1.2793345889
 21
0.0
 31
0.0
 40
0.3769799306
 41
1.7020586537
 42
1.7078133445
  0
ELLIPSE
  5
447
100
AcDbEntity
  8
ALL_ASSEMBLY_MEMBERS
100
AcDbEllipse
 62
7
  6
CONTINUOUS
 10
5.5918105825
 20
4.7054153727
 30
0.0
 11
0.642939962
 21
0.0
 31
0.0
 40
0.7539584232
 41
1.6928076234
 42
1.7013869237
  0
ELLIPSE
  5
448
100
AcDbEntity
  8
ALL_ASSEMBLY_MEMBERS
100
AcDbEllipse
 62
7
  6
CONTINUOUS
 10
5.5918105825
 20
4.7054153727
 30
0.0
 11
0.6396685145
 21
0.0
 31
0.0
 40
0.7539584232
 41
1.6934347632
 42
1.7020586537
  0
ELLIPSE
  5
449
100
AcDbEntity
  8
ALL_ASSEMBLY_MEMBERS
100
AcDbEllipse
 62
7
  6
CONTINUOUS
 10
5.6146985311
 20
4.7054153727
 30
0.0
 11
0.7463249724
 21
-0.4698307965
 31
0.0
 40
0.1599010046
 41
-1.6130856485
 42
-1.5959095311
  0
ELLIPSE
  5
44A
100
AcDbEntity
  8
ALL_ASSEMBLY_MEMBERS
100
AcDbEllipse
 62
7
  6
CONTINUOUS
 10
5.6146985311
 20
4.7054153727
 30
0.0
 11
0.7425274748
 21
-0.4674401739
 31
0.0
 40
0.1599010046
 41
-1.6138200371
 42
-1.5965544644
  0
ELLIPSE
  5
44B
100
AcDbEntity
  8
ALL_ASSEMBLY_MEMBERS
100
AcDbEllipse
 62
7
  6
CONTINUOUS
 10
5.5605100208
 20
4.7054153727
 30
0.0
 11
0.0
 21
0.48475
 31
0.0
 40
0.7958001534
 41
0.10773218
 42
0.1220112966
  0
ELLIPSE
  5
44C
100
AcDbEntity
  8
ALL_ASSEMBLY_MEMBERS
100
AcDbEllipse
 62
7
  6
CONTINUOUS
 10
5.5605100208
 20
4.7054153727
 30
0.0
 11
0.0
 21
0.4822834646
 31
0.0
 40
0.7958001534
 41
0.1082853113
 42
0.1226384364
  0
ELLIPSE
  5
44D
100
AcDbEntity
  8
ALL_ASSEMBLY_MEMBERS
100
AcDbEllipse
 62
7
  6
CONTINUOUS
 10
5.3594223126
 20
4.7054153727
 30
0.0
 11
3.1982722808
 21
-0.4543712279
 31
0.0
 40
0.0505558762
 41
-1.5239656048
 42
-1.5211117194
  0
ELLIPSE
  5
44E
100
AcDbEntity
  8
ALL_ASSEMBLY_MEMBERS
100
AcDbEllipse
 62
7
  6
CONTINUOUS
 10
5.3594223126
 20
4.7054153727
 30
0.0
 11
3.2146291591
 21
-0.4566950122
 31
0.0
 40
0.0505558762
 41
-1.5241674517
 42
-1.521328112
  0
ELLIPSE
  5
44F
100
AcDbEntity
  8
ALL_ASSEMBLY_MEMBERS
100
AcDbEllipse
 62
7
  6
CONTINUOUS
 10
5.5305530578
 20
4.7054153727
 30
0.0
 11
-0.0
 21
0.48475
 31
0.0
 40
0.2210555139
 41
0.0906260353
 42
0.10773218
  0
ELLIPSE
  5
450
100
AcDbEntity
  8
ALL_ASSEMBLY_MEMBERS
100
AcDbEllipse
 62
7
  6
CONTINUOUS
 10
5.5305530578
 20
4.7054153727
 30
0.0
 11
-0.0
 21
0.4822834646
 31
0.0
 40
0.2210555139
 41
0.0910908057
 42
0.1082853113
  0
ELLIPSE
  5
451
100
AcDbEntity
  8
ALL_ASSEMBLY_MEMBERS
100
AcDbEllipse
 62
7
  6
CONTINUOUS
 10
5.4137814007
 20
4.7054153727
 30
0.0
 11
1.9186443081
 21
-0.4563054692
 31
0.0
 40
0.0813853176
 41
-1.5089407422
 42
-1.5060864941
  0
ELLIPSE
  5
452
100
AcDbEntity
  8
ALL_ASSEMBLY_MEMBERS
100
AcDbEllipse
 62
7
  6
CONTINUOUS
 10
5.4137814007
 20
4.7054153727
 30
0.0
 11
1.9284568033
 21
-0.4586391457
 31
0.0
 40
0.0813853176
 41
-1.5091571348
 42
-1.5063174377
  0
ELLIPSE
  5
453
100
AcDbEntity
  8
ALL_ASSEMBLY_MEMBERS
100
AcDbEllipse
 62
7
  6
CONTINUOUS
 10
5.4427845165
 20
4.7054153727
 30
0.0
 11
1.2782580077
 21
-0.4595926617
 31
0.0
 40
0.114367678
 41
-1.484342408
 42
-1.4786327952
  0
ELLIPSE
  5
454
100
AcDbEntity
  8
ALL_ASSEMBLY_MEMBERS
100
AcDbEllipse
 62
7
  6
CONTINUOUS
 10
5.4427845165
 20
4.7054153727
 30
0.0
 11
1.2847953844
 21
-0.4619431499
 31
0.0
 40
0.114367678
 41
-1.4845733516
 42
-1.478892858
  0
ELLIPSE
  5
455
100
AcDbEntity
  8
ALL_ASSEMBLY_MEMBERS
100
AcDbEllipse
 62
7
  6
CONTINUOUS
 10
5.4754358454
 20
4.7054153727
 30
0.0
 11
0.6347072598
 21
-0.4701874538
 31
0.0
 40
0.1691116311
 41
-1.3951024531
 42
-1.386534842
  0
ELLIPSE
  5
456
100
AcDbEntity
  8
ALL_ASSEMBLY_MEMBERS
100
AcDbEllipse
 62
7
  6
CONTINUOUS
 10
5.4754358454
 20
4.7054153727
 30
0.0
 11
0.6379533341
 21
-0.4725921268
 31
0.0
 40
0.1691116311
 41
-1.3953625159
 42
-1.3868386321
  0
ELLIPSE
  5
457
100
AcDbEntity
  8
ALL_ASSEMBLY_MEMBERS
100
AcDbEllipse
 62
7
  6
CONTINUOUS
 10
5.4906851781
 20
4.7054153727
 30
0.0
 11
-0.3749396591
 21
0.4779751482
 31
0.0
 40
0.1715483401
 41
-4.4374539601
 42
-4.4231645383
  0
ELLIPSE
  5
458
100
AcDbEntity
  8
ALL_ASSEMBLY_MEMBERS
100
AcDbEllipse
 62
7
  6
CONTINUOUS
 10
5.4906851781
 20
4.7054153727
 30
0.0
 11
-0.3768572076
 21
0.4804196496
 31
0.0
 40
0.1715483401
 41
-4.4377577502
 42
-4.4235413607
  0
ELLIPSE
  5
459
100
AcDbEntity
  8
ALL_ASSEMBLY_MEMBERS
100
AcDbEllipse
 62
7
  6
CONTINUOUS
 10
5.5111572665
 20
4.7054153727
 30
0.0
 11
-0.1007222974
 21
0.4822282366
 31
0.0
 40
0.0724615456
 41
-4.3045336433
 42
-4.2873661045
  0
ELLIPSE
  5
45A
100
AcDbEntity
  8
ALL_ASSEMBLY_MEMBERS
100
AcDbEllipse
 62
7
  6
CONTINUOUS
 10
5.5111572665
 20
4.7054153727
 30
0.0
 11
-0.10123742
 21
0.4846944896
 31
0.0
 40
0.0724615456
 41
-4.3049104657
 42
-4.2878308749
  0
ELLIPSE
  5
45B
100
AcDbEntity
  8
ALL_ASSEMBLY_MEMBERS
100
AcDbEllipse
 62
7
  6
CONTINUOUS
 10
5.4444277075
 20
4.7054153727
 30
0.0
 11
0.6429400371
 21
0.0
 31
0.0
 40
0.7539583352
 41
7.8485889439
 42
7.857099912
  0
ELLIPSE
  5
45C
100
AcDbEntity
  8
ALL_ASSEMBLY_MEMBERS
100
AcDbEllipse
 62
7
  6
CONTINUOUS
 10
5.2775237449
 20
4.7054153727
 30
0.0
 11
3.8576324144
 21
0.0
 31
0.0
 40
0.1256599769
 41
1.5143080044
 42
1.5171492967
  0
ELLIPSE
  5
45D
100
AcDbEntity
  8
ALL_ASSEMBLY_MEMBERS
100
AcDbEllipse
 62
7
  6
CONTINUOUS
 10
5.2775237449
 20
4.7054153727
 30
0.0
 11
3.8380037666
 21
-0.0
 31
0.0
 40
0.1256599769
 41
7.7972041041
 42
7.8000599721
  0
ELLIPSE
  5
45E
100
AcDbEntity
  8
ALL_ASSEMBLY_MEMBERS
100
AcDbEllipse
 62
7
  6
CONTINUOUS
 10
5.5242684416
 20
4.7054153727
 30
0.0
 11
-0.0866566919
 21
0.4847194462
 31
0.0
 40
0.0628055002
 41
-4.4316026612
 42
-4.4117214252
  0
ELLIPSE
  5
45F
100
AcDbEntity
  8
ALL_ASSEMBLY_MEMBERS
100
AcDbEllipse
 62
7
  6
CONTINUOUS
 10
5.5242684416
 20
4.7054153727
 30
0.0
 11
-0.0862157599
 21
0.4822530662
 31
0.0
 40
0.0628055002
 41
-4.4318947599
 42
-4.4119116145
  0
ELLIPSE
  5
460
100
AcDbEntity
  8
ALL_ASSEMBLY_MEMBERS
100
AcDbEllipse
 62
7
  6
CONTINUOUS
 10
5.5373616602
 20
4.7054153727
 30
0.0
 11
-0.3118799231
 21
0.4821211713
 31
0.0
 40
0.1616508637
 41
-4.5359371337
 42
-4.5245667903
  0
ELLIPSE
  5
461
100
AcDbEntity
  8
ALL_ASSEMBLY_MEMBERS
100
AcDbEllipse
 62
7
  6
CONTINUOUS
 10
5.5373616602
 20
4.7054153727
 30
0.0
 11
-0.310292996
 21
0.4796680121
 31
0.0
 40
0.1616508637
 41
-4.5362876155
 42
-4.524858889
  0
ELLIPSE
  5
462
100
AcDbEntity
  8
ALL_ASSEMBLY_MEMBERS
100
AcDbEllipse
 62
7
  6
CONTINUOUS
 10
5.559340164
 20
4.7054153727
 30
0.0
 11
0.6379532564
 21
-0.4725921289
 31
0.0
 40
0.169111637
 41
-1.525970049
 42
-1.5145908343
  0
ELLIPSE
  5
463
100
AcDbEntity
  8
ALL_ASSEMBLY_MEMBERS
100
AcDbEllipse
 62
7
  6
CONTINUOUS
 10
5.559340164
 20
4.7054153727
 30
0.0
 11
0.6347071826
 21
-0.470187456
 31
0.0
 40
0.169111637
 41
-1.5263790513
 42
-1.5149413162
  0
ELLIPSE
  5
464
100
AcDbEntity
  8
ALL_ASSEMBLY_MEMBERS
100
AcDbEllipse
 62
7
  6
CONTINUOUS
 10
5.7130992467
 20
4.7054153727
 30
0.0
 11
2.5715997839
 21
-0.4573305014
 31
0.0
 40
0.0624986133
 41
-1.6423298464
 42
-1.639483481
  0
ELLIPSE
  5
465
100
AcDbEntity
  8
ALL_ASSEMBLY_MEMBERS
100
AcDbEllipse
 62
7
  6
CONTINUOUS
 10
5.7130992467
 20
4.7054153727
 30
0.0
 11
2.5585148082
 21
-0.4550034836
 31
0.0
 40
0.0624986133
 41
-1.6427535031
 42
-1.6398924833
  0
ELLIPSE
  5
466
100
AcDbEntity
  8
ALL_ASSEMBLY_MEMBERS
100
AcDbEllipse
 62
7
  6
CONTINUOUS
 10
5.4408700477
 20
4.7054153727
 30
0.0
 11
0.9644113131
 21
0.0
 31
0.0
 40
0.5026382348
 41
7.7861233771
 42
7.7974933116
  0
ELLIPSE
  5
467
100
AcDbEntity
  8
ALL_ASSEMBLY_MEMBERS
100
AcDbEllipse
 62
7
  6
CONTINUOUS
 10
5.4408700477
 20
4.7054153727
 30
0.0
 11
0.9595041348
 21
0.0
 31
0.0
 40
0.5026382348
 41
7.7911586055
 42
7.7972041041
  0
ELLIPSE
  5
468
100
AcDbEntity
  8
ALL_ASSEMBLY_MEMBERS
100
AcDbEllipse
 62
7
  6
CONTINUOUS
 10
5.4771995652
 20
4.7054153727
 30
0.0
 11
-0.0
 21
0.48475
 31
0.0
 40
0.8842220554
 41
6.2067939025
 42
6.2153270503
  0
ELLIPSE
  5
469
100
AcDbEntity
  8
ALL_ASSEMBLY_MEMBERS
100
AcDbEllipse
 62
7
  6
CONTINUOUS
 10
5.5000976605
 20
4.7054153727
 30
0.0
 11
0.0
 21
0.48475
 31
0.0
 40
0.2652664142
 41
6.1925592719
 42
6.2067939025
  0
ELLIPSE
  5
46A
100
AcDbEntity
  8
ALL_ASSEMBLY_MEMBERS
100
AcDbEllipse
 62
7
  6
CONTINUOUS
 10
5.4409605409
 20
4.7054153727
 30
0.0
 11
1.2858813755
 21
0.0
 31
0.0
 40
0.3769787861
 41
7.8429147916
 42
7.8485889439
  0
ELLIPSE
  5
46B
100
AcDbEntity
  8
ALL_ASSEMBLY_MEMBERS
100
AcDbEllipse
 62
7
  6
CONTINUOUS
 10
5.4448247121
 20
4.7054153727
 30
0.0
 11
0.1007223063
 21
0.4822282366
 31
0.0
 40
0.0724615514
 41
-1.9958192001
 42
-1.9786516613
  0
ELLIPSE
  5
46C
100
AcDbEntity
  8
ALL_ASSEMBLY_MEMBERS
100
AcDbEllipse
 62
7
  6
CONTINUOUS
 10
5.4448247121
 20
4.7054153727
 30
0.0
 11
0.101237429
 21
0.4846944896
 31
0.0
 40
0.0724615514
 41
-1.9953544298
 42
-1.9782748389
  0
ELLIPSE
  5
46D
100
AcDbEntity
  8
ALL_ASSEMBLY_MEMBERS
100
AcDbEllipse
 62
7
  6
CONTINUOUS
 10
5.5080509407
 20
4.7054153727
 30
0.0
 11
0.1217484712
 21
0.4846385342
 31
0.0
 40
0.0853800028
 41
-1.8839500288
 42
-1.8697617145
  0
ELLIPSE
  5
46E
100
AcDbEntity
  8
ALL_ASSEMBLY_MEMBERS
100
AcDbEllipse
 62
7
  6
CONTINUOUS
 10
5.5080509407
 20
4.7054153727
 30
0.0
 11
0.121128983
 21
0.482172566
 31
0.0
 40
0.0853800028
 41
-1.8838760368
 42
-1.8713258838
  0
ELLIPSE
  5
46F
100
AcDbEntity
  8
ALL_ASSEMBLY_MEMBERS
100
AcDbEllipse
 62
7
  6
CONTINUOUS
 10
5.5037105229
 20
4.7054153727
 30
0.0
 11
0.4203531079
 21
0.479141308
 31
0.0
 40
0.1749164141
 41
-1.7616396296
 42
-1.7531282233
  0
ELLIPSE
  5
470
100
AcDbEntity
  8
ALL_ASSEMBLY_MEMBERS
100
AcDbEllipse
 62
7
  6
CONTINUOUS
 10
5.5037105229
 20
4.7054153727
 30
0.0
 11
0.4182142408
 21
0.4767033111
 31
0.0
 40
0.1749164141
 41
-1.7616091722
 42
-1.7530542313
  0
ELLIPSE
  5
471
100
AcDbEntity
  8
ALL_ASSEMBLY_MEMBERS
100
AcDbEllipse
 62
7
  6
CONTINUOUS
 10
5.50051979
 20
4.7054153727
 30
0.0
 11
0.9622070503
 21
0.4656770023
 31
0.0
 40
0.1399266146
 41
-1.6381317277
 42
-1.6324577399
  0
ELLIPSE
  5
472
100
AcDbEntity
  8
ALL_ASSEMBLY_MEMBERS
100
AcDbEllipse
 62
7
  6
CONTINUOUS
 10
5.50051979
 20
4.7054153727
 30
0.0
 11
0.9573110879
 21
0.4633075153
 31
0.0
 40
0.1399266146
 41
-1.638130289
 42
-1.6324272825
  0
ELLIPSE
  5
473
100
AcDbEntity
  8
ALL_ASSEMBLY_MEMBERS
100
AcDbEllipse
 62
7
  6
CONTINUOUS
 10
5.4975047886
 20
4.7054153727
 30
0.0
 11
1.2847953844
 21
-0.4619431499
 31
0.0
 40
0.114367678
 41
-1.5356543218
 42
-1.5299803341
  0
ELLIPSE
  5
474
100
AcDbEntity
  8
ALL_ASSEMBLY_MEMBERS
100
AcDbEllipse
 62
7
  6
CONTINUOUS
 10
5.4975047886
 20
4.7054153727
 30
0.0
 11
1.2782580077
 21
-0.4595926617
 31
0.0
 40
0.114367678
 41
-1.5356847793
 42
-1.5299817728
  0
ELLIPSE
  5
475
100
AcDbEntity
  8
ALL_ASSEMBLY_MEMBERS
100
AcDbEllipse
 62
7
  6
CONTINUOUS
 10
5.4932656722
 20
4.7054153727
 30
0.0
 11
0.5681047491
 21
-0.4746020763
 31
0.0
 40
0.1736797508
 41
-1.5122023158
 42
-1.4326628245
  0
ELLIPSE
  5
476
100
AcDbEntity
  8
ALL_ASSEMBLY_MEMBERS
100
AcDbEllipse
 62
7
  6
CONTINUOUS
 10
5.4932656722
 20
4.7054153727
 30
0.0
 11
0.5652140828
 21
-0.4721871761
 31
0.0
 40
0.1736797508
 41
-1.5126406373
 42
-1.4326932819
  0
ELLIPSE
  5
477
100
AcDbEntity
  8
ALL_ASSEMBLY_MEMBERS
100
AcDbEllipse
 62
7
  6
CONTINUOUS
 10
5.5965597007
 20
4.7054153727
 30
0.0
 11
3.2146300597
 21
0.4566950116
 31
0.0
 40
0.0505558626
 41
-1.6202645376
 42
-1.6174251979
  0
ELLIPSE
  5
478
100
AcDbEntity
  8
ALL_ASSEMBLY_MEMBERS
100
AcDbEllipse
 62
7
  6
CONTINUOUS
 10
5.5965597007
 20
4.7054153727
 30
0.0
 11
3.1982731769
 21
0.4543712273
 31
0.0
 40
0.0505558626
 41
-1.6204809302
 42
-1.6176270448
  0
ELLIPSE
  5
479
100
AcDbEntity
  8
ALL_ASSEMBLY_MEMBERS
100
AcDbEllipse
 62
7
  6
CONTINUOUS
 10
5.5422004984
 20
4.7054153727
 30
0.0
 11
1.9284550012
 21
0.4586391511
 31
0.0
 40
0.0813853855
 41
-1.6352752504
 42
-1.6324355533
  0
ELLIPSE
  5
47A
100
AcDbEntity
  8
ALL_ASSEMBLY_MEMBERS
100
AcDbEllipse
 62
7
  6
CONTINUOUS
 10
5.5422004984
 20
4.7054153727
 30
0.0
 11
1.9186425152
 21
0.4563054746
 31
0.0
 40
0.0813853855
 41
-1.635506194
 42
-1.6326519458
  0
ELLIPSE
  5
47B
100
AcDbEntity
  8
ALL_ASSEMBLY_MEMBERS
100
AcDbEllipse
 62
7
  6
CONTINUOUS
 10
5.513197474
 20
4.7054153727
 30
0.0
 11
1.28479561
 21
0.461943148
 31
0.0
 40
0.1143676625
 41
-1.6626997827
 42
-1.6570192891
  0
ELLIPSE
  5
47C
100
AcDbEntity
  8
ALL_ASSEMBLY_MEMBERS
100
AcDbEllipse
 62
7
  6
CONTINUOUS
 10
5.513197474
 20
4.7054153727
 30
0.0
 11
1.2782582322
 21
0.4595926598
 31
0.0
 40
0.1143676625
 41
-1.6629598455
 42
-1.6572502327
  0
ELLIPSE
  5
47D
100
AcDbEntity
  8
ALL_ASSEMBLY_MEMBERS
100
AcDbEllipse
 62
7
  6
CONTINUOUS
 10
5.4805461375
 20
4.7054153727
 30
0.0
 11
0.6379534101
 21
0.4725921247
 31
0.0
 40
0.1691116253
 41
-1.754754002
 42
-1.7462301183
  0
ELLIPSE
  5
47E
100
AcDbEntity
  8
ALL_ASSEMBLY_MEMBERS
100
AcDbEllipse
 62
7
  6
CONTINUOUS
 10
5.4805461375
 20
4.7054153727
 30
0.0
 11
0.6347073354
 21
0.4701874517
 31
0.0
 40
0.1691116253
 41
-1.7550577922
 42
-1.7464901811
  0
ELLIPSE
  5
47F
100
AcDbEntity
  8
ALL_ASSEMBLY_MEMBERS
100
AcDbEllipse
 62
7
  6
CONTINUOUS
 10
5.4652968023
 20
4.7054153727
 30
0.0
 11
0.3768572419
 21
0.4804196487
 31
0.0
 40
0.1715483437
 41
-1.8596439314
 42
-1.8454275419
  0
ELLIPSE
  5
480
100
AcDbEntity
  8
ALL_ASSEMBLY_MEMBERS
100
AcDbEllipse
 62
7
  6
CONTINUOUS
 10
5.4652968023
 20
4.7054153727
 30
0.0
 11
0.3749396931
 21
0.4779751472
 31
0.0
 40
0.1715483437
 41
-1.8600207538
 42
-1.8457313321
  0
ENDSEC
  0
SECTION
  2
OBJECTS
  0
DICTIONARY
  5
C
100
AcDbDictionary
280
0
281
1
  3
ACAD_GROUP
350
D
  3
ACAD_MLINESTYLE
350
17
  3
ACAD_LAYOUT
350
1A
  3
ACAD_PLOTSETTINGS
350
19
  3
ACAD_PLOTSTYLENAME
350
E
  0
DICTIONARY
  5
D
102
{ACAD_REACTORS
330
C
102
}
100
AcDbDictionary
280
0
281
1
  0
ACDBDICTIONARYWDFLT
  5
E
102
{ACAD_REACTORS
330
C
102
}
100
AcDbDictionary
281
1
  3
Normal
350
F
100
AcDbDictionaryWithDefault
340
F
  0
DICTIONARY
  5
17
102
{ACAD_REACTORS
330
C
102
}
100
AcDbDictionary
280
0
281
1
  3
Standard
350
18
  0
DICTIONARY
  5
19
102
{ACAD_REACTORS
330
C
102
}
100
AcDbDictionary
281
1
  0
DICTIONARY
  5
1A
102
{ACAD_REACTORS
330
C
102
}
100
AcDbDictionary
281
1
  3
Model
350
481
  3
Layout1
350
482
  0
ACDBPLACEHOLDER
  5
F
102
{ACAD_REACTORS
330
E
102
}
  0
MLINESTYLE
  5
18
102
{ACAD_REACTORS
330
17
102
}
100
AcDbMlineStyle
  2
STANDARD
 70
0
  3

 62
256
 51
90.0
 52
90.0
 71
2
 49
0.5
 62
256
  6
BYLAYER
 49
-0.5
 62
256
  6
BYLAYER
  0
LAYOUT
  5
481
102
{ACAD_REACTORS
330
1A
102
}
100
AcDbPlotSettings
  1

  2
none_device
  4
ANSI_A_(11.00_x_8.50_Inches)
  6

 40
0.0
 41
0.0
 42
0.0
 43
0.0
 44
279.4
 45
215.9
 46
0.0
 47
0.0
 48
0.0
 49
0.0
140
0.0
141
0.0
142
1.0
143
1.0
 70
1024
 72
0
 73
0
 74
0
  7

 75
0
147
1.0
148
0.0
149
0.0
100
AcDbLayout
  1
Model
 70
0
 71
0
 10
0.0
 20
0.0
 11
11.0
 21
8.5
 12
0.0
 22
0.0
 32
0.0
 14
0.0
 24
0.0
 34
0.0
 15
0.0
 25
0.0
 35
0.0
146
0.0
 13
0.0
 23
0.0
 33
0.0
 16
1.0
 26
0.0
 36
0.0
 17
0.0
 27
1.0
 37
0.0
 76
0
330
21F
345
0
346
0
  0
LAYOUT
  5
482
102
{ACAD_REACTORS
330
1A
102
}
100
AcDbPlotSettings
  1

  2
none_device
  4
ANSI_A_(11.00_x_8.50_Inches)
  6

 40
0.0
 41
0.0
 42
0.0
 43
0.0
 44
279.4
 45
215.9
 46
0.0
 47
0.0
 48
0.0
 49
0.0
140
0.0
141
0.0
142
1.0
143
1.0
 70
0
 72
0
 73
0
 74
0
  7

 75
0
147
1.0
148
0.0
149
0.0
100
AcDbLayout
  1
Layout1
 70
0
 71
1
 10
0.0
 20
0.0
 11
11.0
 21
8.5
 12
0.0
 22
0.0
 32
0.0
 14
0.0
 24
0.0
 34
0.0
 15
0.0
 25
0.0
 35
0.0
146
0.0
 13
0.0
 23
0.0
 33
0.0
 16
1.0
 26
0.0
 36
0.0
 17
0.0
 27
1.0
 37
0.0
 76
0
330
220
345
0
346
0
  0
ENDSEC
  0
EOF
