999
DXF file: E:\BT Custom\CADOUTPUT\_FRONT.dxf
999
Pro/ENGINEER 2018400 by Parametric Technology Corporation
  0
SECTION
  2
HEADER
  9
$ACADVER
  1
AC1018
  9
$DWGCODEPAGE
  3
ANSI_1252
  9
$EXTMAX
 10
22.0
 20
17.0
 30
0.0
  9
$EXTMIN
 10
0.0
 20
0.0
 30
0.0
  9
$LIMMIN
 10
0.0
 20
0.0
  9
$LIMMAX
 10
22.0
 20
17.0
  9
$VIEWCTR
 10
11.0
 20
8.5
  9
$VIEWSIZE
 40
17.0
  9
$CLAYER
  8
0
  9
$LTSCALE
 40
1.21
  9
$CELTYPE
  6
BYLAYER
  9
$DIMSCALE
 40
1.0
  9
$DIMASZ
 40
0.1
  9
$DIMEXO
 40
0.0625
  9
$DIMDLI
 40
0.836
  9
$DIMEXE
 40
0.125
  9
$DIMCEN
 40
0.198
  9
$DIMLFAC
 40
1.0
  9
$DIMBLK
  1
_FILLED
  9
$DIMALT
 70
1
  9
$DIMALTD
 70
2
  9
$DIMALTTD
 70
2
  9
$DIMALTF
 40
25.4
  9
$DIMTXT
 40
0.08
  9
$DIMTOL
 70
1
  9
$DIMLIM
 70
0
  9
$DIMTFAC
 40
1.0
  9
$DIMTP
 40
0.001
  9
$DIMTM
 40
0.001
  9
$DIMGAP
 40
0.09
  9
$DIMDSEP
 70
46
  9
$AUNITS
 70
0
  9
$PDMODE
 70
3
  9
$PDSIZE
 40
0.06
  9
$HANDSEED
  5
52D
  9
$TILEMODE
 70
1
  9
$MEASUREMENT
 70
0
  9
$INSUNITS
 70
1
  0
ENDSEC
  0
SECTION
  2
CLASSES
  0
CLASS
  1
ACDBDICTIONARYWDFLT
  2
AcDbDictionaryWithDefault
  3
AutoCAD 2000
 90
0
 91
1
280
0
281
0
  0
CLASS
  1
ACDBPLACEHOLDER
  2
AcDbPlaceHolder
  3
AutoCAD 2000
 90
0
 91
1
280
0
281
0
  0
CLASS
  1
LAYOUT
  2
AcDbLayout
  3
AutoCAD 2000
 90
0
 91
0
280
0
281
0
  0
ENDSEC
  0
SECTION
  2
TABLES
  0
TABLE
  2
VPORT
  5
8
100
AcDbSymbolTable
 70
2
  0
VPORT
  5
1F4
100
AcDbSymbolTableRecord
100
AcDbViewportTableRecord
  2
*ACTIVE
 70
0
 10
0.0
 20
0.0
 11
1.0
 21
1.0
 12
11.0
 22
8.5
 13
0.0
 23
0.0
 14
1.0
 24
1.0
 15
0.0
 25
0.0
 16
0.0
 26
0.0
 36
1.0
 17
0.0
 27
0.0
 37
0.0
 40
17.0
 41
1.2941176471
 42
50.0
 43
0.0
 44
0.0
 50
0.0
 51
0.0
 71
0
 72
100
 73
1
 74
1
 75
0
 76
0
 77
0
 78
0
  0
ENDTAB
  0
TABLE
  2
LTYPE
  5
5
100
AcDbSymbolTable
 70
6
  0
LTYPE
  5
14
100
AcDbSymbolTableRecord
100
AcDbLinetypeTableRecord
  2
BYBLOCK
 70
0
  3

 72
65
 73
0
 40
0.0
  0
LTYPE
  5
15
100
AcDbSymbolTableRecord
100
AcDbLinetypeTableRecord
  2
BYLAYER
 70
0
  3

 72
65
 73
0
 40
0.0
  0
LTYPE
  5
16
100
AcDbSymbolTableRecord
100
AcDbLinetypeTableRecord
  2
CONTINUOUS
 70
64
  3
Solid line
 72
65
 73
0
 40
0.0
  0
LTYPE
  5
1F5
100
AcDbSymbolTableRecord
100
AcDbLinetypeTableRecord
  2
CENTER
 70
64
  3
____ _ ____ _ ____ _ ____ _ ____ _ ____ _ ____
 72
65
 73
4
 40
0.6
 49
0.375
 74
0
 49
-0.075
 74
0
 49
0.075
 74
0
 49
-0.075
 74
0
  0
LTYPE
  5
1F6
100
AcDbSymbolTableRecord
100
AcDbLinetypeTableRecord
  2
HIDDEN
 70
64
  3
- - - - - - - - - - - - - - - - - - - -
 72
65
 73
2
 40
0.2
 49
0.1
 74
0
 49
-0.1
 74
0
  0
LTYPE
  5
1F7
100
AcDbSymbolTableRecord
100
AcDbLinetypeTableRecord
  2
PHANTOM
 70
64
  3
_____ _ _ _____ _ _ _____ _ _ _____
 72
65
 73
6
 40
0.8
 49
0.45
 74
0
 49
-0.05
 74
0
 49
0.1
 74
0
 49
-0.05
 74
0
 49
0.1
 74
0
 49
-0.05
 74
0
  0
LTYPE
  5
1F8
100
AcDbSymbolTableRecord
100
AcDbLinetypeTableRecord
  2
DOT
 70
64
  3
. . . . . . . . . . . . . . . . . . . .
 72
65
 73
2
 40
0.2
 49
0.1
 74
0
 49
-0.1
 74
0
  0
LTYPE
  5
1F9
100
AcDbSymbolTableRecord
100
AcDbLinetypeTableRecord
  2
DASHED
 70
64
  3
- - - - - - - - - - - - - - - - - - - -
 72
65
 73
2
 40
0.2
 49
0.1
 74
0
 49
-0.1
 74
0
  0
ENDTAB
  0
TABLE
  2
LAYER
  5
2
100
AcDbSymbolTable
 70
36
  0
LAYER
  5
10
100
AcDbSymbolTableRecord
100
AcDbLayerTableRecord
  2
0
 70
0
 62
7
  6
CONTINUOUS
370
-3
390
F
  0
LAYER
  5
1FA
100
AcDbSymbolTableRecord
100
AcDbLayerTableRecord
  2
DEFAULT_1
 70
0
 62
7
  6
CENTER
370
-3
390
F
  0
LAYER
  5
1FB
100
AcDbSymbolTableRecord
100
AcDbLayerTableRecord
  2
DEFAULT_2
 70
0
 62
8
  6
HIDDEN
370
-3
390
F
  0
LAYER
  5
1FC
100
AcDbSymbolTableRecord
100
AcDbLayerTableRecord
  2
DEFAULT_3
 70
0
 62
7
  6
PHANTOM
370
-3
390
F
  0
LAYER
  5
1FD
100
AcDbSymbolTableRecord
100
AcDbLayerTableRecord
  2
ALL_FEATURES
 70
0
 62
7
  6
CONTINUOUS
370
-3
390
F
  0
LAYER
  5
1FE
100
AcDbSymbolTableRecord
100
AcDbLayerTableRecord
  2
AXES_FEATURES
 70
0
 62
7
  6
CONTINUOUS
370
-3
390
F
  0
LAYER
  5
1FF
100
AcDbSymbolTableRecord
100
AcDbLayerTableRecord
  2
DIMENSIONS
 70
0
 62
7
  6
CONTINUOUS
370
-3
390
F
  0
ENDTAB
  0
TABLE
  2
STYLE
  5
3
100
AcDbSymbolTable
 70
1
  0
STYLE
  5
11
100
AcDbSymbolTableRecord
100
AcDbTextStyleTableRecord
  2
STANDARD
 70
0
 40
0.0
 41
0.8
 50
0.0
 71
0
 42
0.2
  3
txt
  4

  0
STYLE
  5
200
100
AcDbSymbolTableRecord
100
AcDbTextStyleTableRecord
  2
TEXTSTYLE_1
 70
0
 40
0.0
 41
0.8
 50
0.0
 71
0
 42
0.2
  3
gdt
  4

  0
ENDTAB
  0
TABLE
  2
VIEW
  5
6
100
AcDbSymbolTable
 70
0
  0
ENDTAB
  0
TABLE
  2
UCS
  5
7
100
AcDbSymbolTable
 70
0
  0
ENDTAB
  0
TABLE
  2
APPID
  5
9
100
AcDbSymbolTable
 70
1
  0
APPID
  5
201
100
AcDbSymbolTableRecord
100
AcDbRegAppTableRecord
  2
ACAD
 70
0
  0
ENDTAB
  0
TABLE
  2
BLOCK_RECORD
  5
1
100
AcDbSymbolTable
 70
0
  0
BLOCK_RECORD
  5
202
100
AcDbSymbolTableRecord
100
AcDbBlockTableRecord
  2
*Model_Space
  0
BLOCK_RECORD
  5
203
100
AcDbSymbolTableRecord
100
AcDbBlockTableRecord
  2
*Paper_Space
  0
BLOCK_RECORD
  5
204
100
AcDbSymbolTableRecord
100
AcDbBlockTableRecord
  2
_FILLED
  0
ENDTAB
  0
TABLE
  2
DIMSTYLE
  5
A
100
AcDbSymbolTable
 70
1
100
AcDbDimStyleTable
 71
0
  0
DIMSTYLE
105
205
100
AcDbSymbolTableRecord
100
AcDbDimStyleTableRecord
  2
STANDARD
 70
0
  3

  4

 40
1.0
 41
0.1
 42
0.0625
 43
0.38
 44
0.125
 45
0.0
 46
0.0
 47
0.001
 48
0.001
140
0.08
141
0.09
142
0.0
143
25.4
144
1.0
145
0.0
146
1.0
147
0.09
 71
1.0
 72
0.0
 73
1
 74
1
 75
0
 76
0
 77
0
 78
4
 79
1
170
1
171
2
172
0
173
0
174
0
175
0
176
0
177
0
178
0
270
2
179
3
271
3
272
3
273
2
274
2
275
0
280
0
281
0
282
0
283
1
284
4
285
0
286
0
287
3
288
0
340
11
278
46
341
204
342
204
343
204
344
204
  0
ENDTAB
  0
ENDSEC
  0
SECTION
  2
BLOCKS
  0
BLOCK
  5
20
100
AcDbEntity
  8
0
100
AcDbBlockBegin
  2
*Model_Space
 70
0
 10
0.0
 20
0.0
 30
0.0
  3
*Model_Space
  1

  0
ENDBLK
  5
21
100
AcDbEntity
  8
0
100
AcDbBlockEnd
  0
BLOCK
  5
1C
100
AcDbEntity
  8
0
100
AcDbBlockBegin
  2
*Paper_Space
 70
0
 10
0.0
 20
0.0
 30
0.0
  3
*Paper_Space
  1

  0
ENDBLK
  5
1D
100
AcDbEntity
  8
0
100
AcDbBlockEnd
  0
BLOCK
  5
206
100
AcDbEntity
  8
0
100
AcDbBlockBegin
  2
_FILLED
 70
64
 10
0.0
 20
0.0
  3
_FILLED
  1

  0
SOLID
  5
207
100
AcDbEntity
  8
0
  6
BYBLOCK
 62
0
100
AcDbTrace
 10
0.0
 20
0.0
 11
-1.0
 21
0.2
 12
-1.0
 22
-0.2
 13
-1.0
 23
-0.2
  0
ENDBLK
  5
208
100
AcDbEntity
  8
0
  6
BYBLOCK
 62
0
100
AcDbBlockEnd
  0
ENDSEC
  0
SECTION
  2
ENTITIES
  0
LINE
  5
209
100
AcDbEntity
  8
0
100
AcDbLine
 62
7
  6
CONTINUOUS
 10
6.1796320909
 20
6.6681772944
 11
6.1796314393
 21
6.418233751
  0
LINE
  5
20A
100
AcDbEntity
  8
0
100
AcDbLine
 62
7
  6
CONTINUOUS
 10
6.1966923427
 20
6.418233751
 11
6.1966923427
 21
6.356233751
  0
LINE
  5
20B
100
AcDbEntity
  8
0
100
AcDbLine
 62
7
  6
CONTINUOUS
 10
6.4101923427
 20
8.7695178481
 11
6.4101923427
 21
8.698233751
  0
LINE
  5
20C
100
AcDbEntity
  8
0
100
AcDbLine
 62
7
  6
CONTINUOUS
 10
6.3801923427
 20
8.177233751
 11
6.4101923427
 21
8.098233751
  0
LINE
  5
20D
100
AcDbEntity
  8
0
100
AcDbLine
 62
7
  6
CONTINUOUS
 10
6.5586611396
 20
6.6681789697
 11
6.558661891
 21
6.418233751
  0
LINE
  5
20E
100
AcDbEntity
  8
0
100
AcDbLine
 62
7
  6
CONTINUOUS
 10
6.5941923427
 20
8.047233751
 11
6.5941923427
 21
7.688233751
  0
LINE
  5
20F
100
AcDbEntity
  8
0
100
AcDbLine
 62
7
  6
CONTINUOUS
 10
6.7376923427
 20
7.688233751
 11
6.7376923427
 21
7.668233751
  0
LINE
  5
210
100
AcDbEntity
  8
0
100
AcDbLine
 62
7
  6
CONTINUOUS
 10
6.7425308711
 20
8.8690077223
 11
6.7425308711
 21
8.8679989282
  0
LINE
  5
211
100
AcDbEntity
  8
0
100
AcDbLine
 62
7
  6
CONTINUOUS
 10
6.7531397711
 20
8.8680198199
 11
6.7531397711
 21
8.8690290709
  0
LINE
  5
212
100
AcDbEntity
  8
0
100
AcDbLine
 62
9
  6
CONTINUOUS
 10
6.7601692083
 20
8.8686705849
 11
6.7601692083
 21
8.8676610982
  0
LINE
  5
213
100
AcDbEntity
  8
0
100
AcDbLine
 62
9
  6
CONTINUOUS
 10
6.7771397711
 20
8.8681543644
 11
6.7771397711
 21
8.8691635271
  0
LINE
  5
214
100
AcDbEntity
  8
0
100
AcDbLine
 62
9
  6
CONTINUOUS
 10
6.7856250525
 20
8.8700264444
 11
6.7856250525
 21
8.8690178485
  0
LINE
  5
215
100
AcDbEntity
  8
0
100
AcDbLine
 62
7
  6
CONTINUOUS
 10
6.7955742874
 20
8.8683702285
 11
6.7955742874
 21
8.8693792494
  0
LINE
  5
216
100
AcDbEntity
  8
0
100
AcDbLine
 62
9
  6
CONTINUOUS
 10
6.7973316467
 20
8.8691200613
 11
6.7973316467
 21
8.86811087
  0
LINE
  5
217
100
AcDbEntity
  8
0
100
AcDbLine
 62
7
  6
CONTINUOUS
 10
6.8061704814
 20
8.8775936818
 11
6.8061704814
 21
8.876590029
  0
LINE
  5
218
100
AcDbEntity
  8
0
100
AcDbLine
 62
9
  6
CONTINUOUS
 10
6.8110808966
 20
8.8733113502
 11
6.8110808966
 21
8.8743171374
  0
LINE
  5
219
100
AcDbEntity
  8
0
100
AcDbLine
 62
7
  6
CONTINUOUS
 10
6.8128382559
 20
8.8737447083
 11
6.8128382559
 21
8.8747502128
  0
LINE
  5
21A
100
AcDbEntity
  8
0
100
AcDbLine
 62
7
  6
CONTINUOUS
 10
6.8163223433
 20
8.8770477178
 11
6.8163223433
 21
8.8780510733
  0
LINE
  5
21B
100
AcDbEntity
  8
0
100
AcDbLine
 62
9
  6
CONTINUOUS
 10
6.8172734536
 20
8.8676681666
 11
6.8172734536
 21
8.8686776487
  0
LINE
  5
21C
100
AcDbEntity
  8
0
100
AcDbLine
 62
9
  6
CONTINUOUS
 10
6.8233517806
 20
8.8780956411
 11
6.8233517806
 21
8.8770923144
  0
LINE
  5
21D
100
AcDbEntity
  8
0
100
AcDbLine
 62
7
  6
CONTINUOUS
 10
6.8450613544
 20
8.8700918119
 11
6.8450613544
 21
8.8690832589
  0
LINE
  5
21E
100
AcDbEntity
  8
0
100
AcDbLine
 62
7
  6
CONTINUOUS
 10
6.8596582299
 20
8.8723797051
 11
6.8596582299
 21
8.8733861004
  0
LINE
  5
21F
100
AcDbEntity
  8
0
100
AcDbLine
 62
9
  6
CONTINUOUS
 10
6.8809130639
 20
8.8772240703
 11
6.8809130639
 21
8.8782273114
  0
LINE
  5
220
100
AcDbEntity
  8
0
100
AcDbLine
 62
7
  6
CONTINUOUS
 10
6.8825767688
 20
8.8821981832
 11
6.8825767688
 21
8.8811975146
  0
LINE
  5
221
100
AcDbEntity
  8
0
100
AcDbLine
 62
7
  6
CONTINUOUS
 10
7.5788557824
 20
6.784733751
 11
7.6957488268
 21
6.6681774297
  0
LINE
  5
222
100
AcDbEntity
  8
0
100
AcDbLine
 62
7
  6
CONTINUOUS
 10
6.3541939831
 20
8.5020237047
 11
6.3246074572
 21
8.5430605937
  0
LINE
  5
223
100
AcDbEntity
  8
0
100
AcDbLine
 62
9
  6
CONTINUOUS
 10
6.9067917764
 20
8.8826178672
 11
6.9067917764
 21
8.8816174696
  0
LINE
  5
224
100
AcDbEntity
  8
0
100
AcDbLine
 62
7
  6
CONTINUOUS
 10
6.9087009647
 20
8.8786725699
 11
6.9087009647
 21
8.8776696179
  0
LINE
  5
225
100
AcDbEntity
  8
0
100
AcDbLine
 62
7
  6
CONTINUOUS
 10
6.9903715846
 20
8.8812627111
 11
6.9903715846
 21
8.8822633377
  0
LINE
  5
226
100
AcDbEntity
  8
0
100
AcDbLine
 62
7
  6
CONTINUOUS
 10
7.1376923427
 20
7.688233751
 11
7.1376923427
 21
7.668233751
  0
LINE
  5
227
100
AcDbEntity
  8
0
100
AcDbLine
 62
7
  6
CONTINUOUS
 10
7.2811923427
 20
8.047233751
 11
7.2811923427
 21
7.688233751
  0
LINE
  5
228
100
AcDbEntity
  8
0
100
AcDbLine
 62
7
  6
CONTINUOUS
 10
6.4101923427
 20
8.667233751
 11
6.3801923427
 21
8.587233751
  0
LINE
  5
229
100
AcDbEntity
  8
0
100
AcDbLine
 62
7
  6
CONTINUOUS
 10
7.4781923427
 20
7.3338501898
 11
7.5523263369
 21
7.2279325625
  0
LINE
  5
22A
100
AcDbEntity
  8
0
100
AcDbLine
 62
7
  6
CONTINUOUS
 10
7.3167216946
 20
6.6681789698
 11
7.3167227945
 21
6.418233751
  0
LINE
  5
22B
100
AcDbEntity
  8
0
100
AcDbLine
 62
7
  6
CONTINUOUS
 10
7.4651923427
 20
8.7695178481
 11
7.4651923427
 21
8.698233751
  0
LINE
  5
22C
100
AcDbEntity
  8
0
100
AcDbLine
 62
7
  6
CONTINUOUS
 10
7.6786923427
 20
6.418233751
 11
7.6786923427
 21
6.356233751
  0
LINE
  5
22D
100
AcDbEntity
  8
0
100
AcDbLine
 62
7
  6
CONTINUOUS
 10
7.6957524105
 20
6.6681785097
 11
7.6957532462
 21
6.418233751
  0
LINE
  5
22E
100
AcDbEntity
  8
0
100
AcDbLine
 62
7
  6
CONTINUOUS
 10
6.4244581905
 20
8.789153103
 11
6.4101923427
 21
8.7695178481
  0
LINE
  5
22F
100
AcDbEntity
  8
0
100
AcDbLine
 62
7
  6
CONTINUOUS
 10
5.7576923427
 20
5.981233751
 11
8.1176923427
 21
5.981233751
  0
LINE
  5
230
100
AcDbEntity
  8
0
100
AcDbLine
 62
7
  6
CONTINUOUS
 10
9.4426923427
 20
5.981233751
 11
12.4326923427
 21
5.981233751
  0
LINE
  5
231
100
AcDbEntity
  8
0
100
AcDbLine
 62
7
  6
CONTINUOUS
 10
13.7576923427
 20
5.981233751
 11
16.1176923427
 21
5.981233751
  0
LINE
  5
232
100
AcDbEntity
  8
0
100
AcDbLine
 62
7
  6
CONTINUOUS
 10
7.5211907023
 20
8.2624437973
 11
7.5507772283
 21
8.2214069083
  0
LINE
  5
233
100
AcDbEntity
  8
0
100
AcDbLine
 62
7
  6
CONTINUOUS
 10
7.4651923427
 20
8.667233751
 11
7.4951923427
 21
8.587233751
  0
LINE
  5
234
100
AcDbEntity
  8
0
100
AcDbLine
 62
7
  6
CONTINUOUS
 10
7.4951923427
 20
8.177233751
 11
7.4651923427
 21
8.098233751
  0
LINE
  5
235
100
AcDbEntity
  8
0
100
AcDbLine
 62
7
  6
CONTINUOUS
 10
6.3541939831
 20
8.2624437973
 11
6.3246074572
 21
8.2214069083
  0
LINE
  5
236
100
AcDbEntity
  8
0
100
AcDbLine
 62
7
  6
CONTINUOUS
 10
5.9376923427
 20
6.168233751
 11
7.9376923427
 21
6.168233751
  0
LINE
  5
237
100
AcDbEntity
  8
0
100
AcDbLine
 62
7
  6
CONTINUOUS
 10
13.9376923427
 20
6.168233751
 11
15.9376923427
 21
6.168233751
  0
LINE
  5
238
100
AcDbEntity
  8
0
100
AcDbLine
 62
7
  6
CONTINUOUS
 10
15.7506950166
 20
6.356233751
 11
14.1246896689
 21
6.356233751
  0
LINE
  5
239
100
AcDbEntity
  8
0
100
AcDbLine
 62
7
  6
CONTINUOUS
 10
7.7506950166
 20
6.356233751
 11
6.1246896689
 21
6.356233751
  0
LINE
  5
23A
100
AcDbEntity
  8
0
100
AcDbLine
 62
7
  6
CONTINUOUS
 10
6.1796314393
 20
6.418233751
 11
7.6957532462
 21
6.418233751
  0
LINE
  5
23B
100
AcDbEntity
  8
0
100
AcDbLine
 62
7
  6
CONTINUOUS
 10
14.1796314393
 20
6.418233751
 11
15.6957532462
 21
6.418233751
  0
LINE
  5
23C
100
AcDbEntity
  8
0
100
AcDbLine
 62
7
  6
CONTINUOUS
 10
7.450926495
 20
8.789153103
 11
7.4651923427
 21
8.7695178481
  0
LINE
  5
23D
100
AcDbEntity
  8
0
100
AcDbLine
 62
7
  6
CONTINUOUS
 10
6.3971923427
 20
7.3338501898
 11
6.3230583485
 21
7.2279325625
  0
LINE
  5
23E
100
AcDbEntity
  8
0
100
AcDbLine
 62
7
  6
CONTINUOUS
 10
10.5616735866
 20
12.5235064271
 11
10.5616820998
 21
12.523515096
  0
LINE
  5
23F
100
AcDbEntity
  8
0
100
AcDbLine
 62
7
  6
CONTINUOUS
 10
12.4326923427
 20
6.6211772378
 11
11.6851923427
 21
6.6211772378
  0
LINE
  5
240
100
AcDbEntity
  8
0
100
AcDbLine
 62
9
  6
CONTINUOUS
 10
11.6851923427
 20
6.6211772378
 11
10.1901923427
 21
6.6211772378
  0
LINE
  5
241
100
AcDbEntity
  8
0
100
AcDbLine
 62
7
  6
CONTINUOUS
 10
10.1901923427
 20
6.6211772378
 11
9.4426923427
 21
6.6211772378
  0
LINE
  5
242
100
AcDbEntity
  8
0
100
AcDbLine
 62
9
  6
CONTINUOUS
 10
15.5788557824
 20
6.784733751
 11
14.2965289031
 21
6.784733751
  0
LINE
  5
243
100
AcDbEntity
  8
0
100
AcDbLine
 62
9
  6
CONTINUOUS
 10
7.5788557824
 20
6.784733751
 11
6.2965289031
 21
6.784733751
  0
LINE
  5
244
100
AcDbEntity
  8
0
100
AcDbLine
 62
7
  6
CONTINUOUS
 10
6.5671923427
 20
8.047233751
 11
6.4101923427
 21
8.098233751
  0
LINE
  5
245
100
AcDbEntity
  8
0
100
AcDbLine
 62
7
  6
CONTINUOUS
 10
6.4370391303
 20
8.682733751
 11
6.4101923427
 21
8.698233751
  0
LINE
  5
246
100
AcDbEntity
  8
0
100
AcDbLine
 62
7
  6
CONTINUOUS
 10
7.5211907023
 20
8.5020237047
 11
7.5507772283
 21
8.5430605937
  0
LINE
  5
247
100
AcDbEntity
  8
0
100
AcDbLine
 62
9
  6
CONTINUOUS
 10
6.3191923427
 20
6.999733751
 11
7.5561923427
 21
6.999733751
  0
LINE
  5
248
100
AcDbEntity
  8
0
100
AcDbLine
 62
9
  6
CONTINUOUS
 10
14.3191923427
 20
6.999733751
 11
15.5561923427
 21
6.999733751
  0
LINE
  5
249
100
AcDbEntity
  8
0
100
AcDbLine
 62
9
  6
CONTINUOUS
 10
6.3230583485
 20
7.2279325625
 11
7.5523263369
 21
7.2279325625
  0
LINE
  5
24A
100
AcDbEntity
  8
0
100
AcDbLine
 62
9
  6
CONTINUOUS
 10
14.3230583485
 20
7.2279325625
 11
15.5523263369
 21
7.2279325625
  0
LINE
  5
24B
100
AcDbEntity
  8
0
100
AcDbLine
 62
7
  6
CONTINUOUS
 10
7.4383455552
 20
8.682733751
 11
7.4651923427
 21
8.667233751
  0
LWPOLYLINE
  5
24C
100
AcDbEntity
  8
0
100
AcDbPolyline
 62
7
  6
CONTINUOUS
 90
6
 70
0
 10
10.5616735866
 20
12.5235064271
 10
10.4881725393
 20
12.387207205
 10
10.4107905094
 20
12.2377299789
 10
10.3431039355
 20
12.0928042176
 10
10.2866195788
 20
11.9574994221
 10
10.247599911
 20
11.8559993152
  0
LINE
  5
24D
100
AcDbEntity
  8
0
100
AcDbLine
 62
7
  6
CONTINUOUS
 10
6.4370391303
 20
8.682733751
 11
6.4101923427
 21
8.667233751
  0
LINE
  5
24E
100
AcDbEntity
  8
0
100
AcDbLine
 62
9
  6
CONTINUOUS
 10
15.4781923427
 20
7.3338501898
 11
14.3971923427
 21
7.3338501898
  0
LINE
  5
24F
100
AcDbEntity
  8
0
100
AcDbLine
 62
9
  6
CONTINUOUS
 10
7.4781923427
 20
7.3338501898
 11
6.3971923427
 21
7.3338501898
  0
LINE
  5
250
100
AcDbEntity
  8
0
100
AcDbLine
 62
9
  6
CONTINUOUS
 10
15.3674320703
 20
7.6398329937
 11
14.5079526152
 21
7.6398329937
  0
LINE
  5
251
100
AcDbEntity
  8
0
100
AcDbLine
 62
9
  6
CONTINUOUS
 10
7.3674320703
 20
7.6398329937
 11
6.5079526152
 21
7.6398329937
  0
LINE
  5
252
100
AcDbEntity
  8
0
100
AcDbLine
 62
7
  6
CONTINUOUS
 10
15.3365412312
 20
7.668233751
 11
14.5388434542
 21
7.668233751
  0
LINE
  5
253
100
AcDbEntity
  8
0
100
AcDbLine
 62
7
  6
CONTINUOUS
 10
7.3365412312
 20
7.668233751
 11
6.5388434542
 21
7.668233751
  0
LINE
  5
254
100
AcDbEntity
  8
0
100
AcDbLine
 62
7
  6
CONTINUOUS
 10
9.4426923427
 20
6.6211772378
 11
9.4426923427
 21
5.981233751
  0
LINE
  5
255
100
AcDbEntity
  8
0
100
AcDbLine
 62
7
  6
CONTINUOUS
 10
6.2965289031
 20
6.784733751
 11
6.179634882
 21
6.6681764558
  0
LINE
  5
256
100
AcDbEntity
  8
0
100
AcDbLine
 62
7
  6
CONTINUOUS
 10
7.4383455552
 20
8.682733751
 11
7.4651923427
 21
8.698233751
  0
LINE
  5
257
100
AcDbEntity
  8
0
100
AcDbLine
 62
7
  6
CONTINUOUS
 10
6.5941928695
 20
7.688233751
 11
7.281191816
 21
7.688233751
  0
LINE
  5
258
100
AcDbEntity
  8
0
100
AcDbLine
 62
7
  6
CONTINUOUS
 10
14.5941924953
 20
7.688233751
 11
15.2811921902
 21
7.688233751
  0
LINE
  5
259
100
AcDbEntity
  8
0
100
AcDbLine
 62
7
  6
CONTINUOUS
 10
6.5671929418
 20
8.047233751
 11
7.3081917436
 21
8.047233751
  0
LINE
  5
25A
100
AcDbEntity
  8
0
100
AcDbLine
 62
7
  6
CONTINUOUS
 10
14.5671924944
 20
8.047233751
 11
15.3081921911
 21
8.047233751
  0
LINE
  5
25B
100
AcDbEntity
  8
0
100
AcDbLine
 62
7
  6
CONTINUOUS
 10
7.3922022989
 20
8.808233751
 11
7.450926495
 21
8.789153103
  0
LINE
  5
25C
100
AcDbEntity
  8
0
100
AcDbLine
 62
7
  6
CONTINUOUS
 10
10.2055767173
 20
10.76803162
 11
10.205192343
 21
10.753033751
  0
LINE
  5
25D
100
AcDbEntity
  8
0
100
AcDbLine
 62
7
  6
CONTINUOUS
 10
6.4831823866
 20
8.808233751
 11
6.4244581905
 21
8.789153103
  0
LINE
  5
25E
100
AcDbEntity
  8
0
100
AcDbLine
 62
7
  6
CONTINUOUS
 10
15.4651923427
 20
8.098233751
 11
14.4101923427
 21
8.098233751
  0
LINE
  5
25F
100
AcDbEntity
  8
0
100
AcDbLine
 62
7
  6
CONTINUOUS
 10
7.4651923427
 20
8.098233751
 11
6.4101923427
 21
8.098233751
  0
LINE
  5
260
100
AcDbEntity
  8
0
100
AcDbLine
 62
7
  6
CONTINUOUS
 10
6.3801923427
 20
8.177233751
 11
7.4951923427
 21
8.177233751
  0
LINE
  5
261
100
AcDbEntity
  8
0
100
AcDbLine
 62
7
  6
CONTINUOUS
 10
14.3801923427
 20
8.177233751
 11
15.4951923427
 21
8.177233751
  0
LINE
  5
262
100
AcDbEntity
  8
0
100
AcDbLine
 62
7
  6
CONTINUOUS
 10
14.5872230127
 20
8.186233751
 11
14.5777707653
 21
8.186233751
  0
LINE
  5
263
100
AcDbEntity
  8
0
100
AcDbLine
 62
7
  6
CONTINUOUS
 10
6.5872667714
 20
8.186233751
 11
6.5777707653
 21
8.186233751
  0
LINE
  5
264
100
AcDbEntity
  8
0
100
AcDbLine
 62
7
  6
CONTINUOUS
 10
7.2883444991
 20
8.186233751
 11
7.2976139201
 21
8.186233751
  0
LINE
  5
265
100
AcDbEntity
  8
0
100
AcDbLine
 62
7
  6
CONTINUOUS
 10
15.2883299799
 20
8.186233751
 11
15.2976139201
 21
8.186233751
  0
LINE
  5
266
100
AcDbEntity
  8
0
100
AcDbLine
 62
7
  6
CONTINUOUS
 10
10.5626922002
 20
10.6443322028
 11
10.5626923427
 21
8.5360369093
  0
LINE
  5
267
100
AcDbEntity
  8
0
100
AcDbLine
 62
9
  6
CONTINUOUS
 10
10.5521150013
 20
10.8611827456
 11
10.5539489161
 21
11.1900243649
  0
LINE
  5
268
100
AcDbEntity
  8
0
100
AcDbLine
 62
7
  6
CONTINUOUS
 10
14.8890933496
 20
8.8824667073
 11
14.8931446261
 21
8.8825929974
  0
LINE
  5
269
100
AcDbEntity
  8
0
100
AcDbLine
 62
9
  6
CONTINUOUS
 10
10.5626923427
 20
8.5360369093
 11
11.3126923427
 21
8.5360369093
  0
LINE
  5
26A
100
AcDbEntity
  8
0
100
AcDbLine
 62
7
  6
CONTINUOUS
 10
14.5870400784
 20
8.578233751
 11
14.5777707653
 21
8.578233751
  0
LINE
  5
26B
100
AcDbEntity
  8
0
100
AcDbLine
 62
7
  6
CONTINUOUS
 10
6.5870406175
 20
8.578233751
 11
6.5777707653
 21
8.578233751
  0
LINE
  5
26C
100
AcDbEntity
  8
0
100
AcDbLine
 62
7
  6
CONTINUOUS
 10
7.2881184089
 20
8.578233751
 11
7.2976139201
 21
8.578233751
  0
LINE
  5
26D
100
AcDbEntity
  8
0
100
AcDbLine
 62
7
  6
CONTINUOUS
 10
15.2881204285
 20
8.578233751
 11
15.2976139201
 21
8.578233751
  0
LINE
  5
26E
100
AcDbEntity
  8
0
100
AcDbLine
 62
7
  6
CONTINUOUS
 10
15.4951923427
 20
8.587233751
 11
14.3801923427
 21
8.587233751
  0
LINE
  5
26F
100
AcDbEntity
  8
0
100
AcDbLine
 62
7
  6
CONTINUOUS
 10
7.4951923427
 20
8.587233751
 11
6.3801923427
 21
8.587233751
  0
LINE
  5
270
100
AcDbEntity
  8
0
100
AcDbLine
 62
7
  6
CONTINUOUS
 10
6.4101923427
 20
8.667233751
 11
7.4651923427
 21
8.667233751
  0
LINE
  5
271
100
AcDbEntity
  8
0
100
AcDbLine
 62
7
  6
CONTINUOUS
 10
14.4101923427
 20
8.667233751
 11
15.4651923427
 21
8.667233751
  0
LINE
  5
272
100
AcDbEntity
  8
0
100
AcDbLine
 62
7
  6
CONTINUOUS
 10
6.4370391303
 20
8.682733751
 11
7.4383455552
 21
8.682733751
  0
LINE
  5
273
100
AcDbEntity
  8
0
100
AcDbLine
 62
7
  6
CONTINUOUS
 10
14.4370391303
 20
8.682733751
 11
15.4383455552
 21
8.682733751
  0
LINE
  5
274
100
AcDbEntity
  8
0
100
AcDbLine
 62
7
  6
CONTINUOUS
 10
6.4101923427
 20
8.698233751
 11
7.4651923427
 21
8.698233751
  0
LINE
  5
275
100
AcDbEntity
  8
0
100
AcDbLine
 62
7
  6
CONTINUOUS
 10
14.4101923427
 20
8.698233751
 11
15.4651923427
 21
8.698233751
  0
LINE
  5
276
100
AcDbEntity
  8
0
100
AcDbLine
 62
7
  6
CONTINUOUS
 10
15.4651923427
 20
8.7695178481
 11
14.4101923427
 21
8.7695178481
  0
LINE
  5
277
100
AcDbEntity
  8
0
100
AcDbLine
 62
7
  6
CONTINUOUS
 10
7.4651923427
 20
8.7695178481
 11
6.4101923427
 21
8.7695178481
  0
LINE
  5
278
100
AcDbEntity
  8
0
100
AcDbLine
 62
7
  6
CONTINUOUS
 10
6.4244581905
 20
8.789153103
 11
7.450926495
 21
8.789153103
  0
LINE
  5
279
100
AcDbEntity
  8
0
100
AcDbLine
 62
7
  6
CONTINUOUS
 10
14.4244581905
 20
8.789153103
 11
15.450926495
 21
8.789153103
  0
LINE
  5
27A
100
AcDbEntity
  8
0
100
AcDbLine
 62
7
  6
CONTINUOUS
 10
15.3921825988
 20
8.808233751
 11
14.4832020867
 21
8.808233751
  0
LINE
  5
27B
100
AcDbEntity
  8
0
100
AcDbLine
 62
7
  6
CONTINUOUS
 10
7.3921860587
 20
8.808233751
 11
6.4831986268
 21
8.808233751
  0
LINE
  5
27C
100
AcDbEntity
  8
0
100
AcDbLine
 62
9
  6
CONTINUOUS
 10
6.542560832
 20
8.8320466236
 11
7.3328369823
 21
8.832043164
  0
LINE
  5
27D
100
AcDbEntity
  8
0
100
AcDbLine
 62
9
  6
CONTINUOUS
 10
15.3328384126
 20
8.8320426718
 11
14.5425476862
 21
8.8320430442
  0
LINE
  5
27E
100
AcDbEntity
  8
0
100
AcDbLine
 62
7
  6
CONTINUOUS
 10
6.9376923427
 20
8.883233751
 11
6.9875513028
 21
8.8824319836
  0
LINE
  5
27F
100
AcDbEntity
  8
0
100
AcDbLine
 62
9
  6
CONTINUOUS
 10
10.9376923423
 20
10.8802310412
 11
10.9376923427
 21
12.5541425349
  0
LINE
  5
280
100
AcDbEntity
  8
0
100
AcDbLine
 62
7
  6
CONTINUOUS
 10
7.3081923427
 20
8.047233751
 11
7.4651923427
 21
8.098233751
  0
LINE
  5
281
100
AcDbEntity
  8
0
100
AcDbLine
 62
7
  6
CONTINUOUS
 10
14.5671923427
 20
8.047233751
 11
14.4101923427
 21
8.098233751
  0
LINE
  5
282
100
AcDbEntity
  8
0
100
AcDbLine
 62
9
  6
CONTINUOUS
 10
11.3232701822
 20
10.861182692
 11
11.3214353955
 21
11.190024324
  0
LINE
  5
283
100
AcDbEntity
  8
0
100
AcDbLine
 62
7
  6
CONTINUOUS
 10
11.3126923427
 20
8.5360369093
 11
11.3126924411
 21
10.6443322016
  0
LINE
  5
284
100
AcDbEntity
  8
0
100
AcDbLine
 62
7
  6
CONTINUOUS
 10
11.6698082309
 20
10.7680213726
 11
11.6701923425
 21
10.753033751
  0
LINE
  5
285
100
AcDbEntity
  8
0
100
AcDbLine
 62
7
  6
CONTINUOUS
 10
11.7459827196
 20
10.026233751
 11
11.6646362818
 21
10.026233751
  0
LINE
  5
286
100
AcDbEntity
  8
0
100
AcDbLine
 62
7
  6
CONTINUOUS
 10
10.2107650081
 20
10.026233751
 11
10.1294019659
 21
10.026233751
  0
LINE
  5
287
100
AcDbEntity
  8
0
100
AcDbLine
 62
7
  6
CONTINUOUS
 10
15.3922022989
 20
8.808233751
 11
15.450926495
 21
8.789153103
  0
LINE
  5
288
100
AcDbEntity
  8
0
100
AcDbLine
 62
7
  6
CONTINUOUS
 10
14.4370391303
 20
8.682733751
 11
14.4101923427
 21
8.698233751
  0
LINE
  5
289
100
AcDbEntity
  8
0
100
AcDbLine
 62
7
  6
CONTINUOUS
 10
12.4326923427
 20
6.6211772378
 11
12.4326923427
 21
5.981233751
  0
LINE
  5
28A
100
AcDbEntity
  8
0
100
AcDbLine
 62
7
  6
CONTINUOUS
 10
14.4831823866
 20
8.808233751
 11
14.4244581905
 21
8.789153103
  0
LINE
  5
28B
100
AcDbEntity
  8
0
100
AcDbLine
 62
7
  6
CONTINUOUS
 10
15.5788557824
 20
6.784733751
 11
15.6957488268
 21
6.6681774297
  0
LWPOLYLINE
  5
28C
100
AcDbEntity
  8
0
100
AcDbPolyline
 62
7
  6
CONTINUOUS
 90
6
 70
0
 10
11.6277819657
 20
11.8560068353
 10
11.5878223056
 20
11.9594187162
 10
11.5310602311
 20
12.0946273219
 10
11.4639673051
 20
12.2398437919
 10
11.3877567766
 20
12.3898236119
 10
11.3137105402
 20
12.5235074491
  0
LINE
  5
28D
100
AcDbEntity
  8
0
100
AcDbLine
 62
7
  6
CONTINUOUS
 10
15.4383455552
 20
8.682733751
 11
15.4651923427
 21
8.667233751
  0
LINE
  5
28E
100
AcDbEntity
  8
0
100
AcDbLine
 62
7
  6
CONTINUOUS
 10
14.4370391303
 20
8.682733751
 11
14.4101923427
 21
8.667233751
  0
LINE
  5
28F
100
AcDbEntity
  8
0
100
AcDbLine
 62
7
  6
CONTINUOUS
 10
14.3541939831
 20
8.5020237047
 11
14.3246074572
 21
8.5430605937
  0
LINE
  5
290
100
AcDbEntity
  8
0
100
AcDbLine
 62
7
  6
CONTINUOUS
 10
15.4383455552
 20
8.682733751
 11
15.4651923427
 21
8.698233751
  0
LINE
  5
291
100
AcDbEntity
  8
0
100
AcDbLine
 62
7
  6
CONTINUOUS
 10
15.3081923427
 20
8.047233751
 11
15.4651923427
 21
8.098233751
  0
LINE
  5
292
100
AcDbEntity
  8
0
100
AcDbLine
 62
7
  6
CONTINUOUS
 10
11.3137105402
 20
12.5235074491
 11
11.3137024565
 21
12.5235151133
  0
LINE
  5
293
100
AcDbEntity
  8
0
100
AcDbLine
 62
7
  6
CONTINUOUS
 10
15.4781923427
 20
7.3338501898
 11
15.5523263369
 21
7.2279325625
  0
LINE
  5
294
100
AcDbEntity
  8
0
100
AcDbLine
 62
7
  6
CONTINUOUS
 10
14.3801923427
 20
8.177233751
 11
14.4101923427
 21
8.098233751
  0
LINE
  5
295
100
AcDbEntity
  8
0
100
AcDbLine
 62
7
  6
CONTINUOUS
 10
14.1796320909
 20
6.6681772944
 11
14.1796314393
 21
6.418233751
  0
LINE
  5
296
100
AcDbEntity
  8
0
100
AcDbLine
 62
7
  6
CONTINUOUS
 10
14.1966923427
 20
6.418233751
 11
14.1966923427
 21
6.356233751
  0
LINE
  5
297
100
AcDbEntity
  8
0
100
AcDbLine
 62
7
  6
CONTINUOUS
 10
14.4244581905
 20
8.789153103
 11
14.4101923427
 21
8.7695178481
  0
LINE
  5
298
100
AcDbEntity
  8
0
100
AcDbLine
 62
7
  6
CONTINUOUS
 10
15.0533217494
 20
8.8676139161
 11
15.0548647458
 21
8.8690004806
  0
LWPOLYLINE
  5
299
100
AcDbEntity
  8
0
100
AcDbPolyline
 62
7
  6
CONTINUOUS
 90
4
 70
0
 10
10.9376923427
 20
12.5541425367
 10
10.827110158
 20
12.5508835044
 10
10.6868012285
 20
12.5389209542
 10
10.5616820998
 20
12.523515096
  0
LWPOLYLINE
  5
29A
100
AcDbEntity
  8
0
100
AcDbPolyline
 62
7
  6
CONTINUOUS
 90
4
 70
0
 10
11.3137024565
 20
12.5235151133
 10
11.1868012913
 20
12.5403477415
 10
11.046477067
 20
12.5514428787
 10
10.9376923427
 20
12.5541425349
  0
LINE
  5
29B
100
AcDbEntity
  8
0
100
AcDbLine
 62
7
  6
CONTINUOUS
 10
15.5211907023
 20
8.2624437973
 11
15.5507772283
 21
8.2214069083
  0
LINE
  5
29C
100
AcDbEntity
  8
0
100
AcDbLine
 62
7
  6
CONTINUOUS
 10
14.4101923427
 20
8.7695178481
 11
14.4101923427
 21
8.698233751
  0
LINE
  5
29D
100
AcDbEntity
  8
0
100
AcDbLine
 62
7
  6
CONTINUOUS
 10
14.5586611396
 20
6.6681789697
 11
14.558661891
 21
6.418233751
  0
LINE
  5
29E
100
AcDbEntity
  8
0
100
AcDbLine
 62
7
  6
CONTINUOUS
 10
14.5941923427
 20
8.047233751
 11
14.5941923427
 21
7.688233751
  0
LINE
  5
29F
100
AcDbEntity
  8
0
100
AcDbLine
 62
7
  6
CONTINUOUS
 10
14.4101923427
 20
8.667233751
 11
14.3801923427
 21
8.587233751
  0
LINE
  5
2A0
100
AcDbEntity
  8
0
100
AcDbLine
 62
7
  6
CONTINUOUS
 10
14.3541939831
 20
8.2624437973
 11
14.3246074572
 21
8.2214069083
  0
LINE
  5
2A1
100
AcDbEntity
  8
0
100
AcDbLine
 62
7
  6
CONTINUOUS
 10
15.450926495
 20
8.789153103
 11
15.4651923427
 21
8.7695178481
  0
LINE
  5
2A2
100
AcDbEntity
  8
0
100
AcDbLine
 62
7
  6
CONTINUOUS
 10
14.7376923427
 20
7.688233751
 11
14.7376923427
 21
7.668233751
  0
LINE
  5
2A3
100
AcDbEntity
  8
0
100
AcDbLine
 62
9
  6
CONTINUOUS
 10
14.9398136631
 20
8.883230849
 11
14.9398136631
 21
8.8822308471
  0
LINE
  5
2A4
100
AcDbEntity
  8
0
100
AcDbLine
 62
7
  6
CONTINUOUS
 10
14.9415816434
 20
8.8815633642
 11
14.9415816434
 21
8.8805622851
  0
LINE
  5
2A5
100
AcDbEntity
  8
0
100
AcDbLine
 62
9
  6
CONTINUOUS
 10
15.0251614516
 20
8.8782919804
 11
15.0251614516
 21
8.8772887812
  0
LINE
  5
2A6
100
AcDbEntity
  8
0
100
AcDbLine
 62
7
  6
CONTINUOUS
 10
15.04592204
 20
8.8723805584
 11
15.04592204
 21
8.8713735054
  0
LINE
  5
2A7
100
AcDbEntity
  8
0
100
AcDbLine
 62
7
  6
CONTINUOUS
 10
15.0493764592
 20
8.8775939698
 11
15.0493764592
 21
8.8785969709
  0
LINE
  5
2A8
100
AcDbEntity
  8
0
100
AcDbLine
 62
7
  6
CONTINUOUS
 10
14.3971923427
 20
7.3338501898
 11
14.3230583485
 21
7.2279325625
  0
LINE
  5
2A9
100
AcDbEntity
  8
0
100
AcDbLine
 62
7
  6
CONTINUOUS
 10
14.2965289031
 20
6.784733751
 11
14.179634882
 21
6.6681764558
  0
LINE
  5
2AA
100
AcDbEntity
  8
0
100
AcDbLine
 62
7
  6
CONTINUOUS
 10
15.4651923427
 20
8.667233751
 11
15.4951923427
 21
8.587233751
  0
LINE
  5
2AB
100
AcDbEntity
  8
0
100
AcDbLine
 62
9
  6
CONTINUOUS
 10
15.1286958277
 20
8.8532005935
 11
15.1286958277
 21
8.85218083
  0
LINE
  5
2AC
100
AcDbEntity
  8
0
100
AcDbLine
 62
7
  6
CONTINUOUS
 10
15.1376923427
 20
7.688233751
 11
15.1376923427
 21
7.668233751
  0
LINE
  5
2AD
100
AcDbEntity
  8
0
100
AcDbLine
 62
9
  6
CONTINUOUS
 10
15.1729474674
 20
8.8532261775
 11
15.1729474674
 21
8.8522064535
  0
LINE
  5
2AE
100
AcDbEntity
  8
0
100
AcDbLine
 62
7
  6
CONTINUOUS
 10
15.2811923427
 20
8.047233751
 11
15.2811923427
 21
7.688233751
  0
LINE
  5
2AF
100
AcDbEntity
  8
0
100
AcDbLine
 62
7
  6
CONTINUOUS
 10
15.3167216946
 20
6.6681789698
 11
15.3167227945
 21
6.418233751
  0
LINE
  5
2B0
100
AcDbEntity
  8
0
100
AcDbLine
 62
7
  6
CONTINUOUS
 10
15.4651923427
 20
8.7695178481
 11
15.4651923427
 21
8.698233751
  0
LINE
  5
2B1
100
AcDbEntity
  8
0
100
AcDbLine
 62
7
  6
CONTINUOUS
 10
15.2095775456
 20
8.8473827538
 11
15.2095854909
 21
8.8475319207
  0
LINE
  5
2B2
100
AcDbEntity
  8
0
100
AcDbLine
 62
7
  6
CONTINUOUS
 10
15.5211907023
 20
8.5020237047
 11
15.5507772283
 21
8.5430605937
  0
LINE
  5
2B3
100
AcDbEntity
  8
0
100
AcDbLine
 62
7
  6
CONTINUOUS
 10
15.6786923427
 20
6.418233751
 11
15.6786923427
 21
6.356233751
  0
LINE
  5
2B4
100
AcDbEntity
  8
0
100
AcDbLine
 62
7
  6
CONTINUOUS
 10
15.6957524105
 20
6.6681785097
 11
15.6957532462
 21
6.418233751
  0
LINE
  5
2B5
100
AcDbEntity
  8
0
100
AcDbLine
 62
7
  6
CONTINUOUS
 10
15.4951923427
 20
8.177233751
 11
15.4651923427
 21
8.098233751
  0
ARC
  5
2B6
100
AcDbEntity
  8
0
100
AcDbCircle
 62
7
  6
CONTINUOUS
 10
-1.1874253565
 20
10.5466207934
 40
11.3288375175
100
AcDbArc
 50
353.4324817803
 51
353.9641082586
  0
ARC
  5
2B7
100
AcDbEntity
  8
0
100
AcDbCircle
 62
7
  6
CONTINUOUS
 10
-1.1287180966
 20
10.5411193612
 40
11.2698772561
100
AcDbArc
 50
353.9605381921
 51
357.3814414037
  0
ARC
  5
2B8
100
AcDbEntity
  8
0
100
AcDbCircle
 62
7
  6
CONTINUOUS
 10
6.8799268405
 20
5.5140557011
 40
3.3671138887
100
AcDbArc
 50
89.7905366347
 51
89.9195199975
  0
ARC
  5
2B9
100
AcDbEntity
  8
0
100
AcDbCircle
 62
7
  6
CONTINUOUS
 10
6.8810359393
 20
6.680038714
 40
2.2011300425
100
AcDbArc
 50
89.9977135674
 51
90.148099656
  0
ARC
  5
2BA
100
AcDbEntity
  8
0
100
AcDbCircle
 62
7
  6
CONTINUOUS
 10
6.8791658668
 20
7.2009137087
 40
1.6802520357
100
AcDbArc
 50
90.1302418699
 51
90.5332330309
  0
ARC
  5
2BB
100
AcDbEntity
  8
0
100
AcDbCircle
 62
7
  6
CONTINUOUS
 10
6.9376948948
 20
7.3325351526
 40
1.5506987264
100
AcDbArc
 50
95.3209154622
 51
96.2432041712
  0
ARC
  5
2BC
100
AcDbEntity
  8
0
100
AcDbCircle
 62
7
  6
CONTINUOUS
 10
6.9376939532
 20
7.3325468042
 40
1.5506870417
100
AcDbArc
 50
96.3177308294
 51
96.7676335525
  0
ARC
  5
2BD
100
AcDbEntity
  8
0
100
AcDbCircle
 62
7
  6
CONTINUOUS
 10
6.9376937419
 20
7.3325494667
 40
1.550684373
100
AcDbArc
 50
96.8491208141
 51
98.5631893507
  0
ARC
  5
2BE
100
AcDbEntity
  8
0
100
AcDbCircle
 62
7
  6
CONTINUOUS
 10
6.9376925193
 20
7.332559434
 40
1.5506743317
100
AcDbArc
 50
98.7196674916
 51
104.7629953479
  0
ARC
  5
2BF
100
AcDbEntity
  8
0
100
AcDbCircle
 62
7
  6
CONTINUOUS
 10
6.9376923427
 20
7.332560359
 40
1.550673392
100
AcDbArc
 50
90.0
 51
91.1426519534
  0
ARC
  5
2C0
100
AcDbEntity
  8
0
100
AcDbCircle
 62
7
  6
CONTINUOUS
 10
6.9376923427
 20
7.332560359
 40
1.550673392
100
AcDbArc
 50
75.2370022574
 51
86.968714921
  0
ARC
  5
2C1
100
AcDbEntity
  8
0
100
AcDbCircle
 62
7
  6
CONTINUOUS
 10
6.9376919116
 20
7.3325656201
 40
1.5506681134
100
AcDbArc
 50
93.1257212011
 51
94.3941610524
  0
ARC
  5
2C2
100
AcDbEntity
  8
0
100
AcDbCircle
 62
7
  6
CONTINUOUS
 10
6.8717883123
 20
7.9428856378
 40
0.9382436982
100
AcDbArc
 50
90.5044066203
 51
90.9251264572
  0
ARC
  5
2C3
100
AcDbEntity
  8
0
100
AcDbCircle
 62
7
  6
CONTINUOUS
 10
6.9066014683
 20
7.9849504278
 40
0.896667062
100
AcDbArc
 50
89.9878395754
 51
90.8895619051
  0
ARC
  5
2C4
100
AcDbEntity
  8
0
100
AcDbCircle
 62
7
  6
CONTINUOUS
 10
7.9902312448
 20
7.6922370795
 40
0.625
100
AcDbArc
 50
184.8096995456
 51
214.9889904701
  0
ARC
  5
2C5
100
AcDbEntity
  8
0
100
AcDbCircle
 62
7
  6
CONTINUOUS
 10
5.8851534407
 20
7.6922370795
 40
0.625
100
AcDbArc
 50
325.0110095299
 51
355.1903004544
  0
ARC
  5
2C6
100
AcDbEntity
  8
0
100
AcDbCircle
 62
7
  6
CONTINUOUS
 10
7.3852172217
 20
7.1109693478
 40
0.2039751211
100
AcDbArc
 50
326.9521644937
 51
34.9889904703
  0
ARC
  5
2C7
100
AcDbEntity
  8
0
100
AcDbCircle
 62
7
  6
CONTINUOUS
 10
6.4901674638
 20
7.1109693478
 40
0.2039751211
100
AcDbArc
 50
145.0110095297
 51
213.0478355063
  0
ARC
  5
2C8
100
AcDbEntity
  8
0
100
AcDbCircle
 62
7
  6
CONTINUOUS
 10
6.1246896689
 20
6.169233751
 40
0.187
100
AcDbArc
 50
90.0
 51
180.3063960032
  0
ARC
  5
2C9
100
AcDbEntity
  8
0
100
AcDbCircle
 62
7
  6
CONTINUOUS
 10
7.7506950166
 20
6.169233751
 40
0.187
100
AcDbArc
 50
359.6936039968
 51
90.0
  0
ARC
  5
2CA
100
AcDbEntity
  8
0
100
AcDbCircle
 62
7
  6
CONTINUOUS
 10
7.9306923887
 20
5.9813648112
 40
0.187
100
AcDbArc
 50
359.9598438511
 51
87.8547510776
  0
ARC
  5
2CB
100
AcDbEntity
  8
0
100
AcDbCircle
 62
7
  6
CONTINUOUS
 10
5.9446922968
 20
5.9813648112
 40
0.187
100
AcDbArc
 50
92.1452489224
 51
180.0401561489
  0
ARC
  5
2CC
100
AcDbEntity
  8
0
100
AcDbCircle
 62
7
  6
CONTINUOUS
 10
6.1754178091
 20
6.9061947264
 40
0.1715245336
100
AcDbArc
 50
314.9173576842
 51
33.0478355064
  0
ARC
  5
2CD
100
AcDbEntity
  8
0
100
AcDbCircle
 62
7
  6
CONTINUOUS
 10
7.6999668764
 20
6.9061947264
 40
0.1715245336
100
AcDbArc
 50
146.9521644936
 51
225.0826423158
  0
ARC
  5
2CE
100
AcDbEntity
  8
0
100
AcDbCircle
 62
7
  6
CONTINUOUS
 10
7.3365412312
 20
7.637233751
 40
0.031
100
AcDbArc
 50
4.8096995456
 51
90.0
  0
ARC
  5
2CF
100
AcDbEntity
  8
0
100
AcDbCircle
 62
7
  6
CONTINUOUS
 10
6.5388434542
 20
7.637233751
 40
0.031
100
AcDbArc
 50
90.0
 51
175.1903004544
  0
ARC
  5
2D0
100
AcDbEntity
  8
0
100
AcDbCircle
 62
7
  6
CONTINUOUS
 10
5.4575534538
 20
8.382233751
 40
0.9451388889
100
AcDbArc
 50
347.4730187713
 51
350.6558033148
  0
ARC
  5
2D1
100
AcDbEntity
  8
0
100
AcDbCircle
 62
7
  6
CONTINUOUS
 10
5.4575534538
 20
8.382233751
 40
0.9451388889
100
AcDbArc
 50
9.3556020554
 51
12.5269812287
  0
ARC
  5
2D2
100
AcDbEntity
  8
0
100
AcDbCircle
 62
7
  6
CONTINUOUS
 10
6.1015389966
 20
8.3822328951
 40
0.275000076
100
AcDbArc
 50
35.7908158678
 51
324.2091663967
  0
ARC
  5
2D3
100
AcDbEntity
  8
0
100
AcDbCircle
 62
7
  6
CONTINUOUS
 10
6.1016022774
 20
8.3821560354
 40
0.2748999011
100
AcDbArc
 50
301.1007996791
 51
309.179572654
  0
ARC
  5
2D4
100
AcDbEntity
  8
0
100
AcDbCircle
 62
7
  6
CONTINUOUS
 10
6.1726165893
 20
8.3822352649
 40
0.2688945998
100
AcDbArc
 50
359.374924188
 51
359.8019916727
  0
ARC
  5
2D5
100
AcDbEntity
  8
0
100
AcDbCircle
 62
7
  6
CONTINUOUS
 10
6.1729714676
 20
8.3822338206
 40
0.2685397187
100
AcDbArc
 50
359.8020381703
 51
0.1976970707
  0
ARC
  5
2D6
100
AcDbEntity
  8
0
100
AcDbCircle
 62
7
  6
CONTINUOUS
 10
6.7501591456
 20
8.0934099979
 40
0.7670166624
100
AcDbArc
 50
85.4944144512
 51
86.3413744621
  0
ARC
  5
2D7
100
AcDbEntity
  8
0
100
AcDbCircle
 62
7
  6
CONTINUOUS
 10
6.7504541306
 20
8.0934837257
 40
0.7669427832
100
AcDbArc
 50
93.8163571929
 51
94.4526721569
  0
ARC
  5
2D8
100
AcDbEntity
  8
0
100
AcDbCircle
 62
7
  6
CONTINUOUS
 10
6.7504069115
 20
8.0941769868
 40
0.7662479166
100
AcDbArc
 50
93.4991457625
 51
93.8162845282
  0
ARC
  5
2D9
100
AcDbEntity
  8
0
100
AcDbCircle
 62
7
  6
CONTINUOUS
 10
6.7502247969
 20
8.094397502
 40
0.7660269816
100
AcDbArc
 50
86.341561688
 51
86.7657654916
  0
ARC
  5
2DA
100
AcDbEntity
  8
0
100
AcDbCircle
 62
7
  6
CONTINUOUS
 10
6.8141195701
 20
8.0995748119
 40
0.7737574119
100
AcDbArc
 50
94.0903885755
 51
94.4152968468
  0
ARC
  5
2DB
100
AcDbEntity
  8
0
100
AcDbCircle
 62
7
  6
CONTINUOUS
 10
6.813811419
 20
8.1000322376
 40
0.7732987521
100
AcDbArc
 50
85.5320325393
 51
86.3727535827
  0
ARC
  5
2DC
100
AcDbEntity
  8
0
100
AcDbCircle
 62
7
  6
CONTINUOUS
 10
6.8021199122
 20
8.0982658358
 40
0.7730411628
100
AcDbArc
 50
93.7839814022
 51
94.4209687059
  0
ARC
  5
2DD
100
AcDbEntity
  8
0
100
AcDbCircle
 62
7
  6
CONTINUOUS
 10
6.8140628454
 20
8.1003992909
 40
0.7729309868
100
AcDbArc
 50
93.7753104063
 51
94.090553876
  0
ARC
  5
2DE
100
AcDbEntity
  8
0
100
AcDbCircle
 62
7
  6
CONTINUOUS
 10
6.8140443969
 20
8.1006375725
 40
0.7726920075
100
AcDbArc
 50
93.4697698762
 51
93.7751087845
  0
ARC
  5
2DF
100
AcDbEntity
  8
0
100
AcDbCircle
 62
7
  6
CONTINUOUS
 10
6.8017686026
 20
8.0987237652
 40
0.7725820651
100
AcDbArc
 50
85.5262427695
 51
85.9470003465
  0
ARC
  5
2E0
100
AcDbEntity
  8
0
100
AcDbCircle
 62
7
  6
CONTINUOUS
 10
6.8138676397
 20
8.1008968712
 40
0.7724322937
100
AcDbArc
 50
86.3728579384
 51
86.7928533509
  0
ARC
  5
2E1
100
AcDbEntity
  8
0
100
AcDbCircle
 62
7
  6
CONTINUOUS
 10
6.8020974362
 20
8.0980702229
 40
0.7722281996
100
AcDbArc
 50
93.7928249473
 51
94.4239595511
  0
ARC
  5
2E2
100
AcDbEntity
  8
0
100
AcDbCircle
 62
7
  6
CONTINUOUS
 10
6.802028688
 20
8.0995518853
 40
0.7717518967
100
AcDbArc
 50
93.4743815682
 51
93.7835246242
  0
ARC
  5
2E3
100
AcDbEntity
  8
0
100
AcDbCircle
 62
7
  6
CONTINUOUS
 10
6.8018292107
 20
8.0995938645
 40
0.7717098582
100
AcDbArc
 50
85.9469230285
 51
86.7885380536
  0
ARC
  5
2E4
100
AcDbEntity
  8
0
100
AcDbCircle
 62
7
  6
CONTINUOUS
 10
6.8018289506
 20
8.0990853625
 40
0.7712106075
100
AcDbArc
 50
85.944096931
 51
86.786437548
  0
ARC
  5
2E5
100
AcDbEntity
  8
0
100
AcDbCircle
 62
7
  6
CONTINUOUS
 10
6.7619816444
 20
8.09745679
 40
0.765736026
100
AcDbArc
 50
90.0003993197
 51
92.2867743632
  0
ARC
  5
2E6
100
AcDbEntity
  8
0
100
AcDbCircle
 62
7
  6
CONTINUOUS
 10
6.7619734115
 20
8.0975933079
 40
0.7655995082
100
AcDbArc
 50
87.9777794436
 51
89.9997832587
  0
ARC
  5
2E7
100
AcDbEntity
  8
0
100
AcDbCircle
 62
7
  6
CONTINUOUS
 10
6.8831918125
 20
8.0754496402
 40
0.8059351308
100
AcDbArc
 50
102.9067867631
 51
103.8027264113
  0
ARC
  5
2E8
100
AcDbEntity
  8
0
100
AcDbCircle
 62
7
  6
CONTINUOUS
 10
6.8828575931
 20
8.0763904463
 40
0.8039545342
100
AcDbArc
 50
102.8984669078
 51
103.3504525481
  0
ARC
  5
2E9
100
AcDbEntity
  8
0
100
AcDbCircle
 62
7
  6
CONTINUOUS
 10
6.8823621441
 20
8.0790625978
 40
0.8022281362
100
AcDbArc
 50
102.4425027892
 51
102.9066656152
  0
ARC
  5
2EA
100
AcDbEntity
  8
0
100
AcDbCircle
 62
7
  6
CONTINUOUS
 10
6.882432822
 20
8.0781587041
 40
0.8021361661
100
AcDbArc
 50
101.3034903231
 51
102.5570348968
  0
ARC
  5
2EB
100
AcDbEntity
  8
0
100
AcDbCircle
 62
7
  6
CONTINUOUS
 10
6.8822155623
 20
8.0791897429
 40
0.801082555
100
AcDbArc
 50
102.5579000893
 51
102.8983982227
  0
ARC
  5
2EC
100
AcDbEntity
  8
0
100
AcDbCircle
 62
7
  6
CONTINUOUS
 10
6.8820492496
 20
8.0804718947
 40
0.8007845237
100
AcDbArc
 50
101.1861687363
 51
102.442366942
  0
ARC
  5
2ED
100
AcDbEntity
  8
0
100
AcDbCircle
 62
7
  6
CONTINUOUS
 10
6.8820208727
 20
8.0802622282
 40
0.7999927002
100
AcDbArc
 50
100.8946699611
 51
101.3040879645
  0
ARC
  5
2EE
100
AcDbEntity
  8
0
100
AcDbCircle
 62
7
  6
CONTINUOUS
 10
6.8816731156
 20
8.0823831162
 40
0.7988366425
100
AcDbArc
 50
100.8983903128
 51
101.18629669
  0
ARC
  5
2EF
100
AcDbEntity
  8
0
100
AcDbCircle
 62
7
  6
CONTINUOUS
 10
6.9303065755
 20
8.0894370207
 40
0.7938844951
100
AcDbArc
 50
99.8500833769
 51
100.5005552671
  0
ARC
  5
2F0
100
AcDbEntity
  8
0
100
AcDbCircle
 62
7
  6
CONTINUOUS
 10
6.9303087129
 20
8.0889295152
 40
0.7933921913
100
AcDbArc
 50
99.8852766375
 51
100.507301916
  0
ARC
  5
2F1
100
AcDbEntity
  8
0
100
AcDbCircle
 62
7
  6
CONTINUOUS
 10
6.9298961274
 20
8.091803406
 40
0.7914827775
100
AcDbArc
 50
99.2272117723
 51
99.8501139138
  0
ARC
  5
2F2
100
AcDbEntity
  8
0
100
AcDbCircle
 62
7
  6
CONTINUOUS
 10
6.9299275928
 20
8.0911155256
 40
0.7911732064
100
AcDbArc
 50
99.2620753675
 51
99.8852638637
  0
ARC
  5
2F3
100
AcDbEntity
  8
0
100
AcDbCircle
 62
7
  6
CONTINUOUS
 10
6.879998758
 20
8.0911902897
 40
0.789871748
100
AcDbArc
 50
100.02269434
 51
100.8999132138
  0
ARC
  5
2F4
100
AcDbEntity
  8
0
100
AcDbCircle
 62
7
  6
CONTINUOUS
 10
6.9295871268
 20
8.0936960026
 40
0.7895651225
100
AcDbArc
 50
98.6321716549
 51
99.2271011579
  0
ARC
  5
2F5
100
AcDbEntity
  8
0
100
AcDbCircle
 62
7
  6
CONTINUOUS
 10
6.9295935987
 20
8.0931624994
 40
0.7890991636
100
AcDbArc
 50
98.6377831707
 51
99.262062438
  0
ARC
  5
2F6
100
AcDbEntity
  8
0
100
AcDbCircle
 62
7
  6
CONTINUOUS
 10
6.8795721243
 20
8.0931175184
 40
0.7869062869
100
AcDbArc
 50
100.0293098038
 51
100.8964967695
  0
ARC
  5
2F7
100
AcDbEntity
  8
0
100
AcDbCircle
 62
7
  6
CONTINUOUS
 10
6.8795370227
 20
8.0941654148
 40
0.7868602551
100
AcDbArc
 50
98.1905694383
 51
99.1013040592
  0
ARC
  5
2F8
100
AcDbEntity
  8
0
100
AcDbCircle
 62
7
  6
CONTINUOUS
 10
6.8793712282
 20
8.0948097357
 40
0.7852024574
100
AcDbArc
 50
97.879124646
 51
98.2077108342
  0
ARC
  5
2F9
100
AcDbEntity
  8
0
100
AcDbCircle
 62
7
  6
CONTINUOUS
 10
6.8790931986
 20
8.0972963085
 40
0.7836980677
100
AcDbArc
 50
96.2891788589
 51
98.1910628566
  0
ARC
  5
2FA
100
AcDbEntity
  8
0
100
AcDbCircle
 62
7
  6
CONTINUOUS
 10
6.8790444109
 20
8.0972346906
 40
0.7827555941
100
AcDbArc
 50
96.6100362189
 51
97.8797607076
  0
ARC
  5
2FB
100
AcDbEntity
  8
0
100
AcDbCircle
 62
7
  6
CONTINUOUS
 10
6.8788423343
 20
8.0989567713
 40
0.7810216995
100
AcDbArc
 50
96.2354974892
 51
96.6098526249
  0
ARC
  5
2FC
100
AcDbEntity
  8
0
100
AcDbCircle
 62
7
  6
CONTINUOUS
 10
6.8786707568
 20
8.1010884826
 40
0.7798824362
100
AcDbArc
 50
95.3340941779
 51
96.2393599993
  0
ARC
  5
2FD
100
AcDbEntity
  8
0
100
AcDbCircle
 62
7
  6
CONTINUOUS
 10
6.878675101
 20
8.1005270521
 40
0.7794425341
100
AcDbArc
 50
95.3374340984
 51
96.0342716897
  0
ARC
  5
2FE
100
AcDbEntity
  8
0
100
AcDbCircle
 62
7
  6
CONTINUOUS
 10
6.8657158944
 20
8.1031566669
 40
0.7767228247
100
AcDbArc
 50
94.0763870002
 51
94.396744166
  0
ARC
  5
2FF
100
AcDbEntity
  8
0
100
AcDbCircle
 62
7
  6
CONTINUOUS
 10
6.8657005715
 20
8.1033519557
 40
0.7765269406
100
AcDbArc
 50
93.76250517
 51
94.0762835735
  0
ARC
  5
300
100
AcDbEntity
  8
0
100
AcDbCircle
 62
7
  6
CONTINUOUS
 10
6.8654403954
 20
8.1034309494
 40
0.7764477104
100
AcDbArc
 50
85.5509429822
 51
86.8060537725
  0
ARC
  5
301
100
AcDbEntity
  8
0
100
AcDbCircle
 62
7
  6
CONTINUOUS
 10
6.8539640745
 20
8.1023132137
 40
0.7763866721
100
AcDbArc
 50
90.7562938912
 51
91.5079383004
  0
ARC
  5
302
100
AcDbEntity
  8
0
100
AcDbCircle
 62
7
  6
CONTINUOUS
 10
6.8657242646
 20
8.1025399803
 40
0.7763376398
100
AcDbArc
 50
94.0856306155
 51
94.3995495085
  0
ARC
  5
303
100
AcDbEntity
  8
0
100
AcDbCircle
 62
7
  6
CONTINUOUS
 10
6.8656944772
 20
8.1029556954
 40
0.7759208589
100
AcDbArc
 50
93.7715975179
 51
94.085623736
  0
ARC
  5
304
100
AcDbEntity
  8
0
100
AcDbCircle
 62
7
  6
CONTINUOUS
 10
6.8654725784
 20
8.1034344347
 40
0.7754410437
100
AcDbArc
 50
85.9665594819
 51
86.8042847695
  0
ARC
  5
305
100
AcDbEntity
  8
0
100
AcDbCircle
 62
7
  6
CONTINUOUS
 10
6.8538943868
 20
8.1052477303
 40
0.7734516415
100
AcDbArc
 50
87.9981021411
 51
89.3308991836
  0
ARC
  5
306
100
AcDbEntity
  8
0
100
AcDbCircle
 62
7
  6
CONTINUOUS
 10
6.8539136957
 20
8.1045016752
 40
0.773194882
100
AcDbArc
 50
91.5104302333
 51
92.2087361739
  0
ARC
  5
307
100
AcDbEntity
  8
0
100
AcDbCircle
 62
7
  6
CONTINUOUS
 10
6.853900151
 20
8.1056264073
 40
0.773072923
100
AcDbArc
 50
89.3309986295
 51
89.999997174
  0
ARC
  5
308
100
AcDbEntity
  8
0
100
AcDbCircle
 62
7
  6
CONTINUOUS
 10
6.8538946948
 20
8.1047615025
 40
0.7729349332
100
AcDbArc
 50
87.996786169
 51
89.3320510152
  0
ARC
  5
309
100
AcDbEntity
  8
0
100
AcDbCircle
 62
7
  6
CONTINUOUS
 10
6.8539032984
 20
8.1048872378
 40
0.7728091793
100
AcDbArc
 50
90.7552889404
 51
91.5104131366
  0
ARC
  5
30A
100
AcDbEntity
  8
0
100
AcDbCircle
 62
7
  6
CONTINUOUS
 10
6.8539004127
 20
8.1050811521
 40
0.7726152439
100
AcDbArc
 50
90.095791889
 51
90.7552645192
  0
ARC
  5
30B
100
AcDbEntity
  8
0
100
AcDbCircle
 62
7
  6
CONTINUOUS
 10
6.8539000692
 20
8.1050947344
 40
0.7726016613
100
AcDbArc
 50
89.3321614649
 51
89.9999911017
  0
ARC
  5
30C
100
AcDbEntity
  8
0
100
AcDbCircle
 62
7
  6
CONTINUOUS
 10
6.8538942615
 20
8.1064285494
 40
0.7722707736
100
AcDbArc
 50
90.0958673861
 51
90.7551449002
  0
ARC
  5
30D
100
AcDbEntity
  8
0
100
AcDbCircle
 62
7
  6
CONTINUOUS
 10
6.853578926
 20
8.1150636771
 40
0.7636304906
100
AcDbArc
 50
91.5042257098
 51
92.2137518978
  0
ARC
  5
30E
100
AcDbEntity
  8
0
100
AcDbCircle
 62
9
  6
CONTINUOUS
 10
6.4391848945
 20
8.3822337625
 40
0.2771787999
100
AcDbArc
 50
359.9999976148
 51
0.4371261493
  0
ARC
  5
30F
100
AcDbEntity
  8
0
100
AcDbCircle
 62
7
  6
CONTINUOUS
 10
6.7011073109
 20
8.324092701
 40
0.2538620253
100
AcDbArc
 50
192.8293549223
 51
194.7602640947
  0
ARC
  5
310
100
AcDbEntity
  8
0
100
AcDbCircle
 62
7
  6
CONTINUOUS
 10
6.6967974507
 20
8.4414302713
 40
0.2494254835
100
AcDbArc
 50
165.2881571873
 51
167.2547113552
  0
ARC
  5
311
100
AcDbEntity
  8
0
100
AcDbCircle
 62
7
  6
CONTINUOUS
 10
6.6329892475
 20
8.3619258049
 40
0.1991103434
100
AcDbArc
 50
208.8645261168
 51
210.5673765838
  0
ARC
  5
312
100
AcDbEntity
  8
0
100
AcDbCircle
 62
7
  6
CONTINUOUS
 10
6.6323657582
 20
8.4028981533
 40
0.1983922568
100
AcDbArc
 50
149.5627664862
 51
151.1172191349
  0
ARC
  5
313
100
AcDbEntity
  8
0
100
AcDbCircle
 62
7
  6
CONTINUOUS
 10
6.239878172
 20
8.3589926885
 40
0.1972177856
100
AcDbArc
 50
329.6562523026
 51
330.1335373662
  0
ARC
  5
314
100
AcDbEntity
  8
0
100
AcDbCircle
 62
7
  6
CONTINUOUS
 10
6.2400514908
 20
8.4055738571
 40
0.1970181874
100
AcDbArc
 50
29.9862492043
 51
30.3184637036
  0
ARC
  5
315
100
AcDbEntity
  8
0
100
AcDbCircle
 62
7
  6
CONTINUOUS
 10
6.629684286
 20
8.4044692597
 40
0.1952844194
100
AcDbArc
 50
148.940833925
 51
149.5616415192
  0
ARC
  5
316
100
AcDbEntity
  8
0
100
AcDbCircle
 62
7
  6
CONTINUOUS
 10
6.6293937899
 20
8.3598239926
 40
0.194945662
100
AcDbArc
 50
210.572886553
 51
211.1487016329
  0
ARC
  5
317
100
AcDbEntity
  8
0
100
AcDbCircle
 62
7
  6
CONTINUOUS
 10
6.5222584697
 20
8.3975559606
 40
0.1928461443
100
AcDbArc
 50
64.1215432687
 51
67.7332410105
  0
ARC
  5
318
100
AcDbEntity
  8
0
100
AcDbCircle
 62
9
  6
CONTINUOUS
 10
6.6247212259
 20
8.4051232914
 40
0.1903676325
100
AcDbArc
 50
150.5827033249
 51
150.7506463978
  0
ARC
  5
319
100
AcDbEntity
  8
0
100
AcDbCircle
 62
9
  6
CONTINUOUS
 10
6.6241084935
 20
8.3589925735
 40
0.1896611388
100
AcDbArc
 50
209.2870667627
 51
209.8442363159
  0
ARC
  5
31A
100
AcDbEntity
  8
0
100
AcDbCircle
 62
9
  6
CONTINUOUS
 10
6.6236192183
 20
8.4057464516
 40
0.1891016361
100
AcDbArc
 50
149.9596830928
 51
150.5831711242
  0
ARC
  5
31B
100
AcDbEntity
  8
0
100
AcDbCircle
 62
7
  6
CONTINUOUS
 10
6.5244789841
 20
8.3617974476
 40
0.187272162
100
AcDbArc
 50
292.2839456098
 51
294.5033721924
  0
ARC
  5
31C
100
AcDbEntity
  8
0
100
AcDbCircle
 62
9
  6
CONTINUOUS
 10
6.6213960646
 20
8.3574316338
 40
0.1865316362
100
AcDbArc
 50
209.8429748561
 51
211.4738830424
  0
ARC
  5
31D
100
AcDbEntity
  8
0
100
AcDbCircle
 62
9
  6
CONTINUOUS
 10
6.6208291777
 20
8.4073705596
 40
0.1858733291
100
AcDbArc
 50
148.6801507597
 51
149.96252727
  0
ARC
  5
31E
100
AcDbEntity
  8
0
100
AcDbCircle
 62
9
  6
CONTINUOUS
 10
6.5940096763
 20
8.4269149615
 40
0.1526413943
100
AcDbArc
 50
138.3566126735
 51
138.853510663
  0
ARC
  5
31F
100
AcDbEntity
  8
0
100
AcDbCircle
 62
7
  6
CONTINUOUS
 10
6.6018766358
 20
8.296319658
 40
0.1200346064
100
AcDbArc
 50
243.0164877818
 51
244.0314672519
  0
ARC
  5
320
100
AcDbEntity
  8
0
100
AcDbCircle
 62
9
  6
CONTINUOUS
 10
6.5777296333
 20
8.2850333185
 40
0.0987995646
100
AcDbArc
 50
270.0238532776
 51
280.7436244847
  0
ARC
  5
321
100
AcDbEntity
  8
0
100
AcDbCircle
 62
7
  6
CONTINUOUS
 10
6.6018564749
 20
8.468189264
 40
0.1199885014
100
AcDbArc
 50
115.9521262327
 51
116.9310772733
  0
ARC
  5
322
100
AcDbEntity
  8
0
100
AcDbCircle
 62
9
  6
CONTINUOUS
 10
6.5777538233
 20
8.4797918029
 40
0.0984419381
100
AcDbArc
 50
80.607465801
 51
89.990139304
  0
ARC
  5
323
100
AcDbEntity
  8
0
100
AcDbCircle
 62
7
  6
CONTINUOUS
 10
6.5501923427
 20
8.8030335193
 40
0.03
100
AcDbArc
 50
104.7629977427
 51
169.9869811551
  0
ARC
  5
324
100
AcDbEntity
  8
0
100
AcDbCircle
 62
7
  6
CONTINUOUS
 10
6.7608374144
 20
8.8472554507
 40
0.0233073167
100
AcDbArc
 50
103.8482178296
 51
104.9597084961
  0
ARC
  5
325
100
AcDbEntity
  8
0
100
AcDbCircle
 62
7
  6
CONTINUOUS
 10
8.4178312316
 20
8.382233751
 40
0.9451388889
100
AcDbArc
 50
189.3454314595
 51
192.5269812287
  0
ARC
  5
326
100
AcDbEntity
  8
0
100
AcDbCircle
 62
7
  6
CONTINUOUS
 10
8.4178312316
 20
8.382233751
 40
0.9451388889
100
AcDbArc
 50
167.4730187713
 51
170.6448301548
  0
ARC
  5
327
100
AcDbEntity
  8
0
100
AcDbCircle
 62
7
  6
CONTINUOUS
 10
7.0022255674
 20
8.077219817
 40
0.804051738
100
AcDbArc
 50
101.2289368472
 51
103.8014091466
  0
ARC
  5
328
100
AcDbEntity
  8
0
100
AcDbCircle
 62
7
  6
CONTINUOUS
 10
7.0002420006
 20
8.0869407445
 40
0.7941306412
100
AcDbArc
 50
100.0227666088
 51
101.2251388158
  0
ARC
  5
329
100
AcDbEntity
  8
0
100
AcDbCircle
 62
7
  6
CONTINUOUS
 10
6.9427421494
 20
8.0893421326
 40
0.7940354229
100
AcDbArc
 50
99.8959109589
 51
100.5520384168
  0
ARC
  5
32A
100
AcDbEntity
  8
0
100
AcDbCircle
 62
7
  6
CONTINUOUS
 10
6.9423388875
 20
8.091652511
 40
0.7916901152
100
AcDbArc
 50
99.2385263378
 51
99.8958962598
  0
ARC
  5
32B
100
AcDbEntity
  8
0
100
AcDbCircle
 62
7
  6
CONTINUOUS
 10
6.9419881569
 20
8.0938074622
 40
0.7895068089
100
AcDbArc
 50
98.5799837888
 51
99.2385107545
  0
ARC
  5
32C
100
AcDbEntity
  8
0
100
AcDbCircle
 62
7
  6
CONTINUOUS
 10
6.9988938453
 20
8.0950351707
 40
0.7859244131
100
AcDbArc
 50
96.5725158254
 51
99.139932368
  0
ARC
  5
32D
100
AcDbEntity
  8
0
100
AcDbCircle
 62
7
  6
CONTINUOUS
 10
6.9982359332
 20
8.1003579418
 40
0.7805613197
100
AcDbArc
 50
95.3341693165
 51
96.5025299939
  0
ARC
  5
32E
100
AcDbEntity
  8
0
100
AcDbCircle
 62
7
  6
CONTINUOUS
 10
7.7738456478
 20
8.3822343325
 40
0.2749995817
100
AcDbArc
 50
215.7921391844
 51
144.2078711207
  0
ARC
  5
32F
100
AcDbEntity
  8
0
100
AcDbCircle
 62
7
  6
CONTINUOUS
 10
7.7737989938
 20
8.3817855423
 40
0.2745492976
100
AcDbArc
 50
261.5652496778
 51
266.922136748
  0
ARC
  5
330
100
AcDbEntity
  8
0
100
AcDbCircle
 62
7
  6
CONTINUOUS
 10
7.7736478923
 20
8.3815768791
 40
0.2743139395
100
AcDbArc
 50
250.437575721
 51
255.4267221862
  0
ARC
  5
331
100
AcDbEntity
  8
0
100
AcDbCircle
 62
7
  6
CONTINUOUS
 10
7.1707851295
 20
8.4395514692
 40
0.2574499432
100
AcDbArc
 50
12.7783769054
 51
14.3565438266
  0
ARC
  5
332
100
AcDbEntity
  8
0
100
AcDbCircle
 62
7
  6
CONTINUOUS
 10
7.1793196079
 20
8.322864241
 40
0.2486731068
100
AcDbArc
 50
345.1811497855
 51
347.2994583778
  0
ARC
  5
333
100
AcDbEntity
  8
0
100
AcDbCircle
 62
7
  6
CONTINUOUS
 10
7.2418299231
 20
8.4022213901
 40
0.1997603528
100
AcDbArc
 50
28.9154124281
 51
30.069358546
  0
ARC
  5
334
100
AcDbEntity
  8
0
100
AcDbCircle
 62
7
  6
CONTINUOUS
 10
7.2432357083
 20
8.3614525657
 40
0.1981462426
100
AcDbArc
 50
329.444356573
 51
331.125049929
  0
ARC
  5
335
100
AcDbEntity
  8
0
100
AcDbCircle
 62
7
  6
CONTINUOUS
 10
7.6362619489
 20
8.3594359858
 40
0.1980936713
100
AcDbArc
 50
209.4922500981
 51
210.4309258349
  0
ARC
  5
336
100
AcDbEntity
  8
0
100
AcDbCircle
 62
7
  6
CONTINUOUS
 10
7.2455940191
 20
8.3600674997
 40
0.195411284
100
AcDbArc
 50
329.1450852035
 51
329.4425457153
  0
ARC
  5
337
100
AcDbEntity
  8
0
100
AcDbCircle
 62
7
  6
CONTINUOUS
 10
7.3531280537
 20
8.3669157543
 40
0.1928507387
100
AcDbArc
 50
244.1198375038
 51
247.7333347315
  0
ARC
  5
338
100
AcDbEntity
  8
0
100
AcDbCircle
 62
9
  6
CONTINUOUS
 10
7.2500588314
 20
8.3596921114
 40
0.1910651756
100
AcDbArc
 50
330.7109523882
 51
330.9685628905
  0
ARC
  5
339
100
AcDbEntity
  8
0
100
AcDbCircle
 62
9
  6
CONTINUOUS
 10
7.2508397537
 20
8.4052213515
 40
0.1901658985
100
AcDbArc
 50
29.2759859915
 51
29.5732018186
  0
ARC
  5
33A
100
AcDbEntity
  8
0
100
AcDbCircle
 62
9
  6
CONTINUOUS
 10
7.2527590332
 20
8.4063141481
 40
0.187957318
100
AcDbArc
 50
29.5722258595
 51
30.8660655135
  0
ARC
  5
33B
100
AcDbEntity
  8
0
100
AcDbCircle
 62
7
  6
CONTINUOUS
 10
7.3509064467
 20
8.4026682542
 40
0.1872741094
100
AcDbArc
 50
112.2838454699
 51
114.5044011649
  0
ARC
  5
33C
100
AcDbEntity
  8
0
100
AcDbCircle
 62
9
  6
CONTINUOUS
 10
7.2538139546
 20
8.3575492233
 40
0.1867417649
100
AcDbArc
 50
328.5228185217
 51
330.7207343585
  0
ARC
  5
33D
100
AcDbEntity
  8
0
100
AcDbCircle
 62
7
  6
CONTINUOUS
 10
7.2735228032
 20
8.2962891959
 40
0.1200007197
100
AcDbArc
 50
295.9521272064
 51
296.9482385834
  0
ARC
  5
33E
100
AcDbEntity
  8
0
100
AcDbCircle
 62
7
  6
CONTINUOUS
 10
7.5771509256
 20
8.2918253957
 40
0.1055916448
100
AcDbArc
 50
270.0009736039
 51
272.1462114792
  0
ARC
  5
33F
100
AcDbEntity
  8
0
100
AcDbCircle
 62
9
  6
CONTINUOUS
 10
7.2976346363
 20
8.2846149434
 40
0.0983811946
100
AcDbArc
 50
260.4240312675
 51
269.9879351995
  0
ARC
  5
340
100
AcDbEntity
  8
0
100
AcDbCircle
 62
7
  6
CONTINUOUS
 10
7.2976138875
 20
8.2842408808
 40
0.0980071298
100
AcDbArc
 50
270.0000190796
 51
270.8742157274
  0
ARC
  5
341
100
AcDbEntity
  8
0
100
AcDbCircle
 62
9
  6
CONTINUOUS
 10
7.3132833991
 20
8.2889015738
 40
0.0933457587
100
AcDbArc
 50
270.0000190812
 51
270.8742157286
  0
ARC
  5
342
100
AcDbEntity
  8
0
100
AcDbCircle
 62
7
  6
CONTINUOUS
 10
7.273511516
 20
8.4681548386
 40
0.1200267986
100
AcDbArc
 50
63.0276756052
 51
64.0315426875
  0
ARC
  5
343
100
AcDbEntity
  8
0
100
AcDbCircle
 62
7
  6
CONTINUOUS
 10
7.5771508664
 20
8.4726452198
 40
0.1055885312
100
AcDbArc
 50
87.831247317
 51
89.9989942454
  0
ARC
  5
344
100
AcDbEntity
  8
0
100
AcDbCircle
 62
9
  6
CONTINUOUS
 10
7.297705297
 20
8.4790793735
 40
0.0991556652
100
AcDbArc
 50
90.9168772163
 51
100.3732896711
  0
ARC
  5
345
100
AcDbEntity
  8
0
100
AcDbCircle
 62
9
  6
CONTINUOUS
 10
7.2976139528
 20
8.4802266212
 40
0.0980071298
100
AcDbArc
 50
90.0000190795
 51
90.8742157275
  0
ARC
  5
346
100
AcDbEntity
  8
0
100
AcDbCircle
 62
9
  6
CONTINUOUS
 10
7.3132834613
 20
8.4755659282
 40
0.0933457587
100
AcDbArc
 50
90.0000190783
 51
90.8742157259
  0
ARC
  5
347
100
AcDbEntity
  8
0
100
AcDbCircle
 62
7
  6
CONTINUOUS
 10
7.3251923427
 20
8.8030335193
 40
0.03
100
AcDbArc
 50
10.0130188449
 51
75.2370022573
  0
ARC
  5
348
100
AcDbEntity
  8
0
100
AcDbCircle
 62
7
  6
CONTINUOUS
 10
6.9613714714
 20
20.6979218951
 40
11.8170241331
100
AcDbArc
 50
269.9245379404
 51
270.0779026933
  0
ARC
  5
349
100
AcDbEntity
  8
0
100
AcDbCircle
 62
7
  6
CONTINUOUS
 10
14.4901674638
 20
7.1109693478
 40
0.2039751211
100
AcDbArc
 50
145.0110095297
 51
213.0478355063
  0
ARC
  5
34A
100
AcDbEntity
  8
0
100
AcDbCircle
 62
7
  6
CONTINUOUS
 10
14.1246896689
 20
6.169233751
 40
0.187
100
AcDbArc
 50
90.0
 51
180.3063960032
  0
ARC
  5
34B
100
AcDbEntity
  8
0
100
AcDbCircle
 62
7
  6
CONTINUOUS
 10
13.9446922968
 20
5.9813648112
 40
0.187
100
AcDbArc
 50
92.1452489224
 51
180.0401561489
  0
ARC
  5
34C
100
AcDbEntity
  8
0
100
AcDbCircle
 62
7
  6
CONTINUOUS
 10
14.1754178091
 20
6.9061947264
 40
0.1715245336
100
AcDbArc
 50
314.9173576842
 51
33.0478355064
  0
ARC
  5
34D
100
AcDbEntity
  8
0
100
AcDbCircle
 62
7
  6
CONTINUOUS
 10
13.8851534407
 20
7.6922370795
 40
0.625
100
AcDbArc
 50
325.0110095299
 51
355.1903004544
  0
ARC
  5
34E
100
AcDbEntity
  8
0
100
AcDbCircle
 62
7
  6
CONTINUOUS
 10
13.4575534538
 20
8.382233751
 40
0.9451388889
100
AcDbArc
 50
347.4730187713
 51
350.6448301548
  0
ARC
  5
34F
100
AcDbEntity
  8
0
100
AcDbCircle
 62
7
  6
CONTINUOUS
 10
13.4575534538
 20
8.382233751
 40
0.9451388889
100
AcDbArc
 50
9.3454314595
 51
12.5269812287
  0
ARC
  5
350
100
AcDbEntity
  8
0
100
AcDbCircle
 62
7
  6
CONTINUOUS
 10
14.1015390082
 20
8.3822331652
 40
0.2749995718
100
AcDbArc
 50
35.7921392653
 51
324.207871201
  0
ARC
  5
351
100
AcDbEntity
  8
0
100
AcDbCircle
 62
7
  6
CONTINUOUS
 10
14.1015755409
 20
8.382035386
 40
0.2747981765
100
AcDbArc
 50
275.8503204123
 51
280.0139717866
  0
ARC
  5
352
100
AcDbEntity
  8
0
100
AcDbCircle
 62
7
  6
CONTINUOUS
 10
14.9376621259
 20
7.3323256218
 40
1.5509099652
100
AcDbArc
 50
81.3516182978
 51
84.1835942981
  0
ARC
  5
353
100
AcDbEntity
  8
0
100
AcDbCircle
 62
7
  6
CONTINUOUS
 10
14.9376916355
 20
7.3325569299
 40
1.5506768572
100
AcDbArc
 50
84.1838156446
 51
84.7714210729
  0
ARC
  5
354
100
AcDbEntity
  8
0
100
AcDbCircle
 62
7
  6
CONTINUOUS
 10
14.9358466774
 20
7.6721649908
 40
1.2110876415
100
AcDbArc
 50
88.9759320975
 51
89.234992221
  0
ARC
  5
355
100
AcDbEntity
  8
0
100
AcDbCircle
 62
7
  6
CONTINUOUS
 10
14.899858367
 20
7.6909329388
 40
1.1904423973
100
AcDbArc
 50
82.1886097389
 51
82.701773041
  0
ARC
  5
356
100
AcDbEntity
  8
0
100
AcDbCircle
 62
7
  6
CONTINUOUS
 10
14.899954895
 20
7.6916793341
 40
1.1896897867
100
AcDbArc
 50
82.7334293876
 51
82.9524251117
  0
ARC
  5
357
100
AcDbEntity
  8
0
100
AcDbCircle
 62
7
  6
CONTINUOUS
 10
14.8998823443
 20
7.69088071
 40
1.1894918442
100
AcDbArc
 50
82.3593760252
 51
82.6930157215
  0
ARC
  5
358
100
AcDbEntity
  8
0
100
AcDbCircle
 62
7
  6
CONTINUOUS
 10
14.8999577361
 20
7.6914684093
 40
1.1888993287
100
AcDbArc
 50
82.734796099
 51
82.9478535858
  0
ARC
  5
359
100
AcDbEntity
  8
0
100
AcDbCircle
 62
7
  6
CONTINUOUS
 10
14.5388434542
 20
7.637233751
 40
0.031
100
AcDbArc
 50
90.0
 51
175.1903004544
  0
ARC
  5
35A
100
AcDbEntity
  8
0
100
AcDbCircle
 62
7
  6
CONTINUOUS
 10
14.8754841721
 20
8.085085842
 40
0.7960752113
100
AcDbArc
 50
78.7842978651
 51
79.0995437531
  0
ARC
  5
35B
100
AcDbEntity
  8
0
100
AcDbCircle
 62
7
  6
CONTINUOUS
 10
14.8758296552
 20
8.0868883155
 40
0.7942399274
100
AcDbArc
 50
79.0994280397
 51
79.7180440382
  0
ARC
  5
35C
100
AcDbEntity
  8
0
100
AcDbCircle
 62
7
  6
CONTINUOUS
 10
14.9307583724
 20
8.1049700371
 40
0.7782350892
100
AcDbArc
 50
93.7170095963
 51
94.3873458983
  0
ARC
  5
35D
100
AcDbEntity
  8
0
100
AcDbCircle
 62
7
  6
CONTINUOUS
 10
14.9307207508
 20
8.1055333042
 40
0.7776705681
100
AcDbArc
 50
93.4478055473
 51
93.7169339564
  0
ARC
  5
35E
100
AcDbEntity
  8
0
100
AcDbCircle
 62
7
  6
CONTINUOUS
 10
14.8784133565
 20
8.1042569857
 40
0.7767033245
100
AcDbArc
 50
93.5897130053
 51
94.3946012383
  0
ARC
  5
35F
100
AcDbEntity
  8
0
100
AcDbCircle
 62
7
  6
CONTINUOUS
 10
14.8748648878
 20
8.1041813211
 40
0.7764988027
100
AcDbArc
 50
93.4534266577
 51
94.1385740897
  0
ARC
  5
360
100
AcDbEntity
  8
0
100
AcDbCircle
 62
7
  6
CONTINUOUS
 10
14.8783232899
 20
8.1055055256
 40
0.7754516114
100
AcDbArc
 50
90.5245298764
 51
93.4062643132
  0
ARC
  5
361
100
AcDbEntity
  8
0
100
AcDbCircle
 62
7
  6
CONTINUOUS
 10
14.8899735134
 20
8.106520807
 40
0.7752432067
100
AcDbArc
 50
90.7141400946
 51
91.3871054139
  0
ARC
  5
362
100
AcDbEntity
  8
0
100
AcDbCircle
 62
7
  6
CONTINUOUS
 10
14.8899422986
 20
8.1076614815
 40
0.7741021109
100
AcDbArc
 50
91.3868394662
 51
91.9473449436
  0
ARC
  5
363
100
AcDbEntity
  8
0
100
AcDbCircle
 62
7
  6
CONTINUOUS
 10
14.9357271459
 20
8.5108229584
 40
0.3723774208
100
AcDbArc
 50
91.2227634049
 51
91.5785179169
  0
ARC
  5
364
100
AcDbEntity
  8
0
100
AcDbCircle
 62
7
  6
CONTINUOUS
 10
14.7045867309
 20
8.3249125175
 40
0.2574366844
100
AcDbArc
 50
192.7785858202
 51
194.3563447083
  0
ARC
  5
365
100
AcDbEntity
  8
0
100
AcDbCircle
 62
7
  6
CONTINUOUS
 10
14.6961894862
 20
8.4415714784
 40
0.2488015938
100
AcDbArc
 50
165.1850202958
 51
167.3160670834
  0
ARC
  5
366
100
AcDbEntity
  8
0
100
AcDbCircle
 62
7
  6
CONTINUOUS
 10
14.6335547624
 20
8.3622461119
 40
0.1997603529
100
AcDbArc
 50
208.9154124283
 51
210.0693585459
  0
ARC
  5
367
100
AcDbEntity
  8
0
100
AcDbCircle
 62
7
  6
CONTINUOUS
 10
14.6321489772
 20
8.4030149363
 40
0.1981462426
100
AcDbArc
 50
149.444356573
 51
151.1250499289
  0
ARC
  5
368
100
AcDbEntity
  8
0
100
AcDbCircle
 62
7
  6
CONTINUOUS
 10
14.2391227365
 20
8.4050315162
 40
0.1980936713
100
AcDbArc
 50
29.4922500981
 51
30.4309258348
  0
ARC
  5
369
100
AcDbEntity
  8
0
100
AcDbCircle
 62
7
  6
CONTINUOUS
 10
14.6297906669
 20
8.404400002
 40
0.1954112845
100
AcDbArc
 50
149.145085204
 51
149.4425457149
  0
ARC
  5
36A
100
AcDbEntity
  8
0
100
AcDbCircle
 62
7
  6
CONTINUOUS
 10
14.5222446578
 20
8.397524807
 40
0.1928802034
100
AcDbArc
 50
64.1096919228
 51
67.7334225288
  0
ARC
  5
36B
100
AcDbEntity
  8
0
100
AcDbCircle
 62
9
  6
CONTINUOUS
 10
14.6253258546
 20
8.4047753902
 40
0.1910651762
100
AcDbArc
 50
150.7109523887
 51
150.9685628901
  0
ARC
  5
36C
100
AcDbEntity
  8
0
100
AcDbCircle
 62
9
  6
CONTINUOUS
 10
14.6245449314
 20
8.3592461503
 40
0.1901658981
100
AcDbArc
 50
209.2759859912
 51
209.5732018189
  0
ARC
  5
36D
100
AcDbEntity
  8
0
100
AcDbCircle
 62
9
  6
CONTINUOUS
 10
14.6226256523
 20
8.3581533539
 40
0.187957318
100
AcDbArc
 50
209.5722258596
 51
210.8660655135
  0
ARC
  5
36E
100
AcDbEntity
  8
0
100
AcDbCircle
 62
7
  6
CONTINUOUS
 10
14.5243574684
 20
8.3620881346
 40
0.1875871782
100
AcDbArc
 50
292.2782859116
 51
294.6608512629
  0
ARC
  5
36F
100
AcDbEntity
  8
0
100
AcDbCircle
 62
9
  6
CONTINUOUS
 10
14.6215707309
 20
8.4069182787
 40
0.1867417649
100
AcDbArc
 50
148.5228185217
 51
150.7207343585
  0
ARC
  5
370
100
AcDbEntity
  8
0
100
AcDbCircle
 62
7
  6
CONTINUOUS
 10
14.6018731451
 20
8.2963126047
 40
0.120026736
100
AcDbArc
 50
243.0276733468
 51
244.0315140885
  0
ARC
  5
371
100
AcDbEntity
  8
0
100
AcDbCircle
 62
7
  6
CONTINUOUS
 10
14.6018618572
 20
8.468178366
 40
0.1200006559
100
AcDbArc
 50
115.952159833
 51
116.948240783
  0
ARC
  5
372
100
AcDbEntity
  8
0
100
AcDbCircle
 62
7
  6
CONTINUOUS
 10
14.2982337599
 20
8.4726421063
 40
0.1055916448
100
AcDbArc
 50
90.0009736039
 51
92.1462114792
  0
ARC
  5
373
100
AcDbEntity
  8
0
100
AcDbCircle
 62
7
  6
CONTINUOUS
 10
14.2982338191
 20
8.2918222822
 40
0.1055885312
100
AcDbArc
 50
267.831247317
 51
269.9989942455
  0
ARC
  5
374
100
AcDbEntity
  8
0
100
AcDbCircle
 62
9
  6
CONTINUOUS
 10
14.5776818284
 20
8.2853598662
 40
0.0991273675
100
AcDbArc
 50
270.9157284738
 51
280.2566273125
  0
ARC
  5
375
100
AcDbEntity
  8
0
100
AcDbCircle
 62
9
  6
CONTINUOUS
 10
14.5777500668
 20
8.4798531002
 40
0.098380653
100
AcDbArc
 50
80.4277443798
 51
89.9879454209
  0
ARC
  5
376
100
AcDbEntity
  8
0
100
AcDbCircle
 62
7
  6
CONTINUOUS
 10
14.577770798
 20
8.4802266212
 40
0.0980071298
100
AcDbArc
 50
90.0000190798
 51
90.8742157273
  0
ARC
  5
377
100
AcDbEntity
  8
0
100
AcDbCircle
 62
9
  6
CONTINUOUS
 10
14.5777707327
 20
8.2842408808
 40
0.0980071298
100
AcDbArc
 50
270.0000190795
 51
270.8742157275
  0
ARC
  5
378
100
AcDbEntity
  8
0
100
AcDbCircle
 62
9
  6
CONTINUOUS
 10
14.5621012863
 20
8.4755659282
 40
0.0933457587
100
AcDbArc
 50
90.0000190812
 51
90.8742157286
  0
ARC
  5
379
100
AcDbEntity
  8
0
100
AcDbCircle
 62
9
  6
CONTINUOUS
 10
14.5621012242
 20
8.2889015737
 40
0.0933457587
100
AcDbArc
 50
270.0000190783
 51
270.8742157259
  0
ARC
  5
37A
100
AcDbEntity
  8
0
100
AcDbCircle
 62
7
  6
CONTINUOUS
 10
15.3852172217
 20
7.1109693478
 40
0.2039751211
100
AcDbArc
 50
326.9521644937
 51
34.9889904703
  0
ARC
  5
37B
100
AcDbEntity
  8
0
100
AcDbCircle
 62
7
  6
CONTINUOUS
 10
15.7506950166
 20
6.169233751
 40
0.187
100
AcDbArc
 50
359.6936039968
 51
90.0
  0
ARC
  5
37C
100
AcDbEntity
  8
0
100
AcDbCircle
 62
7
  6
CONTINUOUS
 10
15.9306923887
 20
5.9813648112
 40
0.187
100
AcDbArc
 50
359.9598438511
 51
87.8547510776
  0
ARC
  5
37D
100
AcDbEntity
  8
0
100
AcDbCircle
 62
7
  6
CONTINUOUS
 10
15.6999668764
 20
6.9061947264
 40
0.1715245336
100
AcDbArc
 50
146.9521644936
 51
225.0826423158
  0
ARC
  5
37E
100
AcDbEntity
  8
0
100
AcDbCircle
 62
7
  6
CONTINUOUS
 10
14.9376923427
 20
7.3325637355
 40
1.5506700155
100
AcDbArc
 50
94.393627588
 51
104.7630312681
  0
ARC
  5
37F
100
AcDbEntity
  8
0
100
AcDbCircle
 62
7
  6
CONTINUOUS
 10
14.9376923427
 20
7.3325637355
 40
1.5506700155
100
AcDbArc
 50
90.9498138359
 51
91.6462225644
  0
ARC
  5
380
100
AcDbEntity
  8
0
100
AcDbCircle
 62
7
  6
CONTINUOUS
 10
14.9376925889
 20
7.3325650996
 40
1.5506686298
100
AcDbArc
 50
75.236964716
 51
81.240170985
  0
ARC
  5
381
100
AcDbEntity
  8
0
100
AcDbCircle
 62
7
  6
CONTINUOUS
 10
14.9376923427
 20
7.3325637355
 40
1.5496700155
100
AcDbArc
 50
85.5797611884
 51
85.8661242766
  0
ARC
  5
382
100
AcDbEntity
  8
0
100
AcDbCircle
 62
7
  6
CONTINUOUS
 10
14.9382266004
 20
7.8470565721
 40
1.0361798746
100
AcDbArc
 50
89.2374608483
 51
89.5641555743
  0
ARC
  5
383
100
AcDbEntity
  8
0
100
AcDbCircle
 62
7
  6
CONTINUOUS
 10
15.3365412312
 20
7.637233751
 40
0.031
100
AcDbArc
 50
4.8096995456
 51
90.0
  0
ARC
  5
384
100
AcDbEntity
  8
0
100
AcDbCircle
 62
7
  6
CONTINUOUS
 10
14.9879136214
 20
7.9764834576
 40
0.904795789
100
AcDbArc
 50
85.8130763477
 51
85.9869926498
  0
ARC
  5
385
100
AcDbEntity
  8
0
100
AcDbCircle
 62
7
  6
CONTINUOUS
 10
14.9394706845
 20
7.9988316118
 40
0.8843997671
100
AcDbArc
 50
89.5699550308
 51
89.8396448373
  0
ARC
  5
386
100
AcDbEntity
  8
0
100
AcDbCircle
 62
7
  6
CONTINUOUS
 10
14.9397998804
 20
8.0998744139
 40
0.7833564352
100
AcDbArc
 50
89.8727098944
 51
89.998991919
  0
ARC
  5
387
100
AcDbEntity
  8
0
100
AcDbCircle
 62
7
  6
CONTINUOUS
 10
14.9971576167
 20
8.102058783
 40
0.7788806955
100
AcDbArc
 50
85.5844549699
 51
85.8168277641
  0
ARC
  5
388
100
AcDbEntity
  8
0
100
AcDbCircle
 62
7
  6
CONTINUOUS
 10
14.9398083835
 20
8.1055423647
 40
0.7766884824
100
AcDbArc
 50
89.8611856393
 51
89.9996105317
  0
ARC
  5
389
100
AcDbEntity
  8
0
100
AcDbCircle
 62
7
  6
CONTINUOUS
 10
14.9398083745
 20
8.1496099452
 40
0.7336209038
100
AcDbArc
 50
89.9995869592
 51
90.1427950294
  0
ARC
  5
38A
100
AcDbEntity
  8
0
100
AcDbCircle
 62
7
  6
CONTINUOUS
 10
14.9397950424
 20
8.1600665633
 40
0.7221642841
100
AcDbArc
 50
89.9985226557
 51
90.1549826398
  0
ARC
  5
38B
100
AcDbEntity
  8
0
100
AcDbCircle
 62
7
  6
CONTINUOUS
 10
14.9880445837
 20
8.2015901885
 40
0.680162126
100
AcDbArc
 50
85.7378710626
 51
86.3049244417
  0
ARC
  5
38C
100
AcDbEntity
  8
0
100
AcDbCircle
 62
7
  6
CONTINUOUS
 10
14.9650220711
 20
8.2128826371
 40
0.6698681226
100
AcDbArc
 50
89.3204142209
 51
89.9969803382
  0
ARC
  5
38D
100
AcDbEntity
  8
0
100
AcDbCircle
 62
7
  6
CONTINUOUS
 10
14.9394934059
 20
8.2460758585
 40
0.6371544374
100
AcDbArc
 50
90.2147163876
 51
90.5162840124
  0
ARC
  5
38E
100
AcDbEntity
  8
0
100
AcDbCircle
 62
7
  6
CONTINUOUS
 10
15.0435501293
 20
8.2430799413
 40
0.629780254
100
AcDbArc
 50
85.3820932839
 51
85.5304295008
  0
ARC
  5
38F
100
AcDbEntity
  8
0
100
AcDbCircle
 62
7
  6
CONTINUOUS
 10
15.0447449061
 20
8.2586961737
 40
0.6151226785
100
AcDbArc
 50
85.3756908555
 51
85.999978906
  0
ARC
  5
390
100
AcDbEntity
  8
0
100
AcDbCircle
 62
7
  6
CONTINUOUS
 10
15.0099021439
 20
8.2654112416
 40
0.6140318891
100
AcDbArc
 50
85.018600554
 51
85.5890150571
  0
ARC
  5
391
100
AcDbEntity
  8
0
100
AcDbCircle
 62
7
  6
CONTINUOUS
 10
14.9385611699
 20
8.3694498299
 40
0.5127788804
100
AcDbArc
 50
90.0803994072
 51
91.2364758052
  0
ARC
  5
392
100
AcDbEntity
  8
0
100
AcDbCircle
 62
7
  6
CONTINUOUS
 10
14.9382560085
 20
8.3797806816
 40
0.5034438935
100
AcDbArc
 50
90.5125774518
 51
91.1922508136
  0
ARC
  5
393
100
AcDbEntity
  8
0
100
AcDbCircle
 62
7
  6
CONTINUOUS
 10
15.0756823996
 20
8.3930222758
 40
0.4768331984
100
AcDbArc
 50
78.5129101227
 51
79.4623167361
  0
ARC
  5
394
100
AcDbEntity
  8
0
100
AcDbCircle
 62
7
  6
CONTINUOUS
 10
15.080650323
 20
8.4189727032
 40
0.4514072297
100
AcDbArc
 50
78.4749692405
 51
79.1943297231
  0
ARC
  5
395
100
AcDbEntity
  8
0
100
AcDbCircle
 62
7
  6
CONTINUOUS
 10
15.0922910425
 20
8.4751322766
 40
0.3930603375
100
AcDbArc
 50
77.3999318319
 51
78.5018308865
  0
ARC
  5
396
100
AcDbEntity
  8
0
100
AcDbCircle
 62
7
  6
CONTINUOUS
 10
15.0092578695
 20
8.4904882718
 40
0.3904865628
100
AcDbArc
 50
85.3138751015
 51
85.691479823
  0
ARC
  5
397
100
AcDbEntity
  8
0
100
AcDbCircle
 62
7
  6
CONTINUOUS
 10
15.0843624738
 20
8.49893168
 40
0.3754268334
100
AcDbArc
 50
98.7637116597
 51
100.2441505217
  0
ARC
  5
398
100
AcDbEntity
  8
0
100
AcDbCircle
 62
7
  6
CONTINUOUS
 10
15.0960636824
 20
8.4936064187
 40
0.3751988363
100
AcDbArc
 50
77.3160240933
 51
78.5041469432
  0
ARC
  5
399
100
AcDbEntity
  8
0
100
AcDbCircle
 62
7
  6
CONTINUOUS
 10
15.0842878162
 20
8.4986395089
 40
0.3747073881
100
AcDbArc
 50
98.7897473537
 51
99.8070384675
  0
ARC
  5
39A
100
AcDbEntity
  8
0
100
AcDbCircle
 62
7
  6
CONTINUOUS
 10
15.0838467443
 20
8.5023315058
 40
0.3719881239
100
AcDbArc
 50
97.2960920114
 51
98.7649883348
  0
ARC
  5
39B
100
AcDbEntity
  8
0
100
AcDbCircle
 62
7
  6
CONTINUOUS
 10
15.0838583024
 20
8.5014706799
 40
0.3718438336
100
AcDbArc
 50
97.3214752292
 51
98.7910045255
  0
ARC
  5
39C
100
AcDbEntity
  8
0
100
AcDbCircle
 62
7
  6
CONTINUOUS
 10
15.0835134616
 20
8.5049554829
 40
0.3693430669
100
AcDbArc
 50
95.8416307866
 51
97.2965035607
  0
ARC
  5
39D
100
AcDbEntity
  8
0
100
AcDbCircle
 62
7
  6
CONTINUOUS
 10
15.0835138009
 20
8.5041913186
 40
0.3691014749
100
AcDbArc
 50
95.8455206342
 51
97.32225381
  0
ARC
  5
39E
100
AcDbEntity
  8
0
100
AcDbCircle
 62
7
  6
CONTINUOUS
 10
15.1742091942
 20
8.4403579171
 40
0.2539322931
100
AcDbArc
 50
12.8194640231
 51
14.7644973545
  0
ARC
  5
39F
100
AcDbEntity
  8
0
100
AcDbCircle
 62
7
  6
CONTINUOUS
 10
15.1785958454
 20
8.323035495
 40
0.2494167818
100
AcDbArc
 50
345.288180518
 51
347.2551201149
  0
ARC
  5
3A0
100
AcDbEntity
  8
0
100
AcDbCircle
 62
7
  6
CONTINUOUS
 10
15.242395438
 20
8.4025416971
 40
0.1991103434
100
AcDbArc
 50
28.864526117
 51
30.5673765837
  0
ARC
  5
3A1
100
AcDbEntity
  8
0
100
AcDbCircle
 62
7
  6
CONTINUOUS
 10
15.2430189273
 20
8.3615693487
 40
0.1983922569
100
AcDbArc
 50
329.5627664862
 51
331.1172191349
  0
ARC
  5
3A2
100
AcDbEntity
  8
0
100
AcDbCircle
 62
7
  6
CONTINUOUS
 10
15.2457003995
 20
8.3599982422
 40
0.1952844194
100
AcDbArc
 50
328.9408339249
 51
329.5616415192
  0
ARC
  5
3A3
100
AcDbEntity
  8
0
100
AcDbCircle
 62
7
  6
CONTINUOUS
 10
15.2459908956
 20
8.4046435094
 40
0.194945662
100
AcDbArc
 50
30.5728865529
 51
31.1487016329
  0
ARC
  5
3A4
100
AcDbEntity
  8
0
100
AcDbCircle
 62
9
  6
CONTINUOUS
 10
15.2506634592
 20
8.3593442108
 40
0.1903676331
100
AcDbArc
 50
330.5827033251
 51
330.7506463976
  0
ARC
  5
3A5
100
AcDbEntity
  8
0
100
AcDbCircle
 62
9
  6
CONTINUOUS
 10
15.2512761918
 20
8.4054749284
 40
0.189661139
100
AcDbArc
 50
29.287066763
 51
29.8442363156
  0
ARC
  5
3A6
100
AcDbEntity
  8
0
100
AcDbCircle
 62
9
  6
CONTINUOUS
 10
15.2517654671
 20
8.3587210504
 40
0.1891016363
100
AcDbArc
 50
329.959683093
 51
330.5831711241
  0
ARC
  5
3A7
100
AcDbEntity
  8
0
100
AcDbCircle
 62
9
  6
CONTINUOUS
 10
15.2539886209
 20
8.4070358682
 40
0.1865316362
100
AcDbArc
 50
29.842974856
 51
31.4738830425
  0
ARC
  5
3A8
100
AcDbEntity
  8
0
100
AcDbCircle
 62
9
  6
CONTINUOUS
 10
15.2545555078
 20
8.3570969424
 40
0.1858733291
100
AcDbArc
 50
328.6801507597
 51
329.9625272699
  0
ARC
  5
3A9
100
AcDbEntity
  8
0
100
AcDbCircle
 62
9
  6
CONTINUOUS
 10
15.2813750092
 20
8.3375525404
 40
0.1526413943
100
AcDbArc
 50
318.3566126735
 51
318.8535106632
  0
ARC
  5
3AA
100
AcDbEntity
  8
0
100
AcDbCircle
 62
7
  6
CONTINUOUS
 10
15.2735080074
 20
8.4681477419
 40
0.120034715
100
AcDbArc
 50
63.0164917601
 51
64.0315192174
  0
ARC
  5
3AB
100
AcDbEntity
  8
0
100
AcDbCircle
 62
7
  6
CONTINUOUS
 10
15.2735281672
 20
8.2962783414
 40
0.1199886117
100
AcDbArc
 50
295.9520699728
 51
296.9310735008
  0
ARC
  5
3AC
100
AcDbEntity
  8
0
100
AcDbCircle
 62
9
  6
CONTINUOUS
 10
15.4361997908
 20
8.3822337395
 40
0.2771787998
100
AcDbArc
 50
179.9999976147
 51
180.4371261495
  0
ARC
  5
3AD
100
AcDbEntity
  8
0
100
AcDbCircle
 62
7
  6
CONTINUOUS
 10
15.6355065135
 20
8.4054748135
 40
0.1972177857
100
AcDbArc
 50
149.6562523026
 51
150.1335373661
  0
ARC
  5
3AE
100
AcDbEntity
  8
0
100
AcDbCircle
 62
7
  6
CONTINUOUS
 10
15.6353331947
 20
8.3588936449
 40
0.1970181875
100
AcDbArc
 50
209.9862492046
 51
210.3184637038
  0
ARC
  5
3AF
100
AcDbEntity
  8
0
100
AcDbCircle
 62
7
  6
CONTINUOUS
 10
15.3529347575
 20
8.3664772412
 40
0.192371695
100
AcDbArc
 50
244.2906827202
 51
247.7310513581
  0
ARC
  5
3B0
100
AcDbEntity
  8
0
100
AcDbCircle
 62
7
  6
CONTINUOUS
 10
15.3509147546
 20
8.4026485779
 40
0.1872954668
100
AcDbArc
 50
112.2835489218
 51
114.5150693283
  0
ARC
  5
3B1
100
AcDbEntity
  8
0
100
AcDbCircle
 62
9
  6
CONTINUOUS
 10
15.2976528168
 20
8.4794708651
 40
0.0987628821
100
AcDbArc
 50
90.0225653278
 51
100.5218156563
  0
ARC
  5
3B2
100
AcDbEntity
  8
0
100
AcDbCircle
 62
9
  6
CONTINUOUS
 10
15.2976311081
 20
8.2846835853
 40
0.0984498244
100
AcDbArc
 50
260.5395978558
 51
269.98999696
  0
ARC
  5
3B3
100
AcDbEntity
  8
0
100
AcDbCircle
 62
7
  6
CONTINUOUS
 10
15.9902312448
 20
7.6922370795
 40
0.625
100
AcDbArc
 50
184.8096995456
 51
214.9889904701
  0
ARC
  5
3B4
100
AcDbEntity
  8
0
100
AcDbCircle
 62
7
  6
CONTINUOUS
 10
16.4178312316
 20
8.382233751
 40
0.9451388889
100
AcDbArc
 50
189.3556020554
 51
192.5269812287
  0
ARC
  5
3B5
100
AcDbEntity
  8
0
100
AcDbCircle
 62
7
  6
CONTINUOUS
 10
16.4178312316
 20
8.382233751
 40
0.9451388889
100
AcDbArc
 50
167.4730187713
 51
170.6558033148
  0
ARC
  5
3B6
100
AcDbEntity
  8
0
100
AcDbCircle
 62
7
  6
CONTINUOUS
 10
15.773845693
 20
8.3822345943
 40
0.275000076
100
AcDbArc
 50
215.790813252
 51
144.2091663967
  0
ARC
  5
3B7
100
AcDbEntity
  8
0
100
AcDbCircle
 62
7
  6
CONTINUOUS
 10
15.7027680962
 20
8.3822322371
 40
0.2688945999
100
AcDbArc
 50
179.374924188
 51
179.8019916726
  0
ARC
  5
3B8
100
AcDbEntity
  8
0
100
AcDbCircle
 62
7
  6
CONTINUOUS
 10
15.7024132183
 20
8.3822336814
 40
0.2685397191
100
AcDbArc
 50
179.8020381705
 51
180.1976970707
  0
ARC
  5
3B9
100
AcDbEntity
  8
0
100
AcDbCircle
 62
7
  6
CONTINUOUS
 10
15.0508175125
 20
11.1270072103
 40
2.2520500439
100
AcDbArc
 50
269.87965916
 51
270.000303213
  0
ARC
  5
3BA
100
AcDbEntity
  8
0
100
AcDbCircle
 62
7
  6
CONTINUOUS
 10
15.050802787
 20
11.1205556972
 40
2.2455985141
100
AcDbArc
 50
269.7187989032
 51
269.8796891415
  0
ARC
  5
3BB
100
AcDbEntity
  8
0
100
AcDbCircle
 62
7
  6
CONTINUOUS
 10
15.04980269
 20
10.9507973092
 40
2.075837269
100
AcDbArc
 50
269.4146684352
 51
269.7234064877
  0
ARC
  5
3BC
100
AcDbEntity
  8
0
100
AcDbCircle
 62
7
  6
CONTINUOUS
 10
15.0470953147
 20
10.7000666291
 40
1.8250920205
100
AcDbArc
 50
269.0722620984
 51
269.4192463161
  0
ARC
  5
3BD
100
AcDbEntity
  8
0
100
AcDbCircle
 62
7
  6
CONTINUOUS
 10
15.051123177
 20
10.5040334574
 40
1.6290763164
100
AcDbArc
 50
269.989668485
 51
270.3371611308
  0
ARC
  5
3BE
100
AcDbEntity
  8
0
100
AcDbCircle
 62
7
  6
CONTINUOUS
 10
15.0411102647
 20
10.3598009468
 40
1.4847745924
100
AcDbArc
 50
266.673507623
 51
269.0905878363
  0
ARC
  5
3BF
100
AcDbEntity
  8
0
100
AcDbCircle
 62
7
  6
CONTINUOUS
 10
15.0300373171
 20
10.1965843785
 40
1.3211944493
100
AcDbArc
 50
266.3110025069
 51
266.742180726
  0
ARC
  5
3C0
100
AcDbEntity
  8
0
100
AcDbCircle
 62
7
  6
CONTINUOUS
 10
15.0026527876
 20
9.7779472185
 40
0.901662855
100
AcDbArc
 50
265.7703260787
 51
266.3359367682
  0
ARC
  5
3C1
100
AcDbEntity
  8
0
100
AcDbCircle
 62
7
  6
CONTINUOUS
 10
15.2112852028
 20
9.5307979792
 40
0.6885472036
100
AcDbArc
 50
262.633907686
 51
263.0659273897
  0
ARC
  5
3C2
100
AcDbEntity
  8
0
100
AcDbCircle
 62
7
  6
CONTINUOUS
 10
15.1293786644
 20
9.1491052106
 40
0.2977918869
100
AcDbArc
 50
254.7388867277
 51
254.8863489182
  0
ARC
  5
3C3
100
AcDbEntity
  8
0
100
AcDbCircle
 62
7
  6
CONTINUOUS
 10
14.9334815552
 20
8.5947316669
 40
0.2874399701
100
AcDbArc
 50
91.1932013894
 51
92.3304882315
  0
ARC
  5
3C4
100
AcDbEntity
  8
0
100
AcDbCircle
 62
7
  6
CONTINUOUS
 10
14.9718200401
 20
9.1336533592
 40
0.2554754649
100
AcDbArc
 50
265.4306171307
 51
266.4532849967
  0
ARC
  5
3C5
100
AcDbEntity
  8
0
100
AcDbCircle
 62
7
  6
CONTINUOUS
 10
15.0255928594
 20
8.6419186421
 40
0.238614232
100
AcDbArc
 50
73.2521719482
 51
73.820040777
  0
ARC
  5
3C6
100
AcDbEntity
  8
0
100
AcDbCircle
 62
7
  6
CONTINUOUS
 10
15.0263806989
 20
8.6446580967
 40
0.2357637485
100
AcDbArc
 50
73.81840545
 51
74.9363184067
  0
ARC
  5
3C7
100
AcDbEntity
  8
0
100
AcDbCircle
 62
7
  6
CONTINUOUS
 10
14.8922412429
 20
8.7077293002
 40
0.1747310991
100
AcDbArc
 50
92.7590168361
 51
92.877742221
  0
ARC
  5
3C8
100
AcDbEntity
  8
0
100
AcDbCircle
 62
7
  6
CONTINUOUS
 10
14.5501923427
 20
8.803033404
 40
0.03
100
AcDbArc
 50
104.7630312683
 51
169.9867574249
  0
ARC
  5
3C9
100
AcDbEntity
  8
0
100
AcDbCircle
 62
7
  6
CONTINUOUS
 10
15.3251923427
 20
8.803033404
 40
0.03
100
AcDbArc
 50
10.0132425751
 51
75.2369687317
  0
ARC
  5
3CA
100
AcDbEntity
  8
0
100
AcDbCircle
 62
7
  6
CONTINUOUS
 10
23.0629651626
 20
10.5465787384
 40
11.3289770813
100
AcDbArc
 50
186.0356400322
 51
186.5684450996
  0
ARC
  5
3CB
100
AcDbEntity
  8
0
100
AcDbCircle
 62
7
  6
CONTINUOUS
 10
23.0205730908
 20
10.5423123234
 40
11.2863714032
100
AcDbArc
 50
182.6208046465
 51
186.0367296486
  0
ARC
  5
3CC
100
AcDbEntity
  8
0
100
AcDbCircle
 62
7
  6
CONTINUOUS
 10
237.0656508949
 20
61.8797870635
 40
231.3216131971
100
AcDbArc
 50
193.1243709409
 51
193.2930997469
  0
SPLINE
  5
3CD
100
AcDbEntity
  8
0
100
AcDbSpline
 62
7
  6
CONTINUOUS
 70
0
 71
3
 72
13
 73
9
 74
0
 42
0.0000001
 43
0.0000001
 44
0.0000000001
 40
0.0
 40
0.0
 40
0.0
 40
0.0
 40
0.0962547145
 40
0.1784450811
 40
0.2874121959
 40
0.4241945911
 40
0.5889720677
 40
1.0
 40
1.0
 40
1.0
 40
1.0
 10
14.9415811279
 20
8.8815633649
 30
0.0
 10
14.9415813403
 20
8.8816199482
 30
0.0
 10
14.9416788967
 20
8.8817033955
 30
0.0
 10
14.9418265706
 20
8.8817699781
 30
0.0
 10
14.9420117557
 20
8.881832886
 30
0.0
 10
14.942244975
 20
8.8818918081
 30
0.0
 10
14.9426559288
 20
8.8819756678
 30
0.0
 10
14.9429907996
 20
8.8820253365
 30
0.0
 10
14.9432303154
 20
8.8820571887
 30
0.0
  0
LINE
  5
3CE
100
AcDbEntity
  8
0
100
AcDbLine
 62
7
  6
CONTINUOUS
 10
14.9432303154
 20
8.8820571887
 11
14.9518314961
 21
8.8825796254
  0
LINE
  5
3CF
100
AcDbEntity
  8
0
100
AcDbLine
 62
7
  6
CONTINUOUS
 10
14.9518314961
 20
8.8825796254
 11
14.9650573752
 21
8.8827507587
  0
LINE
  5
3D0
100
AcDbEntity
  8
0
100
AcDbLine
 62
7
  6
CONTINUOUS
 10
15.0398968198
 20
8.8651429328
 11
15.0509943774
 21
8.8618145712
  0
SPLINE
  5
3D1
100
AcDbEntity
  8
0
100
AcDbSpline
 62
7
  6
CONTINUOUS
 70
0
 71
3
 72
9
 73
5
 74
0
 42
0.0000001
 43
0.0000001
 44
0.0000000001
 40
0.0
 40
0.0
 40
0.0
 40
0.0
 40
0.4646767923
 40
1.0
 40
1.0
 40
1.0
 40
1.0
 10
15.0517340363
 20
8.8616137853
 30
0.0
 10
15.0559990017
 20
8.8604618821
 30
0.0
 10
15.0652293488
 20
8.8581753577
 30
0.0
 10
15.0745179679
 20
8.8561442669
 30
0.0
 10
15.0795009276
 20
8.8551086737
 30
0.0
  0
SPLINE
  5
3D2
100
AcDbEntity
  8
0
100
AcDbSpline
 62
7
  6
CONTINUOUS
 70
0
 71
3
 72
10
 73
6
 74
0
 42
0.0000001
 43
0.0000001
 44
0.0000000001
 40
0.0
 40
0.0
 40
0.0
 40
0.0
 40
0.230790516
 40
0.4777239537
 40
1.0
 40
1.0
 40
1.0
 40
1.0
 10
15.0795009276
 20
8.8551086642
 30
0.0
 10
15.0828227978
 20
8.8544182901
 30
0.0
 10
15.0897166766
 20
8.8530739769
 30
0.0
 10
15.1042000452
 20
8.8505503753
 30
0.0
 10
15.1153928478
 20
8.8489176174
 30
0.0
 10
15.1230074593
 20
8.8479332111
 30
0.0
  0
SPLINE
  5
3D3
100
AcDbEntity
  8
0
100
AcDbSpline
 62
7
  6
CONTINUOUS
 70
0
 71
3
 72
12
 73
8
 74
0
 42
0.0000001
 43
0.0000001
 44
0.0000000001
 40
0.0
 40
0.0
 40
0.0
 40
0.0
 40
0.2761689662
 40
0.5411784516
 40
0.7855699794
 40
0.8971241951
 40
1.0
 40
1.0
 40
1.0
 40
1.0
 10
15.1281588339
 20
8.8472870003
 30
0.0
 10
15.1333855536
 20
8.8466513282
 30
0.0
 10
15.1436423424
 20
8.8455213323
 30
0.0
 10
15.1585660087
 20
8.8442408913
 30
0.0
 10
15.1703866786
 20
8.8435503496
 30
0.0
 10
15.1791301209
 20
8.8432692911
 30
0.0
 10
15.1832183623
 20
8.8432183939
 30
0.0
 10
15.1851797162
 20
8.8432183939
 30
0.0
  0
SPLINE
  5
3D4
100
AcDbEntity
  8
0
100
AcDbSpline
 62
7
  6
CONTINUOUS
 70
0
 71
3
 72
10
 73
6
 74
0
 42
0.0000001
 43
0.0000001
 44
0.0000000001
 40
0.0
 40
0.0
 40
0.0
 40
0.0
 40
0.2155044236
 40
0.4675925669
 40
1.0
 40
1.0
 40
1.0
 40
1.0
 10
14.8636375055
 20
8.881316623
 30
0.0
 10
14.8613729174
 20
8.8812396189
 30
0.0
 10
14.8564606807
 20
8.8810323533
 30
0.0
 10
14.8459602354
 20
8.8804902411
 30
0.0
 10
14.8377276827
 20
8.8799700024
 30
0.0
 10
14.8321440495
 20
8.8795700668
 30
0.0
  0
LINE
  5
3D5
100
AcDbEntity
  8
0
100
AcDbLine
 62
7
  6
CONTINUOUS
 10
14.8188257846
 20
8.8786553423
 11
14.8182815578
 21
8.8786157726
  0
LINE
  5
3D6
100
AcDbEntity
  8
0
100
AcDbLine
 62
7
  6
CONTINUOUS
 10
14.8182815578
 20
8.8786157726
 11
14.8153628696
 21
8.878397005
  0
LINE
  5
3D7
100
AcDbEntity
  8
0
100
AcDbLine
 62
7
  6
CONTINUOUS
 10
15.0548647458
 20
8.8690004958
 11
15.0566031197
 21
8.8695285088
  0
LINE
  5
3D8
100
AcDbEntity
  8
0
100
AcDbLine
 62
7
  6
CONTINUOUS
 10
15.0566031197
 20
8.8695285088
 11
15.0616544026
 21
8.870329068
  0
SPLINE
  5
3D9
100
AcDbEntity
  8
0
100
AcDbSpline
 62
7
  6
CONTINUOUS
 70
0
 71
3
 72
14
 73
10
 74
0
 42
0.0000001
 43
0.0000001
 44
0.0000000001
 40
0.0
 40
0.0
 40
0.0
 40
0.0
 40
0.1148724618
 40
0.248195693
 40
0.5381965855
 40
0.6790917641
 40
0.8073588359
 40
0.9162062186
 40
1.0
 40
1.0
 40
1.0
 40
1.0
 10
15.0303233311
 20
8.8659575195
 30
0.0
 10
15.0306915497
 20
8.8659860459
 30
0.0
 10
15.0314892807
 20
8.8660197917
 30
0.0
 10
15.0332198583
 20
8.8660195839
 30
0.0
 10
15.0350329956
 20
8.8659221226
 30
0.0
 10
15.036821666
 20
8.865740157
 30
0.0
 10
15.0380259274
 20
8.8655728923
 30
0.0
 10
15.0390399988
 20
8.865381963
 30
0.0
 10
15.0396414199
 20
8.8652287756
 30
0.0
 10
15.0398968198
 20
8.865143053
 30
0.0
  0
SPLINE
  5
3DA
100
AcDbEntity
  8
0
100
AcDbSpline
 62
7
  6
CONTINUOUS
 70
0
 71
3
 72
25
 73
21
 74
0
 42
0.0000001
 43
0.0000001
 44
0.0000000001
 40
0.0
 40
0.0
 40
0.0
 40
0.0
 40
0.0262682963
 40
0.0526087623
 40
0.0791057379
 40
0.1058390636
 40
0.1602625623
 40
0.2164219868
 40
0.2746822188
 40
0.3352245963
 40
0.3980441561
 40
0.46295232
 40
0.5296097897
 40
0.5975487814
 40
0.6662222444
 40
0.7350307277
 40
0.8033700056
 40
0.8371919828
 40
0.8706863065
 40
1.0
 40
1.0
 40
1.0
 40
1.0
 10
14.2982319656
 20
8.186233751
 30
0.0
 10
14.3016755938
 20
8.186233751
 30
0.0
 10
14.308576984
 20
8.1865726537
 30
0.0
 10
14.3188518738
 20
8.1880833298
 30
0.0
 10
14.3289964722
 20
8.1905818764
 30
0.0
 10
14.342337912
 20
8.1952368546
 30
0.0
 10
14.3584548563
 20
8.2034832106
 30
0.0
 10
14.3762503516
 20
8.2168026453
 30
0.0
 10
14.3923436372
 20
8.2332622458
 30
0.0
 10
14.4064872691
 20
8.2525038145
 30
0.0
 10
14.4184788241
 20
8.2741466726
 30
0.0
 10
14.4281464038
 20
8.2977837892
 30
0.0
 10
14.4353376509
 20
8.3229817565
 30
0.0
 10
14.4399458588
 20
8.3492752413
 30
0.0
 10
14.4418938973
 20
8.3761798687
 30
0.0
 10
14.4411480941
 20
8.403195545
 30
0.0
 10
14.4382871157
 20
8.4254667285
 30
0.0
 10
14.434656681
 20
8.442885585
 30
0.0
 10
14.4280841022
 20
8.4678070196
 30
0.0
 10
14.4198937755
 20
8.4877986145
 30
0.0
 10
14.4115478843
 20
8.5025541855
 30
0.0
  0
SPLINE
  5
3DB
100
AcDbEntity
  8
0
100
AcDbSpline
 62
7
  6
CONTINUOUS
 70
0
 71
3
 72
15
 73
11
 74
0
 42
0.0000001
 43
0.0000001
 44
0.0000000001
 40
0.0
 40
0.0
 40
0.0
 40
0.0
 40
0.1368892641
 40
0.2697293927
 40
0.398607576
 40
0.5238153005
 40
0.6458619358
 40
0.7653601005
 40
0.8831077912
 40
1.0
 40
1.0
 40
1.0
 40
1.0
 10
14.4099271045
 20
8.5053658099
 30
0.0
 10
14.4067015004
 20
8.510856485
 30
0.0
 10
14.3998137376
 20
8.5213751125
 30
0.0
 10
14.3880594314
 20
8.5357627209
 30
0.0
 10
14.375132315
 20
8.5483480796
 30
0.0
 10
14.3611630581
 20
8.5589631008
 30
0.0
 10
14.3462923126
 20
8.5674327686
 30
0.0
 10
14.3307027417
 20
8.5736216768
 30
0.0
 10
14.3146029279
 20
8.5773844075
 30
0.0
 10
14.3036697565
 20
8.578233751
 30
0.0
 10
14.2982319656
 20
8.578233751
 30
0.0
  0
SPLINE
  5
3DC
100
AcDbEntity
  8
0
100
AcDbSpline
 62
7
  6
CONTINUOUS
 70
0
 71
3
 72
31
 73
27
 74
0
 42
0.0000001
 43
0.0000001
 44
0.0000000001
 40
0.0
 40
0.0
 40
0.0
 40
0.0
 40
0.0210593244
 40
0.0373639823
 40
0.0490630677
 40
0.0532298612
 40
0.0562972099
 40
0.059197405
 40
0.0605084986
 40
0.0658762971
 40
0.0751012146
 40
0.0879855808
 40
0.1043374685
 40
0.1239713006
 40
0.1467085204
 40
0.1723783305
 40
0.2008174572
 40
0.2318534395
 40
0.2653027499
 40
0.3387097347
 40
0.4196190775
 40
0.5066675579
 40
0.5986680795
 40
0.6947769638
 40
0.7942153972
 40
1.0
 40
1.0
 40
1.0
 40
1.0
 10
14.4645980201
 20
8.2641815668
 30
0.0
 10
14.4647627725
 20
8.2640112678
 30
0.0
 10
14.4650570772
 20
8.2637132806
 30
0.0
 10
14.4654592885
 20
8.2633271348
 30
0.0
 10
14.4657175394
 20
8.2630896929
 30
0.0
 10
14.4658899637
 20
8.2629399816
 30
0.0
 10
14.4659536342
 20
8.2628838623
 30
0.0
 10
14.4660794962
 20
8.2627832202
 30
0.0
 10
14.4659605495
 20
8.2628734021
 30
0.0
 10
14.4658412063
 20
8.2629582411
 30
0.0
 10
14.4655719914
 20
8.2631468349
 30
0.0
 10
14.4652184326
 20
8.2633811535
 30
0.0
 10
14.464751317
 20
8.2636775435
 30
0.0
 10
14.4641859653
 20
8.2640173705
 30
0.0
 10
14.4635199819
 20
8.2643958829
 30
0.0
 10
14.4627574192
 20
8.2648033916
 30
0.0
 10
14.4619001582
 20
8.2652314049
 30
0.0
 10
14.4609524645
 20
8.2656732869
 30
0.0
 10
14.4595302739
 20
8.2662937316
 30
0.0
 10
14.4575629964
 20
8.2670662882
 30
0.0
 10
14.4549901057
 20
8.2679385685
 30
0.0
 10
14.4521755516
 20
8.268739405
 30
0.0
 10
14.4491558122
 20
8.2694282233
 30
0.0
 10
14.4459681878
 20
8.2699901111
 30
0.0
 10
14.4414870605
 20
8.2705560167
 30
0.0
 10
14.4380496299
 20
8.270733751
 30
0.0
 10
14.4357342383
 20
8.270733751
 30
0.0
  0
SPLINE
  5
3DD
100
AcDbEntity
  8
0
100
AcDbSpline
 62
7
  6
CONTINUOUS
 70
0
 71
3
 72
32
 73
28
 74
0
 42
0.0000001
 43
0.0000001
 44
0.0000000001
 40
0.0
 40
0.0
 40
0.0
 40
0.0
 40
0.1880312514
 40
0.3684331592
 40
0.4545374113
 40
0.5372030898
 40
0.6158909574
 40
0.689869762
 40
0.7582347934
 40
0.8200328207
 40
0.8742752894
 40
0.9199510913
 40
0.9392792197
 40
0.9561255098
 40
0.9703802654
 40
0.9819287868
 40
0.986651145
 40
0.9906518534
 40
0.9939153455
 40
0.996425822
 40
0.9981672843
 40
0.9987446074
 40
0.9991236835
 40
0.9993028154
 40
0.9993338106
 40
0.999563709
 40
1.0
 40
1.0
 40
1.0
 40
1.0
 10
14.4357342383
 20
8.493733751
 30
0.0
 10
14.4377261049
 20
8.493733751
 30
0.0
 10
14.4416308338
 20
8.4939088976
 30
0.0
 10
14.446411744
 20
8.4945276676
 30
0.0
 10
14.4500435327
 20
8.4952339241
 30
0.0
 10
14.4525938864
 20
8.4958438362
 30
0.0
 10
14.4549904559
 20
8.4965333886
 30
0.0
 10
14.4572104411
 20
8.4972799744
 30
0.0
 10
14.4592305931
 20
8.4980533219
 30
0.0
 10
14.4610259552
 20
8.49882451
 30
0.0
 10
14.4625719581
 20
8.4995635714
 30
0.0
 10
14.4636869572
 20
8.5001584162
 30
0.0
 10
14.4644355096
 20
8.5005961324
 30
0.0
 10
14.4648904201
 20
8.5008762971
 30
0.0
 10
14.4652698735
 20
8.5011215511
 30
0.0
 10
14.4655378645
 20
8.5013026358
 30
0.0
 10
14.4657139334
 20
8.5014254488
 30
0.0
 10
14.4658175338
 20
8.5014991588
 30
0.0
 10
14.4659011594
 20
8.5015594282
 30
0.0
 10
14.4659661153
 20
8.5016074699
 30
0.0
 10
14.4660057828
 20
8.5016358935
 30
0.0
 10
14.4660306967
 20
8.5016553198
 30
0.0
 10
14.4660378067
 20
8.5016587581
 30
0.0
 10
14.4660466382
 20
8.5016672168
 30
0.0
 10
14.4660453058
 20
8.5016619903
 30
0.0
 10
14.4660382686
 20
8.5016585535
 30
0.0
 10
14.4660337511
 20
8.5016531237
 30
0.0
 10
14.4660302901
 20
8.5016500607
 30
0.0
  0
SPLINE
  5
3DE
100
AcDbEntity
  8
0
100
AcDbSpline
 62
7
  6
CONTINUOUS
 70
0
 71
3
 72
11
 73
7
 74
0
 42
0.0000001
 43
0.0000001
 44
0.0000000001
 40
0.0
 40
0.0
 40
0.0
 40
0.0
 40
0.2159099501
 40
0.460165244
 40
0.7239080659
 40
1.0
 40
1.0
 40
1.0
 40
1.0
 10
14.4127415728
 20
8.497863671
 30
0.0
 10
14.4143152185
 20
8.4972468083
 30
0.0
 10
14.4177327736
 20
8.4960889876
 30
0.0
 10
14.4232574343
 20
8.4947892837
 30
0.0
 10
14.4293444094
 20
8.4939386609
 30
0.0
 10
14.4335728785
 20
8.493733751
 30
0.0
 10
14.4357342383
 20
8.493733751
 30
0.0
  0
SPLINE
  5
3DF
100
AcDbEntity
  8
0
100
AcDbSpline
 62
7
  6
CONTINUOUS
 70
0
 71
3
 72
11
 73
7
 74
0
 42
0.0000001
 43
0.0000001
 44
0.0000000001
 40
0.0
 40
0.0
 40
0.0
 40
0.0
 40
0.2767983969
 40
0.5407164446
 40
0.7845899637
 40
1.0
 40
1.0
 40
1.0
 40
1.0
 10
14.4357342383
 20
8.270733751
 30
0.0
 10
14.4335617009
 20
8.270733751
 30
0.0
 10
14.4293151718
 20
8.2705261937
 30
0.0
 10
14.4232095795
 20
8.2696662714
 30
0.0
 10
14.4176753863
 20
8.2683662012
 30
0.0
 10
14.4142579476
 20
8.2671994777
 30
0.0
 10
14.4126854407
 20
8.2665784068
 30
0.0
  0
SPLINE
  5
3E0
100
AcDbEntity
  8
0
100
AcDbSpline
 62
7
  6
CONTINUOUS
 70
0
 71
3
 72
15
 73
11
 74
0
 42
0.0000001
 43
0.0000001
 44
0.0000000001
 40
0.0
 40
0.0
 40
0.0
 40
0.0
 40
0.119353387
 40
0.2391784431
 40
0.36022158
 40
0.4830197919
 40
0.6079973261
 40
0.7356387686
 40
0.8662471331
 40
1.0
 40
1.0
 40
1.0
 40
1.0
 10
14.5760758879
 20
8.5782210437
 30
0.0
 10
14.5704364359
 20
8.5781364969
 30
0.0
 10
14.5591304854
 20
8.5771186424
 30
0.0
 10
14.5425286096
 20
8.5731059108
 30
0.0
 10
14.5265217942
 20
8.5666971169
 30
0.0
 10
14.5113242312
 20
8.5580615764
 30
0.0
 10
14.4971238344
 20
8.5473510117
 30
0.0
 10
14.4840497823
 20
8.5347607243
 30
0.0
 10
14.4722115248
 20
8.5204674511
 30
0.0
 10
14.4652777877
 20
8.5100457629
 30
0.0
 10
14.4620361881
 20
8.5046197852
 30
0.0
  0
SPLINE
  5
3E1
100
AcDbEntity
  8
0
100
AcDbSpline
 62
7
  6
CONTINUOUS
 70
0
 71
3
 72
15
 73
11
 74
0
 42
0.0000001
 43
0.0000001
 44
0.0000000001
 40
0.0
 40
0.0
 40
0.0
 40
0.0
 40
0.1340301221
 40
0.2648137455
 40
0.392524329
 40
0.5174757284
 40
0.6401695104
 40
0.7610710668
 40
0.8807549879
 40
1.0
 40
1.0
 40
1.0
 40
1.0
 10
14.4606782573
 20
8.2621565891
 30
0.0
 10
14.4639496889
 20
8.2565067212
 30
0.0
 10
14.4709731719
 20
8.2456551605
 30
0.0
 10
14.4830408018
 20
8.2307759702
 30
0.0
 10
14.4964274723
 20
8.2176869558
 30
0.0
 10
14.5110158753
 20
8.2065822684
 30
0.0
 10
14.5266657049
 20
8.1976737919
 30
0.0
 10
14.5431741451
 20
8.1911305668
 30
0.0
 10
14.560304888
 20
8.1871352738
 30
0.0
 10
14.5719623026
 20
8.186233751
 30
0.0
 10
14.5777707653
 20
8.186233751
 30
0.0
  0
SPLINE
  5
3E2
100
AcDbEntity
  8
0
100
AcDbSpline
 62
7
  6
CONTINUOUS
 70
0
 71
3
 72
13
 73
9
 74
0
 42
0.0000001
 43
0.0000001
 44
0.0000000001
 40
0.0
 40
0.0
 40
0.0
 40
0.0
 40
0.3285936031
 40
0.6075126917
 40
0.726710112
 40
0.8319259041
 40
0.9230279348
 40
1.0
 40
1.0
 40
1.0
 40
1.0
 10
15.1851797162
 20
8.8432183939
 30
0.0
 10
15.1875344596
 20
8.8432183939
 30
0.0
 10
15.191888317
 20
8.843283152
 30
0.0
 10
15.1970906114
 20
8.8435720286
 30
0.0
 10
15.2006790344
 20
8.8439435806
 30
0.0
 10
15.2029180711
 20
8.8442637449
 30
0.0
 10
15.2048413295
 20
8.8446376419
 30
0.0
 10
15.2060071196
 20
8.844947054
 30
0.0
 10
15.2065319221
 20
8.8451168644
 30
0.0
  0
SPLINE
  5
3E3
100
AcDbEntity
  8
0
100
AcDbSpline
 62
7
  6
CONTINUOUS
 70
0
 71
3
 72
13
 73
9
 74
0
 42
0.0000001
 43
0.0000001
 44
0.0000000001
 40
0.0
 40
0.0
 40
0.0
 40
0.0
 40
0.3439689221
 40
0.6159986765
 40
0.7281809315
 40
0.8271408358
 40
0.9162189946
 40
1.0
 40
1.0
 40
1.0
 40
1.0
 10
15.2065319221
 20
8.8451168644
 30
0.0
 10
15.2069655233
 20
8.8452571648
 30
0.0
 10
15.2077316132
 20
8.8455425986
 30
0.0
 10
15.2085833739
 20
8.8460112912
 30
0.0
 10
15.2090753359
 20
8.84642427
 30
0.0
 10
15.2093355092
 20
8.8467282031
 30
0.0
 10
15.2095093038
 20
8.8470471414
 30
0.0
 10
15.2095655298
 20
8.8472724021
 30
0.0
 10
15.2095775456
 20
8.8473827538
 30
0.0
  0
SPLINE
  5
3E4
100
AcDbEntity
  8
0
100
AcDbSpline
 62
7
  6
CONTINUOUS
 70
0
 71
3
 72
16
 73
12
 74
0
 42
0.0000001
 43
0.0000001
 44
0.0000000001
 40
0.0
 40
0.0
 40
0.0
 40
0.0
 40
0.1363734739
 40
0.2778850363
 40
0.4200349684
 40
0.5586276736
 40
0.6895651284
 40
0.8089472962
 40
0.9134440497
 40
0.9591529163
 40
1.0
 40
1.0
 40
1.0
 40
1.0
 10
15.094351929
 20
8.8704114036
 30
0.0
 10
15.0978239106
 20
8.8701687887
 30
0.0
 10
15.1048928411
 20
8.869588154
 30
0.0
 10
15.1155565792
 20
8.868485509
 30
0.0
 10
15.1262521052
 20
8.8671604488
 30
0.0
 10
15.1366510961
 20
8.8656547398
 30
0.0
 10
15.1464413465
 20
8.8640152698
 30
0.0
 10
15.1553324177
 20
8.8622925794
 30
0.0
 10
15.1620446656
 20
8.8607727603
 30
0.0
 10
15.1667615048
 20
8.8595357955
 30
0.0
 10
15.1688829289
 20
8.8589183348
 30
0.0
 10
15.1698783672
 20
8.8586087222
 30
0.0
  0
SPLINE
  5
3E5
100
AcDbEntity
  8
0
100
AcDbSpline
 62
7
  6
CONTINUOUS
 70
0
 71
3
 72
13
 73
9
 74
0
 42
0.0000001
 43
0.0000001
 44
0.0000000001
 40
0.0
 40
0.0
 40
0.0
 40
0.0
 40
0.36218255
 40
0.6505317836
 40
0.7660532331
 40
0.8622429497
 40
0.939666898
 40
1.0
 40
1.0
 40
1.0
 40
1.0
 10
15.1698783672
 20
8.8586087222
 30
0.0
 10
15.1707674847
 20
8.8583321787
 30
0.0
 10
15.1723545606
 20
8.8578032
 30
0.0
 10
15.1741836625
 20
8.8570651654
 30
0.0
 10
15.1753306735
 20
8.8564828309
 30
0.0
 10
15.175966058
 20
8.8560944724
 30
0.0
 10
15.1764408623
 20
8.8557233649
 30
0.0
 10
15.1766787646
 20
8.8554548975
 30
0.0
 10
15.1767599671
 20
8.8553227415
 30
0.0
  0
LINE
  5
3E6
100
AcDbEntity
  8
0
100
AcDbLine
 62
7
  6
CONTINUOUS
 10
15.1767599671
 20
8.8553227415
 11
15.1768963211
 21
8.8548951743
  0
LINE
  5
3E7
100
AcDbEntity
  8
0
100
AcDbLine
 62
7
  6
CONTINUOUS
 10
15.0607095383
 20
8.8749853468
 11
15.0736067945
 21
8.875220226
  0
SPLINE
  5
3E8
100
AcDbEntity
  8
0
100
AcDbSpline
 62
7
  6
CONTINUOUS
 70
0
 71
3
 72
16
 73
12
 74
0
 42
0.0000001
 43
0.0000001
 44
0.0000000001
 40
0.0
 40
0.0
 40
0.0
 40
0.0
 40
0.4169561343
 40
0.5860127969
 40
0.7271487441
 40
0.8392620071
 40
0.88415353
 40
0.9214947675
 40
0.9512852976
 40
0.9737151487
 40
1.0
 40
1.0
 40
1.0
 40
1.0
 10
15.0736067945
 20
8.875220226
 30
0.0
 10
15.0743580835
 20
8.8752512724
 30
0.0
 10
15.075413808
 20
8.8753027735
 30
0.0
 10
15.0767215231
 20
8.8754008657
 30
0.0
 10
15.0774794724
 20
8.8754766234
 30
0.0
 10
15.0780122793
 20
8.8755492531
 30
0.0
 10
15.0783569405
 20
8.8756152154
 30
0.0
 10
15.0785527843
 20
8.8756620298
 30
0.0
 10
15.0787085862
 20
8.8757128235
 30
0.0
 10
15.0788330045
 20
8.8757669914
 30
0.0
 10
15.0789149658
 20
8.8758373768
 30
0.0
 10
15.0789146908
 20
8.8758847775
 30
0.0
  0
SPLINE
  5
3E9
100
AcDbEntity
  8
0
100
AcDbSpline
 62
7
  6
CONTINUOUS
 70
0
 71
3
 72
17
 73
13
 74
0
 42
0.0000001
 43
0.0000001
 44
0.0000000001
 40
0.0
 40
0.0
 40
0.0
 40
0.0
 40
0.0585152786
 40
0.1170900794
 40
0.1758453621
 40
0.2348930156
 40
0.3542230487
 40
0.4760612145
 40
0.6011102976
 40
0.7299353623
 40
0.8628630702
 40
1.0
 40
1.0
 40
1.0
 40
1.0
 10
15.5817547644
 20
8.5781333899
 30
0.0
 10
15.5789394066
 20
8.5782562317
 30
0.0
 10
15.573293323
 20
8.5782759299
 30
0.0
 10
15.5648412053
 20
8.5776274993
 30
0.0
 10
15.5564406064
 20
8.5763096906
 30
0.0
 10
15.5453212949
 20
8.5736632077
 30
0.0
 10
15.5316851893
 20
8.5686785284
 30
0.0
 10
15.5161327611
 20
8.560239248
 30
0.0
 10
15.5015256724
 20
8.5494703525
 30
0.0
 10
15.4880274962
 20
8.5365644822
 30
0.0
 10
15.4757844635
 20
8.5217094545
 30
0.0
 10
15.4686420558
 20
8.5108062409
 30
0.0
 10
15.4653055782
 20
8.5051066187
 30
0.0
  0
SPLINE
  5
3EA
100
AcDbEntity
  8
0
100
AcDbSpline
 62
7
  6
CONTINUOUS
 70
0
 71
3
 72
12
 73
8
 74
0
 42
0.0000001
 43
0.0000001
 44
0.0000000001
 40
0.0
 40
0.0
 40
0.0
 40
0.0
 40
0.2396713661
 40
0.4877462305
 40
0.7421549403
 40
0.8709197367
 40
1.0
 40
1.0
 40
1.0
 40
1.0
 10
15.4644815406
 20
8.5036853712
 30
0.0
 10
15.4595624262
 20
8.4951192905
 30
0.0
 10
15.4508400337
 20
8.4769208532
 30
0.0
 10
15.4413779556
 20
8.4477524854
 30
0.0
 10
15.4364765426
 20
8.4221285671
 30
0.0
 10
15.4343784216
 20
8.4011115118
 30
0.0
 10
15.433947531
 20
8.3904854312
 30
0.0
 10
15.4338894981
 20
8.3851657197
 30
0.0
  0
SPLINE
  5
3EB
100
AcDbEntity
  8
0
100
AcDbSpline
 62
7
  6
CONTINUOUS
 70
0
 71
3
 72
12
 73
8
 74
0
 42
0.0000001
 43
0.0000001
 44
0.0000000001
 40
0.0
 40
0.0
 40
0.0
 40
0.0
 40
0.1290481751
 40
0.2578339708
 40
0.5123376491
 40
0.7604459715
 40
1.0
 40
1.0
 40
1.0
 40
1.0
 10
15.4338750978
 20
8.3813072328
 30
0.0
 10
15.4338938065
 20
8.3758847643
 30
0.0
 10
15.43425901
 20
8.365048715
 30
0.0
 10
15.436275386
 20
8.3436057501
 30
0.0
 10
15.4411645946
 20
8.3174523138
 30
0.0
 10
15.450754066
 20
8.287692744
 30
0.0
 10
15.4596559363
 20
8.2691439939
 30
0.0
 10
15.4646868024
 20
8.2604255029
 30
0.0
  0
SPLINE
  5
3EC
100
AcDbEntity
  8
0
100
AcDbSpline
 62
7
  6
CONTINUOUS
 70
0
 71
3
 72
17
 73
13
 74
0
 42
0.0000001
 43
0.0000001
 44
0.0000000001
 40
0.0
 40
0.0
 40
0.0
 40
0.0
 40
0.1371266795
 40
0.2700543914
 40
0.3988869745
 40
0.523949067
 40
0.6457991326
 40
0.7057701811
 40
0.7652214381
 40
0.8829310139
 40
0.9414970289
 40
1.0
 40
1.0
 40
1.0
 40
1.0
 10
15.4652606094
 20
8.2594377154
 30
0.0
 10
15.4685876958
 20
8.2537483358
 30
0.0
 10
15.4757092786
 20
8.2428630969
 30
0.0
 10
15.4879147891
 20
8.228027246
 30
0.0
 10
15.5013714399
 20
8.2151297361
 30
0.0
 10
15.5159312881
 20
8.2043587038
 30
0.0
 10
15.5289294608
 20
8.197272448
 30
0.0
 10
15.5396682622
 20
8.1928698649
 30
0.0
 10
15.5505170737
 20
8.1893490827
 30
0.0
 10
15.5616788569
 20
8.1871056933
 30
0.0
 10
15.572935807
 20
8.186205432
 30
0.0
 10
15.5785701107
 20
8.1862059967
 30
0.0
 10
15.5813797101
 20
8.1863187124
 30
0.0
  0
SPLINE
  5
3ED
100
AcDbEntity
  8
0
100
AcDbSpline
 62
7
  6
CONTINUOUS
 70
0
 71
3
 72
22
 73
18
 74
0
 42
0.0000001
 43
0.0000001
 44
0.0000000001
 40
0.0
 40
0.0
 40
0.0
 40
0.0
 40
0.0593474746
 40
0.1247109772
 40
0.1947612988
 40
0.2682847984
 40
0.34414028
 40
0.4211868201
 40
0.4983039927
 40
0.5744079729
 40
0.6483804022
 40
0.7190379103
 40
0.7851609394
 40
0.8455056468
 40
0.8987030305
 40
0.9432450553
 40
1.0
 40
1.0
 40
1.0
 40
1.0
 10
15.4624503737
 20
8.2666831605
 30
0.0
 10
15.4614441509
 20
8.2670714824
 30
0.0
 10
15.4593036293
 20
8.2678210373
 30
0.0
 10
15.4558992087
 20
8.2687966105
 30
0.0
 10
15.4521892796
 20
8.2696179138
 30
0.0
 10
15.4482459991
 20
8.2702290471
 30
0.0
 10
15.444147252
 20
8.2706189916
 30
0.0
 10
15.439967338
 20
8.2707712739
 30
0.0
 10
15.4357809574
 20
8.270670398
 30
0.0
 10
15.4316655612
 20
8.2703044954
 30
0.0
 10
15.4276958101
 20
8.2697115189
 30
0.0
 10
15.4239448932
 20
8.2689262435
 30
0.0
 10
15.4204856048
 20
8.2679855781
 30
0.0
 10
15.4173955761
 20
8.2669241906
 30
0.0
 10
15.4147373556
 20
8.2658289779
 30
0.0
 10
15.4122062153
 20
8.2646138494
 30
0.0
 10
15.4106033401
 20
8.2636950671
 30
0.0
 10
15.4097584609
 20
8.2631034218
 30
0.0
  0
SPLINE
  5
3EE
100
AcDbEntity
  8
0
100
AcDbSpline
 62
7
  6
CONTINUOUS
 70
0
 71
3
 72
38
 73
34
 74
0
 42
0.0000001
 43
0.0000001
 44
0.0000000001
 40
0.0
 40
0.0
 40
0.0
 40
0.0
 40
0.0005821271
 40
0.0008800098
 40
0.0009234323
 40
0.0009501228
 40
0.0012112675
 40
0.0017471697
 40
0.0025548361
 40
0.0049737686
 40
0.0084423722
 40
0.0129256377
 40
0.0183869925
 40
0.0247903839
 40
0.0321003359
 40
0.0402819993
 40
0.0591239085
 40
0.0810521766
 40
0.1058158698
 40
0.1331778243
 40
0.1629043602
 40
0.1947628597
 40
0.2285246547
 40
0.3008627535
 40
0.378239086
 40
0.4591285299
 40
0.5420471353
 40
0.6255233173
 40
0.7081345483
 40
0.7884441984
 40
0.8649220463
 40
0.9359833884
 40
1.0
 40
1.0
 40
1.0
 40
1.0
 10
15.4093783013
 20
8.5016281046
 30
0.0
 10
15.409370003
 20
8.5016349069
 30
0.0
 10
15.4093550536
 20
8.501646877
 30
0.0
 10
15.4093466972
 20
8.5016537195
 30
0.0
 10
15.4093375597
 20
8.501660526
 30
0.0
 10
15.4093438227
 20
8.5016546167
 30
0.0
 10
15.4093534428
 20
8.5016477796
 30
0.0
 10
15.4093783809
 20
8.5016276681
 30
0.0
 10
15.409432501
 20
8.5015870552
 30
0.0
 10
15.4095330028
 20
8.5015131745
 30
0.0
 10
15.4096890655
 20
8.5014038921
 30
0.0
 10
15.4098939101
 20
8.5012649799
 30
0.0
 10
15.4101458637
 20
8.5010998317
 30
0.0
 10
15.4104443261
 20
8.5009104399
 30
0.0
 10
15.4107882806
 20
8.5006993086
 30
0.0
 10
15.4113325721
 20
8.5003763834
 30
0.0
 10
15.4121195485
 20
8.4999346675
 30
0.0
 10
15.4131915559
 20
8.4993774691
 30
0.0
 10
15.4144238598
 20
8.4987897104
 30
0.0
 10
15.4158088063
 20
8.4981903842
 30
0.0
 10
15.417334899
 20
8.497590387
 30
0.0
 10
15.4189907953
 20
8.4970005786
 30
0.0
 10
15.4214127429
 20
8.4962244796
 30
0.0
 10
15.4246826396
 20
8.4953504218
 30
0.0
 10
15.428858711
 20
8.494539933
 30
0.0
 10
15.433273358
 20
8.493989474
 30
0.0
 10
15.4378261473
 20
8.4937145428
 30
0.0
 10
15.4424195004
 20
8.4937352893
 30
0.0
 10
15.4469521018
 20
8.4940760235
 30
0.0
 10
15.4513237664
 20
8.4946984715
 30
0.0
 10
15.4554385395
 20
8.495553403
 30
0.0
 10
15.4591997329
 20
8.4965940923
 30
0.0
 10
15.4615480109
 20
8.4974286915
 30
0.0
 10
15.4626455417
 20
8.4978620425
 30
0.0
  0
SPLINE
  5
3EF
100
AcDbEntity
  8
0
100
AcDbSpline
 62
7
  6
CONTINUOUS
 70
0
 71
3
 72
15
 73
11
 74
0
 42
0.0000001
 43
0.0000001
 44
0.0000000001
 40
0.0
 40
0.0
 40
0.0
 40
0.0
 40
0.1337281524
 40
0.2642909066
 40
0.3918798841
 40
0.5168126581
 40
0.6395857292
 40
0.7606335584
 40
0.8805211035
 40
1.0
 40
1.0
 40
1.0
 40
1.0
 10
15.412830797
 20
8.5054812921
 30
0.0
 10
15.4095461367
 20
8.5109157874
 30
0.0
 10
15.4025218413
 20
8.5213464909
 30
0.0
 10
15.390534028
 20
8.5356255877
 30
0.0
 10
15.3773021143
 20
8.5481695327
 30
0.0
 10
15.3629388482
 20
8.5587981668
 30
0.0
 10
15.3475790427
 20
8.5673136891
 30
0.0
 10
15.3314159438
 20
8.5735624666
 30
0.0
 10
15.3146713031
 20
8.577373813
 30
0.0
 10
15.3032873193
 20
8.578233751
 30
0.0
 10
15.2976139201
 20
8.578233751
 30
0.0
  0
SPLINE
  5
3F0
100
AcDbEntity
  8
0
100
AcDbSpline
 62
7
  6
CONTINUOUS
 70
0
 71
3
 72
15
 73
11
 74
0
 42
0.0000001
 43
0.0000001
 44
0.0000000001
 40
0.0
 40
0.0
 40
0.0
 40
0.0
 40
0.1194589323
 40
0.2393238818
 40
0.3603590683
 40
0.4831273597
 40
0.6080628532
 40
0.7356633943
 40
0.8662458324
 40
1.0
 40
1.0
 40
1.0
 40
1.0
 10
15.2976139201
 20
8.186233751
 30
0.0
 10
15.3032984574
 20
8.186233751
 30
0.0
 10
15.314704761
 20
8.1870968545
 30
0.0
 10
15.3314810113
 20
8.1909233643
 30
0.0
 10
15.3476725644
 20
8.1971961314
 30
0.0
 10
15.3630568193
 20
8.2057436181
 30
0.0
 10
15.3774391778
 20
8.2164114302
 30
0.0
 10
15.3906844382
 20
8.2290002398
 30
0.0
 10
15.4026794123
 20
8.2433288339
 30
0.0
 10
15.4097040767
 20
8.2537942612
 30
0.0
 10
15.4129878668
 20
8.2592465289
 30
0.0
  0
SPLINE
  5
3F1
100
AcDbEntity
  8
0
100
AcDbSpline
 62
7
  6
CONTINUOUS
 70
0
 71
3
 72
9
 73
5
 74
0
 42
0.0000001
 43
0.0000001
 44
0.0000000001
 40
0.0
 40
0.0
 40
0.0
 40
0.0
 40
0.4831406676
 40
1.0
 40
1.0
 40
1.0
 40
1.0
 10
15.3319043843
 20
8.587233751
 30
0.0
 10
15.3261558567
 20
8.587233751
 30
0.0
 10
15.3142468645
 20
8.5862289091
 30
0.0
 10
15.3026108822
 20
8.5835771147
 30
0.0
 10
15.2967064531
 20
8.5818575853
 30
0.0
  0
SPLINE
  5
3F2
100
AcDbEntity
  8
0
100
AcDbSpline
 62
7
  6
CONTINUOUS
 70
0
 71
3
 72
9
 73
5
 74
0
 42
0.0000001
 43
0.0000001
 44
0.0000000001
 40
0.0
 40
0.0
 40
0.0
 40
0.0
 40
0.2453081086
 40
1.0
 40
1.0
 40
1.0
 40
1.0
 10
15.2967064531
 20
8.5818575853
 30
0.0
 10
15.2953072387
 20
8.5814500962
 30
0.0
 10
15.2896268933
 20
8.5797086748
 30
0.0
 10
15.2840429346
 20
8.5776563019
 30
0.0
 10
15.2798940943
 20
8.5759565629
 30
0.0
  0
SPLINE
  5
3F3
100
AcDbEntity
  8
0
100
AcDbSpline
 62
7
  6
CONTINUOUS
 70
0
 71
3
 72
20
 73
16
 74
0
 42
0.0000001
 43
0.0000001
 44
0.0000000001
 40
0.0
 40
0.0
 40
0.0
 40
0.0
 40
0.1148617123
 40
0.2349351066
 40
0.2964544013
 40
0.3587204905
 40
0.484882136
 40
0.5486320067
 40
0.6126717272
 40
0.6769332393
 40
0.7413740208
 40
0.80593628
 40
0.8706107059
 40
0.9353424657
 40
1.0
 40
1.0
 40
1.0
 40
1.0
 10
15.2731997677
 20
8.573059765
 30
0.0
 10
15.2647106014
 20
8.5691909739
 30
0.0
 10
15.2479014447
 20
8.5600227777
 30
0.0
 10
15.2283193466
 20
8.5459087265
 30
0.0
 10
15.2133480659
 20
8.5329243454
 30
0.0
 10
15.1988388784
 20
8.5187119544
 30
0.0
 10
15.1855554706
 20
8.5030343601
 30
0.0
 10
15.1738254921
 20
8.4860533732
 30
0.0
 10
15.1658587613
 20
8.4726267676
 30
0.0
 10
15.1588640736
 20
8.4586054915
 30
0.0
 10
15.1529486144
 20
8.4440482521
 30
0.0
 10
15.1482064926
 20
8.4290307543
 30
0.0
 10
15.144748289
 20
8.4136402516
 30
0.0
 10
15.142643011
 20
8.398000141
 30
0.0
 10
15.1421635568
 20
8.3874852955
 30
0.0
 10
15.1421635568
 20
8.382233751
 30
0.0
  0
SPLINE
  5
3F4
100
AcDbEntity
  8
0
100
AcDbSpline
 62
7
  6
CONTINUOUS
 70
0
 71
3
 72
18
 73
14
 74
0
 42
0.0000001
 43
0.0000001
 44
0.0000000001
 40
0.0
 40
0.0
 40
0.0
 40
0.0
 40
0.0645376975
 40
0.1291378854
 40
0.1936793419
 40
0.2581224741
 40
0.3224512826
 40
0.3866133876
 40
0.5141785393
 40
0.6402756851
 40
0.7640940684
 40
0.8844924917
 40
1.0
 40
1.0
 40
1.0
 40
1.0
 10
15.1421635568
 20
8.382233751
 30
0.0
 10
15.1421635568
 20
8.3770807899
 30
0.0
 10
15.1426241022
 20
8.3667644583
 30
0.0
 10
15.144650354
 20
8.3514152622
 30
0.0
 10
15.1479843492
 20
8.3363031275
 30
0.0
 10
15.1525549344
 20
8.3215429681
 30
0.0
 10
15.1582635497
 20
8.3072179685
 30
0.0
 10
15.1672557897
 20
8.2888392952
 30
0.0
 10
15.1808292035
 20
8.2672948689
 30
0.0
 10
15.200114858
 20
8.2440355568
 30
0.0
 10
15.221648854
 20
8.2236700979
 30
0.0
 10
15.2447492238
 20
8.2064959875
 30
0.0
 10
15.2611724099
 20
8.1971482512
 30
0.0
 10
15.2694828371
 20
8.1931490957
 30
0.0
  0
SPLINE
  5
3F5
100
AcDbEntity
  8
0
100
AcDbSpline
 62
7
  6
CONTINUOUS
 70
0
 71
3
 72
9
 73
5
 74
0
 42
0.0000001
 43
0.0000001
 44
0.0000000001
 40
0.0
 40
0.0
 40
0.0
 40
0.0
 40
0.2546133113
 40
1.0
 40
1.0
 40
1.0
 40
1.0
 10
15.2800346019
 20
8.1884535452
 30
0.0
 10
15.2814146995
 20
8.187889431
 30
0.0
 10
15.2868618343
 20
8.1857402654
 30
0.0
 10
15.2924168852
 20
8.1838618507
 30
0.0
 10
15.2966067647
 20
8.182638739
 30
0.0
  0
SPLINE
  5
3F6
100
AcDbEntity
  8
0
100
AcDbSpline
 62
7
  6
CONTINUOUS
 70
0
 71
3
 72
9
 73
5
 74
0
 42
0.0000001
 43
0.0000001
 44
0.0000000001
 40
0.0
 40
0.0
 40
0.0
 40
0.0
 40
0.5169347624
 40
1.0
 40
1.0
 40
1.0
 40
1.0
 10
15.2966067647
 20
8.182638739
 30
0.0
 10
15.3025280433
 20
8.1809101964
 30
0.0
 10
15.3141966696
 20
8.1782458753
 30
0.0
 10
15.3261399837
 20
8.1772337584
 30
0.0
 10
15.3319042488
 20
8.177233751
 30
0.0
  0
SPLINE
  5
3F7
100
AcDbEntity
  8
0
100
AcDbSpline
 62
7
  6
CONTINUOUS
 70
0
 71
3
 72
9
 73
5
 74
0
 42
0.0000001
 43
0.0000001
 44
0.0000000001
 40
0.0
 40
0.0
 40
0.0
 40
0.0
 40
0.4825884299
 40
1.0
 40
1.0
 40
1.0
 40
1.0
 10
14.5434802412
 20
8.177233751
 30
0.0
 10
14.5494464567
 20
8.1772337466
 30
0.0
 10
14.5618210873
 20
8.1783169169
 30
0.0
 10
14.5738925748
 20
8.1811631788
 30
0.0
 10
14.5800179356
 20
8.1830065827
 30
0.0
  0
SPLINE
  5
3F8
100
AcDbEntity
  8
0
100
AcDbSpline
 62
7
  6
CONTINUOUS
 70
0
 71
3
 72
9
 73
5
 74
0
 42
0.0000001
 43
0.0000001
 44
0.0000000001
 40
0.0
 40
0.0
 40
0.0
 40
0.0
 40
0.2457175826
 40
1.0
 40
1.0
 40
1.0
 40
1.0
 10
14.5800179356
 20
8.1830065827
 30
0.0
 10
14.5813047551
 20
8.1833938461
 30
0.0
 10
14.5865214377
 20
8.1850368862
 30
0.0
 10
14.5916553983
 20
8.1869402049
 30
0.0
 10
14.5954727982
 20
8.1885036904
 30
0.0
  0
SPLINE
  5
3F9
100
AcDbEntity
  8
0
100
AcDbSpline
 62
7
  6
CONTINUOUS
 70
0
 71
3
 72
20
 73
16
 74
0
 42
0.0000001
 43
0.0000001
 44
0.0000000001
 40
0.0
 40
0.0
 40
0.0
 40
0.0
 40
0.1149395641
 40
0.2350522363
 40
0.2965794554
 40
0.3588478468
 40
0.4850004889
 40
0.5487415779
 40
0.6127712054
 40
0.6770193464
 40
0.7414451687
 40
0.8059910859
 40
0.8706457883
 40
0.9353586132
 40
1.0
 40
1.0
 40
1.0
 40
1.0
 10
14.6026275086
 20
8.1916101295
 30
0.0
 10
14.6110957654
 20
8.19549508
 30
0.0
 10
14.6278593811
 20
8.2046857195
 30
0.0
 10
14.6473855905
 20
8.2188117721
 30
0.0
 10
14.662309787
 20
8.2317961488
 30
0.0
 10
14.6767695455
 20
8.2460011617
 30
0.0
 10
14.6900056416
 20
8.2616631918
 30
0.0
 10
14.7016913569
 20
8.2786219308
 30
0.0
 10
14.7096268047
 20
8.2920277804
 30
0.0
 10
14.7165933391
 20
8.3060246376
 30
0.0
 10
14.7224836753
 20
8.3205542964
 30
0.0
 10
14.7272049651
 20
8.3355409893
 30
0.0
 10
14.7306485612
 20
8.3508978662
 30
0.0
 10
14.7327440886
 20
8.3665029868
 30
0.0
 10
14.7332211287
 20
8.3769939894
 30
0.0
 10
14.7332211287
 20
8.382233751
 30
0.0
  0
SPLINE
  5
3FA
100
AcDbEntity
  8
0
100
AcDbSpline
 62
7
  6
CONTINUOUS
 70
0
 71
3
 72
18
 73
14
 74
0
 42
0.0000001
 43
0.0000001
 44
0.0000000001
 40
0.0
 40
0.0
 40
0.0
 40
0.0
 40
0.0645189154
 40
0.1290991114
 40
0.1936206204
 40
0.2580451781
 40
0.3223562849
 40
0.3865026047
 40
0.5140427279
 40
0.6401276375
 40
0.7639563538
 40
0.8843996995
 40
1.0
 40
1.0
 40
1.0
 40
1.0
 10
14.7332211287
 20
8.382233751
 30
0.0
 10
14.7332211287
 20
8.387371766
 30
0.0
 10
14.7327633557
 20
8.3976580506
 30
0.0
 10
14.7307488399
 20
8.412963216
 30
0.0
 10
14.7274336176
 20
8.4280332384
 30
0.0
 10
14.7228886956
 20
8.4427543323
 30
0.0
 10
14.7172110937
 20
8.4570438159
 30
0.0
 10
14.7082659833
 20
8.4753808033
 30
0.0
 10
14.6947606386
 20
8.4968841236
 30
0.0
 10
14.6755647199
 20
8.5201121861
 30
0.0
 10
14.6541232776
 20
8.5404673051
 30
0.0
 10
14.6311123757
 20
8.5576548381
 30
0.0
 10
14.6147485526
 20
8.5670280143
 30
0.0
 10
14.6064657247
 20
8.5710459434
 30
0.0
  0
SPLINE
  5
3FB
100
AcDbEntity
  8
0
100
AcDbSpline
 62
7
  6
CONTINUOUS
 70
0
 71
3
 72
9
 73
5
 74
0
 42
0.0000001
 43
0.0000001
 44
0.0000000001
 40
0.0
 40
0.0
 40
0.0
 40
0.0
 40
0.2546014276
 40
1.0
 40
1.0
 40
1.0
 40
1.0
 10
14.5953301281
 20
8.5760221092
 30
0.0
 10
14.5939532075
 20
8.5765847446
 30
0.0
 10
14.5885184261
 20
8.5787285026
 30
0.0
 10
14.5829762342
 20
8.5806027064
 30
0.0
 10
14.5787960687
 20
8.5818234981
 30
0.0
  0
SPLINE
  5
3FC
100
AcDbEntity
  8
0
100
AcDbSpline
 62
7
  6
CONTINUOUS
 70
0
 71
3
 72
9
 73
5
 74
0
 42
0.0000001
 43
0.0000001
 44
0.0000000001
 40
0.0
 40
0.0
 40
0.0
 40
0.0
 40
0.5169478421
 40
1.0
 40
1.0
 40
1.0
 40
1.0
 10
14.5787960687
 20
8.5818234981
 30
0.0
 10
14.5728717006
 20
8.5835536735
 30
0.0
 10
14.5611970932
 20
8.5862203322
 30
0.0
 10
14.5492474743
 20
8.587233751
 30
0.0
 10
14.5434803122
 20
8.587233751
 30
0.0
  0
LINE
  5
3FD
100
AcDbEntity
  8
0
100
AcDbLine
 62
7
  6
CONTINUOUS
 10
14.8803069384
 20
8.881965593
 11
14.8834688747
 21
8.8822400521
  0
LINE
  5
3FE
100
AcDbEntity
  8
0
100
AcDbLine
 62
7
  6
CONTINUOUS
 10
14.8838305055
 20
8.8822578551
 11
14.8890933496
 21
8.8824667076
  0
LINE
  5
3FF
100
AcDbEntity
  8
0
100
AcDbLine
 62
7
  6
CONTINUOUS
 10
15.0512338909
 20
8.8790608578
 11
15.0496239125
 21
8.8791725697
  0
LINE
  5
400
100
AcDbEntity
  8
0
100
AcDbLine
 62
7
  6
CONTINUOUS
 10
15.0767875623
 20
8.8769827256
 11
15.0790037513
 21
8.8767815254
  0
LINE
  5
401
100
AcDbEntity
  8
0
100
AcDbLine
 62
7
  6
CONTINUOUS
 10
15.1708727919
 20
8.8656013652
 11
15.1738484674
 21
8.8651457991
  0
LINE
  5
402
100
AcDbEntity
  8
0
100
AcDbLine
 62
7
  6
CONTINUOUS
 10
14.9398149714
 20
8.8832322978
 11
14.9415852734
 21
8.8832288635
  0
LINE
  5
403
100
AcDbEntity
  8
0
100
AcDbLine
 62
7
  6
CONTINUOUS
 10
14.9415852734
 20
8.8832288635
 11
14.9419462293
 21
8.8832279152
  0
LINE
  5
404
100
AcDbEntity
  8
0
100
AcDbLine
 62
7
  6
CONTINUOUS
 10
14.8297829277
 20
8.8794364073
 11
14.8322494341
 21
8.879587176
  0
SPLINE
  5
405
100
AcDbEntity
  8
0
100
AcDbSpline
 62
7
  6
CONTINUOUS
 70
0
 71
3
 72
20
 73
16
 74
0
 42
0.0000001
 43
0.0000001
 44
0.0000000001
 40
0.0
 40
0.0
 40
0.0
 40
0.0
 40
0.010504002
 40
0.0177003025
 40
0.026574289
 40
0.0498195886
 40
0.080675188
 40
0.1191271353
 40
0.1650443755
 40
0.2182488683
 40
0.2785722706
 40
0.4199916143
 40
0.588101727
 40
0.7817711646
 40
1.0
 40
1.0
 40
1.0
 40
1.0
 10
14.912004204
 20
8.8817630762
 30
0.0
 10
14.9120045394
 20
8.8817270519
 30
0.0
 10
14.9120379434
 20
8.8816687185
 30
0.0
 10
14.9121061784
 20
8.8816094596
 30
0.0
 10
14.9122197367
 20
8.8815353482
 30
0.0
 10
14.9124175815
 20
8.8814470715
 30
0.0
 10
14.9127182135
 20
8.8813446128
 30
0.0
 10
14.913099438
 20
8.8812397876
 30
0.0
 10
14.9135589663
 20
8.8811324126
 30
0.0
 10
14.9140948015
 20
8.8810229032
 30
0.0
 10
14.9149550158
 20
8.8808657848
 30
0.0
 10
14.9162083717
 20
8.8806692628
 30
0.0
 10
14.9179185521
 20
8.8804368494
 30
0.0
 10
14.9198935384
 20
8.8801983723
 30
0.0
 10
14.9212978994
 20
8.88004487
 30
0.0
 10
14.9220422711
 20
8.8799666895
 30
0.0
  0
LINE
  5
406
100
AcDbEntity
  8
0
100
AcDbLine
 62
7
  6
CONTINUOUS
 10
14.9220422711
 20
8.8799666895
 11
14.9361509105
 21
8.8787401208
  0
SPLINE
  5
407
100
AcDbEntity
  8
0
100
AcDbSpline
 62
7
  6
CONTINUOUS
 70
0
 71
3
 72
11
 73
7
 74
0
 42
0.0000001
 43
0.0000001
 44
0.0000000001
 40
0.0
 40
0.0
 40
0.0
 40
0.0
 40
0.2210538313
 40
0.4740504454
 40
0.7452696996
 40
1.0
 40
1.0
 40
1.0
 40
1.0
 10
14.9729671969
 20
8.8827036405
 30
0.0
 10
14.9773116749
 20
8.8826529255
 30
0.0
 10
14.9866275103
 20
8.8824602646
 30
0.0
 10
15.0012671907
 20
8.881951887
 30
0.0
 10
15.0165613098
 20
8.8812481141
 30
0.0
 10
15.0268824836
 20
8.8806621986
 30
0.0
 10
15.031878679
 20
8.880338367
 30
0.0
  0
SPLINE
  5
408
100
AcDbEntity
  8
0
100
AcDbSpline
 62
7
  6
CONTINUOUS
 70
0
 71
3
 72
17
 73
13
 74
0
 42
0.0000001
 43
0.0000001
 44
0.0000000001
 40
0.0
 40
0.0
 40
0.0
 40
0.0
 40
0.2308693755
 40
0.4309571588
 40
0.6006810819
 40
0.7402857585
 40
0.8499371366
 40
0.929634546
 40
0.9582594358
 40
0.9793359433
 40
0.9929310083
 40
1.0
 40
1.0
 40
1.0
 40
1.0
 10
15.0411595104
 20
8.8796695163
 30
0.0
 10
15.0417978003
 20
8.8796169757
 30
0.0
 10
15.0429889785
 20
8.8795152603
 30
0.0
 10
15.0446480962
 20
8.8793598561
 30
0.0
 10
15.0460535828
 20
8.8792131117
 30
0.0
 10
15.047207926
 20
8.8790754124
 30
0.0
 10
15.0481111418
 20
8.8789480404
 30
0.0
 10
15.0487077418
 20
8.8788421484
 30
0.0
 10
15.0490560562
 20
8.878760247
 30
0.0
 10
15.0492256292
 20
8.8787055228
 30
0.0
 10
15.0493284532
 20
8.8786634674
 30
0.0
 10
15.0493771801
 20
8.878616559
 30
0.0
 10
15.0493766731
 20
8.8785969556
 30
0.0
  0
SPLINE
  5
409
100
AcDbEntity
  8
0
100
AcDbSpline
 62
7
  6
CONTINUOUS
 70
0
 71
3
 72
19
 73
15
 74
0
 42
0.0000001
 43
0.0000001
 44
0.0000000001
 40
0.0
 40
0.0
 40
0.0
 40
0.0
 40
0.1272488161
 40
0.1881227407
 40
0.247497162
 40
0.3058284663
 40
0.3636018536
 40
0.4212862526
 40
0.4793646556
 40
0.5382878538
 40
0.5984344538
 40
0.7235940405
 40
0.8570373853
 40
1.0
 40
1.0
 40
1.0
 40
1.0
 10
15.3319042344
 20
8.177233751
 30
0.0
 10
15.3374683289
 20
8.1772337438
 30
0.0
 10
15.3457257592
 20
8.1779134723
 30
0.0
 10
15.356283613
 20
8.1803508861
 30
0.0
 10
15.3636907621
 20
8.1828673137
 30
0.0
 10
15.3706760495
 20
8.1860747247
 30
0.0
 10
15.3772296244
 20
8.1899481517
 30
0.0
 10
15.3833424402
 20
8.1944658142
 30
0.0
 10
15.389014294
 20
8.1995995334
 30
0.0
 10
15.3942530432
 20
8.2053199384
 30
0.0
 10
15.4007576418
 20
8.2138042106
 30
0.0
 10
15.4078518842
 20
8.2258667165
 30
0.0
 10
15.4147108766
 20
8.2420698297
 30
0.0
 10
15.4182468584
 20
8.2536482986
 30
0.0
 10
15.419835594
 20
8.2596942386
 30
0.0
  0
SPLINE
  5
40A
100
AcDbEntity
  8
0
100
AcDbSpline
 62
7
  6
CONTINUOUS
 70
0
 71
3
 72
18
 73
14
 74
0
 42
0.0000001
 43
0.0000001
 44
0.0000000001
 40
0.0
 40
0.0
 40
0.0
 40
0.0
 40
0.1428606923
 40
0.2762418449
 40
0.4013782779
 40
0.5203411458
 40
0.5784329965
 40
0.6361493226
 40
0.6939558197
 40
0.7523251421
 40
0.8117539974
 40
0.8726822113
 40
1.0
 40
1.0
 40
1.0
 40
1.0
 10
15.4197570206
 20
8.5050717058
 30
0.0
 10
15.4181653895
 20
8.5110963474
 30
0.0
 10
15.4146244416
 20
8.5226338836
 30
0.0
 10
15.4077594668
 20
8.5387818718
 30
0.0
 10
15.3993631342
 20
8.5530101901
 30
0.0
 10
15.3908777021
 20
8.5631946849
 30
0.0
 10
15.3832648509
 20
8.5700651086
 30
0.0
 10
15.377157842
 20
8.5745652331
 30
0.0
 10
15.3706130775
 20
8.5784251435
 30
0.0
 10
15.3636375834
 20
8.5816217074
 30
0.0
 10
15.3562404611
 20
8.5841275315
 30
0.0
 10
15.3456999724
 20
8.5865552123
 30
0.0
 10
15.3374577581
 20
8.587233751
 30
0.0
 10
15.3319043732
 20
8.587233751
 30
0.0
  0
SPLINE
  5
40B
100
AcDbEntity
  8
0
100
AcDbSpline
 62
7
  6
CONTINUOUS
 70
0
 71
3
 72
9
 73
5
 74
0
 42
0.0000001
 43
0.0000001
 44
0.0000000001
 40
0.0
 40
0.0
 40
0.0
 40
0.0
 40
0.4678335747
 40
1.0
 40
1.0
 40
1.0
 40
1.0
 10
15.1550423803
 20
8.8523377421
 30
0.0
 10
15.1509311521
 20
8.8523353678
 30
0.0
 10
15.1421431873
 20
8.8525106019
 30
0.0
 10
15.133364444
 20
8.8529279322
 30
0.0
 10
15.1286958277
 20
8.8532006202
 30
0.0
  0
SPLINE
  5
40C
100
AcDbEntity
  8
0
100
AcDbSpline
 62
7
  6
CONTINUOUS
 70
0
 71
3
 72
9
 73
5
 74
0
 42
0.0000001
 43
0.0000001
 44
0.0000000001
 40
0.0
 40
0.0
 40
0.0
 40
0.0
 40
0.4955083623
 40
1.0
 40
1.0
 40
1.0
 40
1.0
 10
15.3031027727
 20
8.5843470516
 30
0.0
 10
15.3070301533
 20
8.5834063412
 30
0.0
 10
15.3148541077
 20
8.5810560599
 30
0.0
 10
15.3223718228
 20
8.577863506
 30
0.0
 10
15.3260684053
 20
8.5760631597
 30
0.0
  0
SPLINE
  5
40D
100
AcDbEntity
  8
0
100
AcDbSpline
 62
7
  6
CONTINUOUS
 70
0
 71
3
 72
9
 73
5
 74
0
 42
0.0000001
 43
0.0000001
 44
0.0000000001
 40
0.0
 40
0.0
 40
0.0
 40
0.0
 40
0.5045328113
 40
1.0
 40
1.0
 40
1.0
 40
1.0
 10
15.3260374778
 20
8.1883893279
 30
0.0
 10
15.3222920993
 20
8.1865665378
 30
0.0
 10
15.3146732459
 20
8.1833397399
 30
0.0
 10
15.3067412646
 20
8.1809787796
 30
0.0
 10
15.3027601357
 20
8.1800390341
 30
0.0
  0
SPLINE
  5
40E
100
AcDbEntity
  8
0
100
AcDbSpline
 62
9
  6
CONTINUOUS
 70
0
 71
3
 72
28
 73
24
 74
0
 42
0.0000001
 43
0.0000001
 44
0.0000000001
 40
0.0
 40
0.0
 40
0.0
 40
0.0
 40
0.0753575754
 40
0.150054716
 40
0.2232725892
 40
0.2944368647
 40
0.3630462283
 40
0.3962853437
 40
0.4287657816
 40
0.4913658154
 40
0.5509576028
 40
0.6078740126
 40
0.6355399979
 40
0.662786364
 40
0.6897274222
 40
0.7164855635
 40
0.7431891326
 40
0.7699698495
 40
0.7969550233
 40
0.8242660123
 40
0.8802405694
 40
0.9386684815
 40
1.0
 40
1.0
 40
1.0
 40
1.0
 10
15.1812821958
 20
8.382233751
 30
0.0
 10
15.1812821958
 20
8.3735334563
 30
0.0
 10
15.1821414184
 20
8.3561968911
 30
0.0
 10
15.1859702909
 20
8.3306632827
 30
0.0
 10
15.1922808554
 20
8.3061204379
 30
0.0
 10
15.2009470437
 20
8.283055754
 30
0.0
 10
15.2100897898
 20
8.2652366724
 30
0.0
 10
15.2184503832
 20
8.2521626135
 30
0.0
 10
15.2272323894
 20
8.2402207216
 30
0.0
 10
15.2392615706
 20
8.2269331515
 30
0.0
 10
15.2553495435
 20
8.2138098682
 30
0.0
 10
15.2699022757
 20
8.2055379675
 30
0.0
 10
15.2819089064
 20
8.2007474517
 30
0.0
 10
15.2909910463
 20
8.1980822837
 30
0.0
 10
15.3001846434
 20
8.1963247911
 30
0.0
 10
15.3094442219
 20
8.1954812382
 30
0.0
 10
15.3187235021
 20
8.1955611944
 30
0.0
 10
15.3279748167
 20
8.1965630165
 30
0.0
 10
15.3371530102
 20
8.1984778336
 30
0.0
 10
15.3493243245
 20
8.2022677719
 30
0.0
 10
15.3641924929
 20
8.2093307883
 30
0.0
 10
15.3808104625
 20
8.2211203342
 30
0.0
 10
15.390737912
 20
8.2308319935
 30
0.0
 10
15.3954431778
 20
8.2361235102
 30
0.0
  0
SPLINE
  5
40F
100
AcDbEntity
  8
0
100
AcDbSpline
 62
9
  6
CONTINUOUS
 70
0
 71
3
 72
9
 73
5
 74
0
 42
0.0000001
 43
0.0000001
 44
0.0000000001
 40
0.0
 40
0.0
 40
0.0
 40
0.0
 40
0.2444247305
 40
1.0
 40
1.0
 40
1.0
 40
1.0
 10
15.396318521
 20
8.2371165691
 30
0.0
 10
15.3978692484
 20
8.2388912671
 30
0.0
 10
15.404045923
 20
8.2462976211
 30
0.0
 10
15.4095560182
 20
8.2542535763
 30
0.0
 10
15.4133431522
 20
8.2604771802
 30
0.0
  0
SPLINE
  5
410
100
AcDbEntity
  8
0
100
AcDbSpline
 62
9
  6
CONTINUOUS
 70
0
 71
3
 72
12
 73
8
 74
0
 42
0.0000001
 43
0.0000001
 44
0.0000000001
 40
0.0
 40
0.0
 40
0.0
 40
0.0
 40
0.1302910191
 40
0.2602239353
 40
0.5161221046
 40
0.7637274557
 40
1.0
 40
1.0
 40
1.0
 40
1.0
 10
15.159020991
 20
8.382233751
 30
0.0
 10
15.159020991
 20
8.3882000226
 30
0.0
 10
15.1594085711
 20
8.4001203192
 30
0.0
 10
15.1616981803
 20
8.4236554088
 30
0.0
 10
15.1673324454
 20
8.4522073882
 30
0.0
 10
15.1784113526
 20
8.4843300823
 30
0.0
 10
15.1887066421
 20
8.5040748563
 30
0.0
 10
15.1945079963
 20
8.5132073784
 30
0.0
  0
LINE
  5
411
100
AcDbEntity
  8
0
100
AcDbLine
 62
7
  6
CONTINUOUS
 10
15.051168481
 20
8.870712627
 11
15.0503085623
 21
8.8708225728
  0
SPLINE
  5
412
100
AcDbEntity
  8
0
100
AcDbSpline
 62
7
  6
CONTINUOUS
 70
0
 71
3
 72
19
 73
15
 74
0
 42
0.0000001
 43
0.0000001
 44
0.0000000001
 40
0.0
 40
0.0
 40
0.0
 40
0.0
 40
0.0513404232
 40
0.1035157628
 40
0.1568840162
 40
0.2117370324
 40
0.3265723777
 40
0.3869241461
 40
0.4492125411
 40
0.5792124487
 40
0.7155633744
 40
0.8565671853
 40
0.9281829456
 40
1.0
 40
1.0
 40
1.0
 40
1.0
 10
15.5740281832
 20
8.1939641627
 30
0.0
 10
15.569909907
 20
8.1945083669
 30
0.0
 10
15.5616683516
 20
8.1961477019
 30
0.0
 10
15.5496028957
 20
8.2001905758
 30
0.0
 10
15.5378599317
 20
8.2057906628
 30
0.0
 10
15.5225448093
 20
8.2154005798
 30
0.0
 10
15.5085122836
 20
8.2278652343
 30
0.0
 10
15.496074335
 20
8.2425334701
 30
0.0
 10
15.4842846828
 20
8.2592642807
 30
0.0
 10
15.4718111993
 20
8.2828891174
 30
0.0
 10
15.4609243155
 20
8.3141125514
 30
0.0
 10
15.4553874272
 20
8.3418970817
 30
0.0
 10
15.453136482
 20
8.364813263
 30
0.0
 10
15.4527553641
 20
8.3764228603
 30
0.0
 10
15.4527553641
 20
8.382233751
 30
0.0
  0
SPLINE
  5
413
100
AcDbEntity
  8
0
100
AcDbSpline
 62
7
  6
CONTINUOUS
 70
0
 71
3
 72
19
 73
15
 74
0
 42
0.0000001
 43
0.0000001
 44
0.0000000001
 40
0.0
 40
0.0
 40
0.0
 40
0.0
 40
0.0718367915
 40
0.1434703443
 40
0.2845002572
 40
0.4208652215
 40
0.5508617792
 40
0.6131430751
 40
0.6734842324
 40
0.7882928062
 40
0.8431325639
 40
0.8964901784
 40
0.9486590606
 40
1.0
 40
1.0
 40
1.0
 40
1.0
 10
15.4527553641
 20
8.382233751
 30
0.0
 10
15.4527553641
 20
8.3880530973
 30
0.0
 10
15.4531375624
 20
8.399679447
 30
0.0
 10
15.4553949014
 20
8.4226275213
 30
0.0
 10
15.4609473237
 20
8.450448125
 30
0.0
 10
15.4718638742
 20
8.48170611
 30
0.0
 10
15.484371211
 20
8.5053495677
 30
0.0
 10
15.496191226
 20
8.5220865863
 30
0.0
 10
15.5086604008
 20
8.5367534282
 30
0.0
 10
15.5227265081
 20
8.5492085645
 30
0.0
 10
15.538076066
 20
8.5587962361
 30
0.0
 10
15.5498435266
 20
8.5643751909
 30
0.0
 10
15.5619327677
 20
8.5683904551
 30
0.0
 10
15.5701883177
 20
8.5700080539
 30
0.0
 10
15.5743131024
 20
8.5705405992
 30
0.0
  0
SPLINE
  5
414
100
AcDbEntity
  8
0
100
AcDbSpline
 62
9
  6
CONTINUOUS
 70
0
 71
3
 72
9
 73
5
 74
0
 42
0.0000001
 43
0.0000001
 44
0.0000000001
 40
0.0
 40
0.0
 40
0.0
 40
0.0
 40
0.4955658057
 40
1.0
 40
1.0
 40
1.0
 40
1.0
 10
15.5657325847
 20
8.5607346798
 30
0.0
 10
15.5623296241
 20
8.5599447082
 30
0.0
 10
15.5555470139
 20
8.5579655813
 30
0.0
 10
15.5490185015
 20
8.555267769
 30
0.0
 10
15.5458054072
 20
8.5537443091
 30
0.0
  0
SPLINE
  5
415
100
AcDbEntity
  8
0
100
AcDbSpline
 62
9
  6
CONTINUOUS
 70
0
 71
3
 72
18
 73
14
 74
0
 42
0.0000001
 43
0.0000001
 44
0.0000000001
 40
0.0
 40
0.0
 40
0.0
 40
0.0
 40
0.0523246344
 40
0.10593526
 40
0.1609749294
 40
0.217535391
 40
0.3353140588
 40
0.4593346389
 40
0.5235533804
 40
0.5890604536
 40
0.7233029368
 40
0.8608687415
 40
1.0
 40
1.0
 40
1.0
 40
1.0
 10
15.5458054072
 20
8.5537443091
 30
0.0
 10
15.5426197044
 20
8.5522338366
 30
0.0
 10
15.5363205443
 20
8.5488478334
 30
0.0
 10
15.5272896668
 20
8.5428134672
 30
0.0
 10
15.5186229737
 20
8.5358031289
 30
0.0
 10
15.5074720673
 20
8.5250778552
 30
0.0
 10
15.4947606848
 20
8.5093897707
 30
0.0
 10
15.4842088562
 20
8.4915958105
 30
0.0
 10
15.4769691855
 20
8.4760959412
 30
0.0
 10
15.4704743068
 20
8.4595266522
 30
0.0
 10
15.4641555837
 20
8.4376322941
 30
0.0
 10
15.4595785662
 20
8.4102692337
 30
0.0
 10
15.4585516325
 20
8.3916084663
 30
0.0
 10
15.4585516325
 20
8.382233751
 30
0.0
  0
SPLINE
  5
416
100
AcDbEntity
  8
0
100
AcDbSpline
 62
9
  6
CONTINUOUS
 70
0
 71
3
 72
18
 73
14
 74
0
 42
0.0000001
 43
0.0000001
 44
0.0000000001
 40
0.0
 40
0.0
 40
0.0
 40
0.0
 40
0.1391220611
 40
0.2766770301
 40
0.4109117421
 40
0.4764168065
 40
0.5406344753
 40
0.6646564167
 40
0.7824418811
 40
0.8390076958
 40
0.8940531768
 40
0.9476695714
 40
1.0
 40
1.0
 40
1.0
 40
1.0
 10
15.4585516325
 20
8.382233751
 30
0.0
 10
15.4585516325
 20
8.3728630583
 30
0.0
 10
15.4595776359
 20
8.354210429
 30
0.0
 10
15.4641506806
 20
8.3268588631
 30
0.0
 10
15.4704639355
 20
8.3049730552
 30
0.0
 10
15.4769531047
 20
8.2884092689
 30
0.0
 10
15.4841866179
 20
8.2729135165
 30
0.0
 10
15.4947299913
 20
8.2551228018
 30
0.0
 10
15.5074314874
 20
8.2394351399
 30
0.0
 10
15.5185741175
 20
8.2287076664
 30
0.0
 10
15.5272347337
 20
8.2216944535
 30
0.0
 10
15.5362598659
 20
8.2156565207
 30
0.0
 10
15.5425550801
 20
8.2122670766
 30
0.0
 10
15.5457388974
 20
8.2107547057
 30
0.0
  0
SPLINE
  5
417
100
AcDbEntity
  8
0
100
AcDbSpline
 62
9
  6
CONTINUOUS
 70
0
 71
3
 72
9
 73
5
 74
0
 42
0.0000001
 43
0.0000001
 44
0.0000000001
 40
0.0
 40
0.0
 40
0.0
 40
0.0
 40
0.50441824
 40
1.0
 40
1.0
 40
1.0
 40
1.0
 10
15.5457388974
 20
8.2107547057
 30
0.0
 10
15.5489270195
 20
8.2092402898
 30
0.0
 10
15.555404008
 20
8.2065553255
 30
0.0
 10
15.5621322726
 20
8.2045776818
 30
0.0
 10
15.565508216
 20
8.2037852554
 30
0.0
  0
SPLINE
  5
418
100
AcDbEntity
  8
0
100
AcDbSpline
 62
9
  6
CONTINUOUS
 70
0
 71
3
 72
13
 73
9
 74
0
 42
0.0000001
 43
0.0000001
 44
0.0000000001
 40
0.0
 40
0.0
 40
0.0
 40
0.0
 40
0.1312129435
 40
0.261965392
 40
0.5187445881
 40
0.6438278927
 40
0.7660283771
 40
1.0
 40
1.0
 40
1.0
 40
1.0
 10
15.4856222651
 20
8.382233751
 30
0.0
 10
15.4856222651
 20
8.3766851556
 30
0.0
 10
15.4860135935
 20
8.3656026495
 30
0.0
 10
15.4883217417
 20
8.3437764147
 30
0.0
 10
15.4928991406
 20
8.3224928075
 30
0.0
 10
15.4997368311
 20
8.302283201
 30
0.0
 10
15.507765084
 20
8.2835690941
 30
0.0
 10
15.5154050561
 20
8.2704701222
 30
0.0
 10
15.5211911699
 20
8.2624444714
 30
0.0
  0
SPLINE
  5
419
100
AcDbEntity
  8
0
100
AcDbSpline
 62
9
  6
CONTINUOUS
 70
0
 71
3
 72
10
 73
6
 74
0
 42
0.0000001
 43
0.0000001
 44
0.0000000001
 40
0.0
 40
0.0
 40
0.0
 40
0.0
 40
0.2559334653
 40
0.5096544517
 40
1.0
 40
1.0
 40
1.0
 40
1.0
 10
15.5030239794
 20
8.382233751
 30
0.0
 10
15.5030239794
 20
8.3925506835
 30
0.0
 10
15.5040254585
 20
8.4131144167
 30
0.0
 10
15.5099031399
 20
8.4530276192
 30
0.0
 10
15.5187125575
 20
8.4820093826
 30
0.0
 10
15.5265864192
 20
8.5001397323
 30
0.0
  0
SPLINE
  5
41A
100
AcDbEntity
  8
0
100
AcDbSpline
 62
9
  6
CONTINUOUS
 70
0
 71
3
 72
9
 73
5
 74
0
 42
0.0000001
 43
0.0000001
 44
0.0000000001
 40
0.0
 40
0.0
 40
0.0
 40
0.0
 40
0.2569919022
 40
1.0
 40
1.0
 40
1.0
 40
1.0
 10
15.5265864192
 20
8.5001397323
 30
0.0
 10
15.5282694413
 20
8.5040150581
 30
0.0
 10
15.5351891594
 20
8.5189287288
 30
0.0
 10
15.5436342687
 20
8.5331513569
 30
0.0
 10
15.5507774263
 20
8.5430603082
 30
0.0
  0
SPLINE
  5
41B
100
AcDbEntity
  8
0
100
AcDbSpline
 62
7
  6
CONTINUOUS
 70
0
 71
3
 72
9
 73
5
 74
0
 42
0.0000001
 43
0.0000001
 44
0.0000000001
 40
0.0
 40
0.0
 40
0.0
 40
0.0
 40
0.4955030981
 40
1.0
 40
1.0
 40
1.0
 40
1.0
 10
14.5723191387
 20
8.1801115429
 30
0.0
 10
14.5683853156
 20
8.1810523083
 30
0.0
 10
14.5605484311
 20
8.1834042152
 30
0.0
 10
14.5530186378
 20
8.1866011801
 30
0.0
 10
14.5493162314
 20
8.1884043651
 30
0.0
  0
SPLINE
  5
41C
100
AcDbEntity
  8
0
100
AcDbSpline
 62
7
  6
CONTINUOUS
 70
0
 71
3
 72
9
 73
5
 74
0
 42
0.0000001
 43
0.0000001
 44
0.0000000001
 40
0.0
 40
0.0
 40
0.0
 40
0.0
 40
0.5045148598
 40
1.0
 40
1.0
 40
1.0
 40
1.0
 10
14.5493471067
 20
8.5760781268
 30
0.0
 10
14.5530723947
 20
8.5778911438
 30
0.0
 10
14.5606495658
 20
8.5811028034
 30
0.0
 10
14.5685369199
 20
8.5834583277
 30
0.0
 10
14.5724958215
 20
8.5843979938
 30
0.0
  0
SPLINE
  5
41D
100
AcDbEntity
  8
0
100
AcDbSpline
 62
7
  6
CONTINUOUS
 70
0
 71
3
 72
11
 73
7
 74
0
 42
0.0000001
 43
0.0000001
 44
0.0000000001
 40
0.0
 40
0.0
 40
0.0
 40
0.0
 40
0.2452141422
 40
0.5012028949
 40
0.7563836313
 40
1.0
 40
1.0
 40
1.0
 40
1.0
 10
15.1286958277
 20
8.8532005935
 30
0.0
 10
15.1250757127
 20
8.8534120398
 30
0.0
 10
15.1176829338
 20
8.8539602188
 30
0.0
 10
15.1065521567
 20
8.8550773747
 30
0.0
 10
15.0954762175
 20
8.856469318
 30
0.0
 10
15.0881824707
 20
8.8575775136
 30
0.0
 10
15.0846294333
 20
8.8581733823
 30
0.0
  0
LINE
  5
41E
100
AcDbEntity
  8
0
100
AcDbLine
 62
7
  6
CONTINUOUS
 10
15.0846294333
 20
8.8581733823
 11
15.0714037526
 21
8.8607017602
  0
SPLINE
  5
41F
100
AcDbEntity
  8
0
100
AcDbSpline
 62
7
  6
CONTINUOUS
 70
0
 71
3
 72
19
 73
15
 74
0
 42
0.0000001
 43
0.0000001
 44
0.0000000001
 40
0.0
 40
0.0
 40
0.0
 40
0.0
 40
0.2093697739
 40
0.3970745724
 40
0.5612202721
 40
0.7002155896
 40
0.7599586172
 40
0.8130619906
 40
0.859468921
 40
0.899211488
 40
0.9324814762
 40
0.959682958
 40
0.981640084
 40
1.0
 40
1.0
 40
1.0
 40
1.0
 10
15.0714037526
 20
8.8607017602
 30
0.0
 10
15.0700551359
 20
8.8609979942
 30
0.0
 10
15.0675031393
 20
8.8615863029
 30
0.0
 10
15.0639188806
 20
8.8625114351
 30
0.0
 10
15.0608124013
 20
8.8634238426
 30
0.0
 10
15.0585467934
 20
8.8641990092
 30
0.0
 10
15.0570041169
 20
8.864815286
 30
0.0
 10
15.0560451983
 20
8.865244562
 30
0.0
 10
15.0552272518
 20
8.865663305
 30
0.0
 10
15.0545522726
 20
8.8660707015
 30
0.0
 10
15.054020679
 20
8.8664657782
 30
0.0
 10
15.0536322825
 20
8.8668497368
 30
0.0
 10
15.0533856199
 20
8.8672263237
 30
0.0
 10
15.053321644
 20
8.8674930745
 30
0.0
 10
15.0533218545
 20
8.8676141558
 30
0.0
  0
SPLINE
  5
420
100
AcDbEntity
  8
0
100
AcDbSpline
 62
7
  6
CONTINUOUS
 70
0
 71
3
 72
19
 73
15
 74
0
 42
0.0000001
 43
0.0000001
 44
0.0000000001
 40
0.0
 40
0.0
 40
0.0
 40
0.0
 40
0.1273241714
 40
0.1882419767
 40
0.2476604258
 40
0.3060316992
 40
0.3638399618
 40
0.4215517876
 40
0.4796459272
 40
0.5385738203
 40
0.5987152699
 40
0.7238258004
 40
0.8571741599
 40
1.0
 40
1.0
 40
1.0
 40
1.0
 10
14.5434803033
 20
8.587233751
 30
0.0
 10
14.53793118
 20
8.587233751
 30
0.0
 10
14.5296958397
 20
8.5865575273
 30
0.0
 10
14.5191641291
 20
8.5841336832
 30
0.0
 10
14.511773567
 20
8.5816311278
 30
0.0
 10
14.5048024895
 20
8.578440951
 30
0.0
 10
14.4982606166
 20
8.5745882173
 30
0.0
 10
14.4921568159
 20
8.5700947006
 30
0.0
 10
14.4864917997
 20
8.5649877821
 30
0.0
 10
14.4812577121
 20
8.5592967733
 30
0.0
 10
14.4747569758
 20
8.5508565243
 30
0.0
 10
14.4676620333
 20
8.5388552729
 30
0.0
 10
14.4607959018
 20
8.5227310979
 30
0.0
 10
14.4572519602
 20
8.5112071041
 30
0.0
 10
14.4556589106
 20
8.5051896779
 30
0.0
  0
SPLINE
  5
421
100
AcDbEntity
  8
0
100
AcDbSpline
 62
7
  6
CONTINUOUS
 70
0
 71
3
 72
18
 73
14
 74
0
 42
0.0000001
 43
0.0000001
 44
0.0000000001
 40
0.0
 40
0.0
 40
0.0
 40
0.0
 40
0.1433948261
 40
0.2771565366
 40
0.4024908728
 40
0.521457433
 40
0.5794826566
 40
0.6370928034
 40
0.6947619087
 40
0.752972006
 40
0.8122311935
 40
0.8729906927
 40
1.0
 40
1.0
 40
1.0
 40
1.0
 10
14.4551891856
 20
8.261080622
 30
0.0
 10
14.4567630716
 20
8.2549414069
 30
0.0
 10
14.4602715153
 20
8.2431845739
 30
0.0
 10
14.4671059269
 20
8.2267178907
 30
0.0
 10
14.475495146
 20
8.2122016171
 30
0.0
 10
14.4840045644
 20
8.2017999965
 30
0.0
 10
14.4916563271
 20
8.194780644
 30
0.0
 10
14.4977998929
 20
8.1901833252
 30
0.0
 10
14.5043914969
 20
8.1862389314
 30
0.0
 10
14.5114242215
 20
8.1829715507
 30
0.0
 10
14.5188889996
 20
8.1804097267
 30
0.0
 10
14.5295353226
 20
8.1779273138
 30
0.0
 10
14.5378666881
 20
8.1772337551
 30
0.0
 10
14.5434802329
 20
8.177233751
 30
0.0
  0
LINE
  5
422
100
AcDbEntity
  8
0
100
AcDbLine
 62
7
  6
CONTINUOUS
 10
14.9416901174
 20
8.8822285677
 11
14.9419910894
 21
8.8822277887
  0
LINE
  5
423
100
AcDbEntity
  8
0
100
AcDbLine
 62
7
  6
CONTINUOUS
 10
14.9419458735
 20
8.8832279152
 11
14.9415402083
 21
8.883228916
  0
LINE
  5
424
100
AcDbEntity
  8
0
100
AcDbLine
 62
7
  6
CONTINUOUS
 10
15.051084924
 20
8.8717308172
 11
15.0504338348
 21
8.8718140201
  0
SPLINE
  5
425
100
AcDbEntity
  8
0
100
AcDbSpline
 62
9
  6
CONTINUOUS
 70
0
 71
3
 72
16
 73
12
 74
0
 42
0.0000001
 43
0.0000001
 44
0.0000000001
 40
0.0
 40
0.0
 40
0.0
 40
0.0
 40
0.1152660573
 40
0.2362055288
 40
0.3616939915
 40
0.4257189758
 40
0.4902992875
 40
0.6201824971
 40
0.7495866929
 40
0.8767312603
 40
1.0
 40
1.0
 40
1.0
 40
1.0
 10
14.3246071221
 20
8.5430601105
 30
0.0
 10
14.3311378902
 20
8.5340028983
 30
0.0
 10
14.3430191251
 20
8.5143254804
 30
0.0
 10
14.3567245718
 20
8.4819715317
 30
0.0
 10
14.3647696931
 20
8.4529010116
 30
0.0
 10
14.3691300774
 20
8.4286629439
 30
0.0
 10
14.3720699429
 20
8.403781991
 30
0.0
 10
14.3729496171
 20
8.3723405653
 30
0.0
 10
14.3695735135
 20
8.3349700267
 30
0.0
 10
14.3618605724
 20
8.2989034467
 30
0.0
 10
14.3538042681
 20
8.2759332639
 30
0.0
 10
14.3490761822
 20
8.2649677115
 30
0.0
  0
SPLINE
  5
426
100
AcDbEntity
  8
0
100
AcDbSpline
 62
9
  6
CONTINUOUS
 70
0
 71
3
 72
9
 73
5
 74
0
 42
0.0000001
 43
0.0000001
 44
0.0000000001
 40
0.0
 40
0.0
 40
0.0
 40
0.0
 40
0.2570611322
 40
1.0
 40
1.0
 40
1.0
 40
1.0
 10
14.3490761822
 20
8.2649677115
 30
0.0
 10
14.3473792775
 20
8.2610321871
 30
0.0
 10
14.3403958896
 20
8.2458925188
 30
0.0
 10
14.3318515574
 20
8.2314543549
 30
0.0
 10
14.3246071221
 20
8.2214073915
 30
0.0
  0
SPLINE
  5
427
100
AcDbEntity
  8
0
100
AcDbSpline
 62
7
  6
CONTINUOUS
 70
0
 71
3
 72
11
 73
7
 74
0
 42
0.0000001
 43
0.0000001
 44
0.0000000001
 40
0.0
 40
0.0
 40
0.0
 40
0.0
 40
0.1980659449
 40
0.4319584182
 40
0.6999949279
 40
1.0
 40
1.0
 40
1.0
 40
1.0
 10
15.1729474674
 20
8.8532261775
 30
0.0
 10
15.1718025817
 20
8.853069461
 30
0.0
 10
15.1692949604
 20
8.8528063562
 30
0.0
 10
15.1652189625
 20
8.8525421118
 30
0.0
 10
15.160542548
 20
8.8523794843
 30
0.0
 10
15.1572284035
 20
8.8523419871
 30
0.0
 10
15.1554781094
 20
8.8523383103
 30
0.0
  0
SPLINE
  5
428
100
AcDbEntity
  8
0
100
AcDbSpline
 62
7
  6
CONTINUOUS
 70
0
 71
3
 72
11
 73
7
 74
0
 42
0.0000001
 43
0.0000001
 44
0.0000000001
 40
0.0
 40
0.0
 40
0.0
 40
0.0
 40
0.3734067425
 40
0.5035539248
 40
0.6509499584
 40
1.0
 40
1.0
 40
1.0
 40
1.0
 10
15.0533218183
 20
8.8666039759
 30
0.0
 10
15.0533212423
 20
8.8662590029
 30
0.0
 10
15.053628769
 20
8.8658239523
 30
0.0
 10
15.0540685414
 20
8.8654259506
 30
0.0
 10
15.0545304667
 20
8.8650724401
 30
0.0
 10
15.0549225084
 20
8.8648337097
 30
0.0
 10
15.0552039315
 20
8.8646762647
 30
0.0
  0
SPLINE
  5
429
100
AcDbEntity
  8
0
100
AcDbSpline
 62
7
  6
CONTINUOUS
 70
0
 71
3
 72
12
 73
8
 74
0
 42
0.0000001
 43
0.0000001
 44
0.0000000001
 40
0.0
 40
0.0
 40
0.0
 40
0.0
 40
0.0777759174
 40
0.1696980315
 40
0.395064575
 40
0.673356864
 40
1.0
 40
1.0
 40
1.0
 40
1.0
 10
15.0552039315
 20
8.8646762647
 30
0.0
 10
15.0555576101
 20
8.8644783957
 30
0.0
 10
15.056350364
 20
8.8640843354
 30
0.0
 10
15.0582474278
 20
8.863283179
 30
0.0
 10
15.0611874194
 20
8.8622792655
 30
0.0
 10
15.0653514997
 20
8.8611018966
 30
0.0
 10
15.0684161627
 20
8.8603610567
 30
0.0
 10
15.0700758601
 20
8.8599837881
 30
0.0
  0
LINE
  5
42A
100
AcDbEntity
  8
0
100
AcDbLine
 62
7
  6
CONTINUOUS
 10
15.0700758601
 20
8.8599837881
 11
15.0824938147
 21
8.8575223807
  0
SPLINE
  5
42B
100
AcDbEntity
  8
0
100
AcDbSpline
 62
7
  6
CONTINUOUS
 70
0
 71
3
 72
11
 73
7
 74
0
 42
0.0000001
 43
0.0000001
 44
0.0000000001
 40
0.0
 40
0.0
 40
0.0
 40
0.0
 40
0.2410583369
 40
0.4961394174
 40
0.753449967
 40
1.0
 40
1.0
 40
1.0
 40
1.0
 10
15.0824938147
 20
8.8575223807
 30
0.0
 10
15.0861771171
 20
8.856879777
 30
0.0
 10
15.093780608
 20
8.855685269
 30
0.0
 10
15.1053720904
 20
8.8541887858
 30
0.0
 10
15.1170836651
 20
8.8529890464
 30
0.0
 10
15.1248782259
 20
8.8524039584
 30
0.0
 10
15.1286958277
 20
8.85218083
 30
0.0
  0
SPLINE
  5
42C
100
AcDbEntity
  8
0
100
AcDbSpline
 62
7
  6
CONTINUOUS
 70
0
 71
3
 72
19
 73
15
 74
0
 42
0.0000001
 43
0.0000001
 44
0.0000000001
 40
0.0
 40
0.0
 40
0.0
 40
0.0
 40
0.009522211
 40
0.0161205691
 40
0.0242807492
 40
0.0456695079
 40
0.0741536115
 40
0.1098949079
 40
0.1529585662
 40
0.2612936617
 40
0.3996972783
 40
0.568662757
 40
0.7686711788
 40
1.0
 40
1.0
 40
1.0
 40
1.0
 10
14.9415812405
 20
8.8805622856
 30
0.0
 10
14.9415811722
 20
8.880530233
 30
0.0
 10
14.9416118055
 20
8.880478122
 30
0.0
 10
14.9416734633
 20
8.8804257162
 30
0.0
 10
14.9417764689
 20
8.8803596114
 30
0.0
 10
14.9419556895
 20
8.8802805604
 30
0.0
 10
14.9422290253
 20
8.8801886417
 30
0.0
 10
14.9425778879
 20
8.8800946119
 30
0.0
 10
14.9431923365
 20
8.8799553398
 30
0.0
 10
14.9441530426
 20
8.8797836664
 30
0.0
 10
14.9455381161
 20
8.8795838762
 30
0.0
 10
14.9472340489
 20
8.8793809756
 30
0.0
 10
14.9492445057
 20
8.8791772766
 30
0.0
 10
14.9506910955
 20
8.8790523185
 30
0.0
 10
14.9514672642
 20
8.8789898996
 30
0.0
  0
SPLINE
  5
42D
100
AcDbEntity
  8
0
100
AcDbSpline
 62
7
  6
CONTINUOUS
 70
0
 71
3
 72
13
 73
9
 74
0
 42
0.0000001
 43
0.0000001
 44
0.0000000001
 40
0.0
 40
0.0
 40
0.0
 40
0.0
 40
0.1228113945
 40
0.2588952607
 40
0.4003455763
 40
0.5394974985
 40
0.7881988438
 40
1.0
 40
1.0
 40
1.0
 40
1.0
 10
14.9560157328
 20
8.8786672086
 30
0.0
 10
14.9588418215
 20
8.8784886282
 30
0.0
 10
14.9648035293
 20
8.8781778039
 30
0.0
 10
14.9740270387
 20
8.8778043439
 30
0.0
 10
14.9836304126
 20
8.8775084891
 30
0.0
 10
14.9958328576
 20
8.8772717626
 30
0.0
 10
15.0096599888
 20
8.8772337613
 30
0.0
 10
15.0202778437
 20
8.8772887812
 30
0.0
 10
15.0251614516
 20
8.8772887812
 30
0.0
  0
SPLINE
  5
42E
100
AcDbEntity
  8
0
100
AcDbSpline
 62
9
  6
CONTINUOUS
 70
0
 71
3
 72
21
 73
17
 74
0
 42
0.0000001
 43
0.0000001
 44
0.0000000001
 40
0.0
 40
0.0
 40
0.0
 40
0.0
 40
0.1169622274
 40
0.1780514929
 40
0.2405914347
 40
0.3043427364
 40
0.3690286
 40
0.4343532946
 40
0.5
 40
0.5656467054
 40
0.6309714
 40
0.6956572636
 40
0.7594085653
 40
0.8219485071
 40
0.8830377726
 40
1.0
 40
1.0
 40
1.0
 40
1.0
 10
14.3541935223
 20
8.2624444618
 30
0.0
 10
14.3599794148
 20
8.2704699367
 30
0.0
 10
14.3676196086
 20
8.2835688333
 30
0.0
 10
14.375648007
 20
8.3022822494
 30
0.0
 10
14.3807329092
 20
8.3173138248
 30
0.0
 10
14.3847380087
 20
8.3329787062
 30
0.0
 10
14.3876290384
 20
8.3491264931
 30
0.0
 10
14.3893722374
 20
8.3655987075
 30
0.0
 10
14.3899579916
 20
8.382233751
 30
0.0
 10
14.3893722374
 20
8.3988687945
 30
0.0
 10
14.3876290384
 20
8.4153410089
 30
0.0
 10
14.3847380087
 20
8.4314887958
 30
0.0
 10
14.3807329092
 20
8.4471536772
 30
0.0
 10
14.375648007
 20
8.4621852526
 30
0.0
 10
14.3676196086
 20
8.4808986687
 30
0.0
 10
14.3599794148
 20
8.4939975653
 30
0.0
 10
14.3541935223
 20
8.5020230402
 30
0.0
  0
SPLINE
  5
42F
100
AcDbEntity
  8
0
100
AcDbSpline
 62
7
  6
CONTINUOUS
 70
0
 71
3
 72
16
 73
12
 74
0
 42
0.0000001
 43
0.0000001
 44
0.0000000001
 40
0.0
 40
0.0
 40
0.0
 40
0.0
 40
0.0613742203
 40
0.1313520873
 40
0.2184132122
 40
0.3268191345
 40
0.3897110699
 40
0.4585671816
 40
0.6144639696
 40
0.7949122234
 40
1.0
 40
1.0
 40
1.0
 40
1.0
 10
15.1768963211
 20
8.8548951743
 30
0.0
 10
15.1768962718
 20
8.8548029274
 30
0.0
 10
15.1768473484
 20
8.8546032607
 30
0.0
 10
15.1766379469
 20
8.8543418059
 30
0.0
 10
15.1763113449
 20
8.8541078868
 30
0.0
 10
15.1759606604
 20
8.8539381619
 30
0.0
 10
15.1756239546
 20
8.8538079029
 30
0.0
 10
15.1752134077
 20
8.8536718386
 30
0.0
 10
15.1746238686
 20
8.8535168115
 30
0.0
 10
15.1738257578
 20
8.8533563049
 30
0.0
 10
15.1732528712
 20
8.8532679399
 30
0.0
 10
15.1729474674
 20
8.853226135
 30
0.0
  0
SPLINE
  5
430
100
AcDbEntity
  8
0
100
AcDbSpline
 62
7
  6
CONTINUOUS
 70
0
 71
3
 72
19
 73
15
 74
0
 42
0.0000001
 43
0.0000001
 44
0.0000000001
 40
0.0
 40
0.0
 40
0.0
 40
0.0
 40
0.018385884
 40
0.0404425266
 40
0.0677814343
 40
0.1012141992
 40
0.1411417871
 40
0.1877176199
 40
0.240953857
 40
0.3008005176
 40
0.4399400092
 40
0.6039898908
 40
0.7912932698
 40
1.0
 40
1.0
 40
1.0
 40
1.0
 10
15.2095854206
 20
8.8475296576
 30
0.0
 10
15.2095852322
 20
8.8477389189
 30
0.0
 10
15.2094734845
 20
8.8482002495
 30
0.0
 10
15.2090477894
 20
8.8488534488
 30
0.0
 10
15.208377332
 20
8.8495223641
 30
0.0
 10
15.2074592421
 20
8.8502125362
 30
0.0
 10
15.2062932101
 20
8.8509251067
 30
0.0
 10
15.2048809818
 20
8.8516586949
 30
0.0
 10
15.2032264491
 20
8.8524116452
 30
0.0
 10
15.2005666576
 20
8.8534932932
 30
0.0
 10
15.1966630097
 20
8.8548549651
 30
0.0
 10
15.1913152397
 20
8.8564608679
 30
0.0
 10
15.1851516809
 20
8.8580905318
 30
0.0
 10
15.1807646946
 20
8.8591268234
 30
0.0
 10
15.1784473534
 20
8.8596488992
 30
0.0
  0
SPLINE
  5
431
100
AcDbEntity
  8
0
100
AcDbSpline
 62
7
  6
CONTINUOUS
 70
0
 71
3
 72
11
 73
7
 74
0
 42
0.0000001
 43
0.0000001
 44
0.0000000001
 40
0.0
 40
0.0
 40
0.0
 40
0.0
 40
0.2362436035
 40
0.4885991763
 40
0.7467582992
 40
1.0
 40
1.0
 40
1.0
 40
1.0
 10
15.1652794849
 20
8.8623758966
 30
0.0
 10
15.1597414784
 20
8.8634339975
 30
0.0
 10
15.148250154
 20
8.8654275483
 30
0.0
 10
15.130612566
 20
8.8679980863
 30
0.0
 10
15.1125134686
 20
8.8701753198
 30
0.0
 10
15.1003614225
 20
8.8713294595
 30
0.0
 10
15.0943372191
 20
8.8718164817
 30
0.0
  0
SPLINE
  5
432
100
AcDbEntity
  8
0
100
AcDbSpline
 62
9
  6
CONTINUOUS
 70
0
 71
3
 72
14
 73
10
 74
0
 42
0.0000001
 43
0.0000001
 44
0.0000000001
 40
0.0
 40
0.0
 40
0.0
 40
0.0
 40
0.2339280142
 40
0.3561114484
 40
0.4811805221
 40
0.6086647213
 40
0.7380661543
 40
0.8687886704
 40
1.0
 40
1.0
 40
1.0
 40
1.0
 10
15.5507774263
 20
8.2214071938
 30
0.0
 10
15.5430097392
 20
8.2321824892
 30
0.0
 10
15.5327503977
 20
8.249768388
 30
0.0
 10
15.5219748352
 20
8.2748937951
 30
0.0
 10
15.5151461092
 20
8.2950726909
 30
0.0
 10
15.509768788
 20
8.3161040001
 30
0.0
 10
15.5058874468
 20
8.3377887934
 30
0.0
 10
15.5035487607
 20
8.3599044588
 30
0.0
 10
15.5030239794
 20
8.3747831296
 30
0.0
 10
15.5030239794
 20
8.382233751
 30
0.0
  0
SPLINE
  5
433
100
AcDbEntity
  8
0
100
AcDbSpline
 62
7
  6
CONTINUOUS
 70
0
 71
3
 72
16
 73
12
 74
0
 42
0.0000001
 43
0.0000001
 44
0.0000000001
 40
0.0
 40
0.0
 40
0.0
 40
0.0
 40
0.2050648088
 40
0.3854946474
 40
0.5413782191
 40
0.6102299591
 40
0.6731191947
 40
0.7815254335
 40
0.8685961846
 40
0.9385949623
 40
1.0
 40
1.0
 40
1.0
 40
1.0
 10
15.1729474674
 20
8.8522063887
 30
0.0
 10
15.1732528732
 20
8.8522482212
 30
0.0
 10
15.1738257648
 20
8.8523366453
 30
0.0
 10
15.1746238792
 20
8.8524972599
 30
0.0
 10
15.175213418
 20
8.8526523916
 30
0.0
 10
15.1756239623
 20
8.8527885471
 30
0.0
 10
15.1759606732
 20
8.8529188962
 30
0.0
 10
15.1763113683
 20
8.8530887431
 30
0.0
 10
15.1766379754
 20
8.8533228305
 30
0.0
 10
15.176847363
 20
8.8535844703
 30
0.0
 10
15.1768962718
 20
8.853784242
 30
0.0
 10
15.1768963211
 20
8.8538765472
 30
0.0
  0
SPLINE
  5
434
100
AcDbEntity
  8
0
100
AcDbSpline
 62
9
  6
CONTINUOUS
 70
0
 71
3
 72
13
 73
9
 74
0
 42
0.0000001
 43
0.0000001
 44
0.0000000001
 40
0.0
 40
0.0
 40
0.0
 40
0.0
 40
0.2339716229
 40
0.3561721073
 40
0.4812554119
 40
0.738034608
 40
0.8687870565
 40
1.0
 40
1.0
 40
1.0
 40
1.0
 10
15.5211911699
 20
8.5020230306
 30
0.0
 10
15.5154050561
 20
8.4939973798
 30
0.0
 10
15.507765084
 20
8.4808984079
 30
0.0
 10
15.4997368311
 20
8.462184301
 30
0.0
 10
15.4928991406
 20
8.4419746945
 30
0.0
 10
15.4883217417
 20
8.4206910873
 30
0.0
 10
15.4860135935
 20
8.3988648525
 30
0.0
 10
15.4856222651
 20
8.3877823464
 30
0.0
 10
15.4856222651
 20
8.382233751
 30
0.0
  0
SPLINE
  5
435
100
AcDbEntity
  8
0
100
AcDbSpline
 62
7
  6
CONTINUOUS
 70
0
 71
3
 72
11
 73
7
 74
0
 42
0.0000001
 43
0.0000001
 44
0.0000000001
 40
0.0
 40
0.0
 40
0.0
 40
0.0
 40
0.1675820457
 40
0.3932080296
 40
0.6722474614
 40
1.0
 40
1.0
 40
1.0
 40
1.0
 10
14.9131916383
 20
8.8812403589
 30
0.0
 10
14.9136656631
 20
8.8813294302
 30
0.0
 10
14.9147885646
 20
8.8814790193
 30
0.0
 10
14.9167152256
 20
8.8816562174
 30
0.0
 10
14.9191062426
 20
8.881812235
 30
0.0
 10
14.9208507365
 20
8.8818950461
 30
0.0
 10
14.9217932463
 20
8.881933895
 30
0.0
  0
SPLINE
  5
436
100
AcDbEntity
  8
0
100
AcDbSpline
 62
7
  6
CONTINUOUS
 70
0
 71
3
 72
21
 73
17
 74
0
 42
0.0000001
 43
0.0000001
 44
0.0000000001
 40
0.0
 40
0.0
 40
0.0
 40
0.0
 40
0.007469647
 40
0.0139537388
 40
0.022519033
 40
0.0331894824
 40
0.0459461287
 40
0.0775708565
 40
0.1170556069
 40
0.1640956621
 40
0.2184367661
 40
0.2798199037
 40
0.4227971243
 40
0.5913525185
 40
0.7841431465
 40
1.0
 40
1.0
 40
1.0
 40
1.0
 10
15.0789146908
 20
8.8758847775
 30
0.0
 10
15.0789143724
 20
8.8759396779
 30
0.0
 10
15.0788178748
 20
8.8760193038
 30
0.0
 10
15.0786772037
 20
8.8760913996
 30
0.0
 10
15.0784986914
 20
8.8761620073
 30
0.0
 10
15.0782755076
 20
8.8762331512
 30
0.0
 10
15.0778846339
 20
8.8763398049
 30
0.0
 10
15.0772827765
 20
8.8764729455
 30
0.0
 10
15.0764288222
 20
8.8766316341
 30
0.0
 10
15.0754066121
 20
8.8767963519
 30
0.0
 10
15.0742224058
 20
8.8769664153
 30
0.0
 10
15.0723368238
 20
8.8772117293
 30
0.0
 10
15.0696133091
 20
8.8775213772
 30
0.0
 10
15.0659247579
 20
8.8778887852
 30
0.0
 10
15.0616989683
 20
8.8782644797
 30
0.0
 10
15.0587050983
 20
8.8785054915
 30
0.0
 10
15.0571232813
 20
8.8786276833
 30
0.0
  0
SPLINE
  5
437
100
AcDbEntity
  8
0
100
AcDbSpline
 62
7
  6
CONTINUOUS
 70
0
 71
3
 72
11
 73
7
 74
0
 42
0.0000001
 43
0.0000001
 44
0.0000000001
 40
0.0
 40
0.0
 40
0.0
 40
0.0
 40
0.2521530276
 40
0.5094322104
 40
0.761923133
 40
1.0
 40
1.0
 40
1.0
 40
1.0
 10
15.0942540178
 20
8.8708157806
 30
0.0
 10
15.1000554478
 20
8.8703472217
 30
0.0
 10
15.1117638519
 20
8.8692419389
 30
0.0
 10
15.1292295363
 20
8.8671653364
 30
0.0
 10
15.1463185831
 20
8.8647151626
 30
0.0
 10
15.1574840731
 20
8.8628192135
 30
0.0
 10
15.1628866896
 20
8.8618136057
 30
0.0
  0
SPLINE
  5
438
100
AcDbEntity
  8
0
100
AcDbSpline
 62
7
  6
CONTINUOUS
 70
0
 71
3
 72
14
 73
10
 74
0
 42
0.0000001
 43
0.0000001
 44
0.0000000001
 40
0.0
 40
0.0
 40
0.0
 40
0.0
 40
0.327986388
 40
0.4741201946
 40
0.6073647232
 40
0.7270277376
 40
0.8325861918
 40
0.923664676
 40
1.0
 40
1.0
 40
1.0
 40
1.0
 10
15.1780349549
 20
8.8587263464
 30
0.0
 10
15.1812092134
 20
8.8580148981
 30
0.0
 10
15.1857843861
 20
8.8569228453
 30
0.0
 10
15.1915985049
 20
8.8553453941
 30
0.0
 10
15.1953931453
 20
8.8542193049
 30
0.0
 10
15.1987716061
 20
8.8531101361
 30
0.0
 10
15.2017158444
 20
8.8520243386
 30
0.0
 10
15.2042100399
 20
8.8509687618
 30
0.0
 10
15.2056964841
 20
8.8502238211
 30
0.0
 10
15.2063544788
 20
8.8498493235
 30
0.0
  0
SPLINE
  5
439
100
AcDbEntity
  8
0
100
AcDbSpline
 62
7
  6
CONTINUOUS
 70
0
 71
3
 72
11
 73
7
 74
0
 42
0.0000001
 43
0.0000001
 44
0.0000000001
 40
0.0
 40
0.0
 40
0.0
 40
0.0
 40
0.3303196563
 40
0.6037348209
 40
0.8241771262
 40
1.0
 40
1.0
 40
1.0
 40
1.0
 10
15.2063544788
 20
8.8498493235
 30
0.0
 10
15.2067704206
 20
8.8496125904
 30
0.0
 10
15.2075166811
 20
8.8491540364
 30
0.0
 10
15.2084662816
 20
8.8484245195
 30
0.0
 10
15.2091406565
 20
8.8477210125
 30
0.0
 10
15.2094313991
 20
8.8472125133
 30
0.0
 10
15.2095091954
 20
8.8469699377
 30
0.0
  0
SPLINE
  5
43A
100
AcDbEntity
  8
0
100
AcDbSpline
 62
9
  6
CONTINUOUS
 70
0
 71
3
 72
29
 73
25
 74
0
 42
0.0000001
 43
0.0000001
 44
0.0000000001
 40
0.0
 40
0.0
 40
0.0
 40
0.0
 40
0.0650824254
 40
0.1268318004
 40
0.1854005505
 40
0.2412761436
 40
0.2684853031
 40
0.2953553269
 40
0.3220292329
 40
0.3486572233
 40
0.3753928788
 40
0.4023835204
 40
0.4297683737
 40
0.4576715698
 40
0.4861969907
 40
0.5154315192
 40
0.5762047081
 40
0.6402993638
 40
0.7076470448
 40
0.7424618518
 40
0.7779400078
 40
0.8505569237
 40
0.9248802514
 40
1.0
 40
1.0
 40
1.0
 40
1.0
 10
15.4130773954
 20
8.5044258736
 30
0.0
 10
15.4088169934
 20
8.5113838409
 30
0.0
 10
15.3995996914
 20
8.5244165479
 30
0.0
 10
15.3834150285
 20
8.5412292938
 30
0.0
 10
15.3655672953
 20
8.5544316655
 30
0.0
 10
15.3494652305
 20
8.5622097295
 30
0.0
 10
15.3362624528
 20
8.5662434727
 30
0.0
 10
15.3263065382
 20
8.5681799115
 30
0.0
 10
15.3162743014
 20
8.5690438919
 30
0.0
 10
15.3062237343
 20
8.5688242094
 30
0.0
 10
15.2962156442
 20
8.5675241841
 30
0.0
 10
15.2863081369
 20
8.5651561053
 30
0.0
 10
15.2765608735
 20
8.5617287041
 30
0.0
 10
15.267030473
 20
8.5572663697
 30
0.0
 10
15.2577693685
 20
8.5517985269
 30
0.0
 10
15.2457041512
 20
8.5430953257
 30
0.0
 10
15.2315823584
 20
8.5297710279
 30
0.0
 10
15.2167834024
 20
8.510650632
 30
0.0
 10
15.2064140319
 20
8.4924941277
 30
0.0
 10
15.1993109337
 20
8.4767598682
 30
0.0
 10
15.1929495702
 20
8.4600015508
 30
0.0
 10
15.1867649401
 20
8.4379275288
 30
0.0
 10
15.1822867953
 20
8.410400795
 30
0.0
 10
15.1812821958
 20
8.3916507211
 30
0.0
 10
15.1812821958
 20
8.382233751
 30
0.0
  0
LINE
  5
43B
100
AcDbEntity
  8
0
100
AcDbLine
 62
7
  6
CONTINUOUS
 10
15.0632199652
 20
8.8771238954
 11
15.0695043075
 21
8.8765212384
  0
LINE
  5
43C
100
AcDbEntity
  8
0
100
AcDbLine
 62
7
  6
CONTINUOUS
 10
15.0695043075
 20
8.8765212384
 11
15.0772704456
 21
8.8754664992
  0
SPLINE
  5
43D
100
AcDbEntity
  8
0
100
AcDbSpline
 62
9
  6
CONTINUOUS
 70
0
 71
3
 72
12
 73
8
 74
0
 42
0.0000001
 43
0.0000001
 44
0.0000000001
 40
0.0
 40
0.0
 40
0.0
 40
0.0
 40
0.2364989627
 40
0.4840804918
 40
0.7398535795
 40
0.8697280362
 40
1.0
 40
1.0
 40
1.0
 40
1.0
 10
15.1940802399
 20
8.2519363863
 30
0.0
 10
15.1884339828
 20
8.2609079258
 30
0.0
 10
15.1783962209
 20
8.2802599979
 30
0.0
 10
15.1675199222
 20
8.3116908606
 30
0.0
 10
15.1619040544
 20
8.3396048927
 30
0.0
 10
15.159533823
 20
8.3626190916
 30
0.0
 10
15.1590736057
 20
8.3742801716
 30
0.0
 10
15.1590290577
 20
8.3801190824
 30
0.0
  0
LINE
  5
43E
100
AcDbEntity
  8
0
100
AcDbLine
 62
7
  6
CONTINUOUS
 10
15.0493766731
 20
8.8785969556
 11
15.0468652838
 21
8.8783211244
  0
LINE
  5
43F
100
AcDbEntity
  8
0
100
AcDbLine
 62
7
  6
CONTINUOUS
 10
15.0468652838
 20
8.8783211244
 11
15.0435974697
 21
8.8782668043
  0
LINE
  5
440
100
AcDbEntity
  8
0
100
AcDbLine
 62
7
  6
CONTINUOUS
 10
15.0435974697
 20
8.8782668043
 11
15.0251614516
 21
8.8782919804
  0
SPLINE
  5
441
100
AcDbEntity
  8
0
100
AcDbSpline
 62
7
  6
CONTINUOUS
 70
0
 71
3
 72
27
 73
23
 74
0
 42
0.0000001
 43
0.0000001
 44
0.0000000001
 40
0.0
 40
0.0
 40
0.0
 40
0.0
 40
0.0699643865
 40
0.1378625363
 40
0.2035092795
 40
0.2667911071
 40
0.3277246376
 40
0.3865284386
 40
0.4152873484
 40
0.4437165427
 40
0.4719166372
 40
0.4999991302
 40
0.5280816258
 40
0.5562817262
 40
0.5847109285
 40
0.6134698482
 40
0.672273684
 40
0.7332072534
 40
0.7964891305
 40
0.8621358618
 40
0.9300342118
 40
1.0
 40
1.0
 40
1.0
 40
1.0
 10
14.5586611396
 20
6.6681789697
 30
0.0
 10
14.5513810991
 20
6.6754380354
 30
0.0
 10
14.5367222094
 20
6.6894329675
 30
0.0
 10
14.5140227085
 20
6.7089256437
 30
0.0
 10
14.4908890844
 20
6.7263250133
 30
0.0
 10
14.4673089589
 20
6.7413017869
 30
0.0
 10
14.4432896823
 20
6.7535025093
 30
0.0
 10
14.422773422
 20
6.7611141851
 30
0.0
 10
14.4062697099
 20
6.7654188754
 30
0.0
 10
14.3939264848
 20
6.7677318787
 30
0.0
 10
14.3815461293
 20
6.7691296583
 30
0.0
 10
14.369146436
 20
6.7695965904
 30
0.0
 10
14.356746743
 20
6.7691296251
 30
0.0
 10
14.3443663894
 20
6.7677318082
 30
0.0
 10
14.3320231662
 20
6.7654187756
 30
0.0
 10
14.3155194583
 20
6.7611140381
 30
0.0
 10
14.2950032041
 20
6.7535023124
 30
0.0
 10
14.2709839326
 20
6.7413015412
 30
0.0
 10
14.2474038286
 20
6.7263247068
 30
0.0
 10
14.2242702079
 20
6.7089252979
 30
0.0
 10
14.2015703261
 20
6.6894326571
 30
0.0
 10
14.1869122753
 20
6.6754365075
 30
0.0
 10
14.1796320909
 20
6.6681772944
 30
0.0
  0
SPLINE
  5
442
100
AcDbEntity
  8
0
100
AcDbSpline
 62
7
  6
CONTINUOUS
 70
0
 71
3
 72
27
 73
23
 74
0
 42
0.0000001
 43
0.0000001
 44
0.0000000001
 40
0.0
 40
0.0
 40
0.0
 40
0.0
 40
0.0699649393
 40
0.137863227
 40
0.2035100361
 40
0.2667919485
 40
0.3277255603
 40
0.3865294403
 40
0.4152883881
 40
0.4437176189
 40
0.471917748
 40
0.5000002736
 40
0.5280827995
 40
0.5562829278
 40
0.5847121559
 40
0.6134710993
 40
0.6722749774
 40
0.7332085854
 40
0.7964904913
 40
0.8621373073
 40
0.9300355323
 40
1.0
 40
1.0
 40
1.0
 40
1.0
 10
15.6957524105
 20
6.6681785097
 30
0.0
 10
15.6884723305
 20
6.6754376187
 30
0.0
 10
15.6738137408
 20
6.6894329472
 30
0.0
 10
15.6511141317
 20
6.7089255838
 30
0.0
 10
15.627980532
 20
6.7263249427
 30
0.0
 10
15.6044004379
 20
6.7413017168
 30
0.0
 10
15.5803811885
 20
6.753502441
 30
0.0
 10
15.5598649527
 20
6.7611141278
 30
0.0
 10
15.5433612595
 20
6.7654188314
 30
0.0
 10
15.5310180485
 20
6.767731847
 30
0.0
 10
15.5186377069
 20
6.7691296412
 30
0.0
 10
15.5062380272
 20
6.7695965901
 30
0.0
 10
15.4938383474
 20
6.7691296436
 30
0.0
 10
15.4814580066
 20
6.7677318472
 30
0.0
 10
15.4691147958
 20
6.765418837
 30
0.0
 10
15.4526111044
 20
6.7611141311
 30
0.0
 10
15.4320948687
 20
6.7535024489
 30
0.0
 10
15.4080756208
 20
6.7413017252
 30
0.0
 10
15.3844955242
 20
6.7263249582
 30
0.0
 10
15.3613619273
 20
6.708925603
 30
0.0
 10
15.3386624524
 20
6.6894329459
 30
0.0
 10
15.3240035789
 20
6.6754380279
 30
0.0
 10
15.316723546
 20
6.6681789698
 30
0.0
  0
SPLINE
  5
443
100
AcDbEntity
  8
0
100
AcDbSpline
 62
7
  6
CONTINUOUS
 70
0
 71
3
 72
21
 73
17
 74
0
 42
0.0000001
 43
0.0000001
 44
0.0000000001
 40
0.0
 40
0.0
 40
0.0
 40
0.0
 40
0.0625075661
 40
0.1250150901
 40
0.2499846822
 40
0.3124896965
 40
0.3749938214
 40
0.4374971647
 40
0.5000000109
 40
0.5625028565
 40
0.6250061929
 40
0.6875103172
 40
0.7500153293
 40
0.8749849127
 40
0.9374924328
 40
1.0
 40
1.0
 40
1.0
 40
1.0
 10
15.3167216946
 20
6.6681789698
 30
0.0
 10
15.3019590638
 20
6.6755390264
 30
0.0
 10
15.2721687274
 20
6.6897398658
 30
0.0
 10
15.2115241802
 20
6.7157305997
 30
0.0
 10
15.1491020363
 20
6.7375204501
 30
0.0
 10
15.085107327
 20
6.7536918475
 30
0.0
 10
15.0364047652
 20
6.7626710656
 30
0.0
 10
14.9871870939
 20
6.768196791
 30
0.0
 10
14.9376923343
 20
6.7700633394
 30
0.0
 10
14.8881975768
 20
6.7681967888
 30
0.0
 10
14.8389799076
 20
6.7626710634
 30
0.0
 10
14.7902773485
 20
6.7536918449
 30
0.0
 10
14.7262826422
 20
6.737520448
 30
0.0
 10
14.6638605022
 20
6.7157305984
 30
0.0
 10
14.6032159576
 20
6.6897398664
 30
0.0
 10
14.5734256222
 20
6.6755390265
 30
0.0
 10
14.5586629911
 20
6.6681789697
 30
0.0
  0
SPLINE
  5
444
100
AcDbEntity
  8
0
100
AcDbSpline
 62
7
  6
CONTINUOUS
 70
0
 71
3
 72
29
 73
25
 74
0
 42
0.0000001
 43
0.0000001
 44
0.0000000001
 40
0.0
 40
0.0
 40
0.0
 40
0.0
 40
0.1251452794
 40
0.2642873249
 40
0.3410240907
 40
0.422469595
 40
0.5070996389
 40
0.5923388595
 40
0.675741285
 40
0.754976477
 40
0.8272091462
 40
0.8595546703
 40
0.8887101173
 40
0.9144082862
 40
0.9366329268
 40
0.9554176176
 40
0.9708147005
 40
0.9828783312
 40
0.9876788355
 40
0.9916655286
 40
0.9948476786
 40
0.9972457035
 40
0.9989066093
 40
1.0
 40
1.0
 40
1.0
 40
1.0
 10
15.0251614516
 20
8.8782919804
 30
0.0
 10
15.0216644486
 20
8.8782919804
 30
0.0
 10
15.0142793721
 20
8.8782642922
 30
0.0
 10
15.004749893
 20
8.8782468716
 30
0.0
 10
14.9964416961
 20
8.8782985844
 30
0.0
 10
14.9896571994
 20
8.8783899417
 30
0.0
 10
14.9826362129
 20
8.8785458489
 30
0.0
 10
14.9755621059
 20
8.878760885
 30
0.0
 10
14.9686403623
 20
8.8790208392
 30
0.0
 10
14.9620839431
 20
8.8793184902
 30
0.0
 10
14.9569552247
 20
8.8796021868
 30
0.0
 10
14.9532266356
 20
8.8798533788
 30
0.0
 10
14.9507972495
 20
8.8800421281
 30
0.0
 10
14.948652118
 20
8.8802363904
 30
0.0
 10
14.9467982994
 20
8.8804320892
 30
0.0
 10
14.94523402
 20
8.8806266535
 30
0.0
 10
14.9439558596
 20
8.880817831
 30
0.0
 10
14.9430690765
 20
8.8809821891
 30
0.0
 10
14.9425016864
 20
8.8811152035
 30
0.0
 10
14.9421795195
 20
8.8812055447
 30
0.0
 10
14.9419265665
 20
8.8812927666
 30
0.0
 10
14.9417428751
 20
8.8813792651
 30
0.0
 10
14.9416227937
 20
8.8814593644
 30
0.0
 10
14.9415810132
 20
8.8815328119
 30
0.0
 10
14.9415811279
 20
8.8815633649
 30
0.0
  0
LINE
  5
445
100
AcDbEntity
  8
0
100
AcDbLine
 62
7
  6
CONTINUOUS
 10
14.8839522274
 20
8.8817962717
 11
14.8803069384
 21
8.881965593
  0
LINE
  5
446
100
AcDbEntity
  8
0
100
AcDbLine
 62
7
  6
CONTINUOUS
 10
15.0251614516
 20
8.8772887812
 11
15.038791357
 21
8.8772548311
  0
LINE
  5
447
100
AcDbEntity
  8
0
100
AcDbLine
 62
7
  6
CONTINUOUS
 10
15.038791357
 20
8.8772548311
 11
15.0434365128
 21
8.8772624403
  0
SPLINE
  5
448
100
AcDbEntity
  8
0
100
AcDbSpline
 62
7
  6
CONTINUOUS
 70
0
 71
3
 72
16
 73
12
 74
0
 42
0.0000001
 43
0.0000001
 44
0.0000000001
 40
0.0
 40
0.0
 40
0.0
 40
0.0
 40
0.2181979323
 40
0.414444099
 40
0.5860777377
 40
0.7305003888
 40
0.8452428211
 40
0.92806445
 40
0.9785761698
 40
0.9923358572
 40
1.0
 40
1.0
 40
1.0
 40
1.0
 10
15.0434365128
 20
8.8772624403
 30
0.0
 10
15.0438715865
 20
8.877265432
 30
0.0
 10
15.0446979626
 20
8.877272917
 30
0.0
 10
15.0458664287
 20
8.8772910319
 30
0.0
 10
15.0468877663
 20
8.8773164731
 30
0.0
 10
15.0477458581
 20
8.8773497105
 30
0.0
 10
15.0484274095
 20
8.877391564
 30
0.0
 10
15.0489179629
 20
8.8774398614
 30
0.0
 10
15.0492103834
 20
8.8774938458
 30
0.0
 10
15.049342688
 20
8.8775427528
 30
0.0
 10
15.0493764815
 20
8.8775786627
 30
0.0
 10
15.0493768784
 20
8.8775939397
 30
0.0
  0
LINE
  5
449
100
AcDbEntity
  8
0
100
AcDbLine
 62
7
  6
CONTINUOUS
 10
14.9379800145
 20
8.8832285707
 11
14.9371056702
 21
8.8832258219
  0
SPLINE
  5
44A
100
AcDbEntity
  8
0
100
AcDbSpline
 62
7
  6
CONTINUOUS
 70
0
 71
3
 72
20
 73
16
 74
0
 42
0.0000001
 43
0.0000001
 44
0.0000000001
 40
0.0
 40
0.0
 40
0.0
 40
0.0
 40
0.214879715
 40
0.4079382049
 40
0.5772065907
 40
0.7205913211
 40
0.7819117987
 40
0.8359632929
 40
0.8825025466
 40
0.9213288972
 40
0.9522840211
 40
0.975307322
 40
0.9839095325
 40
0.9906908272
 40
1.0
 40
1.0
 40
1.0
 40
1.0
 10
14.9254693209
 20
8.883059067
 30
0.0
 10
14.9244930397
 20
8.8830320134
 30
0.0
 10
14.9226398264
 20
8.8829725886
 30
0.0
 10
14.9200187247
 20
8.8828592046
 30
0.0
 10
14.9177239383
 20
8.8827267626
 30
0.0
 10
14.916029014
 20
8.8825960085
 30
0.0
 10
14.9148587842
 20
8.8824783002
 30
0.0
 10
14.9141280678
 20
8.8823905033
 30
0.0
 10
14.9135010066
 20
8.8822986861
 30
0.0
 10
14.9129807248
 20
8.8822037028
 30
0.0
 10
14.9125703577
 20
8.8821050315
 30
0.0
 10
14.9122995629
 20
8.8820161671
 30
0.0
 10
14.9121428496
 20
8.8819365635
 30
0.0
 10
14.9120514316
 20
8.8818742627
 30
0.0
 10
14.9120038101
 20
8.8818053857
 30
0.0
 10
14.912004204
 20
8.8817630762
 30
0.0
  0
SPLINE
  5
44B
100
AcDbEntity
  8
0
100
AcDbSpline
 62
9
  6
CONTINUOUS
 70
0
 71
3
 72
9
 73
5
 74
0
 42
0.0000001
 43
0.0000001
 44
0.0000000001
 40
0.0
 40
0.0
 40
0.0
 40
0.0
 40
0.4957401705
 40
1.0
 40
1.0
 40
1.0
 40
1.0
 10
14.3100441984
 20
8.2038254902
 30
0.0
 10
14.313387208
 20
8.2046162421
 30
0.0
 10
14.3200479769
 20
8.2065818942
 30
0.0
 10
14.3264617516
 20
8.2092416532
 30
0.0
 10
14.3296184899
 20
8.2107400221
 30
0.0
  0
SPLINE
  5
44C
100
AcDbEntity
  8
0
100
AcDbSpline
 62
9
  6
CONTINUOUS
 70
0
 71
3
 72
28
 73
24
 74
0
 42
0.0000001
 43
0.0000001
 44
0.0000000001
 40
0.0
 40
0.0
 40
0.0
 40
0.0
 40
0.0261614184
 40
0.0529659264
 40
0.0804878049
 40
0.1087712771
 40
0.1676650862
 40
0.2296746694
 40
0.2945047054
 40
0.3616351947
 40
0.4303849984
 40
0.4999715237
 40
0.5695583478
 40
0.6383089029
 40
0.7054409241
 40
0.7381970341
 40
0.7703067625
 40
0.8323205232
 40
0.8912193909
 40
0.9195054668
 40
0.9470297608
 40
0.9738364286
 40
1.0
 40
1.0
 40
1.0
 40
1.0
 10
14.3296184899
 20
8.2107400221
 30
0.0
 10
14.3328025056
 20
8.2122513384
 30
0.0
 10
14.339098018
 20
8.2156391914
 30
0.0
 10
14.3481237909
 20
8.2216754206
 30
0.0
 10
14.3567863305
 20
8.2286866083
 30
0.0
 10
14.3679325541
 20
8.2394118084
 30
0.0
 10
14.3806386568
 20
8.2550993056
 30
0.0
 10
14.3934372585
 20
8.2766895823
 30
0.0
 10
14.4037133951
 20
8.3007932267
 30
0.0
 10
14.4112261768
 20
8.3268337968
 30
0.0
 10
14.4158067639
 20
8.3541923426
 30
0.0
 10
14.4173478239
 20
8.3822180903
 30
0.0
 10
14.4158101673
 20
8.4102448106
 30
0.0
 10
14.4112331115
 20
8.4376022599
 30
0.0
 10
14.4049227397
 20
8.4594885023
 30
0.0
 10
14.3984327441
 20
8.4760561626
 30
0.0
 10
14.3911982346
 20
8.4915537891
 30
0.0
 10
14.3806532908
 20
8.5093467364
 30
0.0
 10
14.3679496226
 20
8.5250365803
 30
0.0
 10
14.3568042958
 20
8.5357648864
 30
0.0
 10
14.3481424324
 20
8.5427784044
 30
0.0
 10
14.3391170069
 20
8.5488167998
 30
0.0
 10
14.3328216826
 20
8.5522062158
 30
0.0
 10
14.3296377173
 20
8.5537183146
 30
0.0
  0
SPLINE
  5
44D
100
AcDbEntity
  8
0
100
AcDbSpline
 62
9
  6
CONTINUOUS
 70
0
 71
3
 72
9
 73
5
 74
0
 42
0.0000001
 43
0.0000001
 44
0.0000000001
 40
0.0
 40
0.0
 40
0.0
 40
0.0
 40
0.5042603327
 40
1.0
 40
1.0
 40
1.0
 40
1.0
 10
14.3296377173
 20
8.5537183146
 30
0.0
 10
14.3264844896
 20
8.5552158157
 30
0.0
 10
14.3200779553
 20
8.557874556
 30
0.0
 10
14.3134247305
 20
8.5598407379
 30
0.0
 10
14.3100854733
 20
8.5606321889
 30
0.0
  0
SPLINE
  5
44E
100
AcDbEntity
  8
0
100
AcDbSpline
 62
7
  6
CONTINUOUS
 70
0
 71
3
 72
32
 73
28
 74
0
 42
0.0000001
 43
0.0000001
 44
0.0000000001
 40
0.0
 40
0.0
 40
0.0
 40
0.0
 40
0.0256830575
 40
0.0517845871
 40
0.0784727308
 40
0.1059018479
 40
0.1341904136
 40
0.1634069362
 40
0.1935873444
 40
0.2247328159
 40
0.2897242198
 40
0.3578906659
 40
0.4283502241
 40
0.4641228418
 40
0.5000467898
 40
0.5359705286
 40
0.5717424051
 40
0.6421992564
 40
0.7103620491
 40
0.77534977
 40
0.8064937763
 40
0.8366726663
 40
0.894100683
 40
0.9215286273
 40
0.9482161049
 40
0.9743172895
 40
1.0
 40
1.0
 40
1.0
 40
1.0
 10
14.3016918942
 20
8.5704575894
 30
0.0
 10
14.3058050822
 20
8.5698988905
 30
0.0
 10
14.3140347749
 20
8.5682331752
 30
0.0
 10
14.3260779132
 20
8.5641577291
 30
0.0
 10
14.3377920362
 20
8.5585299196
 30
0.0
 10
14.3490784259
 20
8.5514064695
 30
0.0
 10
14.3598420047
 20
8.5428461115
 30
0.0
 10
14.369999719
 20
8.5329309726
 30
0.0
 10
14.3794606523
 20
8.5217388577
 30
0.0
 10
14.3912100645
 20
8.5050153561
 30
0.0
 10
14.4036448072
 20
8.4814098355
 30
0.0
 10
14.4144901418
 20
8.4502267818
 30
0.0
 10
14.4200080457
 20
8.42248981
 30
0.0
 10
14.4222515134
 20
8.3996110589
 30
0.0
 10
14.4228186482
 20
8.3822135583
 30
0.0
 10
14.4222488313
 20
8.3648162725
 30
0.0
 10
14.4200020933
 20
8.3419384216
 30
0.0
 10
14.4144801314
 20
8.3142035314
 30
0.0
 10
14.4036298071
 20
8.2830234026
 30
0.0
 10
14.3911923487
 20
8.2594225775
 30
0.0
 10
14.3794383784
 20
8.2427000083
 30
0.0
 10
14.3670343833
 20
8.2280317814
 30
0.0
 10
14.3530400539
 20
8.2155574145
 30
0.0
 10
14.3377646867
 20
8.205922606
 30
0.0
 10
14.3260484452
 20
8.2002976469
 30
0.0
 10
14.3140044374
 20
8.1962262367
 30
0.0
 10
14.3057742797
 20
8.1945631182
 30
0.0
 10
14.3016609681
 20
8.1940057471
 30
0.0
  0
SPLINE
  5
44F
100
AcDbEntity
  8
0
100
AcDbSpline
 62
9
  6
CONTINUOUS
 70
0
 71
3
 72
35
 73
31
 74
0
 42
0.0000001
 43
0.0000001
 44
0.0000000001
 40
0.0
 40
0.0
 40
0.0
 40
0.0
 40
0.025714409
 40
0.0517327344
 40
0.0782382814
 40
0.1054185476
 40
0.1334385386
 40
0.1624143434
 40
0.1924068493
 40
0.2234394722
 40
0.2884536948
 40
0.3569880854
 40
0.3923108783
 40
0.4281266313
 40
0.4642758295
 40
0.5005881571
 40
0.5368908942
 40
0.5730115988
 40
0.608780608
 40
0.6440395913
 40
0.712401804
 40
0.7772015753
 40
0.8081197563
 40
0.8379982401
 40
0.8668650737
 40
0.8947860761
 40
0.9218822813
 40
0.9483233259
 40
0.9743006093
 40
1.0
 40
1.0
 40
1.0
 40
1.0
 10
14.5635254331
 20
8.1955666805
 30
0.0
 10
14.5678323633
 20
8.1956324
 30
0.0
 10
14.5764991418
 20
8.1963721732
 30
0.0
 10
14.5893212025
 20
8.1992619026
 30
0.0
 10
14.6018756005
 20
8.2039176499
 30
0.0
 10
14.6140309591
 20
8.2102833336
 30
0.0
 10
14.6256745749
 20
8.2182925486
 30
0.0
 10
14.6366983921
 20
8.2278649842
 30
0.0
 10
14.6470042993
 20
8.2389046399
 30
0.0
 10
14.6598455519
 20
8.2556994259
 30
0.0
 10
14.6734720854
 20
8.2798373601
 30
0.0
 10
14.6832701176
 20
8.3064970189
 30
0.0
 10
14.6888873157
 20
8.3292262123
 30
0.0
 10
14.6919380251
 20
8.3469535268
 30
0.0
 10
14.6937491865
 20
8.3650149541
 30
0.0
 10
14.6943114442
 20
8.3832400054
 30
0.0
 10
14.6936105095
 20
8.4014554861
 30
0.0
 10
14.6916619808
 20
8.4194883499
 30
0.0
 10
14.6884764929
 20
8.4371683474
 30
0.0
 10
14.6826878847
 20
8.4598056706
 30
0.0
 10
14.6726903074
 20
8.4863113461
 30
0.0
 10
14.6588774862
 20
8.5102481415
 30
0.0
 10
14.6459064937
 20
8.5268493136
 30
0.0
 10
14.635516176
 20
8.5377319626
 30
0.0
 10
14.6244188884
 20
8.547136426
 30
0.0
 10
14.6127135053
 20
8.5549680889
 30
0.0
 10
14.6005088157
 20
8.5611481559
 30
0.0
 10
14.5879182439
 20
8.5656118507
 30
0.0
 10
14.5750739088
 20
8.5683051143
 30
0.0
 10
14.5664061711
 20
8.5689116869
 30
0.0
 10
14.5621012552
 20
8.5689116869
 30
0.0
  0
LINE
  5
450
100
AcDbEntity
  8
0
100
AcDbLine
 62
7
  6
CONTINUOUS
 10
15.1554781094
 20
8.8523383103
 11
15.1550423803
 21
8.8523377421
  0
SPLINE
  5
451
100
AcDbEntity
  8
0
100
AcDbSpline
 62
9
  6
CONTINUOUS
 70
0
 71
3
 72
17
 73
13
 74
0
 42
0.0000001
 43
0.0000001
 44
0.0000000001
 40
0.0
 40
0.0
 40
0.0
 40
0.0
 40
0.1181248191
 40
0.2419500272
 40
0.3698875845
 40
0.4348290035
 40
0.5000408797
 40
0.5652514993
 40
0.6301886089
 40
0.7581096795
 40
0.8819086556
 40
1.0
 40
1.0
 40
1.0
 40
1.0
 10
14.6807948001
 20
8.5133361979
 30
0.0
 10
14.6866128751
 20
8.5041936148
 30
0.0
 10
14.6969393407
 20
8.4844203557
 30
0.0
 10
14.7080434468
 20
8.4522442805
 30
0.0
 10
14.7136898284
 20
8.4236455518
 30
0.0
 10
14.7159819165
 20
8.4000663166
 30
0.0
 10
14.7165580267
 20
8.382139659
 30
0.0
 10
14.7159696119
 20
8.3642138061
 30
0.0
 10
14.7136620532
 20
8.3406381118
 30
0.0
 10
14.7079962442
 20
8.3120475687
 30
0.0
 10
14.6968703544
 20
8.2798863442
 30
0.0
 10
14.6865299514
 20
8.2601264565
 30
0.0
 10
14.6807056049
 20
8.2509915093
 30
0.0
  0
SPLINE
  5
452
100
AcDbEntity
  8
0
100
AcDbSpline
 62
9
  6
CONTINUOUS
 70
0
 71
3
 72
15
 73
11
 74
0
 42
0.0000001
 43
0.0000001
 44
0.0000000001
 40
0.0
 40
0.0
 40
0.0
 40
0.0
 40
0.1171883458
 40
0.2354516052
 40
0.3554003745
 40
0.4776517423
 40
0.6028116268
 40
0.7313849162
 40
0.8637166906
 40
1.0
 40
1.0
 40
1.0
 40
1.0
 10
14.5606770773
 20
8.5689008215
 30
0.0
 10
14.557004172
 20
8.5688447766
 30
0.0
 10
14.5496242876
 20
8.5682914664
 30
0.0
 10
14.5386648906
 20
8.5661648801
 30
0.0
 10
14.5278681753
 20
8.5627515127
 30
0.0
 10
14.5173218169
 20
8.558072549
 30
0.0
 10
14.5070959103
 20
8.5521715572
 30
0.0
 10
14.497261551
 20
8.5450860242
 30
0.0
 10
14.4878842683
 20
8.5368706612
 30
0.0
 10
14.4820638323
 20
8.530769191
 30
0.0
 10
14.4792470493
 20
8.5275575482
 30
0.0
  0
SPLINE
  5
453
100
AcDbEntity
  8
0
100
AcDbSpline
 62
9
  6
CONTINUOUS
 70
0
 71
3
 72
9
 73
5
 74
0
 42
0.0000001
 43
0.0000001
 44
0.0000000001
 40
0.0
 40
0.0
 40
0.0
 40
0.0
 40
0.244460588
 40
1.0
 40
1.0
 40
1.0
 40
1.0
 10
14.4792470493
 20
8.5275575482
 30
0.0
 10
14.4777055583
 20
8.5257999692
 30
0.0
 10
14.4715651688
 20
8.5184662698
 30
0.0
 10
14.4660814618
 20
8.5105890031
 30
0.0
 10
14.4623083554
 20
8.504427163
 30
0.0
  0
SPLINE
  5
454
100
AcDbEntity
  8
0
100
AcDbSpline
 62
9
  6
CONTINUOUS
 70
0
 71
3
 72
9
 73
5
 74
0
 42
0.0000001
 43
0.0000001
 44
0.0000000001
 40
0.0
 40
0.0
 40
0.0
 40
0.0
 40
0.2563672516
 40
1.0
 40
1.0
 40
1.0
 40
1.0
 10
14.4612889342
 20
8.2617250552
 30
0.0
 10
14.4626902677
 20
8.2593807663
 30
0.0
 10
14.4683568367
 20
8.2503589347
 30
0.0
 10
14.4748395295
 20
8.2418410359
 30
0.0
 10
14.4801139986
 20
8.2359298552
 30
0.0
  0
SPLINE
  5
455
100
AcDbEntity
  8
0
100
AcDbSpline
 62
9
  6
CONTINUOUS
 70
0
 71
3
 72
15
 73
11
 74
0
 42
0.0000001
 43
0.0000001
 44
0.0000000001
 40
0.0
 40
0.0
 40
0.0
 40
0.0
 40
0.1361895047
 40
0.2684204205
 40
0.3969016393
 40
0.5219945633
 40
0.6442228357
 40
0.7642117503
 40
0.8825961899
 40
1.0
 40
1.0
 40
1.0
 40
1.0
 10
14.4801139986
 20
8.2359298552
 30
0.0
 10
14.4829596405
 20
8.2327406995
 30
0.0
 10
14.4888375547
 20
8.2266883909
 30
0.0
 10
14.4983001749
 20
8.2185613908
 30
0.0
 10
14.5082159465
 20
8.2115780214
 30
0.0
 10
14.5185183678
 20
8.2057930267
 30
0.0
 10
14.5291351968
 20
8.2012433153
 30
0.0
 10
14.5399951614
 20
8.1979718966
 30
0.0
 10
14.5510095
 20
8.1959990879
 30
0.0
 10
14.5584166691
 20
8.1955558151
 30
0.0
 10
14.5621012552
 20
8.1955558151
 30
0.0
  0
SPLINE
  5
456
100
AcDbEntity
  8
0
100
AcDbSpline
 62
7
  6
CONTINUOUS
 70
0
 71
3
 72
11
 73
7
 74
0
 42
0.0000001
 43
0.0000001
 44
0.0000000001
 40
0.0
 40
0.0
 40
0.0
 40
0.0
 40
0.1980697234
 40
0.4319633294
 40
0.6999979521
 40
1.0
 40
1.0
 40
1.0
 40
1.0
 10
15.1729474674
 20
8.8522064535
 30
0.0
 10
15.1718026696
 20
8.8520496465
 30
0.0
 10
15.1692952591
 20
8.8517862853
 30
0.0
 10
15.1652195997
 20
8.8515217845
 30
0.0
 10
15.1605435964
 20
8.8513591818
 30
0.0
 10
15.1572297579
 20
8.8513217965
 30
0.0
 10
15.1554796281
 20
8.8513181046
 30
0.0
  0
LINE
  5
457
100
AcDbEntity
  8
0
100
AcDbLine
 62
7
  6
CONTINUOUS
 10
15.1554796281
 20
8.8513181046
 11
15.1550423803
 21
8.8513175191
  0
SPLINE
  5
458
100
AcDbEntity
  8
0
100
AcDbSpline
 62
7
  6
CONTINUOUS
 70
0
 71
3
 72
9
 73
5
 74
0
 42
0.0000001
 43
0.0000001
 44
0.0000000001
 40
0.0
 40
0.0
 40
0.0
 40
0.0
 40
0.4678328125
 40
1.0
 40
1.0
 40
1.0
 40
1.0
 10
15.1550423803
 20
8.8513175191
 30
0.0
 10
15.150931155
 20
8.8513151431
 30
0.0
 10
15.1421431734
 20
8.8514901023
 30
0.0
 10
15.1333644445
 20
8.8519080118
 30
0.0
 10
15.1286958277
 20
8.8521808798
 30
0.0
  0
SPLINE
  5
459
100
AcDbEntity
  8
0
100
AcDbSpline
 62
7
  6
CONTINUOUS
 70
0
 71
3
 72
17
 73
13
 74
0
 42
0.0000001
 43
0.0000001
 44
0.0000000001
 40
0.0
 40
0.0
 40
0.0
 40
0.0
 40
0.2113111681
 40
0.3995511949
 40
0.5628118256
 40
0.6995030948
 40
0.8093064319
 40
0.8929919511
 40
0.9258510852
 40
0.953619796
 40
0.9776547902
 40
1.0
 40
1.0
 40
1.0
 40
1.0
 10
6.7889891823
 20
8.8627160138
 30
0.0
 10
6.7895174794
 20
8.862697361
 30
0.0
 10
6.7905160063
 20
8.8626486867
 30
0.0
 10
6.7919194905
 20
8.8625320499
 30
0.0
 10
6.7931314072
 20
8.8623778277
 30
0.0
 10
6.7941398173
 20
8.8621874364
 30
0.0
 10
6.7949356218
 20
8.8619635803
 30
0.0
 10
6.7954594651
 20
8.8617372953
 30
0.0
 10
6.795756169
 20
8.8615291456
 30
0.0
 10
6.7959051789
 20
8.8613762577
 30
0.0
 10
6.7959976771
 20
8.8612123915
 30
0.0
 10
6.7960184211
 20
8.8610954396
 30
0.0
 10
6.796018458
 20
8.8610395398
 30
0.0
  0
SPLINE
  5
45A
100
AcDbEntity
  8
0
100
AcDbSpline
 62
7
  6
CONTINUOUS
 70
0
 71
3
 72
11
 73
7
 74
0
 42
0.0000001
 43
0.0000001
 44
0.0000000001
 40
0.0
 40
0.0
 40
0.0
 40
0.0
 40
0.2296141836
 40
0.5002396838
 40
0.7708511549
 40
1.0
 40
1.0
 40
1.0
 40
1.0
 10
6.8242017044
 20
8.8744785535
 30
0.0
 10
6.8248459531
 20
8.8745757551
 30
0.0
 10
6.8262561331
 20
8.8747427857
 30
0.0
 10
6.8284356045
 20
8.8749309277
 30
0.0
 10
6.8306184834
 20
8.8750522606
 30
0.0
 10
6.8320367933
 20
8.8750855967
 30
0.0
 10
6.8326869857
 20
8.8750796356
 30
0.0
  0
SPLINE
  5
45B
100
AcDbEntity
  8
0
100
AcDbSpline
 62
7
  6
CONTINUOUS
 70
0
 71
3
 72
16
 73
12
 74
0
 42
0.0000001
 43
0.0000001
 44
0.0000000001
 40
0.0
 40
0.0
 40
0.0
 40
0.0
 40
0.1249875722
 40
0.1874922373
 40
0.2499945009
 40
0.3437312599
 40
0.4374649667
 40
0.6249313805
 40
0.7186590085
 40
0.8124280809
 40
1.0
 40
1.0
 40
1.0
 40
1.0
 10
6.8326869857
 20
8.8750796356
 30
0.0
 10
6.8335181137
 20
8.8750720156
 30
0.0
 10
6.8347646451
 20
8.8750400123
 30
0.0
 10
6.8364262154
 20
8.8749864128
 30
0.0
 10
6.8378801629
 20
8.8749417227
 30
0.0
 10
6.8395422449
 20
8.8749074197
 30
0.0
 10
6.8420356364
 20
8.8749136213
 30
0.0
 10
6.8445289204
 20
8.8749488128
 30
0.0
 10
6.8470221915
 20
8.8748959846
 30
0.0
 10
6.8495139752
 20
8.8747850854
 30
0.0
 10
6.8513822108
 20
8.874682606
 30
0.0
 10
6.8526287926
 20
8.8746389328
 30
0.0
  0
SPLINE
  5
45C
100
AcDbEntity
  8
0
100
AcDbSpline
 62
7
  6
CONTINUOUS
 70
0
 71
3
 72
13
 73
9
 74
0
 42
0.0000001
 43
0.0000001
 44
0.0000000001
 40
0.0
 40
0.0
 40
0.0
 40
0.0
 40
0.3541293679
 40
0.6427922968
 40
0.7600916986
 40
0.8587199404
 40
0.938606943
 40
1.0
 40
1.0
 40
1.0
 40
1.0
 10
6.8526287926
 20
8.8746389328
 30
0.0
 10
6.8534257024
 20
8.8746110136
 30
0.0
 10
6.8548715366
 20
8.8745398247
 30
0.0
 10
6.8565772314
 20
8.8743865928
 30
0.0
 10
6.8577019084
 20
8.874223494
 30
0.0
 10
6.8583562477
 20
8.8740964537
 30
0.0
 10
6.8588785655
 20
8.8739575815
 30
0.0
 10
6.8591772668
 20
8.8738437638
 30
0.0
 10
6.8593002449
 20
8.8737806243
 30
0.0
  0
LINE
  5
45D
100
AcDbEntity
  8
0
100
AcDbLine
 62
7
  6
CONTINUOUS
 10
6.8593002449
 20
8.8737806243
 11
6.8596581158
 21
8.8733860918
  0
LINE
  5
45E
100
AcDbEntity
  8
0
100
AcDbLine
 62
7
  6
CONTINUOUS
 10
6.9089364443
 20
8.8757943199
 11
6.9098396378
 21
8.8758977982
  0
LINE
  5
45F
100
AcDbEntity
  8
0
100
AcDbLine
 62
7
  6
CONTINUOUS
 10
6.8811238002
 20
8.8811687564
 11
6.8824995609
 21
8.8811683656
  0
LINE
  5
460
100
AcDbEntity
  8
0
100
AcDbLine
 62
7
  6
CONTINUOUS
 10
6.8824995609
 20
8.8811683656
 11
6.8846564253
 21
8.8811662682
  0
LINE
  5
461
100
AcDbEntity
  8
0
100
AcDbLine
 62
7
  6
CONTINUOUS
 10
6.8922363936
 20
8.881147089
 11
6.9034815433
 21
8.8810958726
  0
LINE
  5
462
100
AcDbEntity
  8
0
100
AcDbLine
 62
7
  6
CONTINUOUS
 10
6.9034815433
 20
8.8810958726
 11
6.9145955909
 21
8.8810341304
  0
LINE
  5
463
100
AcDbEntity
  8
0
100
AcDbLine
 62
7
  6
CONTINUOUS
 10
6.9145955909
 20
8.8810341304
 11
6.9253002567
 21
8.8809771442
  0
LINE
  5
464
100
AcDbEntity
  8
0
100
AcDbLine
 62
7
  6
CONTINUOUS
 10
6.9253002567
 20
8.8809771442
 11
6.9356096609
 21
8.8809336989
  0
LINE
  5
465
100
AcDbEntity
  8
0
100
AcDbLine
 62
7
  6
CONTINUOUS
 10
6.9356096609
 20
8.8809336989
 11
6.9458077296
 21
8.8809080112
  0
LINE
  5
466
100
AcDbEntity
  8
0
100
AcDbLine
 62
7
  6
CONTINUOUS
 10
6.9774385837
 20
8.8809086849
 11
6.9875667685
 21
8.8809179662
  0
LINE
  5
467
100
AcDbEntity
  8
0
100
AcDbLine
 62
7
  6
CONTINUOUS
 10
6.9875667685
 20
8.8809179662
 11
6.9961602888
 21
8.8809286735
  0
LINE
  5
468
100
AcDbEntity
  8
0
100
AcDbLine
 62
7
  6
CONTINUOUS
 10
6.9961602888
 20
8.8809286735
 11
7.0101504927
 21
8.8809601708
  0
LINE
  5
469
100
AcDbEntity
  8
0
100
AcDbLine
 62
7
  6
CONTINUOUS
 10
7.0101504927
 20
8.8809601708
 11
7.019792074
 21
8.8810235422
  0
SPLINE
  5
46A
100
AcDbEntity
  8
0
100
AcDbSpline
 62
7
  6
CONTINUOUS
 70
0
 71
3
 72
9
 73
5
 74
0
 42
0.0000001
 43
0.0000001
 44
0.0000000001
 40
0.0
 40
0.0
 40
0.0
 40
0.0
 40
0.2862938453
 40
1.0
 40
1.0
 40
1.0
 40
1.0
 10
7.019792074
 20
8.8810235422
 30
0.0
 10
7.0198001887
 20
8.881023916
 30
0.0
 10
7.0198285295
 20
8.8810252869
 30
0.0
 10
7.0198568606
 20
8.8810269055
 30
0.0
 10
7.0198770577
 20
8.8810283798
 30
0.0
  0
SPLINE
  5
46B
100
AcDbEntity
  8
0
100
AcDbSpline
 62
7
  6
CONTINUOUS
 70
0
 71
3
 72
11
 73
7
 74
0
 42
0.0000001
 43
0.0000001
 44
0.0000000001
 40
0.0
 40
0.0
 40
0.0
 40
0.0
 40
0.4304459665
 40
0.7390356001
 40
0.9268402901
 40
1.0
 40
1.0
 40
1.0
 40
1.0
 10
7.0198770577
 20
8.8810283798
 30
0.0
 10
7.0198874407
 20
8.8810291377
 30
0.0
 10
7.0199048712
 20
8.8810305787
 30
0.0
 10
7.0199283301
 20
8.8810331369
 30
0.0
 10
7.0199398194
 20
8.8810355246
 30
0.0
 10
7.0199481788
 20
8.8810376816
 30
0.0
 10
7.0199481842
 20
8.881039451
 30
0.0
  0
SPLINE
  5
46C
100
AcDbEntity
  8
0
100
AcDbSpline
 62
7
  6
CONTINUOUS
 70
0
 71
3
 72
11
 73
7
 74
0
 42
0.0000001
 43
0.0000001
 44
0.0000000001
 40
0.0
 40
0.0
 40
0.0
 40
0.0
 40
0.2594976531
 40
0.5286828765
 40
0.7832022883
 40
1.0
 40
1.0
 40
1.0
 40
1.0
 10
6.7672796085
 20
8.8719131349
 30
0.0
 10
6.7695905519
 20
8.872221107
 30
0.0
 10
6.7743061192
 20
8.8727934534
 30
0.0
 10
6.7813063016
 20
8.8735108343
 30
0.0
 10
6.7879366119
 20
8.8740615972
 30
0.0
 10
6.792164136
 20
8.8743161349
 30
0.0
 10
6.7941103338
 20
8.8743938864
 30
0.0
  0
SPLINE
  5
46D
100
AcDbEntity
  8
0
100
AcDbSpline
 62
7
  6
CONTINUOUS
 70
0
 71
3
 72
9
 73
5
 74
0
 42
0.0000001
 43
0.0000001
 44
0.0000000001
 40
0.0
 40
0.0
 40
0.0
 40
0.0
 40
0.5001560114
 40
1.0
 40
1.0
 40
1.0
 40
1.0
 10
6.7941103338
 20
8.8743938864
 30
0.0
 10
6.7960274278
 20
8.8744704752
 30
0.0
 10
6.7998550258
 20
8.8747995824
 30
0.0
 10
6.803694331
 20
8.8746453718
 30
0.0
 10
6.8056114273
 20
8.8746809446
 30
0.0
  0
LINE
  5
46E
100
AcDbEntity
  8
0
100
AcDbLine
 62
7
  6
CONTINUOUS
 10
6.8056114273
 20
8.8746809446
 11
6.8110808966
 21
8.8748849993
  0
LINE
  5
46F
100
AcDbEntity
  8
0
100
AcDbLine
 62
7
  6
CONTINUOUS
 10
6.8110808966
 20
8.8748849993
 11
6.8123815054
 21
8.8748651032
  0
LINE
  5
470
100
AcDbEntity
  8
0
100
AcDbLine
 62
7
  6
CONTINUOUS
 10
6.8123815054
 20
8.8748651032
 11
6.8128382561
 21
8.874750213
  0
SPLINE
  5
471
100
AcDbEntity
  8
0
100
AcDbSpline
 62
7
  6
CONTINUOUS
 70
0
 71
3
 72
12
 73
8
 74
0
 42
0.0000001
 43
0.0000001
 44
0.0000000001
 40
0.0
 40
0.0
 40
0.0
 40
0.0
 40
0.2566757367
 40
0.525909865
 40
0.7820528952
 40
0.8973854231
 40
1.0
 40
1.0
 40
1.0
 40
1.0
 10
6.7036399982
 20
8.8589963939
 30
0.0
 10
6.7059925995
 20
8.859466628
 30
0.0
 10
6.710832817
 20
8.8603316994
 30
0.0
 10
6.7180667781
 20
8.8613885856
 30
0.0
 10
6.7240186968
 20
8.8620649696
 30
0.0
 10
6.7284354016
 20
8.8624277986
 30
0.0
 10
6.7304695292
 20
8.8625447389
 30
0.0
 10
6.731427899
 20
8.8625830085
 30
0.0
  0
SPLINE
  5
472
100
AcDbEntity
  8
0
100
AcDbSpline
 62
7
  6
CONTINUOUS
 70
0
 71
3
 72
25
 73
21
 74
0
 42
0.0000001
 43
0.0000001
 44
0.0000000001
 40
0.0
 40
0.0
 40
0.0
 40
0.0
 40
0.0262682963
 40
0.0526087623
 40
0.0791057379
 40
0.1058390636
 40
0.1602625623
 40
0.2164219868
 40
0.2746822188
 40
0.3352245963
 40
0.3980441561
 40
0.46295232
 40
0.5296097897
 40
0.5975487814
 40
0.6662222444
 40
0.7350307277
 40
0.8033700056
 40
0.8371919828
 40
0.8706863065
 40
1.0
 40
1.0
 40
1.0
 40
1.0
 10
7.5771527198
 20
8.578233751
 30
0.0
 10
7.5737090917
 20
8.578233751
 30
0.0
 10
7.5668077015
 20
8.5778948483
 30
0.0
 10
7.5565328117
 20
8.5763841722
 30
0.0
 10
7.5463882132
 20
8.5738856256
 30
0.0
 10
7.5330467735
 20
8.5692306474
 30
0.0
 10
7.5169298292
 20
8.5609842913
 30
0.0
 10
7.4991343339
 20
8.5476648566
 30
0.0
 10
7.4830410483
 20
8.5312052561
 30
0.0
 10
7.4688974164
 20
8.5119636875
 30
0.0
 10
7.4569058614
 20
8.4903208294
 30
0.0
 10
7.4472382817
 20
8.4666837128
 30
0.0
 10
7.4400470346
 20
8.4414857455
 30
0.0
 10
7.4354388267
 20
8.4151922607
 30
0.0
 10
7.4334907881
 20
8.3882876333
 30
0.0
 10
7.4342365914
 20
8.361271957
 30
0.0
 10
7.4370975698
 20
8.3390007735
 30
0.0
 10
7.4407280045
 20
8.321581917
 30
0.0
 10
7.4473005832
 20
8.2966604824
 30
0.0
 10
7.45549091
 20
8.2766688874
 30
0.0
 10
7.4638368012
 20
8.2619133165
 30
0.0
  0
SPLINE
  5
473
100
AcDbEntity
  8
0
100
AcDbSpline
 62
7
  6
CONTINUOUS
 70
0
 71
3
 72
15
 73
11
 74
0
 42
0.0000001
 43
0.0000001
 44
0.0000000001
 40
0.0
 40
0.0
 40
0.0
 40
0.0
 40
0.1368892641
 40
0.2697293927
 40
0.398607576
 40
0.5238153005
 40
0.6458619358
 40
0.7653601005
 40
0.8831077912
 40
1.0
 40
1.0
 40
1.0
 40
1.0
 10
7.465457581
 20
8.2591016921
 30
0.0
 10
7.4686831851
 20
8.253611017
 30
0.0
 10
7.4755709478
 20
8.2430923894
 30
0.0
 10
7.487325254
 20
8.2287047811
 30
0.0
 10
7.5002523705
 20
8.2161194224
 30
0.0
 10
7.5142216273
 20
8.2055044012
 30
0.0
 10
7.5290923729
 20
8.1970347334
 30
0.0
 10
7.5446819438
 20
8.1908458252
 30
0.0
 10
7.5607817575
 20
8.1870830945
 30
0.0
 10
7.571714929
 20
8.186233751
 30
0.0
 10
7.5771527198
 20
8.186233751
 30
0.0
  0
SPLINE
  5
474
100
AcDbEntity
  8
0
100
AcDbSpline
 62
7
  6
CONTINUOUS
 70
0
 71
3
 72
31
 73
27
 74
0
 42
0.0000001
 43
0.0000001
 44
0.0000000001
 40
0.0
 40
0.0
 40
0.0
 40
0.0
 40
0.0210593244
 40
0.0373639823
 40
0.0490630677
 40
0.0532298612
 40
0.0562972099
 40
0.059197405
 40
0.0605084986
 40
0.0658762971
 40
0.0751012146
 40
0.0879855808
 40
0.1043374685
 40
0.1239713006
 40
0.1467085204
 40
0.1723783305
 40
0.2008174572
 40
0.2318534395
 40
0.2653027499
 40
0.3387097347
 40
0.4196190775
 40
0.5066675579
 40
0.5986680795
 40
0.6947769638
 40
0.7942153972
 40
1.0
 40
1.0
 40
1.0
 40
1.0
 10
7.4107866654
 20
8.5002859352
 30
0.0
 10
7.410621913
 20
8.5004562342
 30
0.0
 10
7.4103276082
 20
8.5007542214
 30
0.0
 10
7.409925397
 20
8.5011403672
 30
0.0
 10
7.4096671461
 20
8.5013778091
 30
0.0
 10
7.4094947217
 20
8.5015275203
 30
0.0
 10
7.4094310513
 20
8.5015836397
 30
0.0
 10
7.4093051893
 20
8.5016842818
 30
0.0
 10
7.409424136
 20
8.5015940999
 30
0.0
 10
7.4095434792
 20
8.5015092609
 30
0.0
 10
7.4098126941
 20
8.5013206671
 30
0.0
 10
7.4101662529
 20
8.5010863485
 30
0.0
 10
7.4106333685
 20
8.5007899585
 30
0.0
 10
7.4111987201
 20
8.5004501315
 30
0.0
 10
7.4118647036
 20
8.5000716191
 30
0.0
 10
7.4126272663
 20
8.4996641103
 30
0.0
 10
7.4134845273
 20
8.4992360971
 30
0.0
 10
7.414432221
 20
8.4987942151
 30
0.0
 10
7.4158544116
 20
8.4981737704
 30
0.0
 10
7.4178216891
 20
8.4974012138
 30
0.0
 10
7.4203945798
 20
8.4965289335
 30
0.0
 10
7.4232091338
 20
8.495728097
 30
0.0
 10
7.4262288733
 20
8.4950392787
 30
0.0
 10
7.4294164976
 20
8.4944773909
 30
0.0
 10
7.433897625
 20
8.4939114852
 30
0.0
 10
7.4373350556
 20
8.493733751
 30
0.0
 10
7.4396504471
 20
8.493733751
 30
0.0
  0
SPLINE
  5
475
100
AcDbEntity
  8
0
100
AcDbSpline
 62
7
  6
CONTINUOUS
 70
0
 71
3
 72
32
 73
28
 74
0
 42
0.0000001
 43
0.0000001
 44
0.0000000001
 40
0.0
 40
0.0
 40
0.0
 40
0.0
 40
0.1880312514
 40
0.3684331592
 40
0.4545374113
 40
0.5372030898
 40
0.6158909574
 40
0.689869762
 40
0.7582347934
 40
0.8200328207
 40
0.8742752894
 40
0.9199510913
 40
0.9392792197
 40
0.9561255098
 40
0.9703802654
 40
0.9819287868
 40
0.986651145
 40
0.9906518534
 40
0.9939153455
 40
0.996425822
 40
0.9981672843
 40
0.9987446074
 40
0.9991236835
 40
0.9993028154
 40
0.9993338106
 40
0.999563709
 40
1.0
 40
1.0
 40
1.0
 40
1.0
 10
7.4396504471
 20
8.270733751
 30
0.0
 10
7.4376585805
 20
8.270733751
 30
0.0
 10
7.4337538517
 20
8.2705586044
 30
0.0
 10
7.4289729415
 20
8.2699398344
 30
0.0
 10
7.4253411528
 20
8.2692335779
 30
0.0
 10
7.4227907991
 20
8.2686236658
 30
0.0
 10
7.4203942296
 20
8.2679341133
 30
0.0
 10
7.4181742444
 20
8.2671875276
 30
0.0
 10
7.4161540924
 20
8.2664141801
 30
0.0
 10
7.4143587303
 20
8.265642992
 30
0.0
 10
7.4128127274
 20
8.2649039306
 30
0.0
 10
7.4116977283
 20
8.2643090858
 30
0.0
 10
7.4109491758
 20
8.2638713696
 30
0.0
 10
7.4104942654
 20
8.2635912049
 30
0.0
 10
7.410114812
 20
8.2633459509
 30
0.0
 10
7.409846821
 20
8.2631648662
 30
0.0
 10
7.4096707521
 20
8.2630420532
 30
0.0
 10
7.4095671516
 20
8.2629683432
 30
0.0
 10
7.409483526
 20
8.2629080738
 30
0.0
 10
7.4094185702
 20
8.2628600321
 30
0.0
 10
7.4093789026
 20
8.2628316085
 30
0.0
 10
7.4093539888
 20
8.2628121822
 30
0.0
 10
7.4093468788
 20
8.2628087439
 30
0.0
 10
7.4093380472
 20
8.2628002852
 30
0.0
 10
7.4093393797
 20
8.2628055117
 30
0.0
 10
7.4093464169
 20
8.2628089485
 30
0.0
 10
7.4093509343
 20
8.2628143782
 30
0.0
 10
7.4093543953
 20
8.2628174413
 30
0.0
  0
SPLINE
  5
476
100
AcDbEntity
  8
0
100
AcDbSpline
 62
7
  6
CONTINUOUS
 70
0
 71
3
 72
11
 73
7
 74
0
 42
0.0000001
 43
0.0000001
 44
0.0000000001
 40
0.0
 40
0.0
 40
0.0
 40
0.0
 40
0.2159099501
 40
0.460165244
 40
0.7239080659
 40
1.0
 40
1.0
 40
1.0
 40
1.0
 10
7.4626431127
 20
8.266603831
 30
0.0
 10
7.461069467
 20
8.2672206937
 30
0.0
 10
7.4576519119
 20
8.2683785144
 30
0.0
 10
7.4521272511
 20
8.2696782183
 30
0.0
 10
7.4460402761
 20
8.2705288411
 30
0.0
 10
7.441811807
 20
8.270733751
 30
0.0
 10
7.4396504471
 20
8.270733751
 30
0.0
  0
SPLINE
  5
477
100
AcDbEntity
  8
0
100
AcDbSpline
 62
7
  6
CONTINUOUS
 70
0
 71
3
 72
11
 73
7
 74
0
 42
0.0000001
 43
0.0000001
 44
0.0000000001
 40
0.0
 40
0.0
 40
0.0
 40
0.0
 40
0.2767983969
 40
0.5407164446
 40
0.7845899637
 40
1.0
 40
1.0
 40
1.0
 40
1.0
 10
7.4396504471
 20
8.493733751
 30
0.0
 10
7.4418229846
 20
8.493733751
 30
0.0
 10
7.4460695137
 20
8.4939413083
 30
0.0
 10
7.452175106
 20
8.4948012306
 30
0.0
 10
7.4577092992
 20
8.4961013008
 30
0.0
 10
7.4611267378
 20
8.4972680243
 30
0.0
 10
7.4626992448
 20
8.4978890951
 30
0.0
  0
SPLINE
  5
478
100
AcDbEntity
  8
0
100
AcDbSpline
 62
7
  6
CONTINUOUS
 70
0
 71
3
 72
15
 73
11
 74
0
 42
0.0000001
 43
0.0000001
 44
0.0000000001
 40
0.0
 40
0.0
 40
0.0
 40
0.0
 40
0.119353387
 40
0.2391784431
 40
0.36022158
 40
0.4830197919
 40
0.6079973261
 40
0.7356387686
 40
0.8662471331
 40
1.0
 40
1.0
 40
1.0
 40
1.0
 10
7.2993087976
 20
8.1862464583
 30
0.0
 10
7.3049482495
 20
8.1863310051
 30
0.0
 10
7.3162542
 20
8.1873488596
 30
0.0
 10
7.3328560759
 20
8.1913615912
 30
0.0
 10
7.3488628913
 20
8.1977703851
 30
0.0
 10
7.3640604543
 20
8.2064059256
 30
0.0
 10
7.3782608511
 20
8.2171164903
 30
0.0
 10
7.3913349032
 20
8.2297067777
 30
0.0
 10
7.4031731607
 20
8.2440000509
 30
0.0
 10
7.4101068978
 20
8.2544217391
 30
0.0
 10
7.4133484974
 20
8.2598477168
 30
0.0
  0
SPLINE
  5
479
100
AcDbEntity
  8
0
100
AcDbSpline
 62
7
  6
CONTINUOUS
 70
0
 71
3
 72
15
 73
11
 74
0
 42
0.0000001
 43
0.0000001
 44
0.0000000001
 40
0.0
 40
0.0
 40
0.0
 40
0.0
 40
0.1340301221
 40
0.2648137455
 40
0.392524329
 40
0.5174757284
 40
0.6401695104
 40
0.7610710668
 40
0.8807549879
 40
1.0
 40
1.0
 40
1.0
 40
1.0
 10
7.4147064282
 20
8.5023109128
 30
0.0
 10
7.4114349966
 20
8.5079607808
 30
0.0
 10
7.4044115135
 20
8.5188123415
 30
0.0
 10
7.3923438837
 20
8.5336915318
 30
0.0
 10
7.3789572132
 20
8.5467805462
 30
0.0
 10
7.3643688101
 20
8.5578852336
 30
0.0
 10
7.3487189806
 20
8.56679371
 30
0.0
 10
7.3322105403
 20
8.5733369352
 30
0.0
 10
7.3150797975
 20
8.5773322282
 30
0.0
 10
7.3034223829
 20
8.578233751
 30
0.0
 10
7.2976139201
 20
8.578233751
 30
0.0
  0
SPLINE
  5
47A
100
AcDbEntity
  8
0
100
AcDbSpline
 62
7
  6
CONTINUOUS
 70
0
 71
3
 72
12
 73
8
 74
0
 42
0.0000001
 43
0.0000001
 44
0.0000000001
 40
0.0
 40
0.0
 40
0.0
 40
0.0
 40
0.1290481751
 40
0.2578339708
 40
0.5123376491
 40
0.7604459715
 40
1.0
 40
1.0
 40
1.0
 40
1.0
 10
6.4415095877
 20
8.3831602692
 30
0.0
 10
6.4414908789
 20
8.3885827377
 30
0.0
 10
6.4411256754
 20
8.399418787
 30
0.0
 10
6.4391092995
 20
8.4208617519
 30
0.0
 10
6.4342200908
 20
8.4470151882
 30
0.0
 10
6.4246306195
 20
8.4767747579
 30
0.0
 10
6.4157287492
 20
8.495323508
 30
0.0
 10
6.4106978831
 20
8.5040419991
 30
0.0
  0
SPLINE
  5
47B
100
AcDbEntity
  8
0
100
AcDbSpline
 62
7
  6
CONTINUOUS
 70
0
 71
3
 72
17
 73
13
 74
0
 42
0.0000001
 43
0.0000001
 44
0.0000000001
 40
0.0
 40
0.0
 40
0.0
 40
0.0
 40
0.1371266795
 40
0.2700543914
 40
0.3988869745
 40
0.523949067
 40
0.6457991326
 40
0.7057701811
 40
0.7652214381
 40
0.8829310139
 40
0.9414970289
 40
1.0
 40
1.0
 40
1.0
 40
1.0
 10
6.4101240761
 20
8.5050297865
 30
0.0
 10
6.4067969897
 20
8.5107191662
 30
0.0
 10
6.3996754068
 20
8.5216044051
 30
0.0
 10
6.3874698964
 20
8.536440256
 30
0.0
 10
6.3740132455
 20
8.5493377659
 30
0.0
 10
6.3594533974
 20
8.5601087981
 30
0.0
 10
6.3464552246
 20
8.567195054
 30
0.0
 10
6.3357164233
 20
8.5715976371
 30
0.0
 10
6.3248676118
 20
8.5751184193
 30
0.0
 10
6.3137058286
 20
8.5773618086
 30
0.0
 10
6.3024488784
 20
8.57826207
 30
0.0
 10
6.2968145747
 20
8.5782615053
 30
0.0
 10
6.2940049754
 20
8.5781487896
 30
0.0
  0
SPLINE
  5
47C
100
AcDbEntity
  8
0
100
AcDbSpline
 62
7
  6
CONTINUOUS
 70
0
 71
3
 72
17
 73
13
 74
0
 42
0.0000001
 43
0.0000001
 44
0.0000000001
 40
0.0
 40
0.0
 40
0.0
 40
0.0
 40
0.0585152786
 40
0.1170900794
 40
0.1758453621
 40
0.2348930156
 40
0.3542230487
 40
0.4760612145
 40
0.6011102976
 40
0.7299353623
 40
0.8628630702
 40
1.0
 40
1.0
 40
1.0
 40
1.0
 10
6.2936299211
 20
8.1863341121
 30
0.0
 10
6.2964452789
 20
8.1862112703
 30
0.0
 10
6.3020913625
 20
8.1861915721
 30
0.0
 10
6.3105434802
 20
8.1868400027
 30
0.0
 10
6.318944079
 20
8.1881578114
 30
0.0
 10
6.3300633905
 20
8.1908042943
 30
0.0
 10
6.3436994962
 20
8.1957889736
 30
0.0
 10
6.3592519244
 20
8.204228254
 30
0.0
 10
6.373859013
 20
8.2149971494
 30
0.0
 10
6.3873571893
 20
8.2279030198
 30
0.0
 10
6.399600222
 20
8.2427580475
 30
0.0
 10
6.4067426296
 20
8.2536612611
 30
0.0
 10
6.4100791073
 20
8.2593608832
 30
0.0
  0
SPLINE
  5
47D
100
AcDbEntity
  8
0
100
AcDbSpline
 62
7
  6
CONTINUOUS
 70
0
 71
3
 72
12
 73
8
 74
0
 42
0.0000001
 43
0.0000001
 44
0.0000000001
 40
0.0
 40
0.0
 40
0.0
 40
0.0
 40
0.2396713661
 40
0.4877462305
 40
0.7421549403
 40
0.8709197367
 40
1.0
 40
1.0
 40
1.0
 40
1.0
 10
6.4109031448
 20
8.2607821308
 30
0.0
 10
6.4158222592
 20
8.2693482115
 30
0.0
 10
6.4245446517
 20
8.2875466488
 30
0.0
 10
6.4340067299
 20
8.3167150166
 30
0.0
 10
6.4389081428
 20
8.3423389348
 30
0.0
 10
6.4410062639
 20
8.3633559901
 30
0.0
 10
6.4414371545
 20
8.3739820708
 30
0.0
 10
6.4414951874
 20
8.3793017822
 30
0.0
  0
SPLINE
  5
47E
100
AcDbEntity
  8
0
100
AcDbSpline
 62
7
  6
CONTINUOUS
 70
0
 71
3
 72
38
 73
34
 74
0
 42
0.0000001
 43
0.0000001
 44
0.0000000001
 40
0.0
 40
0.0
 40
0.0
 40
0.0
 40
0.0005821271
 40
0.0008800098
 40
0.0009234323
 40
0.0009501228
 40
0.0012112675
 40
0.0017471697
 40
0.0025548361
 40
0.0049737686
 40
0.0084423722
 40
0.0129256377
 40
0.0183869925
 40
0.0247903839
 40
0.0321003359
 40
0.0402819993
 40
0.0591239085
 40
0.0810521766
 40
0.1058158698
 40
0.1331778243
 40
0.1629043602
 40
0.1947628597
 40
0.2285246547
 40
0.3008627535
 40
0.378239086
 40
0.4591285299
 40
0.5420471353
 40
0.6255233173
 40
0.7081345483
 40
0.7884441984
 40
0.8649220463
 40
0.9359833884
 40
1.0
 40
1.0
 40
1.0
 40
1.0
 10
6.4660063841
 20
8.2628393974
 30
0.0
 10
6.4660146825
 20
8.2628325951
 30
0.0
 10
6.4660296318
 20
8.262820625
 30
0.0
 10
6.4660379883
 20
8.2628137825
 30
0.0
 10
6.4660471258
 20
8.262806976
 30
0.0
 10
6.4660408628
 20
8.2628128853
 30
0.0
 10
6.4660312426
 20
8.2628197224
 30
0.0
 10
6.4660063045
 20
8.2628398339
 30
0.0
 10
6.4659521845
 20
8.2628804468
 30
0.0
 10
6.4658516827
 20
8.2629543275
 30
0.0
 10
6.46569562
 20
8.2630636098
 30
0.0
 10
6.4654907753
 20
8.2632025221
 30
0.0
 10
6.4652388217
 20
8.2633676703
 30
0.0
 10
6.4649403593
 20
8.2635570621
 30
0.0
 10
6.4645964049
 20
8.2637681934
 30
0.0
 10
6.4640521134
 20
8.2640911186
 30
0.0
 10
6.463265137
 20
8.2645328345
 30
0.0
 10
6.4621931296
 20
8.2650900329
 30
0.0
 10
6.4609608257
 20
8.2656777916
 30
0.0
 10
6.4595758792
 20
8.2662771178
 30
0.0
 10
6.4580497864
 20
8.266877115
 30
0.0
 10
6.4563938902
 20
8.2674669234
 30
0.0
 10
6.4539719425
 20
8.2682430224
 30
0.0
 10
6.4507020459
 20
8.2691170802
 30
0.0
 10
6.4465259744
 20
8.269927569
 30
0.0
 10
6.4421113275
 20
8.270478028
 30
0.0
 10
6.4375585381
 20
8.2707529592
 30
0.0
 10
6.4329651851
 20
8.2707322127
 30
0.0
 10
6.4284325837
 20
8.2703914784
 30
0.0
 10
6.4240609191
 20
8.2697690305
 30
0.0
 10
6.419946146
 20
8.268914099
 30
0.0
 10
6.4161849526
 20
8.2678734097
 30
0.0
 10
6.4138366745
 20
8.2670388105
 30
0.0
 10
6.4127391438
 20
8.2666054595
 30
0.0
  0
SPLINE
  5
47F
100
AcDbEntity
  8
0
100
AcDbSpline
 62
7
  6
CONTINUOUS
 70
0
 71
3
 72
22
 73
18
 74
0
 42
0.0000001
 43
0.0000001
 44
0.0000000001
 40
0.0
 40
0.0
 40
0.0
 40
0.0
 40
0.0593474746
 40
0.1247109772
 40
0.1947612988
 40
0.2682847984
 40
0.34414028
 40
0.4211868201
 40
0.4983039927
 40
0.5744079729
 40
0.6483804022
 40
0.7190379103
 40
0.7851609394
 40
0.8455056468
 40
0.8987030305
 40
0.9432450553
 40
1.0
 40
1.0
 40
1.0
 40
1.0
 10
6.4129343118
 20
8.4977843415
 30
0.0
 10
6.4139405346
 20
8.4973960196
 30
0.0
 10
6.4160810562
 20
8.4966464647
 30
0.0
 10
6.4194854767
 20
8.4956708914
 30
0.0
 10
6.4231954059
 20
8.4948495881
 30
0.0
 10
6.4271386863
 20
8.4942384549
 30
0.0
 10
6.4312374335
 20
8.4938485104
 30
0.0
 10
6.4354173474
 20
8.4936962281
 30
0.0
 10
6.4396037281
 20
8.493797104
 30
0.0
 10
6.4437191243
 20
8.4941630066
 30
0.0
 10
6.4476888754
 20
8.4947559831
 30
0.0
 10
6.4514397923
 20
8.4955412585
 30
0.0
 10
6.4548990807
 20
8.4964819239
 30
0.0
 10
6.4579891094
 20
8.4975433114
 30
0.0
 10
6.4606473299
 20
8.4986385241
 30
0.0
 10
6.4631784702
 20
8.4998536526
 30
0.0
 10
6.4647813454
 20
8.5007724349
 30
0.0
 10
6.4656262246
 20
8.5013640802
 30
0.0
  0
SPLINE
  5
480
100
AcDbEntity
  8
0
100
AcDbSpline
 62
7
  6
CONTINUOUS
 70
0
 71
3
 72
15
 73
11
 74
0
 42
0.0000001
 43
0.0000001
 44
0.0000000001
 40
0.0
 40
0.0
 40
0.0
 40
0.0
 40
0.1194589323
 40
0.2393238818
 40
0.3603590683
 40
0.4831273597
 40
0.6080628532
 40
0.7356633943
 40
0.8662458324
 40
1.0
 40
1.0
 40
1.0
 40
1.0
 10
6.5777707653
 20
8.578233751
 30
0.0
 10
6.5720862281
 20
8.578233751
 30
0.0
 10
6.5606799245
 20
8.5773706475
 30
0.0
 10
6.5439036741
 20
8.5735441377
 30
0.0
 10
6.527712121
 20
8.5672713706
 30
0.0
 10
6.5123278661
 20
8.5587238839
 30
0.0
 10
6.4979455077
 20
8.5480560718
 30
0.0
 10
6.4847002473
 20
8.5354672622
 30
0.0
 10
6.4727052732
 20
8.5211386681
 30
0.0
 10
6.4656806088
 20
8.5106732408
 30
0.0
 10
6.4623968187
 20
8.5052209731
 30
0.0
  0
SPLINE
  5
481
100
AcDbEntity
  8
0
100
AcDbSpline
 62
7
  6
CONTINUOUS
 70
0
 71
3
 72
15
 73
11
 74
0
 42
0.0000001
 43
0.0000001
 44
0.0000000001
 40
0.0
 40
0.0
 40
0.0
 40
0.0
 40
0.1337281524
 40
0.2642909066
 40
0.3918798841
 40
0.5168126581
 40
0.6395857292
 40
0.7606335584
 40
0.8805211035
 40
1.0
 40
1.0
 40
1.0
 40
1.0
 10
6.4625538885
 20
8.2589862099
 30
0.0
 10
6.4658385488
 20
8.2535517146
 30
0.0
 10
6.4728628442
 20
8.2431210111
 30
0.0
 10
6.4848506575
 20
8.2288419142
 30
0.0
 10
6.4980825712
 20
8.2162979693
 30
0.0
 10
6.5124458373
 20
8.2056693352
 30
0.0
 10
6.5278056428
 20
8.1971538129
 30
0.0
 10
6.5439687417
 20
8.1909050354
 30
0.0
 10
6.5607133823
 20
8.187093689
 30
0.0
 10
6.5720973662
 20
8.186233751
 30
0.0
 10
6.5777707653
 20
8.186233751
 30
0.0
  0
SPLINE
  5
482
100
AcDbEntity
  8
0
100
AcDbSpline
 62
7
  6
CONTINUOUS
 70
0
 71
3
 72
9
 73
5
 74
0
 42
0.0000001
 43
0.0000001
 44
0.0000000001
 40
0.0
 40
0.0
 40
0.0
 40
0.0
 40
0.4831410985
 40
1.0
 40
1.0
 40
1.0
 40
1.0
 10
6.5434801873
 20
8.177233751
 30
0.0
 10
6.5492285808
 20
8.1772337436
 30
0.0
 10
6.5611372875
 20
8.1782385105
 30
0.0
 10
6.5727729971
 20
8.1808901983
 30
0.0
 10
6.5786772888
 20
8.1826096484
 30
0.0
  0
SPLINE
  5
483
100
AcDbEntity
  8
0
100
AcDbSpline
 62
7
  6
CONTINUOUS
 70
0
 71
3
 72
9
 73
5
 74
0
 42
0.0000001
 43
0.0000001
 44
0.0000000001
 40
0.0
 40
0.0
 40
0.0
 40
0.0
 40
0.2453073054
 40
1.0
 40
1.0
 40
1.0
 40
1.0
 10
6.5786772888
 20
8.1826096484
 30
0.0
 10
6.5800766981
 20
8.1830171849
 30
0.0
 10
6.5857578508
 20
8.184758827
 30
0.0
 10
6.5913425918
 20
8.1868115057
 30
0.0
 10
6.5954920072
 20
8.1885115185
 30
0.0
  0
SPLINE
  5
484
100
AcDbEntity
  8
0
100
AcDbSpline
 62
7
  6
CONTINUOUS
 70
0
 71
3
 72
20
 73
16
 74
0
 42
0.0000001
 43
0.0000001
 44
0.0000000001
 40
0.0
 40
0.0
 40
0.0
 40
0.0
 40
0.1148556707
 40
0.234926123
 40
0.2964448776
 40
0.3587109075
 40
0.4848734244
 40
0.5486240394
 40
0.6126646348
 40
0.6769271716
 40
0.7413691068
 40
0.8059325997
 40
0.870608291
 40
0.935341287
 40
1.0
 40
1.0
 40
1.0
 40
1.0
 10
6.6021495137
 20
8.1913916041
 30
0.0
 10
6.6106403665
 20
8.1952590988
 30
0.0
 10
6.6274531948
 20
8.2044255027
 30
0.0
 10
6.6470397826
 20
8.2185386253
 30
0.0
 10
6.6620148467
 20
8.2315230336
 30
0.0
 10
6.6765280148
 20
8.2457360252
 30
0.0
 10
6.6898152671
 20
8.2614148474
 30
0.0
 10
6.701548772
 20
8.2783976496
 30
0.0
 10
6.7095179675
 20
8.291825943
 30
0.0
 10
6.7165148586
 20
8.3058491952
 30
0.0
 10
6.7224322244
 20
8.3204086692
 30
0.0
 10
6.7271759483
 20
8.3354286099
 30
0.0
 10
6.73063545
 20
8.3508217146
 30
0.0
 10
6.7327416315
 20
8.3664645517
 30
0.0
 10
6.7332213194
 20
8.3769812731
 30
0.0
 10
6.7332213194
 20
8.382233751
 30
0.0
  0
SPLINE
  5
485
100
AcDbEntity
  8
0
100
AcDbSpline
 62
7
  6
CONTINUOUS
 70
0
 71
3
 72
18
 73
14
 74
0
 42
0.0000001
 43
0.0000001
 44
0.0000000001
 40
0.0
 40
0.0
 40
0.0
 40
0.0
 40
0.0645200789
 40
0.1291014469
 40
0.1936241396
 40
0.2580499192
 40
0.3223622022
 40
0.3865095728
 40
0.5140513347
 40
0.640137044
 40
0.7639651696
 40
0.8844056964
 40
1.0
 40
1.0
 40
1.0
 40
1.0
 10
6.7332213194
 20
8.382233751
 30
0.0
 10
6.7332213194
 20
8.3873727405
 30
0.0
 10
6.7327633308
 20
8.3976609792
 30
0.0
 10
6.7307479371
 20
8.4129689917
 30
0.0
 10
6.7274313753
 20
8.4280417286
 30
0.0
 10
6.7228847624
 20
8.4427653705
 30
0.0
 10
6.7172051482
 20
8.4570571945
 30
0.0
 10
6.7082570015
 20
8.4753969438
 30
0.0
 10
6.6947472848
 20
8.496903023
 30
0.0
 10
6.6755454667
 20
8.5201331397
 30
0.0
 10
6.6540979347
 20
8.5404889443
 30
0.0
 10
6.6310811472
 20
8.5576756224
 30
0.0
 10
6.6147134222
 20
8.5670471616
 30
0.0
 10
6.6064287772
 20
8.5710638702
 30
0.0
  0
SPLINE
  5
486
100
AcDbEntity
  8
0
100
AcDbSpline
 62
7
  6
CONTINUOUS
 70
0
 71
3
 72
9
 73
5
 74
0
 42
0.0000001
 43
0.0000001
 44
0.0000000001
 40
0.0
 40
0.0
 40
0.0
 40
0.0
 40
0.2546023042
 40
1.0
 40
1.0
 40
1.0
 40
1.0
 10
6.5953315998
 20
8.576021512
 30
0.0
 10
6.5939544476
 20
8.5765842548
 30
0.0
 10
6.5885187657
 20
8.5787284056
 30
0.0
 10
6.5829756367
 20
8.5806029153
 30
0.0
 10
6.5787947636
 20
8.5818238758
 30
0.0
  0
SPLINE
  5
487
100
AcDbEntity
  8
0
100
AcDbSpline
 62
7
  6
CONTINUOUS
 70
0
 71
3
 72
9
 73
5
 74
0
 42
0.0000001
 43
0.0000001
 44
0.0000000001
 40
0.0
 40
0.0
 40
0.0
 40
0.0
 40
0.5169470821
 40
1.0
 40
1.0
 40
1.0
 40
1.0
 10
6.5787947636
 20
8.5818238758
 30
0.0
 10
6.5728706138
 20
8.5835539338
 30
0.0
 10
6.5611964338
 20
8.5862204249
 30
0.0
 10
6.5492472652
 20
8.587233751
 30
0.0
 10
6.5434803122
 20
8.587233751
 30
0.0
  0
SPLINE
  5
488
100
AcDbEntity
  8
0
100
AcDbSpline
 62
7
  6
CONTINUOUS
 70
0
 71
3
 72
9
 73
5
 74
0
 42
0.0000001
 43
0.0000001
 44
0.0000000001
 40
0.0
 40
0.0
 40
0.0
 40
0.0
 40
0.4825956805
 40
1.0
 40
1.0
 40
1.0
 40
1.0
 10
7.3319043817
 20
8.587233751
 30
0.0
 10
7.3259392152
 20
8.587233751
 30
0.0
 10
7.3135669295
 20
8.586151127
 30
0.0
 10
7.3014976874
 20
8.58330568
 30
0.0
 10
7.2953734971
 20
8.5814629338
 30
0.0
  0
SPLINE
  5
489
100
AcDbEntity
  8
0
100
AcDbSpline
 62
7
  6
CONTINUOUS
 70
0
 71
3
 72
9
 73
5
 74
0
 42
0.0000001
 43
0.0000001
 44
0.0000000001
 40
0.0
 40
0.0
 40
0.0
 40
0.0
 40
0.2457101617
 40
1.0
 40
1.0
 40
1.0
 40
1.0
 10
7.2953734971
 20
8.5814629338
 30
0.0
 10
7.2940845468
 20
8.5810750934
 30
0.0
 10
7.2888590975
 20
8.5794294384
 30
0.0
 10
7.2837166363
 20
8.5775226474
 30
0.0
 10
7.279892988
 20
8.5759561094
 30
0.0
  0
SPLINE
  5
48A
100
AcDbEntity
  8
0
100
AcDbSpline
 62
7
  6
CONTINUOUS
 70
0
 71
3
 72
20
 73
16
 74
0
 42
0.0000001
 43
0.0000001
 44
0.0000000001
 40
0.0
 40
0.0
 40
0.0
 40
0.0
 40
0.1148562108
 40
0.2349269197
 40
0.2964457252
 40
0.3587117705
 40
0.484874231
 40
0.5486247848
 40
0.6126653045
 40
0.6769277434
 40
0.7413695659
 40
0.8059329408
 40
0.8706085116
 40
0.9353413936
 40
1.0
 40
1.0
 40
1.0
 40
1.0
 10
7.2732320491
 20
8.5730744748
 30
0.0
 10
7.2647413442
 20
8.5692068659
 30
0.0
 10
7.2479288388
 20
8.5600403046
 30
0.0
 10
7.2283426474
 20
8.5459270983
 30
0.0
 10
7.2133679162
 20
8.532942692
 30
0.0
 10
7.1988550942
 20
8.5187297546
 30
0.0
 10
7.1855681738
 20
8.5030510425
 30
0.0
 10
7.1738349847
 20
8.4860683941
 30
0.0
 10
7.1658660141
 20
8.4726402452
 30
0.0
 10
7.1588693241
 20
8.4586171655
 30
0.0
 10
7.1529521316
 20
8.444057889
 30
0.0
 10
7.1482085496
 20
8.4290381662
 30
0.0
 10
7.1447491524
 20
8.4136452954
 30
0.0
 10
7.1426430378
 20
8.3980027017
 30
0.0
 10
7.1421633658
 20
8.3874861464
 30
0.0
 10
7.1421633658
 20
8.382233751
 30
0.0
  0
SPLINE
  5
48B
100
AcDbEntity
  8
0
100
AcDbSpline
 62
7
  6
CONTINUOUS
 70
0
 71
3
 72
18
 73
14
 74
0
 42
0.0000001
 43
0.0000001
 44
0.0000000001
 40
0.0
 40
0.0
 40
0.0
 40
0.0
 40
0.0645199078
 40
0.1291010993
 40
0.1936236102
 40
0.2580492067
 40
0.3223613146
 40
0.3865085369
 40
0.5140500781
 40
0.640135678
 40
0.7639639
 40
0.8844048327
 40
1.0
 40
1.0
 40
1.0
 40
1.0
 10
7.1421633658
 20
8.382233751
 30
0.0
 10
7.1421633658
 20
8.3770949024
 30
0.0
 10
7.142621329
 20
8.3668069466
 30
0.0
 10
7.1446366126
 20
8.3514993488
 30
0.0
 10
7.147952996
 20
8.3364270093
 30
0.0
 10
7.1524993692
 20
8.3217037387
 30
0.0
 10
7.1581786933
 20
8.3074122535
 30
0.0
 10
7.1671263972
 20
8.2890728996
 30
0.0
 10
7.1806354701
 20
8.2675672082
 30
0.0
 10
7.1998364355
 20
8.2443373826
 30
0.0
 10
7.221283093
 20
8.2239816798
 30
0.0
 10
7.2442990319
 20
8.2067948788
 30
0.0
 10
7.2606661924
 20
8.1974231011
 30
0.0
 10
7.2689505753
 20
8.193406217
 30
0.0
  0
SPLINE
  5
48C
100
AcDbEntity
  8
0
100
AcDbSpline
 62
7
  6
CONTINUOUS
 70
0
 71
3
 72
9
 73
5
 74
0
 42
0.0000001
 43
0.0000001
 44
0.0000000001
 40
0.0
 40
0.0
 40
0.0
 40
0.0
 40
0.2546021816
 40
1.0
 40
1.0
 40
1.0
 40
1.0
 10
7.2800534747
 20
8.1884458317
 30
0.0
 10
7.2814305881
 20
8.1878831085
 30
0.0
 10
7.2868661185
 20
8.1857390299
 30
0.0
 10
7.2924090895
 20
8.1838645777
 30
0.0
 10
7.296589843
 20
8.1826436496
 30
0.0
  0
SPLINE
  5
48D
100
AcDbEntity
  8
0
100
AcDbSpline
 62
7
  6
CONTINUOUS
 70
0
 71
3
 72
9
 73
5
 74
0
 42
0.0000001
 43
0.0000001
 44
0.0000000001
 40
0.0
 40
0.0
 40
0.0
 40
0.0
 40
0.51694707
 40
1.0
 40
1.0
 40
1.0
 40
1.0
 10
7.296589843
 20
8.1826436496
 30
0.0
 10
7.3025139933
 20
8.1809135879
 30
0.0
 10
7.3141881752
 20
8.1782470894
 30
0.0
 10
7.3261373463
 20
8.1772337553
 30
0.0
 10
7.3319043011
 20
8.177233751
 30
0.0
  0
LINE
  5
48E
100
AcDbEntity
  8
0
100
AcDbLine
 62
7
  6
CONTINUOUS
 10
6.7955734222
 20
8.869379183
 11
6.7957730004
 21
8.8695465734
  0
LINE
  5
48F
100
AcDbEntity
  8
0
100
AcDbLine
 62
7
  6
CONTINUOUS
 10
6.7957730004
 20
8.8695465734
 11
6.7967516048
 21
8.8698321786
  0
LINE
  5
490
100
AcDbEntity
  8
0
100
AcDbLine
 62
7
  6
CONTINUOUS
 10
6.7967516048
 20
8.8698321786
 11
6.7973316467
 21
8.8699496131
  0
LINE
  5
491
100
AcDbEntity
  8
0
100
AcDbLine
 62
7
  6
CONTINUOUS
 10
6.7531399595
 20
8.869029111
 11
6.7533135792
 21
8.8692329214
  0
LINE
  5
492
100
AcDbEntity
  8
0
100
AcDbLine
 62
7
  6
CONTINUOUS
 10
6.7533135792
 20
8.8692329214
 11
6.7548208701
 21
8.8697728264
  0
LINE
  5
493
100
AcDbEntity
  8
0
100
AcDbLine
 62
7
  6
CONTINUOUS
 10
6.8163225262
 20
8.8780510533
 11
6.816593766
 21
8.8781526026
  0
LINE
  5
494
100
AcDbEntity
  8
0
100
AcDbLine
 62
7
  6
CONTINUOUS
 10
6.816593766
 20
8.8781526026
 11
6.8188984035
 21
8.8784672415
  0
LINE
  5
495
100
AcDbEntity
  8
0
100
AcDbLine
 62
7
  6
CONTINUOUS
 10
6.9875511184
 20
8.8824319884
 11
6.9899717174
 21
8.8823232857
  0
LINE
  5
496
100
AcDbEntity
  8
0
100
AcDbLine
 62
7
  6
CONTINUOUS
 10
6.9899717174
 20
8.8823232857
 11
6.9903709515
 21
8.8822633572
  0
LINE
  5
497
100
AcDbEntity
  8
0
100
AcDbLine
 62
7
  6
CONTINUOUS
 10
6.884800052
 20
8.88233143
 11
6.8831607819
 21
8.8822616357
  0
LINE
  5
498
100
AcDbEntity
  8
0
100
AcDbLine
 62
7
  6
CONTINUOUS
 10
6.8831607819
 20
8.8822616357
 11
6.8825767877
 21
8.8821981839
  0
LINE
  5
499
100
AcDbEntity
  8
0
100
AcDbLine
 62
7
  6
CONTINUOUS
 10
6.853138446
 20
8.8809267904
 11
6.8566396162
 21
8.8810070341
  0
LINE
  5
49A
100
AcDbEntity
  8
0
100
AcDbLine
 62
7
  6
CONTINUOUS
 10
6.7690580063
 20
8.8740370631
 11
6.7670534074
 21
8.8738164449
  0
LINE
  5
49B
100
AcDbEntity
  8
0
100
AcDbLine
 62
7
  6
CONTINUOUS
 10
6.7549563057
 20
8.8724290248
 11
6.7543939531
 21
8.8723621864
  0
LINE
  5
49C
100
AcDbEntity
  8
0
100
AcDbLine
 62
7
  6
CONTINUOUS
 10
6.7543939531
 20
8.8723621864
 11
6.7527665454
 21
8.8721675871
  0
LINE
  5
49D
100
AcDbEntity
  8
0
100
AcDbLine
 62
7
  6
CONTINUOUS
 10
6.7067967261
 20
8.8659471931
 11
6.7026103108
 21
8.8653109603
  0
LINE
  5
49E
100
AcDbEntity
  8
0
100
AcDbLine
 62
7
  6
CONTINUOUS
 10
7.0196938607
 20
8.8810640625
 11
7.0179806106
 21
8.8811185188
  0
SPLINE
  5
49F
100
AcDbEntity
  8
0
100
AcDbSpline
 62
7
  6
CONTINUOUS
 70
0
 71
3
 72
11
 73
7
 74
0
 42
0.0000001
 43
0.0000001
 44
0.0000000001
 40
0.0
 40
0.0
 40
0.0
 40
0.0
 40
0.2297506864
 40
0.5002294995
 40
0.7708063204
 40
1.0
 40
1.0
 40
1.0
 40
1.0
 10
6.7856250525
 20
8.8700264444
 30
0.0
 10
6.7849823092
 20
8.8699073141
 30
0.0
 10
6.7835744984
 20
8.8696939469
 30
0.0
 10
6.7813962147
 20
8.8694369823
 30
0.0
 10
6.7792124548
 20
8.8692495592
 30
0.0
 10
6.7777917709
 20
8.8691752618
 30
0.0
 10
6.7771397711
 20
8.8691635271
 30
0.0
  0
SPLINE
  5
4A0
100
AcDbEntity
  8
0
100
AcDbSpline
 62
9
  6
CONTINUOUS
 70
0
 71
3
 72
12
 73
8
 74
0
 42
0.0000001
 43
0.0000001
 44
0.0000000001
 40
0.0
 40
0.0
 40
0.0
 40
0.0
 40
0.2364578096
 40
0.4840309999
 40
0.7398209353
 40
0.8697107652
 40
1.0
 40
1.0
 40
1.0
 40
1.0
 10
6.6811944977
 20
8.5127056061
 30
0.0
 10
6.6868581378
 20
8.5037280326
 30
0.0
 10
6.6969274394
 20
8.4843567365
 30
0.0
 10
6.7078379533
 20
8.452885023
 30
0.0
 10
6.7134716802
 20
8.4249287209
 30
0.0
 10
6.71584941
 20
8.401877436
 30
0.0
 10
6.7163110057
 20
8.3901970396
 30
0.0
 10
6.7163556277
 20
8.3843484196
 30
0.0
  0
SPLINE
  5
4A1
100
AcDbEntity
  8
0
100
AcDbSpline
 62
7
  6
CONTINUOUS
 70
0
 71
3
 72
16
 73
12
 74
0
 42
0.0000001
 43
0.0000001
 44
0.0000000001
 40
0.0
 40
0.0
 40
0.0
 40
0.0
 40
0.1249929887
 40
0.1875083547
 40
0.250017025
 40
0.3437454015
 40
0.4374652731
 40
0.6249121888
 40
0.7186258554
 40
0.8124032022
 40
1.0
 40
1.0
 40
1.0
 40
1.0
 10
6.7771397711
 20
8.8691635271
 30
0.0
 10
6.776432343
 20
8.8691507948
 30
0.0
 10
6.7753715621
 20
8.8691094137
 30
0.0
 10
6.7739578592
 20
8.8690436061
 30
0.0
 10
6.7727207662
 20
8.8689894331
 30
0.0
 10
6.7713062606
 20
8.8689477209
 30
0.0
 10
6.7691839644
 20
8.8689520072
 30
0.0
 10
6.7670619042
 20
8.8689920556
 30
0.0
 10
6.7649397534
 20
8.868937075
 30
0.0
 10
6.7628196859
 20
8.8688198686
 30
0.0
 10
6.7612302771
 20
8.8687131331
 30
0.0
 10
6.7601692083
 20
8.8686705849
 30
0.0
  0
SPLINE
  5
4A2
100
AcDbEntity
  8
0
100
AcDbSpline
 62
7
  6
CONTINUOUS
 70
0
 71
3
 72
17
 73
13
 74
0
 42
0.0000001
 43
0.0000001
 44
0.0000000001
 40
0.0
 40
0.0
 40
0.0
 40
0.0
 40
0.4188712755
 40
0.5892485125
 40
0.7307528222
 40
0.7903374297
 40
0.8423686575
 40
0.8867871565
 40
0.9235670626
 40
0.9527574906
 40
0.9746254846
 40
1.0
 40
1.0
 40
1.0
 40
1.0
 10
6.7601692083
 20
8.8686705849
 30
0.0
 10
6.7591752421
 20
8.8686307276
 30
0.0
 10
6.7577761344
 20
8.8685889502
 30
0.0
 10
6.7560405706
 20
8.8685904485
 30
0.0
 10
6.7551585556
 20
8.8686152949
 30
0.0
 10
6.7545584455
 20
8.8686519944
 30
0.0
 10
6.7541893755
 20
8.8686845382
 30
0.0
 10
6.7538749925
 20
8.8687240275
 30
0.0
 10
6.7536175592
 20
8.8687685985
 30
0.0
 10
6.7534126947
 20
8.8688224281
 30
0.0
 10
6.7532496355
 20
8.8688817744
 30
0.0
 10
6.7531400803
 20
8.8689688499
 30
0.0
 10
6.7531399595
 20
8.869029111
 30
0.0
  0
SPLINE
  5
4A3
100
AcDbEntity
  8
0
100
AcDbSpline
 62
7
  6
CONTINUOUS
 70
0
 71
3
 72
19
 73
15
 74
0
 42
0.0000001
 43
0.0000001
 44
0.0000000001
 40
0.0
 40
0.0
 40
0.0
 40
0.0
 40
0.127248802
 40
0.1881225746
 40
0.2474968786
 40
0.305828196
 40
0.3636015922
 40
0.4212859805
 40
0.4793644877
 40
0.5382878125
 40
0.5984344784
 40
0.7235942715
 40
0.8570375571
 40
1.0
 40
1.0
 40
1.0
 40
1.0
 10
6.5434803012
 20
8.587233751
 30
0.0
 10
6.5379162396
 20
8.587233751
 30
0.0
 10
6.5296588644
 20
8.5865540337
 30
0.0
 10
6.5191010857
 20
8.5841166261
 30
0.0
 10
6.5116939937
 20
8.5816002086
 30
0.0
 10
6.5047087437
 20
8.5783928349
 30
0.0
 10
6.4981551965
 20
8.5745194458
 30
0.0
 10
6.4920424125
 20
8.5700018072
 30
0.0
 10
6.486370571
 20
8.5648681274
 30
0.0
 10
6.4811318213
 20
8.5591477663
 30
0.0
 10
6.4746272216
 20
8.5506635513
 30
0.0
 10
6.4675329657
 20
8.5386011367
 30
0.0
 10
6.4606739801
 20
8.5223981299
 30
0.0
 10
6.4571380383
 20
8.5108197328
 30
0.0
 10
6.4555493115
 20
8.5047738357
 30
0.0
  0
SPLINE
  5
4A4
100
AcDbEntity
  8
0
100
AcDbSpline
 62
7
  6
CONTINUOUS
 70
0
 71
3
 72
18
 73
14
 74
0
 42
0.0000001
 43
0.0000001
 44
0.0000000001
 40
0.0
 40
0.0
 40
0.0
 40
0.0
 40
0.1428638966
 40
0.2762475099
 40
0.4013859506
 40
0.5203471473
 40
0.5784379005
 40
0.6361539521
 40
0.6939589782
 40
0.7523270875
 40
0.8117569564
 40
0.8726857231
 40
1.0
 40
1.0
 40
1.0
 40
1.0
 10
6.4556226529
 20
8.2594149571
 30
0.0
 10
6.457214059
 20
8.2533891456
 30
0.0
 10
6.4607545751
 20
8.2418493386
 30
0.0
 10
6.467618945
 20
8.2256978655
 30
0.0
 10
6.4760151842
 20
8.2114664946
 30
0.0
 10
6.4845005266
 20
8.2012793814
 30
0.0
 10
6.4921137712
 20
8.1944072794
 30
0.0
 10
6.4982212357
 20
8.189906072
 30
0.0
 10
6.5047664521
 20
8.1860449484
 30
0.0
 10
6.5117426811
 20
8.1828473624
 30
0.0
 10
6.519140897
 20
8.1803410457
 30
0.0
 10
6.5296827928
 20
8.1779126816
 30
0.0
 10
6.537926109
 20
8.1772337581
 30
0.0
 10
6.5434801728
 20
8.177233751
 30
0.0
  0
SPLINE
  5
4A5
100
AcDbEntity
  8
0
100
AcDbSpline
 62
7
  6
CONTINUOUS
 70
0
 71
3
 72
9
 73
5
 74
0
 42
0.0000001
 43
0.0000001
 44
0.0000000001
 40
0.0
 40
0.0
 40
0.0
 40
0.0
 40
0.4955089022
 40
1.0
 40
1.0
 40
1.0
 40
1.0
 10
6.5722777631
 20
8.180121448
 30
0.0
 10
6.5683510834
 20
8.1810621541
 30
0.0
 10
6.5605285353
 20
8.1834122626
 30
0.0
 10
6.5530121357
 20
8.1866043441
 30
0.0
 10
6.5493161876
 20
8.1884043856
 30
0.0
  0
SPLINE
  5
4A6
100
AcDbEntity
  8
0
100
AcDbSpline
 62
7
  6
CONTINUOUS
 70
0
 71
3
 72
9
 73
5
 74
0
 42
0.0000001
 43
0.0000001
 44
0.0000000001
 40
0.0
 40
0.0
 40
0.0
 40
0.0
 40
0.5045161285
 40
1.0
 40
1.0
 40
1.0
 40
1.0
 10
6.5493471067
 20
8.5760781268
 30
0.0
 10
6.5530738096
 20
8.5778918324
 30
0.0
 10
6.5606539158
 20
8.5811045595
 30
0.0
 10
6.5685444123
 20
8.5834604696
 30
0.0
 10
6.5725048793
 20
8.5844001433
 30
0.0
  0
SPLINE
  5
4A7
100
AcDbEntity
  8
0
100
AcDbSpline
 62
9
  6
CONTINUOUS
 70
0
 71
3
 72
12
 73
8
 74
0
 42
0.0000001
 43
0.0000001
 44
0.0000000001
 40
0.0
 40
0.0
 40
0.0
 40
0.0
 40
0.1302910143
 40
0.2602239261
 40
0.5161220906
 40
0.763727444
 40
1.0
 40
1.0
 40
1.0
 40
1.0
 10
6.7163636945
 20
8.382233751
 30
0.0
 10
6.7163636945
 20
8.3762674822
 30
0.0
 10
6.7159761147
 20
8.3643471909
 30
0.0
 10
6.7136865076
 20
8.3408121119
 30
0.0
 10
6.7080522476
 20
8.3122601443
 30
0.0
 10
6.69697335
 20
8.2801374618
 30
0.0
 10
6.6866780695
 20
8.2603926931
 30
0.0
 10
6.6808767203
 20
8.2512601726
 30
0.0
  0
SPLINE
  5
4A8
100
AcDbEntity
  8
0
100
AcDbSpline
 62
9
  6
CONTINUOUS
 70
0
 71
3
 72
28
 73
24
 74
0
 42
0.0000001
 43
0.0000001
 44
0.0000000001
 40
0.0
 40
0.0
 40
0.0
 40
0.0
 40
0.0753575754
 40
0.150054716
 40
0.2232725892
 40
0.2944368647
 40
0.3630462283
 40
0.3962853437
 40
0.4287657816
 40
0.4913658154
 40
0.5509576028
 40
0.6078740126
 40
0.6355399979
 40
0.662786364
 40
0.6897274222
 40
0.7164855635
 40
0.7431891326
 40
0.7699698495
 40
0.7969550233
 40
0.8242660123
 40
0.8802405694
 40
0.9386684815
 40
1.0
 40
1.0
 40
1.0
 40
1.0
 10
6.6941024896
 20
8.382233751
 30
0.0
 10
6.6941024896
 20
8.3909340457
 30
0.0
 10
6.6932432671
 20
8.4082706109
 30
0.0
 10
6.6894143945
 20
8.4338042193
 30
0.0
 10
6.68310383
 20
8.458347064
 30
0.0
 10
6.6744376417
 20
8.481411748
 30
0.0
 10
6.6652948956
 20
8.4992308296
 30
0.0
 10
6.6569343023
 20
8.5123048885
 30
0.0
 10
6.648152296
 20
8.5242467804
 30
0.0
 10
6.6361231149
 20
8.5375343505
 30
0.0
 10
6.620035142
 20
8.5506576338
 30
0.0
 10
6.6054824097
 20
8.5589295345
 30
0.0
 10
6.5934757791
 20
8.5637200502
 30
0.0
 10
6.5843936391
 20
8.5663852183
 30
0.0
 10
6.5752000421
 20
8.5681427109
 30
0.0
 10
6.5659404636
 20
8.5689862638
 30
0.0
 10
6.5566611834
 20
8.5689063075
 30
0.0
 10
6.5474098688
 20
8.5679044855
 30
0.0
 10
6.5382316753
 20
8.5659896683
 30
0.0
 10
6.526060361
 20
8.5621997301
 30
0.0
 10
6.5111921925
 20
8.5551367137
 30
0.0
 10
6.494574223
 20
8.5433471678
 30
0.0
 10
6.4846467735
 20
8.5336355085
 30
0.0
 10
6.4799415077
 20
8.5283439917
 30
0.0
  0
SPLINE
  5
4A9
100
AcDbEntity
  8
0
100
AcDbSpline
 62
9
  6
CONTINUOUS
 70
0
 71
3
 72
9
 73
5
 74
0
 42
0.0000001
 43
0.0000001
 44
0.0000000001
 40
0.0
 40
0.0
 40
0.0
 40
0.0
 40
0.2444247305
 40
1.0
 40
1.0
 40
1.0
 40
1.0
 10
6.4790661645
 20
8.5273509329
 30
0.0
 10
6.4775154371
 20
8.5255762349
 30
0.0
 10
6.4713387625
 20
8.5181698809
 30
0.0
 10
6.4658286673
 20
8.5102139257
 30
0.0
 10
6.4620415333
 20
8.5039903218
 30
0.0
  0
SPLINE
  5
4AA
100
AcDbEntity
  8
0
100
AcDbSpline
 62
7
  6
CONTINUOUS
 70
0
 71
3
 72
19
 73
15
 74
0
 42
0.0000001
 43
0.0000001
 44
0.0000000001
 40
0.0
 40
0.0
 40
0.0
 40
0.0
 40
0.0718367915
 40
0.1434703443
 40
0.2845002572
 40
0.4208652215
 40
0.5508617792
 40
0.6131430751
 40
0.6734842324
 40
0.7882928062
 40
0.8431325639
 40
0.8964901784
 40
0.9486590606
 40
1.0
 40
1.0
 40
1.0
 40
1.0
 10
6.4226293214
 20
8.382233751
 30
0.0
 10
6.4226293214
 20
8.3764144047
 30
0.0
 10
6.422247123
 20
8.364788055
 30
0.0
 10
6.4199897841
 20
8.3418399807
 30
0.0
 10
6.4144373618
 20
8.314019377
 30
0.0
 10
6.4035208112
 20
8.282761392
 30
0.0
 10
6.3910134745
 20
8.2591179343
 30
0.0
 10
6.3791934595
 20
8.2423809157
 30
0.0
 10
6.3667242847
 20
8.2277140738
 30
0.0
 10
6.3526581774
 20
8.2152589375
 30
0.0
 10
6.3373086195
 20
8.2056712658
 30
0.0
 10
6.3255411589
 20
8.2000923111
 30
0.0
 10
6.3134519178
 20
8.1960770468
 30
0.0
 10
6.3051963678
 20
8.1944594481
 30
0.0
 10
6.3010715831
 20
8.1939269028
 30
0.0
  0
SPLINE
  5
4AB
100
AcDbEntity
  8
0
100
AcDbSpline
 62
7
  6
CONTINUOUS
 70
0
 71
3
 72
19
 73
15
 74
0
 42
0.0000001
 43
0.0000001
 44
0.0000000001
 40
0.0
 40
0.0
 40
0.0
 40
0.0
 40
0.0513404232
 40
0.1035157628
 40
0.1568840162
 40
0.2117370324
 40
0.3265723777
 40
0.3869241461
 40
0.4492125411
 40
0.5792124487
 40
0.7155633744
 40
0.8565671853
 40
0.9281829456
 40
1.0
 40
1.0
 40
1.0
 40
1.0
 10
6.3013565023
 20
8.5705033393
 30
0.0
 10
6.3054747785
 20
8.5699591351
 30
0.0
 10
6.3137163339
 20
8.5683198
 30
0.0
 10
6.3257817898
 20
8.5642769262
 30
0.0
 10
6.3375247537
 20
8.5586768392
 30
0.0
 10
6.3528398762
 20
8.5490669222
 30
0.0
 10
6.3668724019
 20
8.5366022677
 30
0.0
 10
6.3793103505
 20
8.5219340319
 30
0.0
 10
6.3911000027
 20
8.5052032213
 30
0.0
 10
6.4035734862
 20
8.4815783846
 30
0.0
 10
6.41446037
 20
8.4503549506
 30
0.0
 10
6.4199972583
 20
8.4225704203
 30
0.0
 10
6.4222482034
 20
8.399654239
 30
0.0
 10
6.4226293214
 20
8.3880446417
 30
0.0
 10
6.4226293214
 20
8.382233751
 30
0.0
  0
SPLINE
  5
4AC
100
AcDbEntity
  8
0
100
AcDbSpline
 62
9
  6
CONTINUOUS
 70
0
 71
3
 72
18
 73
14
 74
0
 42
0.0000001
 43
0.0000001
 44
0.0000000001
 40
0.0
 40
0.0
 40
0.0
 40
0.0
 40
0.1391220611
 40
0.2766770301
 40
0.4109117421
 40
0.4764168065
 40
0.5406344753
 40
0.6646564167
 40
0.7824418811
 40
0.8390076958
 40
0.8940531768
 40
0.9476695714
 40
1.0
 40
1.0
 40
1.0
 40
1.0
 10
6.416833053
 20
8.382233751
 30
0.0
 10
6.416833053
 20
8.3916044437
 30
0.0
 10
6.4158070496
 20
8.410257073
 30
0.0
 10
6.4112340048
 20
8.4376086389
 30
0.0
 10
6.40492075
 20
8.4594944468
 30
0.0
 10
6.3984315808
 20
8.4760582331
 30
0.0
 10
6.3911980676
 20
8.4915539854
 30
0.0
 10
6.3806546942
 20
8.5093447002
 30
0.0
 10
6.3679531981
 20
8.5250323621
 30
0.0
 10
6.356810568
 20
8.5357598356
 30
0.0
 10
6.3481499518
 20
8.5427730485
 30
0.0
 10
6.3391248195
 20
8.5488109813
 30
0.0
 10
6.3328296053
 20
8.5522004254
 30
0.0
 10
6.3296457881
 20
8.5537127963
 30
0.0
  0
SPLINE
  5
4AD
100
AcDbEntity
  8
0
100
AcDbSpline
 62
9
  6
CONTINUOUS
 70
0
 71
3
 72
9
 73
5
 74
0
 42
0.0000001
 43
0.0000001
 44
0.0000000001
 40
0.0
 40
0.0
 40
0.0
 40
0.0
 40
0.50441824
 40
1.0
 40
1.0
 40
1.0
 40
1.0
 10
6.3296457881
 20
8.5537127963
 30
0.0
 10
6.326457666
 20
8.5552272122
 30
0.0
 10
6.3199806775
 20
8.5579121764
 30
0.0
 10
6.3132524129
 20
8.5598898202
 30
0.0
 10
6.3098764695
 20
8.5606822466
 30
0.0
  0
SPLINE
  5
4AE
100
AcDbEntity
  8
0
100
AcDbSpline
 62
9
  6
CONTINUOUS
 70
0
 71
3
 72
9
 73
5
 74
0
 42
0.0000001
 43
0.0000001
 44
0.0000000001
 40
0.0
 40
0.0
 40
0.0
 40
0.0
 40
0.4955658057
 40
1.0
 40
1.0
 40
1.0
 40
1.0
 10
6.3096521007
 20
8.2037328222
 30
0.0
 10
6.3130550614
 20
8.2045227938
 30
0.0
 10
6.3198376716
 20
8.2065019207
 30
0.0
 10
6.326366184
 20
8.2091997329
 30
0.0
 10
6.3295792782
 20
8.2107231929
 30
0.0
  0
SPLINE
  5
4AF
100
AcDbEntity
  8
0
100
AcDbSpline
 62
9
  6
CONTINUOUS
 70
0
 71
3
 72
18
 73
14
 74
0
 42
0.0000001
 43
0.0000001
 44
0.0000000001
 40
0.0
 40
0.0
 40
0.0
 40
0.0
 40
0.0523246344
 40
0.10593526
 40
0.1609749294
 40
0.217535391
 40
0.3353140588
 40
0.4593346389
 40
0.5235533804
 40
0.5890604536
 40
0.7233029368
 40
0.8608687415
 40
1.0
 40
1.0
 40
1.0
 40
1.0
 10
6.3295792782
 20
8.2107231929
 30
0.0
 10
6.332764981
 20
8.2122336654
 30
0.0
 10
6.3390641412
 20
8.2156196686
 30
0.0
 10
6.3480950187
 20
8.2216540348
 30
0.0
 10
6.3567617118
 20
8.2286643731
 30
0.0
 10
6.3679126182
 20
8.2393896468
 30
0.0
 10
6.3806240007
 20
8.2550777313
 30
0.0
 10
6.3911758293
 20
8.2728716915
 30
0.0
 10
6.3984155
 20
8.2883715608
 30
0.0
 10
6.4049103786
 20
8.3049408498
 30
0.0
 10
6.4112291017
 20
8.3268352079
 30
0.0
 10
6.4158061192
 20
8.3541982683
 30
0.0
 10
6.416833053
 20
8.3728590357
 30
0.0
 10
6.416833053
 20
8.382233751
 30
0.0
  0
SPLINE
  5
4B0
100
AcDbEntity
  8
0
100
AcDbSpline
 62
9
  6
CONTINUOUS
 70
0
 71
3
 72
13
 73
9
 74
0
 42
0.0000001
 43
0.0000001
 44
0.0000000001
 40
0.0
 40
0.0
 40
0.0
 40
0.0
 40
0.1312129435
 40
0.261965392
 40
0.5187445881
 40
0.6438278927
 40
0.7660283771
 40
1.0
 40
1.0
 40
1.0
 40
1.0
 10
6.3897624204
 20
8.382233751
 30
0.0
 10
6.3897624204
 20
8.3877823464
 30
0.0
 10
6.389371092
 20
8.3988648525
 30
0.0
 10
6.3870629438
 20
8.4206910873
 30
0.0
 10
6.3824855449
 20
8.4419746945
 30
0.0
 10
6.3756478544
 20
8.462184301
 30
0.0
 10
6.3676196014
 20
8.4808984079
 30
0.0
 10
6.3599796294
 20
8.4939973798
 30
0.0
 10
6.3541935156
 20
8.5020230306
 30
0.0
  0
SPLINE
  5
4B1
100
AcDbEntity
  8
0
100
AcDbSpline
 62
9
  6
CONTINUOUS
 70
0
 71
3
 72
10
 73
6
 74
0
 42
0.0000001
 43
0.0000001
 44
0.0000000001
 40
0.0
 40
0.0
 40
0.0
 40
0.0
 40
0.2559334653
 40
0.5096544517
 40
1.0
 40
1.0
 40
1.0
 40
1.0
 10
6.3723607061
 20
8.382233751
 30
0.0
 10
6.3723607061
 20
8.3719168185
 30
0.0
 10
6.3713592269
 20
8.3513530853
 30
0.0
 10
6.3654815456
 20
8.3114398828
 30
0.0
 10
6.356672128
 20
8.2824581194
 30
0.0
 10
6.3487982663
 20
8.2643277697
 30
0.0
  0
SPLINE
  5
4B2
100
AcDbEntity
  8
0
100
AcDbSpline
 62
9
  6
CONTINUOUS
 70
0
 71
3
 72
9
 73
5
 74
0
 42
0.0000001
 43
0.0000001
 44
0.0000000001
 40
0.0
 40
0.0
 40
0.0
 40
0.0
 40
0.2569919022
 40
1.0
 40
1.0
 40
1.0
 40
1.0
 10
6.3487982663
 20
8.2643277697
 30
0.0
 10
6.3471152442
 20
8.2604524439
 30
0.0
 10
6.3401955261
 20
8.2455387732
 30
0.0
 10
6.3317504167
 20
8.2313161451
 30
0.0
 10
6.3246072591
 20
8.2214071938
 30
0.0
  0
SPLINE
  5
4B3
100
AcDbEntity
  8
0
100
AcDbSpline
 62
7
  6
CONTINUOUS
 70
0
 71
3
 72
16
 73
12
 74
0
 42
0.0000001
 43
0.0000001
 44
0.0000000001
 40
0.0
 40
0.0
 40
0.0
 40
0.0
 40
0.1250545582
 40
0.1875983119
 40
0.2501245893
 40
0.3438555483
 40
0.4375639409
 40
0.6250198971
 40
0.7187384359
 40
0.8124945268
 40
1.0
 40
1.0
 40
1.0
 40
1.0
 10
6.7601692083
 20
8.8676610982
 30
0.0
 10
6.760876531
 20
8.86768948
 30
0.0
 10
6.7619367618
 20
8.8677514379
 30
0.0
 10
6.7633499156
 20
8.8678388279
 30
0.0
 10
6.7645865169
 20
8.8679084528
 30
0.0
 10
6.7660006984
 20
8.8679628663
 30
0.0
 10
6.7681231005
 20
8.8679687469
 30
0.0
 10
6.770245004
 20
8.8679257413
 30
0.0
 10
6.7723673652
 20
8.867964714
 30
0.0
 10
6.7744879775
 20
8.8680570444
 30
0.0
 10
6.7760785377
 20
8.8681352517
 30
0.0
 10
6.7771397711
 20
8.8681543644
 30
0.0
  0
SPLINE
  5
4B4
100
AcDbEntity
  8
0
100
AcDbSpline
 62
7
  6
CONTINUOUS
 70
0
 71
3
 72
11
 73
7
 74
0
 42
0.0000001
 43
0.0000001
 44
0.0000000001
 40
0.0
 40
0.0
 40
0.0
 40
0.0
 40
0.2179165578
 40
0.4740430257
 40
0.7434661999
 40
1.0
 40
1.0
 40
1.0
 40
1.0
 10
6.8809130639
 20
8.8772240201
 30
0.0
 10
6.8829311041
 20
8.8771534377
 30
0.0
 10
6.8873239812
 20
8.8770868471
 30
0.0
 10
6.894213307
 20
8.8771340787
 30
0.0
 10
6.901458327
 20
8.8773200659
 30
0.0
 10
6.9063276282
 20
8.8775357352
 30
0.0
 10
6.9087009647
 20
8.8776696584
 30
0.0
  0
SPLINE
  5
4B5
100
AcDbEntity
  8
0
100
AcDbSpline
 62
9
  6
CONTINUOUS
 70
0
 71
3
 72
16
 73
12
 74
0
 42
0.0000001
 43
0.0000001
 44
0.0000000001
 40
0.0
 40
0.0
 40
0.0
 40
0.0
 40
0.1152660573
 40
0.2362055288
 40
0.3616939915
 40
0.4257189758
 40
0.4902992875
 40
0.6201824971
 40
0.7495866929
 40
0.8767312603
 40
1.0
 40
1.0
 40
1.0
 40
1.0
 10
7.5507775634
 20
8.2214073915
 30
0.0
 10
7.5442467953
 20
8.2304646037
 30
0.0
 10
7.5323655604
 20
8.2501420215
 30
0.0
 10
7.5186601137
 20
8.2824959703
 30
0.0
 10
7.5106149924
 20
8.3115664904
 30
0.0
 10
7.5062546081
 20
8.335804558
 30
0.0
 10
7.5033147426
 20
8.3606855109
 30
0.0
 10
7.5024350684
 20
8.3921269367
 30
0.0
 10
7.505811172
 20
8.4294974753
 30
0.0
 10
7.5135241131
 20
8.4655640553
 30
0.0
 10
7.5215804174
 20
8.4885342381
 30
0.0
 10
7.5263085033
 20
8.4994997905
 30
0.0
  0
SPLINE
  5
4B6
100
AcDbEntity
  8
0
100
AcDbSpline
 62
9
  6
CONTINUOUS
 70
0
 71
3
 72
9
 73
5
 74
0
 42
0.0000001
 43
0.0000001
 44
0.0000000001
 40
0.0
 40
0.0
 40
0.0
 40
0.0
 40
0.2570611322
 40
1.0
 40
1.0
 40
1.0
 40
1.0
 10
7.5263085033
 20
8.4994997905
 30
0.0
 10
7.528005408
 20
8.5034353149
 30
0.0
 10
7.5349887959
 20
8.5185749832
 30
0.0
 10
7.543533128
 20
8.5330131471
 30
0.0
 10
7.5507775634
 20
8.5430601105
 30
0.0
  0
LINE
  5
4B7
100
AcDbEntity
  8
0
100
AcDbLine
 62
7
  6
CONTINUOUS
 10
6.795573455
 20
8.8683701647
 11
6.7957809054
 21
8.8682358195
  0
LINE
  5
4B8
100
AcDbEntity
  8
0
100
AcDbLine
 62
7
  6
CONTINUOUS
 10
6.7957809054
 20
8.8682358195
 11
6.7973316467
 21
8.86811087
  0
LINE
  5
4B9
100
AcDbEntity
  8
0
100
AcDbLine
 62
7
  6
CONTINUOUS
 10
6.8596581158
 20
8.8733860918
 11
6.8594254453
 21
8.873032902
  0
SPLINE
  5
4BA
100
AcDbEntity
  8
0
100
AcDbSpline
 62
7
  6
CONTINUOUS
 70
0
 71
3
 72
11
 73
7
 74
0
 42
0.0000001
 43
0.0000001
 44
0.0000000001
 40
0.0
 40
0.0
 40
0.0
 40
0.0
 40
0.1653426726
 40
0.3871199997
 40
0.6656576547
 40
1.0
 40
1.0
 40
1.0
 40
1.0
 10
6.8594254453
 20
8.873032902
 30
0.0
 10
6.8593159953
 20
8.872946822
 30
0.0
 10
6.8590317608
 20
8.8727822865
 30
0.0
 10
6.8585163737
 20
8.8725613573
 30
0.0
 10
6.8578506075
 20
8.8723338259
 30
0.0
 10
6.8573542065
 20
8.8721920195
 30
0.0
 10
6.8570821697
 20
8.8721193766
 30
0.0
  0
SPLINE
  5
4BB
100
AcDbEntity
  8
0
100
AcDbSpline
 62
9
  6
CONTINUOUS
 70
0
 71
3
 72
21
 73
17
 74
0
 42
0.0000001
 43
0.0000001
 44
0.0000000001
 40
0.0
 40
0.0
 40
0.0
 40
0.0
 40
0.1169622274
 40
0.1780514929
 40
0.2405914347
 40
0.3043427364
 40
0.3690286
 40
0.4343532946
 40
0.5
 40
0.5656467054
 40
0.6309714
 40
0.6956572636
 40
0.7594085653
 40
0.8219485071
 40
0.8830377726
 40
1.0
 40
1.0
 40
1.0
 40
1.0
 10
7.5211911632
 20
8.5020230402
 30
0.0
 10
7.5154052707
 20
8.4939975653
 30
0.0
 10
7.5077650769
 20
8.4808986687
 30
0.0
 10
7.4997366785
 20
8.4621852526
 30
0.0
 10
7.4946517763
 20
8.4471536772
 30
0.0
 10
7.4906466768
 20
8.4314887958
 30
0.0
 10
7.4877556471
 20
8.4153410089
 30
0.0
 10
7.4860124481
 20
8.3988687945
 30
0.0
 10
7.4854266939
 20
8.382233751
 30
0.0
 10
7.4860124481
 20
8.3655987075
 30
0.0
 10
7.4877556471
 20
8.3491264931
 30
0.0
 10
7.4906466768
 20
8.3329787062
 30
0.0
 10
7.4946517763
 20
8.3173138248
 30
0.0
 10
7.4997366785
 20
8.3022822494
 30
0.0
 10
7.5077650769
 20
8.2835688333
 30
0.0
 10
7.5154052707
 20
8.2704699367
 30
0.0
 10
7.5211911632
 20
8.2624444618
 30
0.0
  0
LINE
  5
4BC
100
AcDbEntity
  8
0
100
AcDbLine
 62
7
  6
CONTINUOUS
 10
6.8594228425
 20
8.872024228
 11
6.8596580839
 21
8.8723796942
  0
SPLINE
  5
4BD
100
AcDbEntity
  8
0
100
AcDbSpline
 62
7
  6
CONTINUOUS
 70
0
 71
3
 72
14
 73
10
 74
0
 42
0.0000001
 43
0.0000001
 44
0.0000000001
 40
0.0
 40
0.0
 40
0.0
 40
0.0
 40
0.0852944846
 40
0.1657790937
 40
0.2749244781
 40
0.4131270307
 40
0.5802594549
 40
0.7760145285
 40
1.0
 40
1.0
 40
1.0
 40
1.0
 10
6.7531399526
 20
8.8680198604
 30
0.0
 10
6.7531401171
 20
8.8679388979
 30
0.0
 10
6.7533201739
 20
8.86783824
 30
0.0
 10
6.753554449
 20
8.8677733793
 30
0.0
 10
6.7538670333
 20
8.8677137029
 30
0.0
 10
6.754255386
 20
8.8676676508
 30
0.0
 10
6.7547304947
 20
8.8676297447
 30
0.0
 10
6.7552866582
 20
8.8676026109
 30
0.0
 10
6.7556850508
 20
8.8675920792
 30
0.0
 10
6.7558976266
 20
8.8675882672
 30
0.0
  0
LINE
  5
4BE
100
AcDbEntity
  8
0
100
AcDbLine
 62
7
  6
CONTINUOUS
 10
6.7558976266
 20
8.8675882672
 11
6.7601692083
 21
8.8676610982
  0
SPLINE
  5
4BF
100
AcDbEntity
  8
0
100
AcDbSpline
 62
7
  6
CONTINUOUS
 70
0
 71
3
 72
19
 73
15
 74
0
 42
0.0000001
 43
0.0000001
 44
0.0000000001
 40
0.0
 40
0.0
 40
0.0
 40
0.0
 40
0.1273279136
 40
0.1882457464
 40
0.2476642424
 40
0.3060365614
 40
0.3638454458
 40
0.4215574114
 40
0.4796528885
 40
0.5385816791
 40
0.59872208
 40
0.7238309549
 40
0.8571762309
 40
1.0
 40
1.0
 40
1.0
 40
1.0
 10
7.3319042927
 20
8.177233751
 30
0.0
 10
7.337452917
 20
8.1772337469
 30
0.0
 10
7.3456874468
 20
8.1779096967
 30
0.0
 10
7.35621811
 20
8.1803331059
 30
0.0
 10
7.3636078887
 20
8.1828351984
 30
0.0
 10
7.3705784066
 20
8.1860245588
 30
0.0
 10
7.3771198463
 20
8.1898764122
 30
0.0
 10
7.3832231899
 20
8.1943691754
 30
0.0
 10
7.3888880401
 20
8.1994750581
 30
0.0
 10
7.3941221194
 20
8.2051648946
 30
0.0
 10
7.4006227448
 20
8.2136035303
 30
0.0
 10
7.4077176686
 20
8.2256025622
 30
0.0
 10
7.4145842609
 20
8.2417239506
 30
0.0
 10
7.4181284457
 20
8.2532461376
 30
0.0
 10
7.4197216719
 20
8.2592626555
 30
0.0
  0
SPLINE
  5
4C0
100
AcDbEntity
  8
0
100
AcDbSpline
 62
7
  6
CONTINUOUS
 70
0
 71
3
 72
18
 73
14
 74
0
 42
0.0000001
 43
0.0000001
 44
0.0000000001
 40
0.0
 40
0.0
 40
0.0
 40
0.0
 40
0.1433947963
 40
0.2771563667
 40
0.402490622
 40
0.5214574286
 40
0.5794827714
 40
0.6370929208
 40
0.6947620415
 40
0.7529721039
 40
0.8122311082
 40
0.8729904982
 40
1.0
 40
1.0
 40
1.0
 40
1.0
 10
7.4201952978
 20
8.5033875189
 30
0.0
 10
7.4186213962
 20
8.5095266992
 30
0.0
 10
7.4151129403
 20
8.5212834626
 30
0.0
 10
7.4082785296
 20
8.5377500466
 30
0.0
 10
7.3998893109
 20
8.5522662375
 30
0.0
 10
7.3913798558
 20
8.5626677675
 30
0.0
 10
7.3837280861
 20
8.5696870659
 30
0.0
 10
7.3775845295
 20
8.5742843497
 30
0.0
 10
7.3709929365
 20
8.5782286937
 30
0.0
 10
7.3639602407
 20
8.58149603
 30
0.0
 10
7.356495511
 20
8.5840578397
 30
0.0
 10
7.3458492344
 20
8.5865402205
 30
0.0
 10
7.3375179014
 20
8.587233751
 30
0.0
 10
7.3319043732
 20
8.587233751
 30
0.0
  0
LINE
  5
4C1
100
AcDbEntity
  8
0
100
AcDbLine
 62
7
  6
CONTINUOUS
 10
6.8128382561
 20
8.874750213
 11
6.8110808966
 21
8.8743171374
  0
LINE
  5
4C2
100
AcDbEntity
  8
0
100
AcDbLine
 62
7
  6
CONTINUOUS
 10
6.816322605
 20
8.8770477109
 11
6.8166275333
 21
8.8769773873
  0
LINE
  5
4C3
100
AcDbEntity
  8
0
100
AcDbLine
 62
7
  6
CONTINUOUS
 10
6.8166275333
 20
8.8769773873
 11
6.8189444531
 21
8.8769568827
  0
LINE
  5
4C4
100
AcDbEntity
  8
0
100
AcDbLine
 62
7
  6
CONTINUOUS
 10
6.8189444531
 20
8.8769568827
 11
6.8233517806
 21
8.8770922749
  0
SPLINE
  5
4C5
100
AcDbEntity
  8
0
100
AcDbSpline
 62
7
  6
CONTINUOUS
 70
0
 71
3
 72
11
 73
7
 74
0
 42
0.0000001
 43
0.0000001
 44
0.0000000001
 40
0.0
 40
0.0
 40
0.0
 40
0.0
 40
0.2291943107
 40
0.4997514218
 40
0.7702280494
 40
1.0
 40
1.0
 40
1.0
 40
1.0
 10
6.7771397711
 20
8.8681543644
 30
0.0
 10
6.7777917775
 20
8.8681661069
 30
0.0
 10
6.779212416
 20
8.8682404587
 30
0.0
 10
6.7813961241
 20
8.86842798
 30
0.0
 10
6.7835744012
 20
8.8686851312
 30
0.0
 10
6.7849822588
 20
8.8688986307
 30
0.0
 10
6.7856250525
 20
8.8690178485
 30
0.0
  0
LINE
  5
4C6
100
AcDbEntity
  8
0
100
AcDbLine
 62
7
  6
CONTINUOUS
 10
6.9067917764
 20
8.8816174696
 11
6.9226370387
 21
8.8815125424
  0
LINE
  5
4C7
100
AcDbEntity
  8
0
100
AcDbLine
 62
7
  6
CONTINUOUS
 10
6.9226370387
 20
8.8815125424
 11
6.9300023307
 21
8.8814244391
  0
LINE
  5
4C8
100
AcDbEntity
  8
0
100
AcDbLine
 62
7
  6
CONTINUOUS
 10
6.9067917764
 20
8.8826178672
 11
6.8882454318
 21
8.8824257777
  0
LINE
  5
4C9
100
AcDbEntity
  8
0
100
AcDbLine
 62
7
  6
CONTINUOUS
 10
6.8882454318
 20
8.8824257777
 11
6.884800052
 21
8.88233143
  0
LINE
  5
4CA
100
AcDbEntity
  8
0
100
AcDbLine
 62
7
  6
CONTINUOUS
 10
6.8539001892
 20
8.8776963957
 11
6.8531578259
 21
8.877696039
  0
LINE
  5
4CB
100
AcDbEntity
  8
0
100
AcDbLine
 62
7
  6
CONTINUOUS
 10
6.8531578259
 20
8.877696039
 11
6.8526086904
 21
8.8776953162
  0
LINE
  5
4CC
100
AcDbEntity
  8
0
100
AcDbLine
 62
7
  6
CONTINUOUS
 10
6.8241146325
 20
8.8771221134
 11
6.8233517806
 21
8.8770923144
  0
LINE
  5
4CD
100
AcDbEntity
  8
0
100
AcDbLine
 62
7
  6
CONTINUOUS
 10
6.8233517806
 20
8.8780956411
 11
6.824081677
 21
8.8781242504
  0
LINE
  5
4CE
100
AcDbEntity
  8
0
100
AcDbLine
 62
7
  6
CONTINUOUS
 10
6.8526020974
 20
8.878698242
 11
6.8531512061
 21
8.878698968
  0
LINE
  5
4CF
100
AcDbEntity
  8
0
100
AcDbLine
 62
7
  6
CONTINUOUS
 10
6.8531512061
 20
8.878698968
 11
6.8539001892
 21
8.8786993303
  0
SPLINE
  5
4D0
100
AcDbEntity
  8
0
100
AcDbSpline
 62
7
  6
CONTINUOUS
 70
0
 71
3
 72
12
 73
8
 74
0
 42
0.0000001
 43
0.0000001
 44
0.0000000001
 40
0.0
 40
0.0
 40
0.0
 40
0.0
 40
0.2565602976
 40
0.5259429335
 40
0.7820874084
 40
0.8973751348
 40
1.0
 40
1.0
 40
1.0
 40
1.0
 10
6.8450613544
 20
8.8700918119
 30
0.0
 10
6.8426967185
 20
8.86981043
 30
0.0
 10
6.8378374218
 20
8.869331272
 30
0.0
 10
6.8305937388
 20
8.868844593
 30
0.0
 10
6.8246482449
 20
8.8686312462
 30
0.0
 10
6.8202479822
 20
8.8686071892
 30
0.0
 10
6.8182253994
 20
8.8686441685
 30
0.0
 10
6.8172734536
 20
8.8686776487
 30
0.0
  0
LINE
  5
4D1
100
AcDbEntity
  8
0
100
AcDbLine
 62
7
  6
CONTINUOUS
 10
6.8163222547
 20
8.8773041709
 11
6.8146549732
 21
8.877196064
  0
LINE
  5
4D2
100
AcDbEntity
  8
0
100
AcDbLine
 62
7
  6
CONTINUOUS
 10
6.7967375128
 20
8.8756508458
 11
6.7940114599
 21
8.8753578389
  0
SPLINE
  5
4D3
100
AcDbEntity
  8
0
100
AcDbSpline
 62
7
  6
CONTINUOUS
 70
0
 71
3
 72
34
 73
30
 74
0
 42
0.0000001
 43
0.0000001
 44
0.0000000001
 40
0.0
 40
0.0
 40
0.0
 40
0.0
 40
0.000148748
 40
0.000489262
 40
0.0010408454
 40
0.0018060003
 40
0.0039765479
 40
0.0069956753
 40
0.010855122
 40
0.0155491896
 40
0.0210809714
 40
0.0274550049
 40
0.0346757689
 40
0.0427480577
 40
0.0614702517
 40
0.0836679382
 40
0.1093815361
 40
0.13859538
 40
0.1709847056
 40
0.2060892473
 40
0.2433895414
 40
0.3228131489
 40
0.4064134337
 40
0.4918458716
 40
0.576652098
 40
0.658260436
 40
0.7351544769
 40
0.8745912568
 40
1.0
 40
1.0
 40
1.0
 40
1.0
 10
6.9903709515
 20
8.8822633572
 30
0.0
 10
6.9903711346
 20
8.8822592166
 30
0.0
 10
6.9903558545
 20
8.8822507358
 30
0.0
 10
6.9903303594
 20
8.8822445787
 30
0.0
 10
6.9902834907
 20
8.8822357618
 30
0.0
 10
6.9901879031
 20
8.882223918
 30
0.0
 10
6.9900219097
 20
8.8822096622
 30
0.0
 10
6.9897705379
 20
8.8821942801
 30
0.0
 10
6.9894483161
 20
8.8821790058
 30
0.0
 10
6.9890561699
 20
8.8821641121
 30
0.0
 10
6.9885938434
 20
8.8821496875
 30
0.0
 10
6.9880610893
 20
8.8821358404
 30
0.0
 10
6.9874575056
 20
8.8821226446
 30
0.0
 10
6.9865098758
 20
8.8821051572
 30
0.0
 10
6.9851448987
 20
8.8820861352
 30
0.0
 10
6.9832883246
 20
8.8820684
 30
0.0
 10
6.9811393645
 20
8.8820560311
 30
0.0
 10
6.9787064
 20
8.8820504226
 30
0.0
 10
6.9760117641
 20
8.8820513557
 30
0.0
 10
6.9730918193
 20
8.8820584798
 30
0.0
 10
6.9688613499
 20
8.8820749722
 30
0.0
 10
6.9632796605
 20
8.8821056984
 30
0.0
 10
6.9563569107
 20
8.8821529635
 30
0.0
 10
6.949284246
 20
8.8822096709
 30
0.0
 10
6.942267187
 20
8.8822779308
 30
0.0
 10
6.935488166
 20
8.8823566415
 30
0.0
 10
6.9271871292
 20
8.8824602712
 30
0.0
 10
6.9176656964
 20
8.8825753076
 30
0.0
 10
6.9102861266
 20
8.8826178672
 30
0.0
 10
6.9067917764
 20
8.8826178672
 30
0.0
  0
SPLINE
  5
4D4
100
AcDbEntity
  8
0
100
AcDbSpline
 62
7
  6
CONTINUOUS
 70
0
 71
3
 72
9
 73
5
 74
0
 42
0.0000001
 43
0.0000001
 44
0.0000000001
 40
0.0
 40
0.0
 40
0.0
 40
0.0
 40
0.5001098966
 40
1.0
 40
1.0
 40
1.0
 40
1.0
 10
6.8172734536
 20
8.8686776487
 30
0.0
 10
6.8150587365
 20
8.8687555411
 30
0.0
 10
6.8106343223
 20
8.8690691957
 30
0.0
 10
6.8062006787
 20
8.868931655
 30
0.0
 10
6.8039857042
 20
8.8689563752
 30
0.0
  0
LINE
  5
4D5
100
AcDbEntity
  8
0
100
AcDbLine
 62
7
  6
CONTINUOUS
 10
6.8039857042
 20
8.8689563752
 11
6.7973316467
 21
8.8691200613
  0
LINE
  5
4D6
100
AcDbEntity
  8
0
100
AcDbLine
 62
7
  6
CONTINUOUS
 10
6.7973316467
 20
8.8691200613
 11
6.7957811149
 21
8.8692448715
  0
LINE
  5
4D7
100
AcDbEntity
  8
0
100
AcDbLine
 62
7
  6
CONTINUOUS
 10
6.7957811149
 20
8.8692448715
 11
6.7955734222
 21
8.869379183
  0
SPLINE
  5
4D8
100
AcDbEntity
  8
0
100
AcDbSpline
 62
7
  6
CONTINUOUS
 70
0
 71
3
 72
11
 73
7
 74
0
 42
0.0000001
 43
0.0000001
 44
0.0000000001
 40
0.0
 40
0.0
 40
0.0
 40
0.0
 40
0.0709356638
 40
0.2588722347
 40
0.5683470046
 40
1.0
 40
1.0
 40
1.0
 40
1.0
 10
7.0199481842
 20
8.881039451
 30
0.0
 10
7.0199481912
 20
8.8810417638
 30
0.0
 10
7.0199365717
 20
8.8810439732
 30
0.0
 10
7.0199214748
 20
8.8810474387
 30
0.0
 10
7.0198895673
 20
8.881050728
 30
0.0
 10
7.0198660871
 20
8.8810528985
 30
0.0
 10
7.0198520588
 20
8.8810540271
 30
0.0
  0
LINE
  5
4D9
100
AcDbEntity
  8
0
100
AcDbLine
 62
7
  6
CONTINUOUS
 10
7.0198520588
 20
8.8810540271
 11
7.0196938607
 21
8.8810640625
  0
LINE
  5
4DA
100
AcDbEntity
  8
0
100
AcDbLine
 62
7
  6
CONTINUOUS
 10
6.7973316467
 20
8.86811087
 11
6.8039857049
 21
8.8679470763
  0
SPLINE
  5
4DB
100
AcDbEntity
  8
0
100
AcDbSpline
 62
7
  6
CONTINUOUS
 70
0
 71
3
 72
9
 73
5
 74
0
 42
0.0000001
 43
0.0000001
 44
0.0000000001
 40
0.0
 40
0.0
 40
0.0
 40
0.0
 40
0.4998899589
 40
1.0
 40
1.0
 40
1.0
 40
1.0
 10
6.8039857049
 20
8.8679470763
 30
0.0
 10
6.8062006798
 20
8.8679223399
 30
0.0
 10
6.8106343289
 20
8.8680599708
 30
0.0
 10
6.8150587365
 20
8.8677461102
 30
0.0
 10
6.8172734536
 20
8.8676681666
 30
0.0
  0
SPLINE
  5
4DC
100
AcDbEntity
  8
0
100
AcDbSpline
 62
7
  6
CONTINUOUS
 70
0
 71
3
 72
27
 73
23
 74
0
 42
0.0000001
 43
0.0000001
 44
0.0000000001
 40
0.0
 40
0.0
 40
0.0
 40
0.0
 40
0.0699643859
 40
0.1378625357
 40
0.2035092789
 40
0.2667911066
 40
0.3277246373
 40
0.3865284385
 40
0.4152873485
 40
0.4437165431
 40
0.4719166379
 40
0.499999131
 40
0.5280816267
 40
0.5562817274
 40
0.5847109298
 40
0.6134698495
 40
0.6722736855
 40
0.7332072548
 40
0.7964891319
 40
0.8621358627
 40
0.9300342121
 40
1.0
 40
1.0
 40
1.0
 40
1.0
 10
6.5586611396
 20
6.6681789697
 30
0.0
 10
6.5513810992
 20
6.6754380353
 30
0.0
 10
6.5367222093
 20
6.6894329672
 30
0.0
 10
6.5140227088
 20
6.7089256436
 30
0.0
 10
6.4908890846
 20
6.7263250131
 30
0.0
 10
6.4673089591
 20
6.7413017868
 30
0.0
 10
6.4432896824
 20
6.7535025092
 30
0.0
 10
6.4227734221
 20
6.7611141851
 30
0.0
 10
6.4062697098
 20
6.7654188754
 30
0.0
 10
6.3939264846
 20
6.7677318787
 30
0.0
 10
6.381546129
 20
6.7691296582
 30
0.0
 10
6.3691464357
 20
6.7695965904
 30
0.0
 10
6.3567467425
 20
6.7691296252
 30
0.0
 10
6.3443663889
 20
6.767731808
 30
0.0
 10
6.3320231656
 20
6.7654187756
 30
0.0
 10
6.3155194578
 20
6.7611140378
 30
0.0
 10
6.2950032035
 20
6.7535023122
 30
0.0
 10
6.2709839321
 20
6.7413015409
 30
0.0
 10
6.2474038282
 20
6.7263247064
 30
0.0
 10
6.2242702075
 20
6.7089252977
 30
0.0
 10
6.2015703261
 20
6.6894326569
 30
0.0
 10
6.1869122753
 20
6.6754365075
 30
0.0
 10
6.1796320909
 20
6.6681772944
 30
0.0
  0
SPLINE
  5
4DD
100
AcDbEntity
  8
0
100
AcDbSpline
 62
7
  6
CONTINUOUS
 70
0
 71
3
 72
27
 73
23
 74
0
 42
0.0000001
 43
0.0000001
 44
0.0000000001
 40
0.0
 40
0.0
 40
0.0
 40
0.0
 40
0.0699649388
 40
0.1378632264
 40
0.2035100355
 40
0.266791948
 40
0.32772556
 40
0.3865294403
 40
0.4152883882
 40
0.4437176192
 40
0.4719177487
 40
0.5000002744
 40
0.5280828004
 40
0.5562829291
 40
0.5847121572
 40
0.6134711006
 40
0.6722749789
 40
0.7332085869
 40
0.7964904927
 40
0.8621373081
 40
0.9300355327
 40
1.0
 40
1.0
 40
1.0
 40
1.0
 10
7.6957524105
 20
6.6681785097
 30
0.0
 10
7.6884723305
 20
6.6754376187
 30
0.0
 10
7.6738137408
 20
6.6894329469
 30
0.0
 10
7.6511141319
 20
6.7089255837
 30
0.0
 10
7.6279805322
 20
6.7263249425
 30
0.0
 10
7.604400438
 20
6.7413017167
 30
0.0
 10
7.5803811886
 20
6.753502441
 30
0.0
 10
7.5598649528
 20
6.7611141278
 30
0.0
 10
7.5433612594
 20
6.7654188314
 30
0.0
 10
7.5310180483
 20
6.7677318471
 30
0.0
 10
7.5186377066
 20
6.7691296411
 30
0.0
 10
7.5062380269
 20
6.7695965901
 30
0.0
 10
7.493838347
 20
6.7691296436
 30
0.0
 10
7.4814580061
 20
6.7677318469
 30
0.0
 10
7.4691147952
 20
6.765418837
 30
0.0
 10
7.4526111039
 20
6.7611141308
 30
0.0
 10
7.4320948682
 20
6.7535024487
 30
0.0
 10
7.4080756202
 20
6.7413017249
 30
0.0
 10
7.3844955238
 20
6.7263249578
 30
0.0
 10
7.3613619269
 20
6.7089256029
 30
0.0
 10
7.3386624524
 20
6.6894329456
 30
0.0
 10
7.3240035789
 20
6.6754380279
 30
0.0
 10
7.316723546
 20
6.6681789698
 30
0.0
  0
SPLINE
  5
4DE
100
AcDbEntity
  8
0
100
AcDbSpline
 62
7
  6
CONTINUOUS
 70
0
 71
3
 72
21
 73
17
 74
0
 42
0.0000001
 43
0.0000001
 44
0.0000000001
 40
0.0
 40
0.0
 40
0.0
 40
0.0
 40
0.0625075657
 40
0.1250150895
 40
0.2499846817
 40
0.3124896962
 40
0.3749938213
 40
0.4374971651
 40
0.5000000118
 40
0.5625028579
 40
0.6250061943
 40
0.6875103187
 40
0.7500153307
 40
0.8749849135
 40
0.9374924331
 40
1.0
 40
1.0
 40
1.0
 40
1.0
 10
7.3167216946
 20
6.6681789698
 30
0.0
 10
7.3019590638
 20
6.6755390264
 30
0.0
 10
7.2721687274
 20
6.6897398654
 30
0.0
 10
7.2115241807
 20
6.7157305998
 30
0.0
 10
7.1491020366
 20
6.7375204499
 30
0.0
 10
7.0851073272
 20
6.7536918474
 30
0.0
 10
7.0364047652
 20
6.7626710656
 30
0.0
 10
6.9871870935
 20
6.768196791
 30
0.0
 10
6.9376923336
 20
6.7700633394
 30
0.0
 10
6.8881975758
 20
6.7681967886
 30
0.0
 10
6.8389799064
 20
6.7626710632
 30
0.0
 10
6.7902773474
 20
6.7536918446
 30
0.0
 10
6.7262826413
 20
6.7375204477
 30
0.0
 10
6.6638605015
 20
6.7157305984
 30
0.0
 10
6.6032159574
 20
6.6897398661
 30
0.0
 10
6.5734256222
 20
6.6755390265
 30
0.0
 10
6.5586629911
 20
6.6681789697
 30
0.0
  0
LINE
  5
4DF
100
AcDbEntity
  8
0
100
AcDbLine
 62
7
  6
CONTINUOUS
 10
6.753139678
 20
8.868744935
 11
6.751015354
 21
8.8686070573
  0
SPLINE
  5
4E0
100
AcDbEntity
  8
0
100
AcDbSpline
 62
7
  6
CONTINUOUS
 70
0
 71
3
 72
12
 73
8
 74
0
 42
0.0000001
 43
0.0000001
 44
0.0000000001
 40
0.0
 40
0.0
 40
0.0
 40
0.0
 40
0.1026265418
 40
0.217916885
 40
0.4740607356
 40
0.7434395349
 40
1.0
 40
1.0
 40
1.0
 40
1.0
 10
6.8172734536
 20
8.8676681666
 30
0.0
 10
6.8182254168
 20
8.8676346638
 30
0.0
 10
6.8202480449
 20
8.8675976638
 30
0.0
 10
6.8246483538
 20
8.8676217342
 30
0.0
 10
6.8305938434
 20
8.8678352276
 30
0.0
 10
6.8378374856
 20
8.8683222256
 30
0.0
 10
6.8426967322
 20
8.868801694
 30
0.0
 10
6.8450613544
 20
8.8690832589
 30
0.0
  0
LINE
  5
4E1
100
AcDbEntity
  8
0
100
AcDbLine
 62
7
  6
CONTINUOUS
 10
6.7953224189
 20
8.8591244956
 11
6.7957677867
 21
8.859499951
  0
LINE
  5
4E2
100
AcDbEntity
  8
0
100
AcDbLine
 62
7
  6
CONTINUOUS
 10
6.7957677867
 20
8.859499951
 11
6.7960184357
 21
8.8600250072
  0
SPLINE
  5
4E3
100
AcDbEntity
  8
0
100
AcDbSpline
 62
9
  6
CONTINUOUS
 70
0
 71
3
 72
14
 73
10
 74
0
 42
0.0000001
 43
0.0000001
 44
0.0000000001
 40
0.0
 40
0.0
 40
0.0
 40
0.0
 40
0.2339280142
 40
0.3561114484
 40
0.4811805221
 40
0.6086647213
 40
0.7380661543
 40
0.8687886704
 40
1.0
 40
1.0
 40
1.0
 40
1.0
 10
6.3246072591
 20
8.5430603082
 30
0.0
 10
6.3323749463
 20
8.5322850128
 30
0.0
 10
6.3426342877
 20
8.514699114
 30
0.0
 10
6.3534098503
 20
8.4895737069
 30
0.0
 10
6.3602385763
 20
8.469394811
 30
0.0
 10
6.3656158974
 20
8.4483635019
 30
0.0
 10
6.3694972387
 20
8.4266787086
 30
0.0
 10
6.3718359248
 20
8.4045630432
 30
0.0
 10
6.3723607061
 20
8.3896843724
 30
0.0
 10
6.3723607061
 20
8.382233751
 30
0.0
  0
LINE
  5
4E4
100
AcDbEntity
  8
0
100
AcDbLine
 62
7
  6
CONTINUOUS
 10
6.8110808966
 20
8.8733113502
 11
6.8126417011
 21
8.8736260181
  0
LINE
  5
4E5
100
AcDbEntity
  8
0
100
AcDbLine
 62
7
  6
CONTINUOUS
 10
6.8126417011
 20
8.8736260181
 11
6.8128390245
 21
8.8737447614
  0
SPLINE
  5
4E6
100
AcDbEntity
  8
0
100
AcDbSpline
 62
9
  6
CONTINUOUS
 70
0
 71
3
 72
13
 73
9
 74
0
 42
0.0000001
 43
0.0000001
 44
0.0000000001
 40
0.0
 40
0.0
 40
0.0
 40
0.0
 40
0.2339716229
 40
0.3561721073
 40
0.4812554119
 40
0.738034608
 40
0.8687870565
 40
1.0
 40
1.0
 40
1.0
 40
1.0
 10
6.3541935156
 20
8.2624444714
 30
0.0
 10
6.3599796294
 20
8.2704701222
 30
0.0
 10
6.3676196014
 20
8.2835690941
 30
0.0
 10
6.3756478544
 20
8.302283201
 30
0.0
 10
6.3824855449
 20
8.3224928075
 30
0.0
 10
6.3870629438
 20
8.3437764147
 30
0.0
 10
6.389371092
 20
8.3656026495
 30
0.0
 10
6.3897624204
 20
8.3766851556
 30
0.0
 10
6.3897624204
 20
8.382233751
 30
0.0
  0
LINE
  5
4E7
100
AcDbEntity
  8
0
100
AcDbLine
 62
7
  6
CONTINUOUS
 10
6.8233517806
 20
8.8780956008
 11
6.8166100676
 21
8.8779822463
  0
LINE
  5
4E8
100
AcDbEntity
  8
0
100
AcDbLine
 62
7
  6
CONTINUOUS
 10
6.8166100676
 20
8.8779822463
 11
6.8163225262
 21
8.8780510533
  0
SPLINE
  5
4E9
100
AcDbEntity
  8
0
100
AcDbSpline
 62
7
  6
CONTINUOUS
 70
0
 71
3
 72
13
 73
9
 74
0
 42
0.0000001
 43
0.0000001
 44
0.0000000001
 40
0.0
 40
0.0
 40
0.0
 40
0.0
 40
0.0642010501
 40
0.1396905468
 40
0.2319781364
 40
0.3438411552
 40
0.6298364612
 40
1.0
 40
1.0
 40
1.0
 40
1.0
 10
6.796018458
 20
8.8610395398
 30
0.0
 10
6.7960185044
 20
8.8609693794
 30
0.0
 10
6.795984585
 20
8.8608161356
 30
0.0
 10
6.7958507505
 20
8.8605975724
 30
0.0
 10
6.7956382802
 20
8.8603757971
 30
0.0
 10
6.795214698
 20
8.8600459584
 30
0.0
 10
6.7944780711
 20
8.8596360046
 30
0.0
 10
6.7938189829
 20
8.8593525176
 30
0.0
 10
6.7934425594
 20
8.8592043806
 30
0.0
  0
LINE
  5
4EA
100
AcDbEntity
  8
0
100
AcDbLine
 62
7
  6
CONTINUOUS
 10
6.8581823721
 20
8.8682343079
 11
6.8563764889
 21
8.8683644843
  0
LINE
  5
4EB
100
AcDbEntity
  8
0
100
AcDbLine
 62
7
  6
CONTINUOUS
 10
6.7939113605
 20
8.8763513149
 11
6.7932417515
 21
8.8762778168
  0
LINE
  5
4EC
100
AcDbEntity
  8
0
100
AcDbLine
 62
7
  6
CONTINUOUS
 10
6.7550710419
 20
8.871119262
 11
6.7545516864
 21
8.871035893
  0
SPLINE
  5
4ED
100
AcDbEntity
  8
0
100
AcDbSpline
 62
7
  6
CONTINUOUS
 70
0
 71
3
 72
9
 73
5
 74
0
 42
0.0000001
 43
0.0000001
 44
0.0000000001
 40
0.0
 40
0.0
 40
0.0
 40
0.0
 40
0.495508948
 40
1.0
 40
1.0
 40
1.0
 40
1.0
 10
7.3031069273
 20
8.5843460564
 30
0.0
 10
7.3070335895
 20
8.5834053524
 30
0.0
 10
7.3148561021
 20
8.5810552527
 30
0.0
 10
7.3223724702
 20
8.5778631906
 30
0.0
 10
7.3260684032
 20
8.5760631607
 30
0.0
  0
SPLINE
  5
4EE
100
AcDbEntity
  8
0
100
AcDbSpline
 62
7
  6
CONTINUOUS
 70
0
 71
3
 72
9
 73
5
 74
0
 42
0.0000001
 43
0.0000001
 44
0.0000000001
 40
0.0
 40
0.0
 40
0.0
 40
0.0
 40
0.5045160244
 40
1.0
 40
1.0
 40
1.0
 40
1.0
 10
7.3260375202
 20
8.1883893478
 30
0.0
 10
7.3223109122
 20
8.186575691
 30
0.0
 10
7.3147310032
 20
8.1833630405
 30
0.0
 10
7.3068407188
 20
8.1810071592
 30
0.0
 10
7.3028803575
 20
8.1800674873
 30
0.0
  0
SPLINE
  5
4EF
100
AcDbEntity
  8
0
100
AcDbSpline
 62
9
  6
CONTINUOUS
 70
0
 71
3
 72
15
 73
11
 74
0
 42
0.0000001
 43
0.0000001
 44
0.0000000001
 40
0.0
 40
0.0
 40
0.0
 40
0.0
 40
0.1171883458
 40
0.2354516052
 40
0.3554003745
 40
0.4776517423
 40
0.6028116268
 40
0.7313849162
 40
0.8637166906
 40
1.0
 40
1.0
 40
1.0
 40
1.0
 10
7.3147076081
 20
8.1955666805
 30
0.0
 10
7.3183805135
 20
8.1956227254
 30
0.0
 10
7.3257603979
 20
8.1961760356
 30
0.0
 10
7.3367197949
 20
8.1983026218
 30
0.0
 10
7.3475165102
 20
8.2017159893
 30
0.0
 10
7.3580628685
 20
8.206394953
 30
0.0
 10
7.3682887752
 20
8.2122959448
 30
0.0
 10
7.3781231345
 20
8.2193814778
 30
0.0
 10
7.3875004172
 20
8.2275968408
 30
0.0
 10
7.3933208532
 20
8.233698311
 30
0.0
 10
7.3961376362
 20
8.2369099538
 30
0.0
  0
SPLINE
  5
4F0
100
AcDbEntity
  8
0
100
AcDbSpline
 62
9
  6
CONTINUOUS
 70
0
 71
3
 72
9
 73
5
 74
0
 42
0.0000001
 43
0.0000001
 44
0.0000000001
 40
0.0
 40
0.0
 40
0.0
 40
0.0
 40
0.244460588
 40
1.0
 40
1.0
 40
1.0
 40
1.0
 10
7.3961376362
 20
8.2369099538
 30
0.0
 10
7.3976791272
 20
8.2386675328
 30
0.0
 10
7.4038195167
 20
8.2460012322
 30
0.0
 10
7.4093032237
 20
8.2538784989
 30
0.0
 10
7.4130763301
 20
8.260040339
 30
0.0
  0
SPLINE
  5
4F1
100
AcDbEntity
  8
0
100
AcDbSpline
 62
9
  6
CONTINUOUS
 70
0
 71
3
 72
9
 73
5
 74
0
 42
0.0000001
 43
0.0000001
 44
0.0000000001
 40
0.0
 40
0.0
 40
0.0
 40
0.0
 40
0.2563672516
 40
1.0
 40
1.0
 40
1.0
 40
1.0
 10
7.4140957513
 20
8.5027424468
 30
0.0
 10
7.4126944178
 20
8.5050867357
 30
0.0
 10
7.4070278488
 20
8.5141085673
 30
0.0
 10
7.400545156
 20
8.5226264661
 30
0.0
 10
7.3952706869
 20
8.5285376468
 30
0.0
  0
SPLINE
  5
4F2
100
AcDbEntity
  8
0
100
AcDbSpline
 62
9
  6
CONTINUOUS
 70
0
 71
3
 72
15
 73
11
 74
0
 42
0.0000001
 43
0.0000001
 44
0.0000000001
 40
0.0
 40
0.0
 40
0.0
 40
0.0
 40
0.1361895047
 40
0.2684204205
 40
0.3969016393
 40
0.5219945633
 40
0.6442228357
 40
0.7642117503
 40
0.8825961899
 40
1.0
 40
1.0
 40
1.0
 40
1.0
 10
7.3952706869
 20
8.5285376468
 30
0.0
 10
7.3924250449
 20
8.5317268025
 30
0.0
 10
7.3865471307
 20
8.5377791111
 30
0.0
 10
7.3770845106
 20
8.5459061112
 30
0.0
 10
7.367168739
 20
8.5528894806
 30
0.0
 10
7.3568663177
 20
8.5586744753
 30
0.0
 10
7.3462494887
 20
8.5632241867
 30
0.0
 10
7.3353895241
 20
8.5664956054
 30
0.0
 10
7.3243751854
 20
8.5684684141
 30
0.0
 10
7.3169680164
 20
8.5689116869
 30
0.0
 10
7.3132834302
 20
8.5689116869
 30
0.0
  0
SPLINE
  5
4F3
100
AcDbEntity
  8
0
100
AcDbSpline
 62
9
  6
CONTINUOUS
 70
0
 71
3
 72
17
 73
13
 74
0
 42
0.0000001
 43
0.0000001
 44
0.0000000001
 40
0.0
 40
0.0
 40
0.0
 40
0.0
 40
0.1181296631
 40
0.2419602034
 40
0.3699025957
 40
0.4348459262
 40
0.5000591898
 40
0.5652705588
 40
0.6302076622
 40
0.7581260985
 40
0.8819186774
 40
1.0
 40
1.0
 40
1.0
 40
1.0
 10
7.1945837466
 20
8.2511409511
 30
0.0
 10
7.1887648995
 20
8.2602859649
 30
0.0
 10
7.1784375242
 20
8.2800645386
 30
0.0
 10
7.1673339776
 20
8.3122490152
 30
0.0
 10
7.161689664
 20
8.3408548572
 30
0.0
 10
7.159400215
 20
8.3644395423
 30
0.0
 10
7.158826599
 20
8.3823700032
 30
0.0
 10
7.1594179742
 20
8.4002993062
 30
0.0
 10
7.1617300223
 20
8.42387883
 30
0.0
 10
7.1674023649
 20
8.4524728237
 30
0.0
 10
7.1785374465
 20
8.4846358004
 30
0.0
 10
7.1888849285
 20
8.5043950687
 30
0.0
 10
7.1947128969
 20
8.5135290111
 30
0.0
  0
SPLINE
  5
4F4
100
AcDbEntity
  8
0
100
AcDbSpline
 62
9
  6
CONTINUOUS
 70
0
 71
3
 72
35
 73
31
 74
0
 42
0.0000001
 43
0.0000001
 44
0.0000000001
 40
0.0
 40
0.0
 40
0.0
 40
0.0
 40
0.025714409
 40
0.0517327344
 40
0.0782382814
 40
0.1054185476
 40
0.1334385386
 40
0.1624143434
 40
0.1924068493
 40
0.2234394722
 40
0.2884536948
 40
0.3569880854
 40
0.3923108783
 40
0.4281266313
 40
0.4642758295
 40
0.5005881571
 40
0.5368908942
 40
0.5730115988
 40
0.608780608
 40
0.6440395913
 40
0.712401804
 40
0.7772015753
 40
0.8081197563
 40
0.8379982401
 40
0.8668650737
 40
0.8947860761
 40
0.9218822813
 40
0.9483233259
 40
0.9743006093
 40
1.0
 40
1.0
 40
1.0
 40
1.0
 10
7.3118592523
 20
8.5689008215
 30
0.0
 10
7.3075523221
 20
8.568835102
 30
0.0
 10
7.2988855437
 20
8.5680953288
 30
0.0
 10
7.286063483
 20
8.5652055994
 30
0.0
 10
7.273509085
 20
8.5605498521
 30
0.0
 10
7.2613537263
 20
8.5541841684
 30
0.0
 10
7.2497101106
 20
8.5461749534
 30
0.0
 10
7.2386862933
 20
8.5366025178
 30
0.0
 10
7.2283803861
 20
8.525562862
 30
0.0
 10
7.2155391335
 20
8.5087680761
 30
0.0
 10
7.2019126001
 20
8.4846301419
 30
0.0
 10
7.1921145679
 20
8.4579704831
 30
0.0
 10
7.1864973697
 20
8.4352412897
 30
0.0
 10
7.1834466603
 20
8.4175139752
 30
0.0
 10
7.1816354989
 20
8.3994525479
 30
0.0
 10
7.1810732413
 20
8.3812274966
 30
0.0
 10
7.181774176
 20
8.3630120158
 30
0.0
 10
7.1837227046
 20
8.3449791521
 30
0.0
 10
7.1869081926
 20
8.3272991546
 30
0.0
 10
7.1926968008
 20
8.3046618314
 30
0.0
 10
7.2026943781
 20
8.2781561559
 30
0.0
 10
7.2165071993
 20
8.2542193605
 30
0.0
 10
7.2294781918
 20
8.2376181884
 30
0.0
 10
7.2398685095
 20
8.2267355394
 30
0.0
 10
7.2509657971
 20
8.217331076
 30
0.0
 10
7.2626711802
 20
8.2094994131
 30
0.0
 10
7.2748758698
 20
8.2033193461
 30
0.0
 10
7.2874664416
 20
8.1988556513
 30
0.0
 10
7.3003107767
 20
8.1961623877
 30
0.0
 10
7.3089785144
 20
8.1955558151
 30
0.0
 10
7.3132834302
 20
8.1955558151
 30
0.0
  0
SPLINE
  5
4F5
100
AcDbEntity
  8
0
100
AcDbSpline
 62
9
  6
CONTINUOUS
 70
0
 71
3
 72
29
 73
25
 74
0
 42
0.0000001
 43
0.0000001
 44
0.0000000001
 40
0.0
 40
0.0
 40
0.0
 40
0.0
 40
0.0650824254
 40
0.1268318004
 40
0.1854005505
 40
0.2412761436
 40
0.2684853031
 40
0.2953553269
 40
0.3220292329
 40
0.3486572233
 40
0.3753928788
 40
0.4023835204
 40
0.4297683737
 40
0.4576715698
 40
0.4861969907
 40
0.5154315192
 40
0.5762047081
 40
0.6402993638
 40
0.7076470448
 40
0.7424618518
 40
0.7779400078
 40
0.8505569237
 40
0.9248802514
 40
1.0
 40
1.0
 40
1.0
 40
1.0
 10
6.4623072901
 20
8.2600416284
 30
0.0
 10
6.4665676921
 20
8.2530836611
 30
0.0
 10
6.4757849941
 20
8.2400509541
 30
0.0
 10
6.4919696569
 20
8.2232382082
 30
0.0
 10
6.5098173902
 20
8.2100358365
 30
0.0
 10
6.5259194549
 20
8.2022577725
 30
0.0
 10
6.5391222327
 20
8.1982240293
 30
0.0
 10
6.5490781472
 20
8.1962875905
 30
0.0
 10
6.5591103841
 20
8.1954236101
 30
0.0
 10
6.5691609512
 20
8.1956432926
 30
0.0
 10
6.5791690413
 20
8.1969433178
 30
0.0
 10
6.5890765486
 20
8.1993113967
 30
0.0
 10
6.598823812
 20
8.2027387979
 30
0.0
 10
6.6083542125
 20
8.2072011323
 30
0.0
 10
6.617615317
 20
8.2126689751
 30
0.0
 10
6.6296805343
 20
8.2213721763
 30
0.0
 10
6.6438023271
 20
8.2346964741
 30
0.0
 10
6.6586012831
 20
8.25381687
 30
0.0
 10
6.6689706536
 20
8.2719733743
 30
0.0
 10
6.6760737518
 20
8.2877076338
 30
0.0
 10
6.6824351153
 20
8.3044659511
 30
0.0
 10
6.6886197454
 20
8.3265399732
 30
0.0
 10
6.6930978902
 20
8.354066707
 30
0.0
 10
6.6941024896
 20
8.3728167809
 30
0.0
 10
6.6941024896
 20
8.382233751
 30
0.0
  0
SPLINE
  5
4F6
100
AcDbEntity
  8
0
100
AcDbSpline
 62
7
  6
CONTINUOUS
 70
0
 71
3
 72
32
 73
28
 74
0
 42
0.0000001
 43
0.0000001
 44
0.0000000001
 40
0.0
 40
0.0
 40
0.0
 40
0.0
 40
0.0256830575
 40
0.0517845871
 40
0.0784727308
 40
0.1059018479
 40
0.1341904136
 40
0.1634069362
 40
0.1935873444
 40
0.2247328159
 40
0.2897242198
 40
0.3578906659
 40
0.4283502241
 40
0.4641228418
 40
0.5000467898
 40
0.5359705286
 40
0.5717424051
 40
0.6421992564
 40
0.7103620491
 40
0.77534977
 40
0.8064937763
 40
0.8366726663
 40
0.894100683
 40
0.9215286273
 40
0.9482161049
 40
0.9743172895
 40
1.0
 40
1.0
 40
1.0
 40
1.0
 10
7.5736927912
 20
8.1940099126
 30
0.0
 10
7.5695796032
 20
8.1945686114
 30
0.0
 10
7.5613499105
 20
8.1962343268
 30
0.0
 10
7.5493067723
 20
8.2003097729
 30
0.0
 10
7.5375926493
 20
8.2059375824
 30
0.0
 10
7.5263062596
 20
8.2130610325
 30
0.0
 10
7.5155426808
 20
8.2216213905
 30
0.0
 10
7.5053849665
 20
8.2315365294
 30
0.0
 10
7.4959240331
 20
8.2427286443
 30
0.0
 10
7.4841746209
 20
8.2594521459
 30
0.0
 10
7.4717398783
 20
8.2830576665
 30
0.0
 10
7.4608945436
 20
8.3142407202
 30
0.0
 10
7.4553766398
 20
8.341977692
 30
0.0
 10
7.4531331721
 20
8.3648564431
 30
0.0
 10
7.4525660373
 20
8.3822539437
 30
0.0
 10
7.4531358542
 20
8.3996512295
 30
0.0
 10
7.4553825922
 20
8.4225290803
 30
0.0
 10
7.4609045541
 20
8.4502639706
 30
0.0
 10
7.4717548784
 20
8.4814440994
 30
0.0
 10
7.4841923368
 20
8.5050449245
 30
0.0
 10
7.4959463071
 20
8.5217674937
 30
0.0
 10
7.5083503022
 20
8.5364357206
 30
0.0
 10
7.5223446315
 20
8.5489100875
 30
0.0
 10
7.5376199988
 20
8.558544896
 30
0.0
 10
7.5493362403
 20
8.5641698551
 30
0.0
 10
7.561380248
 20
8.5682412653
 30
0.0
 10
7.5696104058
 20
8.5699043838
 30
0.0
 10
7.5737237173
 20
8.5704617549
 30
0.0
  0
SPLINE
  5
4F7
100
AcDbEntity
  8
0
100
AcDbSpline
 62
9
  6
CONTINUOUS
 70
0
 71
3
 72
9
 73
5
 74
0
 42
0.0000001
 43
0.0000001
 44
0.0000000001
 40
0.0
 40
0.0
 40
0.0
 40
0.0
 40
0.4957401705
 40
1.0
 40
1.0
 40
1.0
 40
1.0
 10
7.5653404871
 20
8.5606420118
 30
0.0
 10
7.5619974774
 20
8.5598512599
 30
0.0
 10
7.5553367086
 20
8.5578856078
 30
0.0
 10
7.5489229338
 20
8.5552258488
 30
0.0
 10
7.5457661956
 20
8.5537274799
 30
0.0
  0
SPLINE
  5
4F8
100
AcDbEntity
  8
0
100
AcDbSpline
 62
9
  6
CONTINUOUS
 70
0
 71
3
 72
28
 73
24
 74
0
 42
0.0000001
 43
0.0000001
 44
0.0000000001
 40
0.0
 40
0.0
 40
0.0
 40
0.0
 40
0.0261614184
 40
0.0529659264
 40
0.0804878049
 40
0.1087712771
 40
0.1676650862
 40
0.2296746694
 40
0.2945047054
 40
0.3616351947
 40
0.4303849984
 40
0.4999715237
 40
0.5695583478
 40
0.6383089029
 40
0.7054409241
 40
0.7381970341
 40
0.7703067625
 40
0.8323205232
 40
0.8912193909
 40
0.9195054668
 40
0.9470297608
 40
0.9738364286
 40
1.0
 40
1.0
 40
1.0
 40
1.0
 10
7.5457661956
 20
8.5537274799
 30
0.0
 10
7.5425821799
 20
8.5522161636
 30
0.0
 10
7.5362866675
 20
8.5488283105
 30
0.0
 10
7.5272608946
 20
8.5427920814
 30
0.0
 10
7.518598355
 20
8.5357808937
 30
0.0
 10
7.5074521314
 20
8.5250556936
 30
0.0
 10
7.4947460287
 20
8.5093681964
 30
0.0
 10
7.481947427
 20
8.4877779197
 30
0.0
 10
7.4716712904
 20
8.4636742753
 30
0.0
 10
7.4641585087
 20
8.4376337052
 30
0.0
 10
7.4595779215
 20
8.4102751594
 30
0.0
 10
7.4580368616
 20
8.3822494117
 30
0.0
 10
7.4595745182
 20
8.3542226914
 30
0.0
 10
7.464151574
 20
8.3268652421
 30
0.0
 10
7.4704619458
 20
8.3049789997
 30
0.0
 10
7.4769519414
 20
8.2884113394
 30
0.0
 10
7.4841864509
 20
8.2729137129
 30
0.0
 10
7.4947313947
 20
8.2551207656
 30
0.0
 10
7.5074350629
 20
8.2394309217
 30
0.0
 10
7.5185803897
 20
8.2287026155
 30
0.0
 10
7.5272422531
 20
8.2216890975
 30
0.0
 10
7.5362676785
 20
8.2156507022
 30
0.0
 10
7.5425630028
 20
8.2122612861
 30
0.0
 10
7.5457469682
 20
8.2107491874
 30
0.0
  0
SPLINE
  5
4F9
100
AcDbEntity
  8
0
100
AcDbSpline
 62
9
  6
CONTINUOUS
 70
0
 71
3
 72
9
 73
5
 74
0
 42
0.0000001
 43
0.0000001
 44
0.0000000001
 40
0.0
 40
0.0
 40
0.0
 40
0.0
 40
0.5042603327
 40
1.0
 40
1.0
 40
1.0
 40
1.0
 10
7.5457469682
 20
8.2107491874
 30
0.0
 10
7.5489001959
 20
8.2092516863
 30
0.0
 10
7.5553067302
 20
8.206592946
 30
0.0
 10
7.561959955
 20
8.2046267641
 30
0.0
 10
7.5652992122
 20
8.2038353131
 30
0.0
  0
SPLINE
  5
4FA
100
AcDbEntity
  8
0
100
AcDbSpline
 62
7
  6
CONTINUOUS
 70
0
 71
3
 72
11
 73
7
 74
0
 42
0.0000001
 43
0.0000001
 44
0.0000000001
 40
0.0
 40
0.0
 40
0.0
 40
0.0
 40
0.2565332445
 40
0.5259555895
 40
0.7820823712
 40
1.0
 40
1.0
 40
1.0
 40
1.0
 10
6.9087009647
 20
8.8786726279
 30
0.0
 10
6.9063276295
 20
8.8785387917
 30
0.0
 10
6.901458339
 20
8.8783232362
 30
0.0
 10
6.8942133294
 20
8.8781373832
 30
0.0
 10
6.8873240018
 20
8.8780901692
 30
0.0
 10
6.8829311147
 20
8.8781567381
 30
0.0
 10
6.8809130639
 20
8.8782272751
 30
0.0
  0
LINE
  5
4FB
100
AcDbEntity
  8
0
100
AcDbLine
 62
7
  6
CONTINUOUS
 10
9.4426923427
 20
6.6211772378
 11
9.7302559961
 21
7.8324210802
  0
LINE
  5
4FC
100
AcDbEntity
  8
0
100
AcDbLine
 62
7
  6
CONTINUOUS
 10
9.7302559961
 20
7.8324210802
 11
9.8163158484
 21
8.195763828
  0
LINE
  5
4FD
100
AcDbEntity
  8
0
100
AcDbLine
 62
7
  6
CONTINUOUS
 10
9.8163158484
 20
8.195763828
 11
9.9334470765
 21
8.6914226545
  0
SPLINE
  5
4FE
100
AcDbEntity
  8
0
100
AcDbSpline
 62
7
  6
CONTINUOUS
 70
0
 71
3
 72
10
 73
6
 74
0
 42
0.0000001
 43
0.0000001
 44
0.0000000001
 40
0.0
 40
0.0
 40
0.0
 40
0.0
 40
0.5707722321
 40
0.8030791011
 40
1.0
 40
1.0
 40
1.0
 40
1.0
 10
9.9334470765
 20
8.6914226545
 30
0.0
 10
9.9632020097
 20
8.8175666271
 30
0.0
 10
10.0050055471
 20
8.9950663862
 30
0.0
 10
10.0568165953
 20
9.216147431
 30
0.0
 10
10.0789652454
 20
9.3110626421
 30
0.0
 10
10.0890943436
 20
9.3546152947
 30
0.0
  0
LINE
  5
4FF
100
AcDbEntity
  8
0
100
AcDbLine
 62
7
  6
CONTINUOUS
 10
10.2055768152
 20
10.7680354258
 11
10.210826503
 21
10.9714262016
  0
LINE
  5
500
100
AcDbEntity
  8
0
100
AcDbLine
 62
7
  6
CONTINUOUS
 10
11.6698083411
 20
10.7680250766
 11
11.6645610932
 21
10.9714259656
  0
SPLINE
  5
501
100
AcDbEntity
  8
0
100
AcDbSpline
 62
7
  6
CONTINUOUS
 70
0
 71
3
 72
25
 73
21
 74
0
 42
0.0000001
 43
0.0000001
 44
0.0000000001
 40
0.0
 40
0.0
 40
0.0
 40
0.0
 40
0.1947323376
 40
0.3778628866
 40
0.4635486085
 40
0.5445132617
 40
0.6202595347
 40
0.6903342191
 40
0.7542846007
 40
0.8116584506
 40
0.8620138347
 40
0.9050438233
 40
0.9405427415
 40
0.9554060488
 40
0.9683131691
 40
0.9792416474
 40
0.9881716103
 40
0.9950888593
 40
0.9977928392
 40
1.0
 40
1.0
 40
1.0
 40
1.0
 10
11.6628140123
 20
11.0384127734
 30
0.0
 10
11.6614249874
 20
11.0915380608
 30
0.0
 10
11.6586766864
 20
11.1946221575
 30
0.0
 10
11.6550745207
 20
11.3210757709
 30
0.0
 10
11.6521398672
 20
11.4164876835
 30
0.0
 10
11.6499803425
 20
11.4826037493
 30
0.0
 10
11.6478146326
 20
11.5444568604
 30
0.0
 10
11.6456439243
 20
11.6016634545
 30
0.0
 10
11.6434692055
 20
11.6538520576
 30
0.0
 10
11.6412922602
 20
11.7006539128
 30
0.0
 10
11.6391130856
 20
11.7417395689
 30
0.0
 10
11.6369328962
 20
11.7768455931
 30
0.0
 10
11.635030373
 20
11.802263066
 30
0.0
 10
11.6334633976
 20
11.8194587863
 30
0.0
 10
11.6323599088
 20
11.8299624406
 30
0.0
 10
11.6312608062
 20
11.8388375288
 30
0.0
 10
11.6301660732
 20
11.8460627924
 30
0.0
 10
11.6292055823
 20
11.8510373941
 30
0.0
 10
11.628400499
 20
11.8541642806
 30
0.0
 10
11.627992849
 20
11.8554426118
 30
0.0
 10
11.6277819657
 20
11.8560068353
 30
0.0
  0
SPLINE
  5
502
100
AcDbEntity
  8
0
100
AcDbSpline
 62
7
  6
CONTINUOUS
 70
0
 71
3
 72
25
 73
21
 74
0
 42
0.0000001
 43
0.0000001
 44
0.0000000001
 40
0.0
 40
0.0
 40
0.0
 40
0.0
 40
0.1947194468
 40
0.3778391826
 40
0.4635206196
 40
0.5444818944
 40
0.620225765
 40
0.6902991234
 40
0.7542493563
 40
0.8116243361
 40
0.8619821896
 40
0.9050159086
 40
0.9405198464
 40
0.9553861587
 40
0.9682966189
 40
0.9792287732
 40
0.9881627444
 40
0.9950843176
 40
0.9977905558
 40
1.0
 40
1.0
 40
1.0
 40
1.0
 10
10.2125706731
 20
11.0384127734
 30
0.0
 10
10.2139595925
 20
11.0915340236
 30
0.0
 10
10.2167076903
 20
11.1946106438
 30
0.0
 10
10.2203095729
 20
11.3210553839
 30
0.0
 10
10.2232439875
 20
11.4164613234
 30
0.0
 10
10.2254033422
 20
11.4825739979
 30
0.0
 10
10.2275688824
 20
11.5444245675
 30
0.0
 10
10.229739421
 20
11.6016295479
 30
0.0
 10
10.2319139709
 20
11.6538175516
 30
0.0
 10
10.2340907489
 20
11.7006198976
 30
0.0
 10
10.2362697558
 20
11.7417071617
 30
0.0
 10
10.2384497842
 20
11.7768159179
 30
0.0
 10
10.240352152
 20
11.8022363678
 30
0.0
 10
10.2419189754
 20
11.8194350458
 30
0.0
 10
10.2430223841
 20
11.8299413541
 30
0.0
 10
10.2441214162
 20
11.8388193921
 30
0.0
 10
10.2452160847
 20
11.8460479084
 30
0.0
 10
10.2461765092
 20
11.8510254058
 30
0.0
 10
10.2469814815
 20
11.8541547847
 30
0.0
 10
10.247389072
 20
11.8554344162
 30
0.0
 10
10.247599911
 20
11.8559993152
 30
0.0
  0
LINE
  5
503
100
AcDbEntity
  8
0
100
AcDbLine
 62
7
  6
CONTINUOUS
 10
10.2108250868
 20
10.9714193196
 11
10.2125706731
 21
11.0384127732
  0
LINE
  5
504
100
AcDbEntity
  8
0
100
AcDbLine
 62
7
  6
CONTINUOUS
 10
11.6645595985
 20
10.9714193196
 11
11.6628140123
 21
11.0384127732
  0
SPLINE
  5
505
100
AcDbEntity
  8
0
100
AcDbSpline
 62
7
  6
CONTINUOUS
 70
0
 71
3
 72
23
 73
19
 74
0
 42
0.0000001
 43
0.0000001
 44
0.0000000001
 40
0.0
 40
0.0
 40
0.0
 40
0.0
 40
0.010774981
 40
0.0219041096
 40
0.0337062145
 40
0.0464415951
 40
0.0754261266
 40
0.1099594018
 40
0.1505807232
 40
0.1975551298
 40
0.2509973704
 40
0.3109365199
 40
0.3773185913
 40
0.4499270795
 40
0.5284874422
 40
0.6127078176
 40
0.796898016
 40
1.0
 40
1.0
 40
1.0
 40
1.0
 10
11.6701926239
 20
10.7530227694
 30
0.0
 10
11.6701926531
 20
10.7516552695
 30
0.0
 10
11.6699253175
 20
10.7488687598
 30
0.0
 10
11.6687405821
 20
10.7447368134
 30
0.0
 10
11.6667886662
 20
10.7406325999
 30
0.0
 10
11.6630196611
 20
10.7349588746
 30
0.0
 10
11.6562229307
 20
10.727964806
 30
0.0
 10
11.6455728233
 20
10.7200816329
 30
0.0
 10
11.632113628
 20
10.71234065
 30
0.0
 10
11.6158791589
 20
10.7047644254
 30
0.0
 10
11.5969032714
 20
10.6973776176
 30
0.0
 10
11.5752337616
 20
10.6902144284
 30
0.0
 10
11.5509421172
 20
10.6833123108
 30
0.0
 10
11.5241335405
 20
10.6766880666
 30
0.0
 10
11.4949321235
 20
10.6703661928
 30
0.0
 10
11.4516703092
 20
10.6621272555
 30
0.0
 10
11.3925265143
 20
10.6529036602
 30
0.0
 10
11.343716262
 20
10.6470320023
 30
0.0
 10
11.3180819953
 20
10.644327301
 30
0.0
  0
SPLINE
  5
506
100
AcDbEntity
  8
0
100
AcDbSpline
 62
7
  6
CONTINUOUS
 70
0
 71
3
 72
11
 73
7
 74
0
 42
0.0000001
 43
0.0000001
 44
0.0000000001
 40
0.0
 40
0.0
 40
0.0
 40
0.0
 40
0.2339270242
 40
0.4815596891
 40
0.7384171542
 40
1.0
 40
1.0
 40
1.0
 40
1.0
 10
11.3180818665
 20
10.6443322028
 30
0.0
 10
11.2885375222
 20
10.6412146944
 30
0.0
 10
11.2276076061
 20
10.6358191914
 30
0.0
 10
11.1339934384
 20
10.630118818
 30
0.0
 10
11.0367566923
 20
10.6266282049
 30
0.0
 10
10.9709129577
 20
10.625836461
 30
0.0
 10
10.9376923431
 20
10.625836461
 30
0.0
  0
SPLINE
  5
507
100
AcDbEntity
  8
0
100
AcDbSpline
 62
7
  6
CONTINUOUS
 70
0
 71
3
 72
11
 73
7
 74
0
 42
0.0000001
 43
0.0000001
 44
0.0000000001
 40
0.0
 40
0.0
 40
0.0
 40
0.0
 40
0.2615828458
 40
0.5184403108
 40
0.7660729757
 40
1.0
 40
1.0
 40
1.0
 40
1.0
 10
10.9376923431
 20
10.625836461
 30
0.0
 10
10.9044717286
 20
10.625836461
 30
0.0
 10
10.8386279939
 20
10.6266282048
 30
0.0
 10
10.7413912477
 20
10.630118818
 30
0.0
 10
10.6477770799
 20
10.6358191914
 30
0.0
 10
10.5868471637
 20
10.6412146943
 30
0.0
 10
10.5573028193
 20
10.6443322027
 30
0.0
  0
SPLINE
  5
508
100
AcDbEntity
  8
0
100
AcDbSpline
 62
7
  6
CONTINUOUS
 70
0
 71
3
 72
23
 73
19
 74
0
 42
0.0000001
 43
0.0000001
 44
0.0000000001
 40
0.0
 40
0.0
 40
0.0
 40
0.0
 40
0.203101984
 40
0.3872921824
 40
0.4715125578
 40
0.5500729206
 40
0.6226814087
 40
0.6890634801
 40
0.7490026296
 40
0.8024448702
 40
0.8494192769
 40
0.8900405982
 40
0.9245738735
 40
0.9535584049
 40
0.9662937856
 40
0.9780958904
 40
0.989225019
 40
1.0
 40
1.0
 40
1.0
 40
1.0
 10
10.5573026905
 20
10.644327301
 30
0.0
 10
10.5316684238
 20
10.6470320023
 30
0.0
 10
10.4828581715
 20
10.6529036601
 30
0.0
 10
10.4237143765
 20
10.6621272554
 30
0.0
 10
10.3804525621
 20
10.6703661928
 30
0.0
 10
10.3512511451
 20
10.6766880665
 30
0.0
 10
10.3244425684
 20
10.6833123107
 30
0.0
 10
10.3001509239
 20
10.6902144283
 30
0.0
 10
10.2784814142
 20
10.6973776176
 30
0.0
 10
10.2595055267
 20
10.7047644254
 30
0.0
 10
10.2432710575
 20
10.71234065
 30
0.0
 10
10.2298118622
 20
10.7200816329
 30
0.0
 10
10.2191617548
 20
10.727964806
 30
0.0
 10
10.2123650244
 20
10.7349588745
 30
0.0
 10
10.2085960193
 20
10.7406325998
 30
0.0
 10
10.2066441033
 20
10.7447368134
 30
0.0
 10
10.2054593679
 20
10.7488687598
 30
0.0
 10
10.2051920324
 20
10.7516552695
 30
0.0
 10
10.2051920616
 20
10.7530227695
 30
0.0
  0
SPLINE
  5
509
100
AcDbEntity
  8
0
100
AcDbSpline
 62
7
  6
CONTINUOUS
 70
0
 71
3
 72
11
 73
7
 74
0
 42
0.0000001
 43
0.0000001
 44
0.0000000001
 40
0.0
 40
0.0
 40
0.0
 40
0.0
 40
0.2482083494
 40
0.4973358352
 40
0.7477971866
 40
1.0
 40
1.0
 40
1.0
 40
1.0
 10
10.2808730871
 20
10.6999141601
 30
0.0
 10
10.2749347306
 20
10.5875037969
 30
0.0
 10
10.2579922964
 20
10.3625015297
 30
0.0
 10
10.2175086236
 20
10.0256791034
 30
0.0
 10
10.1619315874
 20
9.6891807913
 30
0.0
 10
10.1150074432
 20
9.4660095057
 30
0.0
 10
10.0890863246
 20
9.35460674
 30
0.0
  0
SPLINE
  5
50A
100
AcDbEntity
  8
0
100
AcDbSpline
 62
7
  6
CONTINUOUS
 70
0
 71
3
 72
11
 73
7
 74
0
 42
0.0000001
 43
0.0000001
 44
0.0000000001
 40
0.0
 40
0.0
 40
0.0
 40
0.0
 40
0.2522028171
 40
0.502664168
 40
0.7517916517
 40
1.0
 40
1.0
 40
1.0
 40
1.0
 10
11.7862983608
 20
9.35460674
 30
0.0
 10
11.7603771633
 20
9.4660098451
 30
0.0
 10
11.7134528909
 20
9.6891818122
 30
0.0
 10
11.6578757535
 20
10.0256811568
 30
0.0
 10
11.617392072
 20
10.3625046169
 30
0.0
 10
11.6004496938
 20
10.5875075735
 30
0.0
 10
11.5945113808
 20
10.6999182803
 30
0.0
  0
LINE
  5
50B
100
AcDbEntity
  8
0
100
AcDbLine
 62
7
  6
CONTINUOUS
 10
12.0590688371
 20
8.195763828
 11
12.1451286893
 21
7.8324210802
  0
LINE
  5
50C
100
AcDbEntity
  8
0
100
AcDbLine
 62
7
  6
CONTINUOUS
 10
11.9419376089
 20
8.6914226545
 11
12.0590688371
 21
8.195763828
  0
LINE
  5
50D
100
AcDbEntity
  8
0
100
AcDbLine
 62
7
  6
CONTINUOUS
 10
12.1451286893
 20
7.8324210802
 11
12.4326923427
 21
6.6211772378
  0
SPLINE
  5
50E
100
AcDbEntity
  8
0
100
AcDbSpline
 62
7
  6
CONTINUOUS
 70
0
 71
3
 72
40
 73
36
 74
0
 42
0.0000001
 43
0.0000001
 44
0.0000000001
 40
0.0
 40
0.0
 40
0.0
 40
0.0
 40
0.0815330126
 40
0.1616556248
 40
0.2010038709
 40
0.2397476844
 40
0.2777559291
 40
0.3148740708
 40
0.3509110146
 40
0.3856369055
 40
0.418788395
 40
0.4500734454
 40
0.4792060021
 40
0.5059685556
 40
0.5303127319
 40
0.5416545678
 40
0.5525143093
 40
0.562982687
 40
0.5731693361
 40
0.5831986951
 40
0.5931972989
 40
0.6032860702
 40
0.6135695908
 40
0.6350161863
 40
0.6579977841
 40
0.6826669168
 40
0.7090031518
 40
0.7369006403
 40
0.7662163958
 40
0.7968002383
 40
0.8285133224
 40
0.8612232848
 40
0.8948212555
 40
0.9292077778
 40
1.0
 40
1.0
 40
1.0
 40
1.0
 10
10.1901923427
 20
6.6211772378
 30
0.0
 10
10.1706880267
 20
6.5855641541
 30
0.0
 10
10.1307958253
 20
6.5156133159
 30
0.0
 10
10.0777192401
 20
6.4306984301
 30
0.0
 10
10.0335209302
 20
6.3654600792
 30
0.0
 10
9.9997937987
 20
6.3184868425
 30
0.0
 10
9.9653102642
 20
6.2734546884
 30
0.0
 10
9.9301209158
 20
6.2307001637
 30
0.0
 10
9.8943019201
 20
6.1906333922
 30
0.0
 10
9.8579742883
 20
6.1537433679
 30
0.0
 10
9.8213147504
 20
6.1206043509
 30
0.0
 10
9.7845669295
 20
6.0918726778
 30
0.0
 10
9.7480418864
 20
6.0682613738
 30
0.0
 10
9.7121307173
 20
6.0505002879
 30
0.0
 10
9.6823589454
 20
6.0409381262
 30
0.0
 10
9.6594569756
 20
6.0371241441
 30
0.0
 10
9.6431813541
 20
6.0361673614
 30
0.0
 10
9.6274744176
 20
6.0370571758
 30
0.0
 10
9.6124006419
 20
6.0398001355
 30
0.0
 10
9.5980164915
 20
6.044354513
 30
0.0
 10
9.5843711328
 20
6.0506733904
 30
0.0
 10
9.5714908113
 20
6.0586703851
 30
0.0
 10
9.5551387994
 20
6.0716307706
 30
0.0
 10
9.53660906
 20
6.0918528994
 30
0.0
 10
9.5178116171
 20
6.1208099535
 30
0.0
 10
9.5017982729
 20
6.1540804683
 30
0.0
 10
9.4882888347
 20
6.1910302848
 30
0.0
 10
9.4770139914
 20
6.2311149182
 30
0.0
 10
9.4677322219
 20
6.273863668
 30
0.0
 10
9.4602164814
 20
6.3188790235
 30
0.0
 10
9.4542756837
 20
6.3658291311
 30
0.0
 10
9.4497220553
 20
6.414438891
 30
0.0
 10
9.446407649
 20
6.4644815001
 30
0.0
 10
9.4434200001
 20
6.5335335069
 30
0.0
 10
9.4426923427
 20
6.5859219551
 30
0.0
 10
9.4426923427
 20
6.6211772378
 30
0.0
  0
SPLINE
  5
50F
100
AcDbEntity
  8
0
100
AcDbSpline
 62
7
  6
CONTINUOUS
 70
0
 71
3
 72
18
 73
14
 74
0
 42
0.0000001
 43
0.0000001
 44
0.0000000001
 40
0.0
 40
0.0
 40
0.0
 40
0.0
 40
0.0639282798
 40
0.1277465315
 40
0.1913691407
 40
0.254739294
 40
0.3178347328
 40
0.3806592676
 40
0.5055208493
 40
0.6296647114
 40
0.7533328025
 40
0.8767295787
 40
1.0
 40
1.0
 40
1.0
 40
1.0
 10
10.9376923427
 20
6.0364724311
 30
0.0
 10
10.9164891485
 20
6.0364724311
 30
0.0
 10
10.874079319
 20
6.0389251893
 30
0.0
 10
10.8114158033
 20
6.0497831678
 30
0.0
 10
10.7504860217
 20
6.0673295886
 30
0.0
 10
10.6918921289
 20
6.0908700915
 30
0.0
 10
10.6359909804
 20
6.1196316844
 30
0.0
 10
10.5654307231
 20
6.1638254199
 30
0.0
 10
10.4842761753
 20
6.2285209374
 30
0.0
 10
10.397543634
 20
6.3169081372
 30
0.0
 10
10.3202623746
 20
6.4129642465
 30
0.0
 10
10.251182072
 20
6.5146547819
 30
0.0
 10
10.2098316305
 20
6.5853177082
 30
0.0
 10
10.1901923427
 20
6.6211772378
 30
0.0
  0
SPLINE
  5
510
100
AcDbEntity
  8
0
100
AcDbSpline
 62
7
  6
CONTINUOUS
 70
0
 71
3
 72
25
 73
21
 74
0
 42
0.0000001
 43
0.0000001
 44
0.0000000001
 40
0.0
 40
0.0
 40
0.0
 40
0.0
 40
0.06841119
 40
0.1391821667
 40
0.211642628
 40
0.2851183643
 40
0.4324066573
 40
0.5048615218
 40
0.575617634
 40
0.6439962122
 40
0.7093200663
 40
0.7709148935
 40
0.8281112623
 40
0.8802479318
 40
0.9042164619
 40
0.9266793138
 40
0.9475599114
 40
0.966784838
 40
0.9842853659
 40
1.0
 40
1.0
 40
1.0
 40
1.0
 10
10.1901923427
 20
6.6211772378
 30
0.0
 10
10.1981872893
 20
6.6649713447
 30
0.0
 10
10.2150825821
 20
6.7539557698
 30
0.0
 10
10.2422097578
 20
6.8889838191
 30
0.0
 10
10.2710978602
 20
7.0270144317
 30
0.0
 10
10.3112795421
 20
7.2135493672
 30
0.0
 10
10.3525527214
 20
7.3998421744
 30
0.0
 10
10.3935323686
 20
7.5843863301
 30
0.0
 10
10.4231770772
 20
7.7188471287
 30
0.0
 10
10.4513632376
 20
7.8488770979
 30
0.0
 10
10.4775558865
 20
7.9732374436
 30
0.0
 10
10.5012232595
 20
8.0906899442
 30
0.0
 10
10.5218337189
 20
8.1999967525
 30
0.0
 10
10.5364170791
 20
8.2855145061
 30
0.0
 10
10.5459715698
 20
8.3489430855
 30
0.0
 10
10.5518286492
 20
8.3923544583
 30
0.0
 10
10.5565170634
 20
8.4328021928
 30
0.0
 10
10.5599717305
 20
8.4701336293
 30
0.0
 10
10.5621287413
 20
8.504195433
 30
0.0
 10
10.5626923427
 20
8.5258107722
 30
0.0
 10
10.5626923427
 20
8.5360369125
 30
0.0
  0
SPLINE
  5
511
100
AcDbEntity
  8
0
100
AcDbSpline
 62
7
  6
CONTINUOUS
 70
0
 71
3
 72
41
 73
37
 74
0
 42
0.0000001
 43
0.0000001
 44
0.0000000001
 40
0.0
 40
0.0
 40
0.0
 40
0.0
 40
0.1033360194
 40
0.2041593653
 40
0.3017447508
 40
0.3953668882
 40
0.4843004922
 40
0.5678565463
 40
0.6454734408
 40
0.7166175285
 40
0.7807551639
 40
0.8100297989
 40
0.8373527379
 40
0.8626672122
 40
0.885940262
 40
0.907142434
 40
0.9262442754
 40
0.9432163357
 40
0.958029167
 40
0.9646166709
 40
0.9706533271
 40
0.9761354567
 40
0.9810593821
 40
0.9854214273
 40
0.9892179191
 40
0.9924451894
 40
0.9950997033
 40
0.9962117425
 40
0.997180549
 40
0.9980063364
 40
0.9986893267
 40
0.9992297582
 40
0.9996279089
 40
0.9998841851
 40
0.9999594249
 40
1.0
 40
1.0
 40
1.0
 40
1.0
 10
11.3209050789
 20
11.2909678122
 30
0.0
 10
11.3206855265
 20
11.333423515
 30
0.0
 10
11.3202567794
 20
11.4173026123
 30
0.0
 10
11.3196341673
 20
11.5412748273
 30
0.0
 10
11.3190385021
 20
11.6612561159
 30
0.0
 10
11.3184698348
 20
11.7763525011
 30
0.0
 10
11.3179281552
 20
11.8856849079
 30
0.0
 10
11.3174131349
 20
11.9884415087
 30
0.0
 10
11.316925239
 20
12.0838892157
 30
0.0
 10
11.3164646055
 20
12.1713587743
 30
0.0
 10
11.3160931833
 20
12.2389667969
 30
0.0
 10
11.3158076826
 20
12.2885708156
 30
0.0
 10
11.3156069152
 20
12.3222243107
 30
0.0
 10
11.3154128563
 20
12.353412011
 30
0.0
 10
11.3152256097
 20
12.3820849472
 30
0.0
 10
11.3150452075
 20
12.4082053718
 30
0.0
 10
11.3148717002
 20
12.4317369778
 30
0.0
 10
11.3147051252
 20
12.4526434582
 30
0.0
 10
11.3145673446
 20
12.4684084051
 30
0.0
 10
11.314459487
 20
12.4796805547
 30
0.0
 10
11.3143835238
 20
12.4871192534
 30
0.0
 10
11.3143093035
 20
12.4938744405
 30
0.0
 10
11.3142368438
 20
12.4999415782
 30
0.0
 10
11.3141661726
 20
12.5053161294
 30
0.0
 10
11.314097356
 20
12.509993558
 30
0.0
 10
11.3140304388
 20
12.5139693815
 30
0.0
 10
11.3139735702
 20
12.5168422809
 30
0.0
 10
11.3139279082
 20
12.5187873062
 30
0.0
 10
11.3138961766
 20
12.5199810821
 30
0.0
 10
11.3138650783
 20
12.5209985831
 30
0.0
 10
11.3138343039
 20
12.5218398438
 30
0.0
 10
11.3138050206
 20
12.5225057403
 30
0.0
 10
11.3137750158
 20
12.5229950841
 30
0.0
 10
11.3137521054
 20
12.5232952561
 30
0.0
 10
11.3137284088
 20
12.5234452506
 30
0.0
 10
11.3137187318
 20
12.5234929299
 30
0.0
 10
11.3137105402
 20
12.5235074491
 30
0.0
  0
SPLINE
  5
512
100
AcDbEntity
  8
0
100
AcDbSpline
 62
9
  6
CONTINUOUS
 70
0
 71
3
 72
20
 73
16
 74
0
 42
0.0000001
 43
0.0000001
 44
0.0000000001
 40
0.0
 40
0.0
 40
0.0
 40
0.0
 40
0.0404820529
 40
0.0830321238
 40
0.1280750156
 40
0.1759368782
 40
0.22686068
 40
0.2810221434
 40
0.3385439783
 40
0.3995076966
 40
0.4639405534
 40
0.5317498603
 40
0.6768674753
 40
0.8334903745
 40
1.0
 40
1.0
 40
1.0
 40
1.0
 10
11.6628140123
 20
11.0384127734
 30
0.0
 10
11.6614724506
 20
11.0441897289
 30
0.0
 10
11.6578965496
 20
11.0558589505
 30
0.0
 10
11.650229595
 20
11.0730269154
 30
0.0
 10
11.640198538
 20
11.0901902248
 30
0.0
 10
11.6278518198
 20
11.1072999632
 30
0.0
 10
11.6132331141
 20
11.1243125538
 30
0.0
 10
11.5963842469
 20
11.1411812069
 30
0.0
 10
11.5773459754
 20
11.1578583095
 30
0.0
 10
11.5561608975
 20
11.1742924065
 30
0.0
 10
11.5328877983
 20
11.1904239127
 30
0.0
 10
11.4984223895
 20
11.2119699561
 30
0.0
 10
11.4507087952
 20
11.2376808858
 30
0.0
 10
11.3881731586
 20
11.2659817658
 30
0.0
 10
11.3439180921
 20
11.2828768055
 30
0.0
 10
11.3209050789
 20
11.2909678122
 30
0.0
  0
SPLINE
  5
513
100
AcDbEntity
  8
0
100
AcDbSpline
 62
9
  6
CONTINUOUS
 70
0
 71
3
 72
11
 73
7
 74
0
 42
0.0000001
 43
0.0000001
 44
0.0000000001
 40
0.0
 40
0.0
 40
0.0
 40
0.0
 40
0.2359133398
 40
0.4835386947
 40
0.739396503
 40
1.0
 40
1.0
 40
1.0
 40
1.0
 10
11.3209050789
 20
11.2909678122
 30
0.0
 10
11.2909489201
 20
11.2948900352
 30
0.0
 10
11.2293908687
 20
11.301748421
 30
0.0
 10
11.1349715189
 20
11.3090959769
 30
0.0
 10
11.037210232
 20
11.3136326028
 30
0.0
 10
10.9710660857
 20
11.3146684848
 30
0.0
 10
10.9376923427
 20
11.3146684848
 30
0.0
  0
SPLINE
  5
514
100
AcDbEntity
  8
0
100
AcDbSpline
 62
7
  6
CONTINUOUS
 70
0
 71
3
 72
40
 73
36
 74
0
 42
0.0000001
 43
0.0000001
 44
0.0000000001
 40
0.0
 40
0.0
 40
0.0
 40
0.0
 40
0.1033208793
 40
0.20412994
 40
0.3017022189
 40
0.3953127518
 40
0.4842365772
 40
0.5677849092
 40
0.6453963239
 40
0.7165374124
 40
0.7806747674
 40
0.809950356
 40
0.837275016
 40
0.8625919332
 40
0.8858681249
 40
0.9070741507
 40
0.9261805713
 40
0.9431579491
 40
0.9579768493
 40
0.9706078421
 40
0.9760936793
 40
0.9810215083
 40
0.9853876547
 40
0.9891884471
 40
0.9924202188
 40
0.9950794301
 40
0.9961938793
 40
0.9971651344
 40
0.997993409
 40
0.9986789248
 40
0.9992219194
 40
0.9996226698
 40
0.9998815774
 40
0.9999581365
 40
1.0
 40
1.0
 40
1.0
 40
1.0
 10
10.5544796066
 20
11.2909678122
 30
0.0
 10
10.5546991266
 20
11.3334172551
 30
0.0
 10
10.5551278122
 20
11.4172841849
 30
0.0
 10
10.5557503382
 20
11.5412388101
 30
0.0
 10
10.5563459253
 20
11.6612039652
 30
0.0
 10
10.5569145225
 20
11.776286073
 30
0.0
 10
10.55745614
 20
11.88560642
 30
0.0
 10
10.5579711061
 20
11.9883534835
 30
0.0
 10
10.5584589564
 20
12.0837944454
 30
0.0
 10
10.5589195525
 20
12.1712603238
 30
0.0
 10
10.559290946
 20
12.2388673279
 30
0.0
 10
10.5595764264
 20
12.2884722842
 30
0.0
 10
10.5597771836
 20
12.3221278506
 30
0.0
 10
10.5599712341
 20
12.3533185236
 30
0.0
 10
10.5601584756
 20
12.3819953111
 30
0.0
 10
10.5603388716
 20
12.4081204671
 30
0.0
 10
10.5605123855
 20
12.4316577007
 30
0.0
 10
10.5606789368
 20
12.4525707219
 30
0.0
 10
10.5608384716
 20
12.4708232406
 30
0.0
 10
10.5609708505
 20
12.4843544422
 30
0.0
 10
10.5610747779
 20
12.4938219109
 30
0.0
 10
10.5611472461
 20
12.4998938554
 30
0.0
 10
10.5612179212
 20
12.5052734577
 30
0.0
 10
10.561286744
 20
12.5099561838
 30
0.0
 10
10.5613536689
 20
12.5139375503
 30
0.0
 10
10.5614105402
 20
12.5168152179
 30
0.0
 10
10.561456202
 20
12.5187641678
 30
0.0
 10
10.561487936
 20
12.5199609635
 30
0.0
 10
10.5615190461
 20
12.5209815244
 30
0.0
 10
10.5615498111
 20
12.5218259153
 30
0.0
 10
10.5615791504
 20
12.5224949291
 30
0.0
 10
10.5616090761
 20
12.5229875793
 30
0.0
 10
10.5616321851
 20
12.5232902682
 30
0.0
 10
10.5616557171
 20
12.5234426226
 30
0.0
 10
10.5616655291
 20
12.5234912313
 30
0.0
 10
10.5616735866
 20
12.5235064271
 30
0.0
  0
SPLINE
  5
515
100
AcDbEntity
  8
0
100
AcDbSpline
 62
9
  6
CONTINUOUS
 70
0
 71
3
 72
11
 73
7
 74
0
 42
0.0000001
 43
0.0000001
 44
0.0000000001
 40
0.0
 40
0.0
 40
0.0
 40
0.0
 40
0.2601261596
 40
0.5151951628
 40
0.7626864963
 40
1.0
 40
1.0
 40
1.0
 40
1.0
 10
10.9376923427
 20
11.3146684848
 30
0.0
 10
10.9043829458
 20
11.3146684848
 30
0.0
 10
10.8384069862
 20
11.3134891718
 30
0.0
 10
10.7408521075
 20
11.3086073064
 30
0.0
 10
10.6463947622
 20
11.3011213148
 30
0.0
 10
10.5846542184
 20
11.2945645348
 30
0.0
 10
10.5544796066
 20
11.2909678122
 30
0.0
  0
SPLINE
  5
516
100
AcDbEntity
  8
0
100
AcDbSpline
 62
9
  6
CONTINUOUS
 70
0
 71
3
 72
21
 73
17
 74
0
 42
0.0000001
 43
0.0000001
 44
0.0000000001
 40
0.0
 40
0.0
 40
0.0
 40
0.0
 40
0.1657025768
 40
0.3223225372
 40
0.396570535
 40
0.4677841365
 40
0.5357532871
 40
0.6003021638
 40
0.6613270669
 40
0.7188727952
 40
0.7730409783
 40
0.8239701896
 40
0.8718464511
 40
0.9169157501
 40
0.9594979128
 40
1.0
 40
1.0
 40
1.0
 40
1.0
 10
10.5544796066
 20
11.2909678122
 30
0.0
 10
10.5317013609
 20
11.2825808843
 30
0.0
 10
10.4877275753
 20
11.2653365577
 30
0.0
 10
10.4347649614
 20
11.2413828849
 30
0.0
 10
10.3953739684
 20
11.2212036231
 30
0.0
 10
10.3680779848
 20
11.2059421928
 30
0.0
 10
10.3426479083
 20
11.1903039642
 30
0.0
 10
10.3192265006
 20
11.1743048715
 30
0.0
 10
10.297946676
 20
11.1579474946
 30
0.0
 10
10.2788627097
 20
11.1413044679
 30
0.0
 10
10.2620066175
 20
11.1244375603
 30
0.0
 10
10.2474082525
 20
11.1074043455
 30
0.0
 10
10.2350984015
 20
11.0902617621
 30
0.0
 10
10.2251095252
 20
11.0730638399
 30
0.0
 10
10.2174783899
 20
11.0558699683
 30
0.0
 10
10.2139127624
 20
11.0441920007
 30
0.0
 10
10.2125706731
 20
11.0384127734
 30
0.0
  0
SPLINE
  5
517
100
AcDbEntity
  8
0
100
AcDbSpline
 62
9
  6
CONTINUOUS
 70
0
 71
3
 72
15
 73
11
 74
0
 42
0.0000001
 43
0.0000001
 44
0.0000000001
 40
0.0
 40
0.0
 40
0.0
 40
0.0
 40
0.1593606897
 40
0.3109983369
 40
0.4535991174
 40
0.5859554863
 40
0.7070277179
 40
0.8161638403
 40
0.9135819326
 40
1.0
 40
1.0
 40
1.0
 40
1.0
 10
10.5539424067
 20
11.1900222393
 30
0.0
 10
10.5353495018
 20
11.1844067159
 30
0.0
 10
10.4992360463
 20
11.1728665009
 30
0.0
 10
10.4472286271
 20
11.1540762976
 30
0.0
 10
10.3991360862
 20
11.134267351
 30
0.0
 10
10.3555256396
 20
11.1135190104
 30
0.0
 10
10.3169338767
 20
11.0919097162
 30
0.0
 10
10.2838546219
 20
11.0694323214
 30
0.0
 10
10.2565380736
 20
11.0463269723
 30
0.0
 10
10.2413938362
 20
11.0296803268
 30
0.0
 10
10.235013287
 20
11.02130061
 30
0.0
  0
SPLINE
  5
518
100
AcDbEntity
  8
0
100
AcDbSpline
 62
9
  6
CONTINUOUS
 70
0
 71
3
 72
11
 73
7
 74
0
 42
0.0000001
 43
0.0000001
 44
0.0000000001
 40
0.0
 40
0.0
 40
0.0
 40
0.0
 40
0.2717540702
 40
0.5274570936
 40
0.7692969457
 40
1.0
 40
1.0
 40
1.0
 40
1.0
 10
10.235013287
 20
11.02130061
 30
0.0
 10
10.2319472104
 20
11.0172738637
 30
0.0
 10
10.2263233279
 20
11.009199532
 30
0.0
 10
10.2193269208
 20
10.9966665383
 30
0.0
 10
10.2140668976
 20
10.9841328008
 30
0.0
 10
10.211690957
 20
10.9756278075
 30
0.0
 10
10.2108250868
 20
10.9714193196
 30
0.0
  0
SPLINE
  5
519
100
AcDbEntity
  8
0
100
AcDbSpline
 62
7
  6
CONTINUOUS
 70
0
 71
3
 72
25
 73
21
 74
0
 42
0.0000001
 43
0.0000001
 44
0.0000000001
 40
0.0
 40
0.0
 40
0.0
 40
0.0
 40
0.0157146341
 40
0.033215162
 40
0.0524400886
 40
0.0733206862
 40
0.0957835381
 40
0.1197520682
 40
0.1718887377
 40
0.2290851065
 40
0.2906799337
 40
0.3560037878
 40
0.424382366
 40
0.4951384782
 40
0.5675933427
 40
0.7148816357
 40
0.788357372
 40
0.8608178333
 40
0.93158881
 40
1.0
 40
1.0
 40
1.0
 40
1.0
 10
11.3126923427
 20
8.5360369125
 30
0.0
 10
11.3126923427
 20
8.5258107722
 30
0.0
 10
11.3132559442
 20
8.504195433
 30
0.0
 10
11.3154129549
 20
8.4701336293
 30
0.0
 10
11.3188676221
 20
8.4328021928
 30
0.0
 10
11.3235560362
 20
8.3923544583
 30
0.0
 10
11.3294131156
 20
8.3489430855
 30
0.0
 10
11.3389676064
 20
8.2855145061
 30
0.0
 10
11.3535509666
 20
8.1999967525
 30
0.0
 10
11.3741614259
 20
8.0906899442
 30
0.0
 10
11.397828799
 20
7.9732374436
 30
0.0
 10
11.4240214478
 20
7.8488770979
 30
0.0
 10
11.4522076083
 20
7.7188471287
 30
0.0
 10
11.4818523169
 20
7.5843863301
 30
0.0
 10
11.522831964
 20
7.3998421744
 30
0.0
 10
11.5641051433
 20
7.2135493672
 30
0.0
 10
11.6042868253
 20
7.0270144317
 30
0.0
 10
11.6331749276
 20
6.8889838191
 30
0.0
 10
11.6603021033
 20
6.7539557698
 30
0.0
 10
11.6771973962
 20
6.6649713447
 30
0.0
 10
11.6851923427
 20
6.6211772378
 30
0.0
  0
LINE
  5
51A
100
AcDbEntity
  8
0
100
AcDbLine
 62
7
  6
CONTINUOUS
 10
11.3214422601
 20
11.1900223337
 11
11.3209122331
 21
11.2909652969
  0
SPLINE
  5
51B
100
AcDbEntity
  8
0
100
AcDbSpline
 62
9
  6
CONTINUOUS
 70
0
 71
3
 72
11
 73
7
 74
0
 42
0.0000001
 43
0.0000001
 44
0.0000000001
 40
0.0
 40
0.0
 40
0.0
 40
0.0
 40
0.2310037065
 40
0.4729290847
 40
0.7285309334
 40
1.0
 40
1.0
 40
1.0
 40
1.0
 10
11.6645595986
 20
10.9714193196
 30
0.0
 10
11.6637048397
 20
10.9755738023
 30
0.0
 10
11.6613616268
 20
10.9839657809
 30
0.0
 10
11.656179419
 20
10.9963295144
 30
0.0
 10
11.6492968203
 20
11.0086872704
 30
0.0
 10
11.643770636
 20
11.0166513011
 30
0.0
 10
11.6407598819
 20
11.0206237738
 30
0.0
  0
SPLINE
  5
51C
100
AcDbEntity
  8
0
100
AcDbSpline
 62
9
  6
CONTINUOUS
 70
0
 71
3
 72
15
 73
11
 74
0
 42
0.0000001
 43
0.0000001
 44
0.0000000001
 40
0.0
 40
0.0
 40
0.0
 40
0.0
 40
0.0862501485
 40
0.1835149463
 40
0.2924537833
 40
0.4132389482
 40
0.5453104951
 40
0.6878015682
 40
0.8397205852
 40
1.0
 40
1.0
 40
1.0
 40
1.0
 10
11.6407598819
 20
11.0206237738
 30
0.0
 10
11.6343961242
 20
11.0290202926
 30
0.0
 10
11.6192760806
 20
11.0457039807
 30
0.0
 10
11.5920154249
 20
11.0688981136
 30
0.0
 10
11.5590401945
 20
11.0915437175
 30
0.0
 10
11.5205993152
 20
11.1134298706
 30
0.0
 10
11.477090083
 20
11.1344538933
 30
0.0
 10
11.4289581475
 20
11.1544470625
 30
0.0
 10
11.3766723456
 20
11.1732373666
 30
0.0
 10
11.340246208
 20
11.1845702249
 30
0.0
 10
11.3214422601
 20
11.1900223337
 30
0.0
  0
SPLINE
  5
51D
100
AcDbEntity
  8
0
100
AcDbSpline
 62
9
  6
CONTINUOUS
 70
0
 71
3
 72
11
 73
7
 74
0
 42
0.0000001
 43
0.0000001
 44
0.0000000001
 40
0.0
 40
0.0
 40
0.0
 40
0.0
 40
0.2352910604
 40
0.4828913812
 40
0.7390488146
 40
1.0
 40
1.0
 40
1.0
 40
1.0
 10
11.3214420511
 20
11.1900235772
 30
0.0
 10
11.2915059236
 20
11.193739896
 30
0.0
 10
11.2299219533
 20
11.2002222074
 30
0.0
 10
11.135410256
 20
11.2071436066
 30
0.0
 10
11.0374488122
 20
11.2114098922
 30
0.0
 10
10.9711480663
 20
11.2123827553
 30
0.0
 10
10.9376923427
 20
11.2123827553
 30
0.0
  0
LINE
  5
51E
100
AcDbEntity
  8
0
100
AcDbLine
 62
7
  6
CONTINUOUS
 10
10.5539424138
 20
11.1900235669
 11
10.5544724657
 21
11.290966893
  0
SPLINE
  5
51F
100
AcDbEntity
  8
0
100
AcDbSpline
 62
9
  6
CONTINUOUS
 70
0
 71
3
 72
11
 73
7
 74
0
 42
0.0000001
 43
0.0000001
 44
0.0000000001
 40
0.0
 40
0.0
 40
0.0
 40
0.0
 40
0.2605737711
 40
0.5161068896
 40
0.7636002173
 40
1.0
 40
1.0
 40
1.0
 40
1.0
 10
10.9376923427
 20
11.2123827553
 30
0.0
 10
10.9042874391
 20
11.2123827553
 30
0.0
 10
10.8381196934
 20
11.2112965601
 30
0.0
 10
10.7403204919
 20
11.2067586604
 30
0.0
 10
10.645777626
 20
11.1997286195
 30
0.0
 10
10.5840504137
 20
11.1934830717
 30
0.0
 10
10.5539426497
 20
11.1900236449
 30
0.0
  0
SPLINE
  5
520
100
AcDbEntity
  8
0
100
AcDbSpline
 62
7
  6
CONTINUOUS
 70
0
 71
3
 72
11
 73
7
 74
0
 42
0.0000001
 43
0.0000001
 44
0.0000000001
 40
0.0
 40
0.0
 40
0.0
 40
0.0
 40
0.2619730969
 40
0.5190864097
 40
0.7666515945
 40
1.0
 40
1.0
 40
1.0
 40
1.0
 10
10.9376923423
 20
10.8802310411
 30
0.0
 10
10.9714180349
 20
10.8802310411
 30
0.0
 10
11.0382465234
 20
10.8794139423
 30
0.0
 10
11.1368872979
 20
10.8758166404
 30
0.0
 10
11.2317276702
 20
10.8699487655
 30
0.0
 10
11.2934011597
 20
10.8643937673
 30
0.0
 10
11.3232696837
 20
10.8611827456
 30
0.0
  0
SPLINE
  5
521
100
AcDbEntity
  8
0
100
AcDbSpline
 62
7
  6
CONTINUOUS
 70
0
 71
3
 72
19
 73
15
 74
0
 42
0.0000001
 43
0.0000001
 44
0.0000000001
 40
0.0
 40
0.0
 40
0.0
 40
0.0
 40
0.1787187135
 40
0.3446105734
 40
0.496222199
 40
0.6321441027
 40
0.6938070341
 40
0.7510603678
 40
0.8037833938
 40
0.851952517
 40
0.8955851524
 40
0.9347290144
 40
0.9694782148
 40
1.0
 40
1.0
 40
1.0
 40
1.0
 10
11.3232697246
 20
10.8611773945
 30
0.0
 10
11.3436906516
 20
10.8589820948
 30
0.0
 10
11.383018881
 20
10.8542812888
 30
0.0
 10
11.439443695
 20
10.845962751
 30
0.0
 10
11.4907358354
 20
10.8367229149
 30
0.0
 10
11.5299420178
 20
10.8280916948
 30
0.0
 10
11.5582831998
 20
10.8206982983
 30
0.0
 10
11.5772191492
 20
10.8151631997
 30
0.0
 10
11.5944815011
 20
10.8094651978
 30
0.0
 10
11.6100351216
 20
10.8036237937
 30
0.0
 10
11.6238574572
 20
10.7976568672
 30
0.0
 10
11.6359305502
 20
10.7915798025
 30
0.0
 10
11.6462351696
 20
10.7854087813
 30
0.0
 10
11.6522967323
 20
10.7809599636
 30
0.0
 10
11.6549825581
 20
10.7787039446
 30
0.0
  0
SPLINE
  5
522
100
AcDbEntity
  8
0
100
AcDbSpline
 62
7
  6
CONTINUOUS
 70
0
 71
3
 72
11
 73
7
 74
0
 42
0.0000001
 43
0.0000001
 44
0.0000000001
 40
0.0
 40
0.0
 40
0.0
 40
0.0
 40
0.2980337155
 40
0.5578983731
 40
0.7877873628
 40
1.0
 40
1.0
 40
1.0
 40
1.0
 10
11.6549825581
 20
10.7787039446
 30
0.0
 10
11.657278134
 20
10.7767757246
 30
0.0
 10
11.6613822241
 20
10.7729186221
 30
0.0
 10
11.666249887
 20
10.7666103689
 30
0.0
 10
11.6693288413
 20
10.760184971
 30
0.0
 10
11.6701281359
 20
10.7557376348
 30
0.0
 10
11.6701848171
 20
10.7536037203
 30
0.0
  0
LINE
  5
523
100
AcDbEntity
  8
0
100
AcDbLine
 62
9
  6
CONTINUOUS
 10
10.5626927683
 20
8.5360423393
 11
10.0890941428
 21
9.3546156428
  0
SPLINE
  5
524
100
AcDbEntity
  8
0
100
AcDbSpline
 62
7
  6
CONTINUOUS
 70
0
 71
3
 72
11
 73
7
 74
0
 42
0.0000001
 43
0.0000001
 44
0.0000000001
 40
0.0
 40
0.0
 40
0.0
 40
0.0
 40
0.2333484054
 40
0.4809135902
 40
0.738026903
 40
1.0
 40
1.0
 40
1.0
 40
1.0
 10
10.5521150013
 20
10.8611827455
 30
0.0
 10
10.5819835253
 20
10.8643937672
 30
0.0
 10
10.6436570147
 20
10.8699487654
 30
0.0
 10
10.7384973869
 20
10.8758166403
 30
0.0
 10
10.8371381613
 20
10.8794139423
 30
0.0
 10
10.9039666497
 20
10.8802310411
 30
0.0
 10
10.9376923423
 20
10.8802310411
 30
0.0
  0
SPLINE
  5
525
100
AcDbEntity
  8
0
100
AcDbSpline
 62
7
  6
CONTINUOUS
 70
0
 71
3
 72
11
 73
7
 74
0
 42
0.0000001
 43
0.0000001
 44
0.0000000001
 40
0.0
 40
0.0
 40
0.0
 40
0.0
 40
0.2122126266
 40
0.4421019406
 40
0.7019667157
 40
1.0
 40
1.0
 40
1.0
 40
1.0
 10
10.2051998779
 20
10.7536040794
 30
0.0
 10
10.2052565948
 20
10.7557379668
 30
0.0
 10
10.2060559451
 20
10.7601852376
 30
0.0
 10
10.2091349165
 20
10.7666105325
 30
0.0
 10
10.2140025427
 20
10.7729186896
 30
0.0
 10
10.2181065832
 20
10.7767757394
 30
0.0
 10
10.2204021279
 20
10.778703933
 30
0.0
  0
SPLINE
  5
526
100
AcDbEntity
  8
0
100
AcDbSpline
 62
7
  6
CONTINUOUS
 70
0
 71
3
 72
19
 73
15
 74
0
 42
0.0000001
 43
0.0000001
 44
0.0000000001
 40
0.0
 40
0.0
 40
0.0
 40
0.0
 40
0.030521785
 40
0.0652709853
 40
0.1044148469
 40
0.1480474815
 40
0.1962166034
 40
0.2489396271
 40
0.3061929575
 40
0.3678558847
 40
0.5037777803
 40
0.6553894017
 40
0.8212812666
 40
1.0
 40
1.0
 40
1.0
 40
1.0
 10
10.2204021279
 20
10.778703933
 30
0.0
 10
10.2230879538
 20
10.7809599518
 30
0.0
 10
10.2291495167
 20
10.785408769
 30
0.0
 10
10.2394541363
 20
10.7915797897
 30
0.0
 10
10.2515272292
 20
10.7976568542
 30
0.0
 10
10.2653495645
 20
10.8036237807
 30
0.0
 10
10.2809031843
 20
10.8094651851
 30
0.0
 10
10.298165535
 20
10.8151631877
 30
0.0
 10
10.3171014829
 20
10.8206982875
 30
0.0
 10
10.3454426625
 20
10.828091686
 30
0.0
 10
10.3846488422
 20
10.8367229088
 30
0.0
 10
10.4359409814
 20
10.8459627462
 30
0.0
 10
10.4923657979
 20
10.8542812823
 30
0.0
 10
10.5316940307
 20
10.8589820838
 30
0.0
 10
10.5521149603
 20
10.8611773802
 30
0.0
  0
LINE
  5
527
100
AcDbEntity
  8
0
100
AcDbLine
 62
9
  6
CONTINUOUS
 10
11.7862905427
 20
9.3546156428
 11
11.3126919172
 21
8.5360423393
  0
SPLINE
  5
528
100
AcDbEntity
  8
0
100
AcDbSpline
 62
7
  6
CONTINUOUS
 70
0
 71
3
 72
40
 73
36
 74
0
 42
0.0000001
 43
0.0000001
 44
0.0000000001
 40
0.0
 40
0.0
 40
0.0
 40
0.0
 40
0.0707920139
 40
0.105178406
 40
0.1387761213
 40
0.1714860784
 40
0.2031988786
 40
0.2337827464
 40
0.2630982315
 40
0.2909958472
 40
0.3173321078
 40
0.3420012236
 40
0.3649829339
 40
0.3864296543
 40
0.3967132139
 40
0.4068020323
 40
0.416800649
 40
0.4268300278
 40
0.4370166577
 40
0.4474850275
 40
0.4583447283
 40
0.4696865356
 40
0.4940305923
 40
0.5207929841
 40
0.5499253557
 40
0.5812102609
 40
0.6143617985
 40
0.6490876759
 40
0.6851244977
 40
0.7222429861
 40
0.7602512412
 40
0.7989953961
 40
0.8383436817
 40
0.9184667533
 40
1.0
 40
1.0
 40
1.0
 40
1.0
 10
12.4326923427
 20
6.6211772378
 30
0.0
 10
12.4326923427
 20
6.5859220588
 30
0.0
 10
12.4319645642
 20
6.5335337846
 30
0.0
 10
12.4289771534
 20
6.4644820608
 30
0.0
 10
12.4256625248
 20
6.4144396643
 30
0.0
 10
12.4211092554
 20
6.3658301404
 30
0.0
 10
12.4151681798
 20
6.318880204
 30
0.0
 10
12.4076529058
 20
6.2738650349
 30
0.0
 10
12.398370869
 20
6.2311164051
 30
0.0
 10
12.3870964305
 20
6.1910317223
 30
0.0
 10
12.373586952
 20
6.1540818421
 30
0.0
 10
12.3575737378
 20
6.1208112063
 30
0.0
 10
12.3387764591
 20
6.0918539227
 30
0.0
 10
12.320246791
 20
6.0716315226
 30
0.0
 10
12.3038947177
 20
6.0586710521
 30
0.0
 10
12.2910144667
 20
6.0506738529
 30
0.0
 10
12.2773691043
 20
6.0443548817
 30
0.0
 10
12.2629849921
 20
6.0398003685
 30
0.0
 10
12.2479112409
 20
6.0370572868
 30
0.0
 10
12.2322043444
 20
6.0361673592
 30
0.0
 10
12.2159287549
 20
6.0371240297
 30
0.0
 10
12.1930268518
 20
6.0409378417
 30
0.0
 10
12.1632551743
 20
6.0504997999
 30
0.0
 10
12.1273441384
 20
6.0682606334
 30
0.0
 10
12.0908192201
 20
6.0918716778
 30
0.0
 10
12.0540713864
 20
6.1206031053
 30
0.0
 10
12.0174117956
 20
6.1537419878
 30
0.0
 10
11.9810841927
 20
6.1906319755
 30
0.0
 10
11.9452649195
 20
6.2306986424
 30
0.0
 10
11.9100756154
 20
6.2734533559
 30
0.0
 10
11.87559165
 20
6.3184856171
 30
0.0
 10
11.841864529
 20
6.3654591036
 30
0.0
 10
11.7976657879
 20
6.430697665
 30
0.0
 10
11.7445890926
 20
6.5156129197
 30
0.0
 10
11.7046967148
 20
6.5855640518
 30
0.0
 10
11.6851923427
 20
6.6211772378
 30
0.0
  0
SPLINE
  5
529
100
AcDbEntity
  8
0
100
AcDbSpline
 62
7
  6
CONTINUOUS
 70
0
 71
3
 72
18
 73
14
 74
0
 42
0.0000001
 43
0.0000001
 44
0.0000000001
 40
0.0
 40
0.0
 40
0.0
 40
0.0
 40
0.0639282855
 40
0.1277465377
 40
0.191369147
 40
0.2547393004
 40
0.3178347392
 40
0.3806592744
 40
0.5055208575
 40
0.6296647187
 40
0.7533328077
 40
0.876729581
 40
1.0
 40
1.0
 40
1.0
 40
1.0
 10
10.9376923427
 20
6.0364724298
 30
0.0
 10
10.9588955389
 20
6.0364724298
 30
0.0
 10
11.0013053702
 20
6.0389251904
 30
0.0
 10
11.063968888
 20
6.0497831688
 30
0.0
 10
11.1248986697
 20
6.0673295907
 30
0.0
 10
11.1834925623
 20
6.0908700941
 30
0.0
 10
11.2393937106
 20
6.1196316877
 30
0.0
 10
11.3099539683
 20
6.1638254239
 30
0.0
 10
11.3911085155
 20
6.2285209425
 30
0.0
 10
11.4778410557
 20
6.3169081426
 30
0.0
 10
11.5551223135
 20
6.4129642507
 30
0.0
 10
11.6242026144
 20
6.5146547843
 30
0.0
 10
11.6655530554
 20
6.5853177089
 30
0.0
 10
11.6851923427
 20
6.6211772378
 30
0.0
  0
LINE
  5
52A
100
AcDbEntity
  8
0
100
AcDbLine
 62
7
  6
CONTINUOUS
 10
14.9415852734
 20
8.8832288635
 11
14.9419458735
 21
8.8832279161
  0
ENDSEC
  0
SECTION
  2
OBJECTS
  0
DICTIONARY
  5
C
100
AcDbDictionary
280
0
281
1
  3
ACAD_GROUP
350
D
  3
ACAD_MLINESTYLE
350
17
  3
ACAD_LAYOUT
350
1A
  3
ACAD_PLOTSETTINGS
350
19
  3
ACAD_PLOTSTYLENAME
350
E
  0
DICTIONARY
  5
D
102
{ACAD_REACTORS
330
C
102
}
100
AcDbDictionary
280
0
281
1
  0
ACDBDICTIONARYWDFLT
  5
E
102
{ACAD_REACTORS
330
C
102
}
100
AcDbDictionary
281
1
  3
Normal
350
F
100
AcDbDictionaryWithDefault
340
F
  0
DICTIONARY
  5
17
102
{ACAD_REACTORS
330
C
102
}
100
AcDbDictionary
280
0
281
1
  3
Standard
350
18
  0
DICTIONARY
  5
19
102
{ACAD_REACTORS
330
C
102
}
100
AcDbDictionary
281
1
  0
DICTIONARY
  5
1A
102
{ACAD_REACTORS
330
C
102
}
100
AcDbDictionary
281
1
  3
Model
350
52B
  3
Layout1
350
52C
  0
ACDBPLACEHOLDER
  5
F
102
{ACAD_REACTORS
330
E
102
}
  0
MLINESTYLE
  5
18
102
{ACAD_REACTORS
330
17
102
}
100
AcDbMlineStyle
  2
STANDARD
 70
0
  3

 62
256
 51
90.0
 52
90.0
 71
2
 49
0.5
 62
256
  6
BYLAYER
 49
-0.5
 62
256
  6
BYLAYER
  0
LAYOUT
  5
52B
102
{ACAD_REACTORS
330
1A
102
}
100
AcDbPlotSettings
  1

  2
none_device
  4
ANSI_C_(22.00_x_17.00_Inches)
  6

 40
0.0
 41
0.0
 42
0.0
 43
0.0
 44
558.8
 45
431.8
 46
0.0
 47
0.0
 48
0.0
 49
0.0
140
0.0
141
0.0
142
1.0
143
1.0
 70
1024
 72
0
 73
0
 74
0
  7

 75
0
147
1.0
148
0.0
149
0.0
100
AcDbLayout
  1
Model
 70
0
 71
0
 10
0.0
 20
0.0
 11
22.0
 21
17.0
 12
0.0
 22
0.0
 32
0.0
 14
0.0
 24
0.0
 34
0.0
 15
0.0
 25
0.0
 35
0.0
146
0.0
 13
0.0
 23
0.0
 33
0.0
 16
1.0
 26
0.0
 36
0.0
 17
0.0
 27
1.0
 37
0.0
 76
0
330
202
345
0
346
0
  0
LAYOUT
  5
52C
102
{ACAD_REACTORS
330
1A
102
}
100
AcDbPlotSettings
  1

  2
none_device
  4
ANSI_C_(22.00_x_17.00_Inches)
  6

 40
0.0
 41
0.0
 42
0.0
 43
0.0
 44
558.8
 45
431.8
 46
0.0
 47
0.0
 48
0.0
 49
0.0
140
0.0
141
0.0
142
1.0
143
1.0
 70
0
 72
0
 73
0
 74
0
  7

 75
0
147
1.0
148
0.0
149
0.0
100
AcDbLayout
  1
Layout1
 70
0
 71
1
 10
0.0
 20
0.0
 11
22.0
 21
17.0
 12
0.0
 22
0.0
 32
0.0
 14
0.0
 24
0.0
 34
0.0
 15
0.0
 25
0.0
 35
0.0
146
0.0
 13
0.0
 23
0.0
 33
0.0
 16
1.0
 26
0.0
 36
0.0
 17
0.0
 27
1.0
 37
0.0
 76
0
330
203
345
0
346
0
  0
ENDSEC
  0
EOF
