999
DXF file: E:\BT Custom\CADOUTPUT\_TOP.dxf
999
Pro/ENGINEER 2018400 by Parametric Technology Corporation
  0
SECTION
  2
HEADER
  9
$ACADVER
  1
AC1018
  9
$DWGCODEPAGE
  3
ANSI_1252
  9
$EXTMAX
 10
22.0
 20
17.0
 30
0.0
  9
$EXTMIN
 10
0.0
 20
0.0
 30
0.0
  9
$LIMMIN
 10
0.0
 20
0.0
  9
$LIMMAX
 10
22.0
 20
17.0
  9
$VIEWCTR
 10
11.0
 20
8.5
  9
$VIEWSIZE
 40
17.0
  9
$CLAYER
  8
0
  9
$LTSCALE
 40
1.21
  9
$CELTYPE
  6
BYLAYER
  9
$DIMSCALE
 40
1.0
  9
$DIMASZ
 40
0.1
  9
$DIMEXO
 40
0.0625
  9
$DIMDLI
 40
0.836
  9
$DIMEXE
 40
0.125
  9
$DIMCEN
 40
0.198
  9
$DIMLFAC
 40
1.0
  9
$DIMBLK
  1
_FILLED
  9
$DIMALT
 70
1
  9
$DIMALTD
 70
2
  9
$DIMALTTD
 70
2
  9
$DIMALTF
 40
25.4
  9
$DIMTXT
 40
0.08
  9
$DIMTOL
 70
1
  9
$DIMLIM
 70
0
  9
$DIMTFAC
 40
1.0
  9
$DIMTP
 40
0.001
  9
$DIMTM
 40
0.001
  9
$DIMGAP
 40
0.09
  9
$DIMDSEP
 70
46
  9
$AUNITS
 70
0
  9
$PDMODE
 70
3
  9
$PDSIZE
 40
0.06
  9
$HANDSEED
  5
54A
  9
$TILEMODE
 70
1
  9
$MEASUREMENT
 70
0
  9
$INSUNITS
 70
1
  0
ENDSEC
  0
SECTION
  2
CLASSES
  0
CLASS
  1
ACDBDICTIONARYWDFLT
  2
AcDbDictionaryWithDefault
  3
AutoCAD 2000
 90
0
 91
1
280
0
281
0
  0
CLASS
  1
ACDBPLACEHOLDER
  2
AcDbPlaceHolder
  3
AutoCAD 2000
 90
0
 91
1
280
0
281
0
  0
CLASS
  1
LAYOUT
  2
AcDbLayout
  3
AutoCAD 2000
 90
0
 91
0
280
0
281
0
  0
ENDSEC
  0
SECTION
  2
TABLES
  0
TABLE
  2
VPORT
  5
8
100
AcDbSymbolTable
 70
2
  0
VPORT
  5
1F4
100
AcDbSymbolTableRecord
100
AcDbViewportTableRecord
  2
*ACTIVE
 70
0
 10
0.0
 20
0.0
 11
1.0
 21
1.0
 12
11.0
 22
8.5
 13
0.0
 23
0.0
 14
1.0
 24
1.0
 15
0.0
 25
0.0
 16
0.0
 26
0.0
 36
1.0
 17
0.0
 27
0.0
 37
0.0
 40
17.0
 41
1.2941176471
 42
50.0
 43
0.0
 44
0.0
 50
0.0
 51
0.0
 71
0
 72
100
 73
1
 74
1
 75
0
 76
0
 77
0
 78
0
  0
ENDTAB
  0
TABLE
  2
LTYPE
  5
5
100
AcDbSymbolTable
 70
6
  0
LTYPE
  5
14
100
AcDbSymbolTableRecord
100
AcDbLinetypeTableRecord
  2
BYBLOCK
 70
0
  3

 72
65
 73
0
 40
0.0
  0
LTYPE
  5
15
100
AcDbSymbolTableRecord
100
AcDbLinetypeTableRecord
  2
BYLAYER
 70
0
  3

 72
65
 73
0
 40
0.0
  0
LTYPE
  5
16
100
AcDbSymbolTableRecord
100
AcDbLinetypeTableRecord
  2
CONTINUOUS
 70
64
  3
Solid line
 72
65
 73
0
 40
0.0
  0
LTYPE
  5
1F5
100
AcDbSymbolTableRecord
100
AcDbLinetypeTableRecord
  2
CENTER
 70
64
  3
____ _ ____ _ ____ _ ____ _ ____ _ ____ _ ____
 72
65
 73
4
 40
0.6
 49
0.375
 74
0
 49
-0.075
 74
0
 49
0.075
 74
0
 49
-0.075
 74
0
  0
LTYPE
  5
1F6
100
AcDbSymbolTableRecord
100
AcDbLinetypeTableRecord
  2
HIDDEN
 70
64
  3
- - - - - - - - - - - - - - - - - - - -
 72
65
 73
2
 40
0.2
 49
0.1
 74
0
 49
-0.1
 74
0
  0
LTYPE
  5
1F7
100
AcDbSymbolTableRecord
100
AcDbLinetypeTableRecord
  2
PHANTOM
 70
64
  3
_____ _ _ _____ _ _ _____ _ _ _____
 72
65
 73
6
 40
0.8
 49
0.45
 74
0
 49
-0.05
 74
0
 49
0.1
 74
0
 49
-0.05
 74
0
 49
0.1
 74
0
 49
-0.05
 74
0
  0
LTYPE
  5
1F8
100
AcDbSymbolTableRecord
100
AcDbLinetypeTableRecord
  2
DOT
 70
64
  3
. . . . . . . . . . . . . . . . . . . .
 72
65
 73
2
 40
0.2
 49
0.1
 74
0
 49
-0.1
 74
0
  0
LTYPE
  5
1F9
100
AcDbSymbolTableRecord
100
AcDbLinetypeTableRecord
  2
DASHED
 70
64
  3
- - - - - - - - - - - - - - - - - - - -
 72
65
 73
2
 40
0.2
 49
0.1
 74
0
 49
-0.1
 74
0
  0
ENDTAB
  0
TABLE
  2
LAYER
  5
2
100
AcDbSymbolTable
 70
36
  0
LAYER
  5
10
100
AcDbSymbolTableRecord
100
AcDbLayerTableRecord
  2
0
 70
0
 62
7
  6
CONTINUOUS
370
-3
390
F
  0
LAYER
  5
1FA
100
AcDbSymbolTableRecord
100
AcDbLayerTableRecord
  2
DEFAULT_1
 70
0
 62
7
  6
CENTER
370
-3
390
F
  0
LAYER
  5
1FB
100
AcDbSymbolTableRecord
100
AcDbLayerTableRecord
  2
DEFAULT_2
 70
0
 62
8
  6
HIDDEN
370
-3
390
F
  0
LAYER
  5
1FC
100
AcDbSymbolTableRecord
100
AcDbLayerTableRecord
  2
DEFAULT_3
 70
0
 62
7
  6
PHANTOM
370
-3
390
F
  0
LAYER
  5
1FD
100
AcDbSymbolTableRecord
100
AcDbLayerTableRecord
  2
ALL_FEATURES
 70
0
 62
7
  6
CONTINUOUS
370
-3
390
F
  0
LAYER
  5
1FE
100
AcDbSymbolTableRecord
100
AcDbLayerTableRecord
  2
AXES_FEATURES
 70
0
 62
7
  6
CONTINUOUS
370
-3
390
F
  0
LAYER
  5
1FF
100
AcDbSymbolTableRecord
100
AcDbLayerTableRecord
  2
DIMENSIONS
 70
0
 62
7
  6
CONTINUOUS
370
-3
390
F
  0
ENDTAB
  0
TABLE
  2
STYLE
  5
3
100
AcDbSymbolTable
 70
1
  0
STYLE
  5
11
100
AcDbSymbolTableRecord
100
AcDbTextStyleTableRecord
  2
STANDARD
 70
0
 40
0.0
 41
0.8
 50
0.0
 71
0
 42
0.2
  3
txt
  4

  0
STYLE
  5
200
100
AcDbSymbolTableRecord
100
AcDbTextStyleTableRecord
  2
TEXTSTYLE_1
 70
0
 40
0.0
 41
0.8
 50
0.0
 71
0
 42
0.2
  3
gdt
  4

  0
ENDTAB
  0
TABLE
  2
VIEW
  5
6
100
AcDbSymbolTable
 70
0
  0
ENDTAB
  0
TABLE
  2
UCS
  5
7
100
AcDbSymbolTable
 70
0
  0
ENDTAB
  0
TABLE
  2
APPID
  5
9
100
AcDbSymbolTable
 70
1
  0
APPID
  5
201
100
AcDbSymbolTableRecord
100
AcDbRegAppTableRecord
  2
ACAD
 70
0
  0
ENDTAB
  0
TABLE
  2
BLOCK_RECORD
  5
1
100
AcDbSymbolTable
 70
0
  0
BLOCK_RECORD
  5
202
100
AcDbSymbolTableRecord
100
AcDbBlockTableRecord
  2
*Model_Space
  0
BLOCK_RECORD
  5
203
100
AcDbSymbolTableRecord
100
AcDbBlockTableRecord
  2
*Paper_Space
  0
BLOCK_RECORD
  5
204
100
AcDbSymbolTableRecord
100
AcDbBlockTableRecord
  2
_FILLED
  0
ENDTAB
  0
TABLE
  2
DIMSTYLE
  5
A
100
AcDbSymbolTable
 70
1
100
AcDbDimStyleTable
 71
0
  0
DIMSTYLE
105
205
100
AcDbSymbolTableRecord
100
AcDbDimStyleTableRecord
  2
STANDARD
 70
0
  3

  4

 40
1.0
 41
0.1
 42
0.0625
 43
0.38
 44
0.125
 45
0.0
 46
0.0
 47
0.001
 48
0.001
140
0.08
141
0.09
142
0.0
143
25.4
144
1.0
145
0.0
146
1.0
147
0.09
 71
1.0
 72
0.0
 73
1
 74
1
 75
0
 76
0
 77
0
 78
4
 79
1
170
1
171
2
172
0
173
0
174
0
175
0
176
0
177
0
178
0
270
2
179
3
271
3
272
3
273
2
274
2
275
0
280
0
281
0
282
0
283
1
284
4
285
0
286
0
287
3
288
0
340
11
278
46
341
204
342
204
343
204
344
204
  0
ENDTAB
  0
ENDSEC
  0
SECTION
  2
BLOCKS
  0
BLOCK
  5
20
100
AcDbEntity
  8
0
100
AcDbBlockBegin
  2
*Model_Space
 70
0
 10
0.0
 20
0.0
 30
0.0
  3
*Model_Space
  1

  0
ENDBLK
  5
21
100
AcDbEntity
  8
0
100
AcDbBlockEnd
  0
BLOCK
  5
1C
100
AcDbEntity
  8
0
100
AcDbBlockBegin
  2
*Paper_Space
 70
0
 10
0.0
 20
0.0
 30
0.0
  3
*Paper_Space
  1

  0
ENDBLK
  5
1D
100
AcDbEntity
  8
0
100
AcDbBlockEnd
  0
BLOCK
  5
206
100
AcDbEntity
  8
0
100
AcDbBlockBegin
  2
_FILLED
 70
64
 10
0.0
 20
0.0
  3
_FILLED
  1

  0
SOLID
  5
207
100
AcDbEntity
  8
0
  6
BYBLOCK
 62
0
100
AcDbTrace
 10
0.0
 20
0.0
 11
-1.0
 21
0.2
 12
-1.0
 22
-0.2
 13
-1.0
 23
-0.2
  0
ENDBLK
  5
208
100
AcDbEntity
  8
0
  6
BYBLOCK
 62
0
100
AcDbBlockEnd
  0
ENDSEC
  0
SECTION
  2
ENTITIES
  0
LINE
  5
209
100
AcDbEntity
  8
0
100
AcDbLine
 62
7
  6
CONTINUOUS
 10
-0.4080439637
 20
10.9441007086
 11
-0.425445678
 21
10.8454106823
  0
LINE
  5
20A
100
AcDbEntity
  8
0
100
AcDbLine
 62
7
  6
CONTINUOUS
 10
-0.6181742932
 20
11.7293188286
 11
-0.4031234151
 21
12.1017978757
  0
LINE
  5
20B
100
AcDbEntity
  8
0
100
AcDbLine
 62
7
  6
CONTINUOUS
 10
-0.2828319516
 20
12.3101488021
 11
-0.2391452446
 21
12.3858163983
  0
LINE
  5
20C
100
AcDbEntity
  8
0
100
AcDbLine
 62
9
  6
CONTINUOUS
 10
-0.425445678
 20
12.6132247176
 11
-0.744021059
 21
12.2946493366
  0
LINE
  5
20D
100
AcDbEntity
  8
0
100
AcDbLine
 62
9
  6
CONTINUOUS
 10
-0.6453310327
 20
12.2772476223
 11
-0.4080439637
 21
12.5145346913
  0
LINE
  5
20E
100
AcDbEntity
  8
0
100
AcDbLine
 62
7
  6
CONTINUOUS
 10
-0.3751774681
 20
12.5117952167
 11
-0.6425915581
 21
12.2443811267
  0
LINE
  5
20F
100
AcDbEntity
  8
0
100
AcDbLine
 62
9
  6
CONTINUOUS
 10
-0.6263025177
 20
12.225508351
 11
-0.3563046924
 21
12.4955061763
  0
LINE
  5
210
100
AcDbEntity
  8
0
100
AcDbLine
 62
7
  6
CONTINUOUS
 10
0.0009290685
 20
11.5139932774
 11
0.0009290685
 21
11.5019932774
  0
LINE
  5
211
100
AcDbEntity
  8
0
100
AcDbLine
 62
7
  6
CONTINUOUS
 10
0.687815881
 20
12.5145346913
 11
0.7052175953
 21
12.6132247176
  0
LINE
  5
212
100
AcDbEntity
  8
0
100
AcDbLine
 62
7
  6
CONTINUOUS
 10
0.8979460265
 20
11.7293162526
 11
0.6828953324
 21
11.3568375242
  0
LINE
  5
213
100
AcDbEntity
  8
0
100
AcDbLine
 62
7
  6
CONTINUOUS
 10
0.5626038689
 20
11.1484865978
 11
0.5189171619
 21
11.0728190016
  0
LINE
  5
214
100
AcDbEntity
  8
0
100
AcDbLine
 62
9
  6
CONTINUOUS
 10
-0.3677063632
 20
11.972907553
 11
-0.3507196545
 21
11.9898942618
  0
LINE
  5
215
100
AcDbEntity
  8
0
100
AcDbLine
 62
9
  6
CONTINUOUS
 10
-0.1167751661
 20
12.2238387502
 11
-0.1037038944
 21
12.2369100218
  0
LINE
  5
216
100
AcDbEntity
  8
0
100
AcDbLine
 62
7
  6
CONTINUOUS
 10
0.2671651793
 20
11.9768050734
 11
0.2155463842
 21
11.9251862783
  0
LINE
  5
217
100
AcDbEntity
  8
0
100
AcDbLine
 62
7
  6
CONTINUOUS
 10
0.203525569
 20
11.913165463
 11
0.1519067739
 21
11.861546668
  0
LINE
  5
218
100
AcDbEntity
  8
0
100
AcDbLine
 62
7
  6
CONTINUOUS
 10
-0.0177988535
 20
11.6918410405
 11
-0.0694176486
 21
11.6402222455
  0
LINE
  5
219
100
AcDbEntity
  8
0
100
AcDbLine
 62
7
  6
CONTINUOUS
 10
0.2802466547
 20
11.8753352503
 11
0.253376597
 21
11.8484651926
  0
LINE
  5
21A
100
AcDbEntity
  8
0
100
AcDbLine
 62
7
  6
CONTINUOUS
 10
0.2664974048
 20
11.8367585984
 11
0.2919532489
 21
11.8622144425
  0
LINE
  5
21B
100
AcDbEntity
  8
0
100
AcDbLine
 62
7
  6
CONTINUOUS
 10
0.0963301145
 20
11.5922823393
 11
0.078084826
 21
11.5740370508
  0
LINE
  5
21C
100
AcDbEntity
  8
0
100
AcDbLine
 62
7
  6
CONTINUOUS
 10
0.0483863412
 20
11.544338566
 11
0.0301410526
 21
11.5260932774
  0
LINE
  5
21D
100
AcDbEntity
  8
0
100
AcDbLine
 62
7
  6
CONTINUOUS
 10
0.022506233
 20
11.493144035
 11
0.1292793569
 21
11.599917159
  0
LINE
  5
21E
100
AcDbEntity
  8
0
100
AcDbLine
 62
7
  6
CONTINUOUS
 10
0.27140782
 20
11.742045622
 11
0.323026615
 21
11.793664417
  0
LINE
  5
21F
100
AcDbEntity
  8
0
100
AcDbLine
 62
7
  6
CONTINUOUS
 10
0.3350474303
 20
11.8056852323
 11
0.3866662253
 21
11.8573040273
  0
LINE
  5
220
100
AcDbEntity
  8
0
100
AcDbLine
 62
9
  6
CONTINUOUS
 10
0.6474782806
 20
11.4857278469
 11
0.6304915854
 21
11.4687411517
  0
LINE
  5
221
100
AcDbEntity
  8
0
100
AcDbLine
 62
9
  6
CONTINUOUS
 10
0.3965471518
 20
11.2347967181
 11
0.3834758117
 21
11.221725378
  0
LINE
  5
222
100
AcDbEntity
  8
0
100
AcDbLine
 62
9
  6
CONTINUOUS
 10
0.6360766097
 20
10.9631292235
 11
0.906074435
 21
11.2331270489
  0
LINE
  5
223
100
AcDbEntity
  8
0
100
AcDbLine
 62
7
  6
CONTINUOUS
 10
0.6549493854
 20
10.9468401832
 11
0.9223634754
 21
11.2142542732
  0
LINE
  5
224
100
AcDbEntity
  8
0
100
AcDbLine
 62
9
  6
CONTINUOUS
 10
0.92510295
 20
11.1813877776
 11
0.687815881
 21
10.9441007086
  0
LINE
  5
225
100
AcDbEntity
  8
0
100
AcDbLine
 62
7
  6
CONTINUOUS
 10
-0.4080439637
 20
12.5145346913
 11
-0.425445678
 21
12.6132247176
  0
LINE
  5
226
100
AcDbEntity
  8
0
100
AcDbLine
 62
7
  6
CONTINUOUS
 10
3.3315955818
 20
11.7293176999
 11
3.7357407702
 21
12.4293176999
  0
LINE
  5
227
100
AcDbEntity
  8
0
100
AcDbLine
 62
9
  6
CONTINUOUS
 10
0.7052175953
 20
10.8454106823
 11
1.0237929763
 21
11.1639860633
  0
LINE
  5
228
100
AcDbEntity
  8
0
100
AcDbLine
 62
7
  6
CONTINUOUS
 10
0.687815881
 20
10.9441007086
 11
0.7052175953
 21
10.8454106823
  0
LINE
  5
229
100
AcDbEntity
  8
0
100
AcDbLine
 62
7
  6
CONTINUOUS
 10
-0.2391452444
 20
11.0728190014
 11
-0.2829446452
 21
11.1486817888
  0
LINE
  5
22A
100
AcDbEntity
  8
0
100
AcDbLine
 62
7
  6
CONTINUOUS
 10
-0.4030575622
 20
11.3567234637
 11
-0.6181742932
 21
11.7293165713
  0
LINE
  5
22B
100
AcDbEntity
  8
0
100
AcDbLine
 62
7
  6
CONTINUOUS
 10
0.1292793569
 20
11.599917159
 11
0.1204301145
 21
11.6214943234
  0
LINE
  5
22C
100
AcDbEntity
  8
0
100
AcDbLine
 62
7
  6
CONTINUOUS
 10
3.7648702921
 20
4.2928889212
 11
3.7648788754
 21
10.6976189194
  0
LINE
  5
22D
100
AcDbEntity
  8
0
100
AcDbLine
 62
9
  6
CONTINUOUS
 10
3.7543086172
 20
1.8483742735
 11
3.756142532
 21
1.9107295328
  0
LINE
  5
22E
100
AcDbEntity
  8
0
100
AcDbLine
 62
7
  6
CONTINUOUS
 10
3.469762011
 20
4.0963322587
 11
3.4723859587
 21
4.1810578782
  0
LINE
  5
22F
100
AcDbEntity
  8
0
100
AcDbLine
 62
7
  6
CONTINUOUS
 10
4.9481763355
 20
11.7293176999
 11
4.6555595349
 21
11.2224907595
  0
LINE
  5
230
100
AcDbEntity
  8
0
100
AcDbLine
 62
7
  6
CONTINUOUS
 10
4.8100025658
 20
4.0963274095
 11
4.8073786428
 21
4.1810517587
  0
LINE
  5
231
100
AcDbEntity
  8
0
100
AcDbLine
 62
9
  6
CONTINUOUS
 10
4.5254637981
 20
1.8483745771
 11
4.5236290114
 21
1.9107293012
  0
LINE
  5
232
100
AcDbEntity
  8
0
100
AcDbLine
 62
9
  6
CONTINUOUS
 10
4.1398859582
 20
1.7403460209
 11
4.1398859644
 21
4.419610987
  0
LINE
  5
233
100
AcDbEntity
  8
0
100
AcDbLine
 62
7
  6
CONTINUOUS
 10
4.5149051192
 20
4.2929048039
 11
4.514893042
 21
10.6976189196
  0
LINE
  5
234
100
AcDbEntity
  8
0
100
AcDbLine
 62
7
  6
CONTINUOUS
 10
3.4147642891
 20
2.5133975536
 11
3.415890299
 21
2.522567865
  0
LINE
  5
235
100
AcDbEntity
  8
0
100
AcDbLine
 62
7
  6
CONTINUOUS
 10
5.3473223052
 20
11.3396613594
 11
5.4361177887
 21
11.4996215023
  0
LINE
  5
236
100
AcDbEntity
  8
0
100
AcDbLine
 62
7
  6
CONTINUOUS
 10
5.6348859587
 20
11.7293176999
 11
5.2172088421
 21
11.005879713
  0
LINE
  5
237
100
AcDbEntity
  8
0
100
AcDbLine
 62
9
  6
CONTINUOUS
 10
4.8073974286
 20
4.1810613312
 11
4.5148858764
 21
4.4196010283
  0
LINE
  5
238
100
AcDbEntity
  8
0
100
AcDbLine
 62
7
  6
CONTINUOUS
 10
0.5189170901
 20
12.3858165226
 11
0.5627165625
 21
12.3099536111
  0
LINE
  5
239
100
AcDbEntity
  8
0
100
AcDbLine
 62
7
  6
CONTINUOUS
 10
0.6828294795
 20
12.1019119361
 11
0.8979460265
 21
11.7293191473
  0
LINE
  5
23A
100
AcDbEntity
  8
0
100
AcDbLine
 62
7
  6
CONTINUOUS
 10
4.8650076282
 20
2.5133975536
 11
4.863882994
 21
2.5225555684
  0
LINE
  5
23B
100
AcDbEntity
  8
0
100
AcDbLine
 62
7
  6
CONTINUOUS
 10
7.3818257068
 20
11.7293188286
 11
7.5969424378
 21
12.1019119361
  0
LINE
  5
23C
100
AcDbEntity
  8
0
100
AcDbLine
 62
7
  6
CONTINUOUS
 10
7.7170553548
 20
12.3099536111
 11
7.7608547554
 21
12.3858163983
  0
LINE
  5
23D
100
AcDbEntity
  8
0
100
AcDbLine
 62
9
  6
CONTINUOUS
 10
7.574554322
 20
12.6132247176
 11
7.255978941
 21
12.2946493366
  0
LINE
  5
23E
100
AcDbEntity
  8
0
100
AcDbLine
 62
9
  6
CONTINUOUS
 10
7.3546689673
 20
12.2772476223
 11
7.5919560363
 21
12.5145346913
  0
LINE
  5
23F
100
AcDbEntity
  8
0
100
AcDbLine
 62
7
  6
CONTINUOUS
 10
7.6248229373
 20
12.511795622
 11
7.3574080365
 21
12.2443807213
  0
LINE
  5
240
100
AcDbEntity
  8
0
100
AcDbLine
 62
9
  6
CONTINUOUS
 10
7.6436953076
 20
12.4955061763
 11
7.3736974823
 21
12.225508351
  0
LINE
  5
241
100
AcDbEntity
  8
0
100
AcDbLine
 62
9
  6
CONTINUOUS
 10
7.6322936368
 20
11.972907553
 11
7.6464932396
 21
11.9871071559
  0
LINE
  5
242
100
AcDbEntity
  8
0
100
AcDbLine
 62
9
  6
CONTINUOUS
 10
7.8812682626
 20
12.2218821788
 11
7.8962961056
 21
12.2369100218
  0
LINE
  5
243
100
AcDbEntity
  8
0
100
AcDbLine
 62
7
  6
CONTINUOUS
 10
7.9303830319
 20
11.8539678129
 11
8.0117003118
 21
11.9352850928
  0
LINE
  5
244
100
AcDbEntity
  8
0
100
AcDbLine
 62
7
  6
CONTINUOUS
 10
7.9631973091
 20
11.8354717629
 11
8.0301963618
 21
11.9024708156
  0
LINE
  5
245
100
AcDbEntity
  8
0
100
AcDbLine
 62
7
  6
CONTINUOUS
 10
7.9461387006
 20
11.8042710187
 11
7.9588666227
 21
11.8169989408
  0
LINE
  5
246
100
AcDbEntity
  8
0
100
AcDbLine
 62
7
  6
CONTINUOUS
 10
8.0486691839
 20
11.906801502
 11
8.0656397466
 21
11.9237720648
  0
LINE
  5
247
100
AcDbEntity
  8
0
100
AcDbLine
 62
7
  6
CONTINUOUS
 10
8.0872218172
 20
11.9021899942
 11
8.0423052229
 21
11.8707390562
  0
LINE
  5
248
100
AcDbEntity
  8
0
100
AcDbLine
 62
9
  6
CONTINUOUS
 10
-0.744021059
 20
11.1639860633
 11
-0.425445678
 21
10.8454106823
  0
LINE
  5
249
100
AcDbEntity
  8
0
100
AcDbLine
 62
9
  6
CONTINUOUS
 10
-0.4080439637
 20
10.9441007086
 11
-0.6453310327
 21
11.1813877776
  0
LINE
  5
24A
100
AcDbEntity
  8
0
100
AcDbLine
 62
7
  6
CONTINUOUS
 10
-0.6425919635
 20
11.2142546786
 11
-0.3751770627
 21
10.9468397778
  0
LINE
  5
24B
100
AcDbEntity
  8
0
100
AcDbLine
 62
9
  6
CONTINUOUS
 10
-0.6263025177
 20
11.2331270489
 11
-0.3563046924
 21
10.9631292235
  0
LINE
  5
24C
100
AcDbEntity
  8
0
100
AcDbLine
 62
9
  6
CONTINUOUS
 10
-0.1037038944
 20
11.221725378
 11
-0.1179034973
 21
11.2359249809
  0
LINE
  5
24D
100
AcDbEntity
  8
0
100
AcDbLine
 62
9
  6
CONTINUOUS
 10
-0.3526785202
 20
11.4707000039
 11
-0.3677063632
 21
11.4857278469
  0
LINE
  5
24E
100
AcDbEntity
  8
0
100
AcDbLine
 62
7
  6
CONTINUOUS
 10
8.2481156559
 20
11.5815747424
 11
8.2197890249
 21
11.5306206944
  0
LINE
  5
24F
100
AcDbEntity
  8
0
100
AcDbLine
 62
7
  6
CONTINUOUS
 10
8.0302844076
 20
11.7455811559
 11
8.0175564855
 21
11.7328532338
  0
LINE
  5
250
100
AcDbEntity
  8
0
100
AcDbLine
 62
7
  6
CONTINUOUS
 10
8.1149458466
 20
11.7998370033
 11
8.0658311214
 21
11.7507222781
  0
LINE
  5
251
100
AcDbEntity
  8
0
100
AcDbLine
 62
7
  6
CONTINUOUS
 10
8.0912869655
 20
11.725266434
 11
8.1404016907
 21
11.7743811592
  0
LINE
  5
252
100
AcDbEntity
  8
0
100
AcDbLine
 62
7
  6
CONTINUOUS
 10
8.0734179212
 20
11.6769917981
 11
8.0861458433
 21
11.6897197202
  0
LINE
  5
253
100
AcDbEntity
  8
0
100
AcDbLine
 62
7
  6
CONTINUOUS
 10
8.1759484045
 20
11.7795222814
 11
8.1929189672
 21
11.7964928442
  0
LINE
  5
254
100
AcDbEntity
  8
0
100
AcDbLine
 62
9
  6
CONTINUOUS
 10
8.6474782806
 20
11.4857278469
 11
8.6332786205
 21
11.4715281868
  0
LINE
  5
255
100
AcDbEntity
  8
0
100
AcDbLine
 62
9
  6
CONTINUOUS
 10
8.3985037105
 20
11.2367532768
 11
8.3834758117
 21
11.221725378
  0
LINE
  5
256
100
AcDbEntity
  8
0
100
AcDbLine
 62
7
  6
CONTINUOUS
 10
-0.0694176486
 20
11.6402222455
 11
-0.0524470858
 21
11.6232516828
  0
LINE
  5
257
100
AcDbEntity
  8
0
100
AcDbLine
 62
7
  6
CONTINUOUS
 10
-0.0171198243
 20
11.6140873721
 11
0.0483863412
 21
11.5485812067
  0
LINE
  5
258
100
AcDbEntity
  8
0
100
AcDbLine
 62
7
  6
CONTINUOUS
 10
0.0738421853
 20
11.5740370508
 11
0.0083360199
 21
11.6395432162
  0
LINE
  5
259
100
AcDbEntity
  8
0
100
AcDbLine
 62
7
  6
CONTINUOUS
 10
-0.0008282908
 20
11.6748704778
 11
-0.0177988535
 21
11.6918410405
  0
LINE
  5
25A
100
AcDbEntity
  8
0
100
AcDbLine
 62
7
  6
CONTINUOUS
 10
0.1519067739
 20
11.861546668
 11
0.1688773367
 21
11.8445761053
  0
LINE
  5
25B
100
AcDbEntity
  8
0
100
AcDbLine
 62
7
  6
CONTINUOUS
 10
0.2586798979
 20
11.7547735441
 11
0.27140782
 21
11.742045622
  0
LINE
  5
25C
100
AcDbEntity
  8
0
100
AcDbLine
 62
7
  6
CONTINUOUS
 10
0.2542265208
 20
11.7825614449
 11
0.1966652375
 21
11.8401227282
  0
LINE
  5
25D
100
AcDbEntity
  8
0
100
AcDbLine
 62
7
  6
CONTINUOUS
 10
0.2448913157
 20
11.8484651926
 11
0.2249495088
 21
11.8684069995
  0
LINE
  5
25E
100
AcDbEntity
  8
0
100
AcDbLine
 62
7
  6
CONTINUOUS
 10
0.2834679676
 20
11.8113027542
 11
0.2664974048
 21
11.828273317
  0
LINE
  5
25F
100
AcDbEntity
  8
0
100
AcDbLine
 62
7
  6
CONTINUOUS
 10
0.323026615
 20
11.793664417
 11
0.3102986929
 21
11.8063923391
  0
LINE
  5
260
100
AcDbEntity
  8
0
100
AcDbLine
 62
7
  6
CONTINUOUS
 10
0.2204961317
 20
11.8961949003
 11
0.203525569
 21
11.913165463
  0
LINE
  5
261
100
AcDbEntity
  8
0
100
AcDbLine
 62
7
  6
CONTINUOUS
 10
0.2155463842
 20
11.9251862783
 11
0.232516947
 21
11.9082157156
  0
LINE
  5
262
100
AcDbEntity
  8
0
100
AcDbLine
 62
7
  6
CONTINUOUS
 10
0.3223195082
 20
11.8184131544
 11
0.3350474303
 21
11.8056852323
  0
LINE
  5
263
100
AcDbEntity
  8
0
100
AcDbLine
 62
7
  6
CONTINUOUS
 10
0.3004385303
 20
11.8622144425
 11
0.3174090931
 21
11.8452438797
  0
LINE
  5
264
100
AcDbEntity
  8
0
100
AcDbLine
 62
7
  6
CONTINUOUS
 10
0.2603048478
 20
11.9037623385
 11
0.2802466547
 21
11.8838205316
  0
LINE
  5
265
100
AcDbEntity
  8
0
100
AcDbLine
 62
7
  6
CONTINUOUS
 10
0.3461504024
 20
11.8744853265
 11
0.2885891191
 21
11.9320466098
  0
LINE
  5
266
100
AcDbEntity
  8
0
100
AcDbLine
 62
7
  6
CONTINUOUS
 10
0.3866662253
 20
11.8573040273
 11
0.3739383032
 21
11.8700319494
  0
LINE
  5
267
100
AcDbEntity
  8
0
100
AcDbLine
 62
7
  6
CONTINUOUS
 10
0.284135742
 20
11.9598345106
 11
0.2671651793
 21
11.9768050734
  0
LINE
  5
268
100
AcDbEntity
  8
0
100
AcDbLine
 62
7
  6
CONTINUOUS
 10
3.062565041
 20
11.0058763081
 11
2.6448859587
 21
11.7293176999
  0
LINE
  5
269
100
AcDbEntity
  8
0
100
AcDbLine
 62
7
  6
CONTINUOUS
 10
3.6242123824
 20
11.2224907595
 11
3.3315955818
 21
11.7293176999
  0
LINE
  5
26A
100
AcDbEntity
  8
0
100
AcDbLine
 62
7
  6
CONTINUOUS
 10
2.8436541286
 20
11.4996215023
 11
2.9324496121
 21
11.3396613594
  0
LINE
  5
26B
100
AcDbEntity
  8
0
100
AcDbLine
 62
7
  6
CONTINUOUS
 10
7.5919560363
 20
10.9441007086
 11
7.574554322
 21
10.8454106823
  0
LINE
  5
26C
100
AcDbEntity
  8
0
100
AcDbLine
 62
7
  6
CONTINUOUS
 10
8.8979460265
 20
11.7293162526
 11
8.6828294795
 21
11.3567234637
  0
LINE
  5
26D
100
AcDbEntity
  8
0
100
AcDbLine
 62
7
  6
CONTINUOUS
 10
8.5627165625
 20
11.1486817888
 11
8.5189171619
 21
11.0728190016
  0
LINE
  5
26E
100
AcDbEntity
  8
0
100
AcDbLine
 62
9
  6
CONTINUOUS
 10
8.6360766097
 20
10.9631292235
 11
8.906074435
 21
11.2331270489
  0
LINE
  5
26F
100
AcDbEntity
  8
0
100
AcDbLine
 62
7
  6
CONTINUOUS
 10
8.65494898
 20
10.9468397778
 11
8.9223638808
 21
11.2142546786
  0
LINE
  5
270
100
AcDbEntity
  8
0
100
AcDbLine
 62
9
  6
CONTINUOUS
 10
8.92510295
 20
11.1813877776
 11
8.687815881
 21
10.9441007086
  0
LINE
  5
271
100
AcDbEntity
  8
0
100
AcDbLine
 62
9
  6
CONTINUOUS
 10
8.7052175953
 20
10.8454106823
 11
9.0237929763
 21
11.1639860633
  0
LINE
  5
272
100
AcDbEntity
  8
0
100
AcDbLine
 62
9
  6
CONTINUOUS
 10
0.3834758117
 20
12.2369100218
 11
0.3976754718
 21
12.2227103618
  0
LINE
  5
273
100
AcDbEntity
  8
0
100
AcDbLine
 62
9
  6
CONTINUOUS
 10
0.6324503818
 20
11.9879354518
 11
0.6474782806
 21
11.972907553
  0
LINE
  5
274
100
AcDbEntity
  8
0
100
AcDbLine
 62
9
  6
CONTINUOUS
 10
0.906074435
 20
12.225508351
 11
0.6360766097
 21
12.4955061763
  0
LINE
  5
275
100
AcDbEntity
  8
0
100
AcDbLine
 62
7
  6
CONTINUOUS
 10
0.9223638808
 20
12.2443807213
 11
0.65494898
 21
12.511795622
  0
LINE
  5
276
100
AcDbEntity
  8
0
100
AcDbLine
 62
9
  6
CONTINUOUS
 10
0.687815881
 20
12.5145346913
 11
0.92510295
 21
12.2772476223
  0
LINE
  5
277
100
AcDbEntity
  8
0
100
AcDbLine
 62
9
  6
CONTINUOUS
 10
1.0237929763
 20
12.2946493366
 11
0.7052175953
 21
12.6132247176
  0
LINE
  5
278
100
AcDbEntity
  8
0
100
AcDbLine
 62
7
  6
CONTINUOUS
 10
8.687815881
 20
12.5145346913
 11
8.7052175953
 21
12.6132247176
  0
LINE
  5
279
100
AcDbEntity
  8
0
100
AcDbLine
 62
9
  6
CONTINUOUS
 10
4.5148859495
 20
4.4195850906
 11
3.7648859587
 21
4.4196010475
  0
LINE
  5
27A
100
AcDbEntity
  8
0
100
AcDbLine
 62
7
  6
CONTINUOUS
 10
4.5440311471
 20
12.4293176999
 11
4.9481763355
 21
11.7293176999
  0
LINE
  5
27B
100
AcDbEntity
  8
0
100
AcDbLine
 62
9
  6
CONTINUOUS
 10
13.574554322
 20
12.6132247176
 11
13.255978941
 21
12.2946493366
  0
LINE
  5
27C
100
AcDbEntity
  8
0
100
AcDbLine
 62
9
  6
CONTINUOUS
 10
13.3546689673
 20
12.2772476223
 11
13.5919560363
 21
12.5145346913
  0
LINE
  5
27D
100
AcDbEntity
  8
0
100
AcDbLine
 62
7
  6
CONTINUOUS
 10
13.6248225319
 20
12.5117952167
 11
13.3574084419
 21
12.2443811267
  0
LINE
  5
27E
100
AcDbEntity
  8
0
100
AcDbLine
 62
9
  6
CONTINUOUS
 10
13.3736974823
 20
12.225508351
 11
13.6436953076
 21
12.4955061763
  0
LINE
  5
27F
100
AcDbEntity
  8
0
100
AcDbLine
 62
9
  6
CONTINUOUS
 10
3.764885761
 20
4.4196008001
 11
3.4723734945
 21
4.1810604487
  0
LINE
  5
280
100
AcDbEntity
  8
0
100
AcDbLine
 62
7
  6
CONTINUOUS
 10
8.0423052229
 20
11.8707390562
 11
8.0446932213
 21
11.8610283681
  0
LINE
  5
281
100
AcDbEntity
  8
0
100
AcDbLine
 62
7
  6
CONTINUOUS
 10
7.5919560363
 20
12.5145346913
 11
7.574554322
 21
12.6132247176
  0
LINE
  5
282
100
AcDbEntity
  8
0
100
AcDbLine
 62
7
  6
CONTINUOUS
 10
8.687815881
 20
10.9441007086
 11
8.7052175953
 21
10.8454106823
  0
LINE
  5
283
100
AcDbEntity
  8
0
100
AcDbLine
 62
9
  6
CONTINUOUS
 10
13.6322936368
 20
11.972907553
 11
13.6492803319
 21
11.9898942481
  0
LINE
  5
284
100
AcDbEntity
  8
0
100
AcDbLine
 62
9
  6
CONTINUOUS
 10
13.8832247655
 20
12.2238386818
 11
13.8962961056
 21
12.2369100218
  0
LINE
  5
285
100
AcDbEntity
  8
0
100
AcDbLine
 62
7
  6
CONTINUOUS
 10
7.7608547556
 20
11.0728190014
 11
7.7171680484
 21
11.1484865978
  0
LINE
  5
286
100
AcDbEntity
  8
0
100
AcDbLine
 62
7
  6
CONTINUOUS
 10
7.5968765849
 20
11.3568375242
 11
7.3818257068
 21
11.7293165713
  0
LINE
  5
287
100
AcDbEntity
  8
0
100
AcDbLine
 62
7
  6
CONTINUOUS
 10
8.2898475369
 20
11.6233066234
 11
8.2965455449
 21
11.6065992392
  0
LINE
  5
288
100
AcDbEntity
  8
0
100
AcDbLine
 62
7
  6
CONTINUOUS
 10
13.3818257068
 20
11.7293188286
 11
13.5968765849
 21
12.1017978757
  0
LINE
  5
289
100
AcDbEntity
  8
0
100
AcDbLine
 62
7
  6
CONTINUOUS
 10
13.7171680484
 20
12.3101488021
 11
13.7608547554
 21
12.3858163983
  0
LINE
  5
28A
100
AcDbEntity
  8
0
100
AcDbLine
 62
9
  6
CONTINUOUS
 10
14.6474782806
 20
11.4857278469
 11
14.6304915718
 21
11.4687411381
  0
LINE
  5
28B
100
AcDbEntity
  8
0
100
AcDbLine
 62
9
  6
CONTINUOUS
 10
14.3965470834
 20
11.2347966497
 11
14.3834758117
 21
11.221725378
  0
LINE
  5
28C
100
AcDbEntity
  8
0
100
AcDbLine
 62
9
  6
CONTINUOUS
 10
14.6360766097
 20
10.9631292235
 11
14.906074435
 21
11.2331270489
  0
LINE
  5
28D
100
AcDbEntity
  8
0
100
AcDbLine
 62
7
  6
CONTINUOUS
 10
14.6549493854
 20
10.9468401832
 11
14.9223634754
 21
11.2142542732
  0
LWPOLYLINE
  5
28E
100
AcDbEntity
  8
0
100
AcDbPolyline
 62
7
  6
CONTINUOUS
 90
4
 70
0
 10
22.0487068507
 20
11.3795668192
 10
22.0364518464
 20
11.3755227598
 10
22.0206560365
 20
11.3669653391
 10
22.0083935653
 20
11.3562731977
  0
LINE
  5
28F
100
AcDbEntity
  8
0
100
AcDbLine
 62
7
  6
CONTINUOUS
 10
21.8993776074
 20
11.3255621262
 11
21.8807796462
 21
11.3194456065
  0
LINE
  5
290
100
AcDbEntity
  8
0
100
AcDbLine
 62
7
  6
CONTINUOUS
 10
0.0009290685
 20
11.5019932774
 11
0.022506233
 21
11.493144035
  0
LINE
  5
291
100
AcDbEntity
  8
0
100
AcDbLine
 62
9
  6
CONTINUOUS
 10
7.255978941
 20
11.1639860633
 11
7.574554322
 21
10.8454106823
  0
LINE
  5
292
100
AcDbEntity
  8
0
100
AcDbLine
 62
9
  6
CONTINUOUS
 10
7.5919560363
 20
10.9441007086
 11
7.3546689673
 21
11.1813877776
  0
LINE
  5
293
100
AcDbEntity
  8
0
100
AcDbLine
 62
7
  6
CONTINUOUS
 10
7.3574084419
 20
11.2142542732
 11
7.6248225319
 21
10.9468401832
  0
LINE
  5
294
100
AcDbEntity
  8
0
100
AcDbLine
 62
9
  6
CONTINUOUS
 10
7.6436953076
 20
10.9631292235
 11
7.3736974823
 21
11.2331270489
  0
LINE
  5
295
100
AcDbEntity
  8
0
100
AcDbLine
 62
7
  6
CONTINUOUS
 10
14.0723859587
 20
11.6993176999
 11
14.0337654601
 21
11.6156011718
  0
LINE
  5
296
100
AcDbEntity
  8
0
100
AcDbLine
 62
7
  6
CONTINUOUS
 10
14.0580897014
 20
11.6205838144
 11
14.1040997802
 21
11.7203185201
  0
LINE
  5
297
100
AcDbEntity
  8
0
100
AcDbLine
 62
9
  6
CONTINUOUS
 10
14.92510295
 20
11.1813877776
 11
14.687815881
 21
10.9441007086
  0
LINE
  5
298
100
AcDbEntity
  8
0
100
AcDbLine
 62
9
  6
CONTINUOUS
 10
14.7052175953
 20
10.8454106823
 11
15.0237929763
 21
11.1639860633
  0
LINE
  5
299
100
AcDbEntity
  8
0
100
AcDbLine
 62
7
  6
CONTINUOUS
 10
21.8178976638
 20
11.2689462934
 11
21.8117353738
 21
11.2662827638
  0
LWPOLYLINE
  5
29A
100
AcDbEntity
  8
0
100
AcDbPolyline
 62
7
  6
CONTINUOUS
 90
5
 70
0
 10
21.8807796462
 20
11.3194456065
 10
21.8682262839
 20
11.3145866847
 10
21.8427394981
 20
11.2991443364
 10
21.823399686
 20
11.2789417884
 10
21.8103542502
 20
11.2552422131
  0
LWPOLYLINE
  5
29B
100
AcDbEntity
  8
0
100
AcDbPolyline
 62
7
  6
CONTINUOUS
 90
6
 70
0
 10
21.9632875653
 20
11.35830665
 10
21.9598442137
 20
11.357380565
 10
21.9367380856
 20
11.3477181456
 10
21.918299391
 20
11.3338199686
 10
21.9048806448
 20
11.3168266195
 10
21.8967769503
 20
11.2996736659
  0
LINE
  5
29C
100
AcDbEntity
  8
0
100
AcDbLine
 62
9
  6
CONTINUOUS
 10
7.8962961056
 20
11.221725378
 11
7.8793094105
 21
11.2387120731
  0
LINE
  5
29D
100
AcDbEntity
  8
0
100
AcDbLine
 62
9
  6
CONTINUOUS
 10
7.6453649768
 20
11.4726565068
 11
7.6322936368
 21
11.4857278469
  0
LINE
  5
29E
100
AcDbEntity
  8
0
100
AcDbLine
 62
7
  6
CONTINUOUS
 10
7.8863881776
 20
11.8640215418
 11
7.9461387006
 21
11.8042710187
  0
LINE
  5
29F
100
AcDbEntity
  8
0
100
AcDbLine
 62
7
  6
CONTINUOUS
 10
8.0175564855
 20
11.7328532338
 11
8.0734179212
 21
11.6769917981
  0
LINE
  5
2A0
100
AcDbEntity
  8
0
100
AcDbLine
 62
7
  6
CONTINUOUS
 10
8.2197890249
 20
11.5306206944
 11
8.232516947
 21
11.5178927724
  0
LINE
  5
2A1
100
AcDbEntity
  8
0
100
AcDbLine
 62
7
  6
CONTINUOUS
 10
7.9218977506
 20
11.8539678129
 11
7.9021956995
 21
11.873669864
  0
LINE
  5
2A2
100
AcDbEntity
  8
0
100
AcDbLine
 62
7
  6
CONTINUOUS
 10
7.9919982607
 20
11.9634724252
 11
8.0117003118
 21
11.9437703741
  0
LINE
  5
2A3
100
AcDbEntity
  8
0
100
AcDbLine
 62
7
  6
CONTINUOUS
 10
8.0979752838
 20
11.8592339729
 11
8.1149458466
 21
11.8422634102
  0
LINE
  5
2A4
100
AcDbEntity
  8
0
100
AcDbLine
 62
7
  6
CONTINUOUS
 10
8.5189170901
 20
12.3858165226
 11
8.5626038689
 21
12.3101488021
  0
LINE
  5
2A5
100
AcDbEntity
  8
0
100
AcDbLine
 62
7
  6
CONTINUOUS
 10
8.6828953324
 20
12.1017978757
 11
8.8979460265
 21
11.7293191473
  0
LINE
  5
2A6
100
AcDbEntity
  8
0
100
AcDbLine
 62
7
  6
CONTINUOUS
 10
14.8979460265
 20
11.7293162526
 11
14.6828953324
 21
11.3568375242
  0
LINE
  5
2A7
100
AcDbEntity
  8
0
100
AcDbLine
 62
7
  6
CONTINUOUS
 10
14.5626038689
 20
11.1484865978
 11
14.5189171619
 21
11.0728190016
  0
LWPOLYLINE
  5
2A8
100
AcDbEntity
  8
0
100
AcDbPolyline
 62
7
  6
CONTINUOUS
 90
3
 70
0
 10
21.8117353738
 20
11.2662827638
 10
21.7921191604
 20
11.2561599217
 10
21.7644675686
 20
11.2339629338
  0
LINE
  5
2A9
100
AcDbEntity
  8
0
100
AcDbLine
 62
7
  6
CONTINUOUS
 10
22.0542677912
 20
11.3809769796
 11
22.0487068507
 21
11.3795668192
  0
LINE
  5
2AA
100
AcDbEntity
  8
0
100
AcDbLine
 62
7
  6
CONTINUOUS
 10
21.975747238
 20
11.3614336953
 11
21.9632875653
 21
11.35830665
  0
LINE
  5
2AB
100
AcDbEntity
  8
0
100
AcDbLine
 62
7
  6
CONTINUOUS
 10
0.92510295
 20
11.1813877776
 11
1.0237929763
 21
11.1639860633
  0
LINE
  5
2AC
100
AcDbEntity
  8
0
100
AcDbLine
 62
7
  6
CONTINUOUS
 10
8.1929189672
 20
11.7964928442
 11
8.0872218172
 21
11.9021899942
  0
LINE
  5
2AD
100
AcDbEntity
  8
0
100
AcDbLine
 62
7
  6
CONTINUOUS
 10
8.0656397466
 20
11.9237720648
 11
8.0058892236
 21
11.9835225878
  0
LINE
  5
2AE
100
AcDbEntity
  8
0
100
AcDbLine
 62
9
  6
CONTINUOUS
 10
8.3834758117
 20
12.2369100218
 11
8.4004625205
 21
12.2199233131
  0
LINE
  5
2AF
100
AcDbEntity
  8
0
100
AcDbLine
 62
9
  6
CONTINUOUS
 10
8.6344070089
 20
11.9859788247
 11
8.6474782806
 21
11.972907553
  0
LINE
  5
2B0
100
AcDbEntity
  8
0
100
AcDbLine
 62
9
  6
CONTINUOUS
 10
8.906074435
 20
12.225508351
 11
8.6360766097
 21
12.4955061763
  0
LINE
  5
2B1
100
AcDbEntity
  8
0
100
AcDbLine
 62
7
  6
CONTINUOUS
 10
8.9223634754
 20
12.2443811267
 11
8.6549493854
 21
12.5117952167
  0
LINE
  5
2B2
100
AcDbEntity
  8
0
100
AcDbLine
 62
9
  6
CONTINUOUS
 10
8.687815881
 20
12.5145346913
 11
8.92510295
 21
12.2772476223
  0
LINE
  5
2B3
100
AcDbEntity
  8
0
100
AcDbLine
 62
7
  6
CONTINUOUS
 10
13.8323859587
 20
11.7668176999
 11
13.8323859587
 21
11.6918176999
  0
LINE
  5
2B4
100
AcDbEntity
  8
0
100
AcDbLine
 62
7
  6
CONTINUOUS
 10
13.5919560363
 20
10.9441007086
 11
13.574554322
 21
10.8454106823
  0
LINE
  5
2B5
100
AcDbEntity
  8
0
100
AcDbLine
 62
7
  6
CONTINUOUS
 10
14.687815881
 20
12.5145346913
 11
14.7052175953
 21
12.6132247176
  0
LINE
  5
2B6
100
AcDbEntity
  8
0
100
AcDbLine
 62
9
  6
CONTINUOUS
 10
3.7648858727
 20
10.0670215857
 11
4.5148860447
 21
10.0670215857
  0
LINE
  5
2B7
100
AcDbEntity
  8
0
100
AcDbLine
 62
7
  6
CONTINUOUS
 10
-0.6453310327
 20
12.2772476223
 11
-0.744021059
 21
12.2946493366
  0
LINE
  5
2B8
100
AcDbEntity
  8
0
100
AcDbLine
 62
7
  6
CONTINUOUS
 10
8.2638480185
 20
11.5728287281
 11
8.2481156559
 21
11.5815747424
  0
LINE
  5
2B9
100
AcDbEntity
  8
0
100
AcDbLine
 62
9
  6
CONTINUOUS
 10
9.0237929763
 20
12.2946493366
 11
8.7052175953
 21
12.6132247176
  0
LINE
  5
2BA
100
AcDbEntity
  8
0
100
AcDbLine
 62
7
  6
CONTINUOUS
 10
13.8523859587
 20
11.7124524632
 11
13.8523859587
 21
11.7461829367
  0
LINE
  5
2BB
100
AcDbEntity
  8
0
100
AcDbLine
 62
7
  6
CONTINUOUS
 10
21.7372076685
 20
11.1857898117
 11
21.7314224006
 21
11.1818190273
  0
LINE
  5
2BC
100
AcDbEntity
  8
0
100
AcDbLine
 62
7
  6
CONTINUOUS
 10
13.3546689673
 20
11.1813877776
 11
13.255978941
 21
11.1639860633
  0
LINE
  5
2BD
100
AcDbEntity
  8
0
100
AcDbLine
 62
7
  6
CONTINUOUS
 10
3.7110739074
 20
11.0293177435
 11
4.5686980099
 21
11.0293177435
  0
LINE
  5
2BE
100
AcDbEntity
  8
0
100
AcDbLine
 62
7
  6
CONTINUOUS
 10
14.5189153106
 20
11.0728176999
 11
13.760856607
 21
11.0728176999
  0
LINE
  5
2BF
100
AcDbEntity
  8
0
100
AcDbLine
 62
7
  6
CONTINUOUS
 10
8.5189153106
 20
11.0728176999
 11
7.760856607
 21
11.0728176999
  0
LINE
  5
2C0
100
AcDbEntity
  8
0
100
AcDbLine
 62
7
  6
CONTINUOUS
 10
0.5189153106
 20
11.0728176999
 11
-0.239143393
 21
11.0728176999
  0
LINE
  5
2C1
100
AcDbEntity
  8
0
100
AcDbLine
 62
7
  6
CONTINUOUS
 10
8.92510295
 20
11.1813877776
 11
9.0237929763
 21
11.1639860633
  0
LINE
  5
2C2
100
AcDbEntity
  8
0
100
AcDbLine
 62
7
  6
CONTINUOUS
 10
13.5919560363
 20
12.5145346913
 11
13.574554322
 21
12.6132247176
  0
LINE
  5
2C3
100
AcDbEntity
  8
0
100
AcDbLine
 62
7
  6
CONTINUOUS
 10
14.92510295
 20
12.2772476223
 11
15.0237929763
 21
12.2946493366
  0
LINE
  5
2C4
100
AcDbEntity
  8
0
100
AcDbLine
 62
7
  6
CONTINUOUS
 10
7.3546689673
 20
11.1813877776
 11
7.255978941
 21
11.1639860633
  0
LINE
  5
2C5
100
AcDbEntity
  8
0
100
AcDbLine
 62
7
  6
CONTINUOUS
 10
13.8323859587
 20
11.6918176999
 11
14.0723859587
 21
11.6993176999
  0
LINE
  5
2C6
100
AcDbEntity
  8
0
100
AcDbLine
 62
7
  6
CONTINUOUS
 10
14.1040997802
 20
11.7203185201
 11
13.8523859587
 21
11.7124524632
  0
LINE
  5
2C7
100
AcDbEntity
  8
0
100
AcDbLine
 62
7
  6
CONTINUOUS
 10
3.3316654622
 20
11.7294387363
 11
2.6812355141
 21
11.729164949
  0
LINE
  5
2C8
100
AcDbEntity
  8
0
100
AcDbLine
 62
7
  6
CONTINUOUS
 10
0.1204301145
 20
11.6214943234
 11
0.1084301145
 21
11.6214943234
  0
LINE
  5
2C9
100
AcDbEntity
  8
0
100
AcDbLine
 62
7
  6
CONTINUOUS
 10
5.6348859587
 20
11.7293176999
 11
4.9481763355
 21
11.7293176999
  0
LINE
  5
2CA
100
AcDbEntity
  8
0
100
AcDbLine
 62
7
  6
CONTINUOUS
 10
2.6812889683
 20
11.7292691771
 11
2.6448859587
 21
11.7293176999
  0
LINE
  5
2CB
100
AcDbEntity
  8
0
100
AcDbLine
 62
7
  6
CONTINUOUS
 10
13.8523859587
 20
11.7461829367
 11
14.1040997802
 21
11.7383168798
  0
LINE
  5
2CC
100
AcDbEntity
  8
0
100
AcDbLine
 62
7
  6
CONTINUOUS
 10
14.0723859587
 20
11.7593176999
 11
13.8323859587
 21
11.7668176999
  0
LINE
  5
2CD
100
AcDbEntity
  8
0
100
AcDbLine
 62
7
  6
CONTINUOUS
 10
7.3546689673
 20
12.2772476223
 11
7.255978941
 21
12.2946493366
  0
LINE
  5
2CE
100
AcDbEntity
  8
0
100
AcDbLine
 62
7
  6
CONTINUOUS
 10
14.92510295
 20
11.1813877776
 11
15.0237929763
 21
11.1639860633
  0
LINE
  5
2CF
100
AcDbEntity
  8
0
100
AcDbLine
 62
9
  6
CONTINUOUS
 10
13.255978941
 20
11.1639860633
 11
13.574554322
 21
10.8454106823
  0
LINE
  5
2D0
100
AcDbEntity
  8
0
100
AcDbLine
 62
9
  6
CONTINUOUS
 10
13.5919560363
 20
10.9441007086
 11
13.3546689673
 21
11.1813877776
  0
LINE
  5
2D1
100
AcDbEntity
  8
0
100
AcDbLine
 62
7
  6
CONTINUOUS
 10
13.3574080365
 20
11.2142546786
 11
13.6248229373
 21
10.9468397778
  0
LINE
  5
2D2
100
AcDbEntity
  8
0
100
AcDbLine
 62
9
  6
CONTINUOUS
 10
13.3736974823
 20
11.2331270489
 11
13.6436953076
 21
10.9631292235
  0
LINE
  5
2D3
100
AcDbEntity
  8
0
100
AcDbLine
 62
7
  6
CONTINUOUS
 10
13.7608547556
 20
11.0728190014
 11
13.7170553548
 21
11.1486817888
  0
LINE
  5
2D4
100
AcDbEntity
  8
0
100
AcDbLine
 62
7
  6
CONTINUOUS
 10
13.5969424378
 20
11.3567234637
 11
13.3818257068
 21
11.7293165713
  0
LINE
  5
2D5
100
AcDbEntity
  8
0
100
AcDbLine
 62
7
  6
CONTINUOUS
 10
14.0723859587
 20
11.7593176999
 11
14.0337654601
 21
11.8430342281
  0
LINE
  5
2D6
100
AcDbEntity
  8
0
100
AcDbLine
 62
7
  6
CONTINUOUS
 10
14.1040997802
 20
11.7383168798
 11
14.0580897014
 21
11.8380515855
  0
LINE
  5
2D7
100
AcDbEntity
  8
0
100
AcDbLine
 62
7
  6
CONTINUOUS
 10
14.687815881
 20
10.9441007086
 11
14.7052175953
 21
10.8454106823
  0
LINE
  5
2D8
100
AcDbEntity
  8
0
100
AcDbLine
 62
7
  6
CONTINUOUS
 10
8.0446932213
 20
11.8610283681
 11
8.069598085
 21
11.8671528338
  0
LINE
  5
2D9
100
AcDbEntity
  8
0
100
AcDbLine
 62
7
  6
CONTINUOUS
 10
8.92510295
 20
12.2772476223
 11
9.0237929763
 21
12.2946493366
  0
LINE
  5
2DA
100
AcDbEntity
  8
0
100
AcDbLine
 62
7
  6
CONTINUOUS
 10
-0.2391433932
 20
12.3858176999
 11
0.5189150507
 21
12.3858176999
  0
LINE
  5
2DB
100
AcDbEntity
  8
0
100
AcDbLine
 62
7
  6
CONTINUOUS
 10
7.7608566068
 20
12.3858176999
 11
8.5189150507
 21
12.3858176999
  0
LINE
  5
2DC
100
AcDbEntity
  8
0
100
AcDbLine
 62
7
  6
CONTINUOUS
 10
13.7608566068
 20
12.3858176999
 11
14.5189150507
 21
12.3858176999
  0
LINE
  5
2DD
100
AcDbEntity
  8
0
100
AcDbLine
 62
7
  6
CONTINUOUS
 10
4.5440311471
 20
12.4293176999
 11
3.7357407702
 21
12.4293176999
  0
LINE
  5
2DE
100
AcDbEntity
  8
0
100
AcDbLine
 62
7
  6
CONTINUOUS
 10
13.3546689673
 20
12.2772476223
 11
13.255978941
 21
12.2946493366
  0
LINE
  5
2DF
100
AcDbEntity
  8
0
100
AcDbLine
 62
9
  6
CONTINUOUS
 10
13.8962961056
 20
11.221725378
 11
13.8820964455
 21
11.2359250381
  0
LINE
  5
2E0
100
AcDbEntity
  8
0
100
AcDbLine
 62
9
  6
CONTINUOUS
 10
13.6473215355
 20
11.4706999481
 11
13.6322936368
 21
11.4857278469
  0
LINE
  5
2E1
100
AcDbEntity
  8
0
100
AcDbLine
 62
7
  6
CONTINUOUS
 10
14.5189170901
 20
12.3858165227
 11
14.5627165625
 21
12.3099536111
  0
LINE
  5
2E2
100
AcDbEntity
  8
0
100
AcDbLine
 62
7
  6
CONTINUOUS
 10
14.6828294795
 20
12.1019119362
 11
14.8979460265
 21
11.7293191473
  0
LWPOLYLINE
  5
2E3
100
AcDbEntity
  8
0
100
AcDbPolyline
 62
7
  6
CONTINUOUS
 90
4
 70
0
 10
21.7314224006
 20
11.1818190273
 10
21.7013035393
 20
11.147586161
 10
21.6835757484
 20
11.10706737
 10
21.6790334204
 20
11.0707080994
  0
LINE
  5
2E4
100
AcDbEntity
  8
0
100
AcDbLine
 62
7
  6
CONTINUOUS
 10
22.0083935653
 20
11.3562731977
 11
22.0071474714
 21
11.3548626096
  0
LINE
  5
2E5
100
AcDbEntity
  8
0
100
AcDbLine
 62
7
  6
CONTINUOUS
 10
-0.6453310327
 20
11.1813877776
 11
-0.744021059
 21
11.1639860633
  0
LINE
  5
2E6
100
AcDbEntity
  8
0
100
AcDbLine
 62
7
  6
CONTINUOUS
 10
22.27275515
 20
11.3714586496
 11
22.2637721015
 21
11.3735363471
  0
LINE
  5
2E7
100
AcDbEntity
  8
0
100
AcDbLine
 62
9
  6
CONTINUOUS
 10
14.3834758117
 20
12.2369100218
 11
14.3976754146
 21
12.222710419
  0
LINE
  5
2E8
100
AcDbEntity
  8
0
100
AcDbLine
 62
9
  6
CONTINUOUS
 10
14.6324504375
 20
11.987935396
 11
14.6474782806
 21
11.972907553
  0
LINE
  5
2E9
100
AcDbEntity
  8
0
100
AcDbLine
 62
9
  6
CONTINUOUS
 10
14.906074435
 20
12.225508351
 11
14.6360766097
 21
12.4955061763
  0
LINE
  5
2EA
100
AcDbEntity
  8
0
100
AcDbLine
 62
7
  6
CONTINUOUS
 10
14.9223638808
 20
12.2443807213
 11
14.65494898
 21
12.511795622
  0
LINE
  5
2EB
100
AcDbEntity
  8
0
100
AcDbLine
 62
9
  6
CONTINUOUS
 10
14.687815881
 20
12.5145346913
 11
14.92510295
 21
12.2772476223
  0
LINE
  5
2EC
100
AcDbEntity
  8
0
100
AcDbLine
 62
9
  6
CONTINUOUS
 10
15.0237929763
 20
12.2946493366
 11
14.7052175953
 21
12.6132247176
  0
LINE
  5
2ED
100
AcDbEntity
  8
0
100
AcDbLine
 62
7
  6
CONTINUOUS
 10
21.7644675686
 20
11.2339629338
 11
21.7446474235
 21
11.2064016164
  0
LINE
  5
2EE
100
AcDbEntity
  8
0
100
AcDbLine
 62
7
  6
CONTINUOUS
 10
21.6797656103
 20
11.0765689469
 11
21.6723899904
 21
11.0664806289
  0
LINE
  5
2EF
100
AcDbEntity
  8
0
100
AcDbLine
 62
7
  6
CONTINUOUS
 10
0.92510295
 20
12.2772476223
 11
1.0237929763
 21
12.2946493366
  0
LINE
  5
2F0
100
AcDbEntity
  8
0
100
AcDbLine
 62
7
  6
CONTINUOUS
 10
22.3433324911
 20
11.3453293368
 11
22.3590808491
 21
11.3408279648
  0
LINE
  5
2F1
100
AcDbEntity
  8
0
100
AcDbLine
 62
7
  6
CONTINUOUS
 10
21.5468087863
 20
7.4993594302
 11
21.535773662
 21
7.4869989918
  0
LWPOLYLINE
  5
2F2
100
AcDbEntity
  8
0
100
AcDbPolyline
 62
7
  6
CONTINUOUS
 90
4
 70
0
 10
21.4657123984
 20
7.4105213976
 10
21.4295417381
 20
7.3701120518
 10
21.3879627988
 20
7.3192525619
 10
21.375715248
 20
7.303223685
  0
LINE
  5
2F3
100
AcDbEntity
  8
0
100
AcDbLine
 62
7
  6
CONTINUOUS
 10
21.535773662
 20
7.4869989918
 11
21.5053441713
 21
7.4532490191
  0
LWPOLYLINE
  5
2F4
100
AcDbEntity
  8
0
100
AcDbPolyline
 62
7
  6
CONTINUOUS
 90
3
 70
0
 10
21.505666392
 20
7.4536009116
 10
21.4757514517
 20
7.4213106167
 10
21.4657091072
 20
7.4105178645
  0
LINE
  5
2F5
100
AcDbEntity
  8
0
100
AcDbLine
 62
7
  6
CONTINUOUS
 10
22.4152956852
 20
11.3021146809
 11
22.4355970246
 21
11.2944421219
  0
LWPOLYLINE
  5
2F6
100
AcDbEntity
  8
0
100
AcDbPolyline
 62
7
  6
CONTINUOUS
 90
3
 70
0
 10
21.7446474235
 20
11.2064016164
 10
21.7324059177
 20
11.1724865849
 10
21.72916824
 20
11.1404946802
  0
LWPOLYLINE
  5
2F7
100
AcDbEntity
  8
0
100
AcDbPolyline
 62
7
  6
CONTINUOUS
 90
3
 70
0
 10
21.6723899904
 20
11.0664806289
 10
21.6572938893
 20
11.0279824563
 10
21.6531778839
 20
10.9934449306
  0
LINE
  5
2F8
100
AcDbEntity
  8
0
100
AcDbLine
 62
7
  6
CONTINUOUS
 10
22.6353086451
 20
11.4962722388
 11
22.6353563818
 21
11.4963674099
  0
LWPOLYLINE
  5
2F9
100
AcDbEntity
  8
0
100
AcDbPolyline
 62
7
  6
CONTINUOUS
 90
4
 70
0
 10
21.6532600549
 20
7.6480136086
 10
21.6230134193
 20
7.5985939145
 10
21.583306978
 20
7.5432008721
 10
21.5468088479
 20
7.4993594995
  0
LWPOLYLINE
  5
2FA
100
AcDbEntity
  8
0
100
AcDbPolyline
 62
7
  6
CONTINUOUS
 90
6
 70
0
 10
21.3754781295
 20
7.3029081479
 10
21.3063310124
 20
7.2006593181
 10
21.2309112599
 20
7.0537629168
 10
21.1795132121
 20
6.9051898117
 10
21.151489259
 20
6.7586791489
 10
21.1451898528
 20
6.6293083918
  0
LINE
  5
2FB
100
AcDbEntity
  8
0
100
AcDbLine
 62
7
  6
CONTINUOUS
 10
21.3754851289
 20
7.3029174536
 11
21.375715248
 21
7.303223685
  0
LINE
  5
2FC
100
AcDbEntity
  8
0
100
AcDbLine
 62
7
  6
CONTINUOUS
 10
22.2052647615
 20
11.3766232552
 11
22.2072614692
 21
11.3754923822
  0
LWPOLYLINE
  5
2FD
100
AcDbEntity
  8
0
100
AcDbPolyline
 62
7
  6
CONTINUOUS
 90
3
 70
0
 10
22.8140628101
 20
7.4105178645
 10
22.7848000944
 20
7.4420328185
 10
22.7741055253
 20
7.4536009116
  0
LWPOLYLINE
  5
2FE
100
AcDbEntity
  8
0
100
AcDbPolyline
 62
7
  6
CONTINUOUS
 90
3
 70
0
 10
22.774427746
 20
7.4532490191
 10
22.7439982553
 20
7.4869989918
 10
22.7329702417
 20
7.4993514455
  0
LWPOLYLINE
  5
2FF
100
AcDbEntity
  8
0
100
AcDbPolyline
 62
7
  6
CONTINUOUS
 90
4
 70
0
 10
22.7329630694
 20
7.4993594994
 10
22.6964649361
 20
7.5432008764
 10
22.6567585
 20
7.5985939115
 10
22.6265118624
 20
7.6480136086
  0
LWPOLYLINE
  5
300
100
AcDbEntity
  8
0
100
AcDbPolyline
 62
7
  6
CONTINUOUS
 90
3
 70
0
 10
21.8103542502
 20
11.2552422131
 10
21.802731086
 20
11.2280649656
 10
21.800355163
 20
11.1985415898
  0
LINE
  5
301
100
AcDbEntity
  8
0
100
AcDbLine
 62
7
  6
CONTINUOUS
 10
21.7048541988
 20
7.7539312766
 11
21.7048597607
 21
7.7539448714
  0
LWPOLYLINE
  5
302
100
AcDbEntity
  8
0
100
AcDbPolyline
 62
7
  6
CONTINUOUS
 90
4
 70
0
 10
21.7048541988
 20
7.7539312766
 10
21.6916112787
 20
7.7232483783
 10
21.6716721074
 20
7.6820752576
 10
21.6532695537
 20
7.6480303728
  0
LINE
  5
303
100
AcDbEntity
  8
0
100
AcDbLine
 62
7
  6
CONTINUOUS
 10
21.6532600549
 20
7.6480136086
 11
21.6532695537
 21
7.6480303728
  0
LWPOLYLINE
  5
304
100
AcDbEntity
  8
0
100
AcDbPolyline
 62
7
  6
CONTINUOUS
 90
4
 70
0
 10
22.9041269298
 20
7.3031302112
 10
22.8915259037
 20
7.319617135
 10
22.850075726
 20
7.3702916815
 10
22.8140595437
 20
7.410521371
  0
LINE
  5
305
100
AcDbEntity
  8
0
100
AcDbLine
 62
7
  6
CONTINUOUS
 10
22.9041972199
 20
7.3030366748
 11
22.9041220962
 21
7.3031366417
  0
LINE
  5
306
100
AcDbEntity
  8
0
100
AcDbLine
 62
7
  6
CONTINUOUS
 10
21.6790334153
 20
8.9495220829
 11
21.6819913797
 21
8.9198716714
  0
LWPOLYLINE
  5
307
100
AcDbEntity
  8
0
100
AcDbPolyline
 62
7
  6
CONTINUOUS
 90
5
 70
0
 10
21.1451895231
 20
6.6293590234
 10
21.1554897469
 20
6.5043820802
 10
21.1851389424
 20
6.3676058114
 10
21.2340082679
 20
6.2342367988
 10
21.2854933025
 20
6.1345780199
  0
LINE
  5
308
100
AcDbEntity
  8
0
100
AcDbLine
 62
7
  6
CONTINUOUS
 10
21.7291682279
 20
9.0192803143
 11
21.7312843413
 21
8.9914303877
  0
LINE
  5
309
100
AcDbEntity
  8
0
100
AcDbLine
 62
7
  6
CONTINUOUS
 10
21.7473230275
 20
8.0803636331
 11
21.7499218011
 21
8.0458185036
  0
LINE
  5
30A
100
AcDbEntity
  8
0
100
AcDbLine
 62
7
  6
CONTINUOUS
 10
21.1451888907
 20
6.6293591104
 11
21.1451898528
 21
6.6293083918
  0
LINE
  5
30B
100
AcDbEntity
  8
0
100
AcDbLine
 62
7
  6
CONTINUOUS
 10
21.8003551627
 20
9.0773595906
 11
21.8003826265
 21
9.0739685289
  0
LINE
  5
30C
100
AcDbEntity
  8
0
100
AcDbLine
 62
7
  6
CONTINUOUS
 10
21.6498859587
 20
11.4324943979
 11
21.6498859587
 21
11.3489320086
  0
LINE
  5
30D
100
AcDbEntity
  8
0
100
AcDbLine
 62
7
  6
CONTINUOUS
 10
21.6523859587
 20
11.4548534765
 11
21.6523859587
 21
11.7293176999
  0
LINE
  5
30E
100
AcDbEntity
  8
0
100
AcDbLine
 62
7
  6
CONTINUOUS
 10
21.6531727305
 20
10.9934621219
 11
21.6531727305
 21
8.87226301
  0
LINE
  5
30F
100
AcDbEntity
  8
0
100
AcDbLine
 62
7
  6
CONTINUOUS
 10
21.6698859587
 20
11.0600948313
 11
21.6698859587
 21
11.4550782403
  0
LINE
  5
310
100
AcDbEntity
  8
0
100
AcDbLine
 62
7
  6
CONTINUOUS
 10
21.6790430899
 20
11.0706475324
 11
21.6790430899
 21
8.9494484204
  0
LINE
  5
311
100
AcDbEntity
  8
0
100
AcDbLine
 62
7
  6
CONTINUOUS
 10
21.7291582789
 20
11.1404795236
 11
21.7291582789
 21
9.0192804116
  0
LINE
  5
312
100
AcDbEntity
  8
0
100
AcDbLine
 62
7
  6
CONTINUOUS
 10
21.8003693758
 20
11.1985702947
 11
21.8003693758
 21
9.0773711827
  0
LINE
  5
313
100
AcDbEntity
  8
0
100
AcDbLine
 62
7
  6
CONTINUOUS
 10
21.7541345933
 20
7.977376273
 11
21.7515198838
 21
7.9322115592
  0
LINE
  5
314
100
AcDbEntity
  8
0
100
AcDbLine
 62
7
  6
CONTINUOUS
 10
21.7534633146
 20
7.9541436088
 11
21.7524368683
 21
7.9411401903
  0
LINE
  5
315
100
AcDbEntity
  8
0
100
AcDbLine
 62
7
  6
CONTINUOUS
 10
21.7515198838
 20
7.9322115592
 11
21.7515168804
 21
7.9321816407
  0
LINE
  5
316
100
AcDbEntity
  8
0
100
AcDbLine
 62
7
  6
CONTINUOUS
 10
21.7515168805
 20
7.9321816409
 11
21.7507373499
 21
7.9248881422
  0
LINE
  5
317
100
AcDbEntity
  8
0
100
AcDbLine
 62
9
  6
CONTINUOUS
 10
21.7519684678
 20
7.9360839195
 11
21.7515198838
 21
7.9322115592
  0
LINE
  5
318
100
AcDbEntity
  8
0
100
AcDbLine
 62
7
  6
CONTINUOUS
 10
21.7524368683
 20
7.9411401903
 11
21.748700867
 21
7.9091875212
  0
LINE
  5
319
100
AcDbEntity
  8
0
100
AcDbLine
 62
7
  6
CONTINUOUS
 10
21.748700867
 20
7.9091875212
 11
21.7439828875
 21
7.8806698455
  0
LINE
  5
31A
100
AcDbEntity
  8
0
100
AcDbLine
 62
7
  6
CONTINUOUS
 10
21.7439828864
 20
7.88066984
 11
21.7441096668
 21
7.8813335391
  0
LWPOLYLINE
  5
31B
100
AcDbEntity
  8
0
100
AcDbPolyline
 62
7
  6
CONTINUOUS
 90
4
 70
0
 10
21.7441096678
 20
7.8813335446
 10
21.736612774
 20
7.8483398753
 10
21.7223423519
 20
7.8006675079
 10
21.7048597607
 20
7.7539448714
  0
LWPOLYLINE
  5
31C
100
AcDbEntity
  8
0
100
AcDbPolyline
 62
7
  6
CONTINUOUS
 90
3
 70
0
 10
22.5750229949
 20
8.9514758317
 10
22.5753216072
 20
8.9524563951
 10
22.5785333083
 20
8.9856656686
  0
LWPOLYLINE
  5
31D
100
AcDbEntity
  8
0
100
AcDbPolyline
 62
7
  6
CONTINUOUS
 90
3
 70
0
 10
22.2183339428
 20
11.3677770332
 10
22.2143453231
 20
11.3709198801
 10
22.2072614692
 20
11.3754923822
  0
LINE
  5
31E
100
AcDbEntity
  8
0
100
AcDbLine
 62
7
  6
CONTINUOUS
 10
22.6265118624
 20
7.6480136086
 11
22.6265023636
 21
7.6480303728
  0
LWPOLYLINE
  5
31F
100
AcDbEntity
  8
0
100
AcDbPolyline
 62
7
  6
CONTINUOUS
 90
4
 70
0
 10
22.6265023636
 20
7.6480303728
 10
22.6080998047
 20
7.6820752677
 10
22.588160643
 20
7.7232483686
 10
22.5749177185
 20
7.7539312766
  0
LINE
  5
320
100
AcDbEntity
  8
0
100
AcDbLine
 62
7
  6
CONTINUOUS
 10
22.5749177185
 20
7.7539312766
 11
22.5749121566
 21
7.7539448714
  0
LINE
  5
321
100
AcDbEntity
  8
0
100
AcDbLine
 62
7
  6
CONTINUOUS
 10
21.7312843413
 20
8.9914303877
 11
21.7335255087
 21
8.9819202622
  0
LINE
  5
322
100
AcDbEntity
  8
0
100
AcDbLine
 62
7
  6
CONTINUOUS
 10
21.6297630434
 20
8.6863409745
 11
21.7502307445
 21
8.0433734554
  0
LWPOLYLINE
  5
323
100
AcDbEntity
  8
0
100
AcDbPolyline
 62
7
  6
CONTINUOUS
 90
3
 70
0
 10
21.750001665
 20
8.0454013994
 10
21.7527744057
 20
8.0208554996
 10
21.7541345933
 20
7.977376273
  0
LINE
  5
324
100
AcDbEntity
  8
0
100
AcDbLine
 62
7
  6
CONTINUOUS
 10
22.5290345675
 20
7.9248881416
 11
22.5282550369
 21
7.9321816409
  0
LINE
  5
325
100
AcDbEntity
  8
0
100
AcDbLine
 62
7
  6
CONTINUOUS
 10
22.5282520335
 20
7.9322115594
 11
22.5282550369
 21
7.9321816409
  0
LINE
  5
326
100
AcDbEntity
  8
0
100
AcDbLine
 62
7
  6
CONTINUOUS
 10
22.5273397647
 20
7.9410879737
 11
22.5263086052
 21
7.9541435716
  0
LINE
  5
327
100
AcDbEntity
  8
0
100
AcDbLine
 62
7
  6
CONTINUOUS
 10
22.4367732482
 20
11.2285318929
 11
22.4350454958
 21
11.2522142032
  0
LWPOLYLINE
  5
328
100
AcDbEntity
  8
0
100
AcDbPolyline
 62
7
  6
CONTINUOUS
 90
3
 70
0
 10
22.5282520335
 20
7.9322115592
 10
22.525637324
 20
7.977376273
 10
22.5269975116
 20
8.0208554996
  0
LINE
  5
329
100
AcDbEntity
  8
0
100
AcDbLine
 62
7
  6
CONTINUOUS
 10
21.8903326534
 20
9.133666788
 11
21.8903326534
 21
11.2548659
  0
LINE
  5
32A
100
AcDbEntity
  8
0
100
AcDbLine
 62
7
  6
CONTINUOUS
 10
21.9959705476
 20
9.1717442975
 11
21.9959705476
 21
11.2929434094
  0
LINE
  5
32B
100
AcDbEntity
  8
0
100
AcDbLine
 62
7
  6
CONTINUOUS
 10
22.1106511764
 20
9.1885007202
 11
22.1106511764
 21
11.3096998321
  0
LINE
  5
32C
100
AcDbEntity
  8
0
100
AcDbLine
 62
9
  6
CONTINUOUS
 10
22.1398857496
 20
5.6683288433
 11
22.1398859587
 21
6.9287026782
  0
LINE
  5
32D
100
AcDbEntity
  8
0
100
AcDbLine
 62
7
  6
CONTINUOUS
 10
22.1398859584
 20
6.9287026828
 11
22.1398859585
 21
7.4528062692
  0
LINE
  5
32E
100
AcDbEntity
  8
0
100
AcDbLine
 62
9
  6
CONTINUOUS
 10
22.1398846083
 20
9.1372096366
 11
22.1398859587
 21
7.4528062692
  0
LINE
  5
32F
100
AcDbEntity
  8
0
100
AcDbLine
 62
7
  6
CONTINUOUS
 10
22.2271687341
 20
9.1828831884
 11
22.2271687341
 21
11.3040823004
  0
LINE
  5
330
100
AcDbEntity
  8
0
100
AcDbLine
 62
7
  6
CONTINUOUS
 10
22.338201994
 20
9.1552446724
 11
22.338201994
 21
11.2764437844
  0
LINE
  5
331
100
AcDbEntity
  8
0
100
AcDbLine
 62
7
  6
CONTINUOUS
 10
22.436774328
 20
9.1073218018
 11
22.436774328
 21
11.2285209137
  0
LINE
  5
332
100
AcDbEntity
  8
0
100
AcDbLine
 62
7
  6
CONTINUOUS
 10
22.578538782
 20
11.1068529557
 11
22.578538858
 21
8.9855720776
  0
LINE
  5
333
100
AcDbEntity
  8
0
100
AcDbLine
 62
7
  6
CONTINUOUS
 10
22.6098859587
 20
11.0746430597
 11
22.6098859587
 21
11.4550782403
  0
LINE
  5
334
100
AcDbEntity
  8
0
100
AcDbLine
 62
7
  6
CONTINUOUS
 10
22.6168335925
 20
11.0326993702
 11
22.6168335976
 21
8.9114791317
  0
LINE
  5
335
100
AcDbEntity
  8
0
100
AcDbLine
 62
7
  6
CONTINUOUS
 10
22.6273859587
 20
11.4564460516
 11
22.6273859587
 21
11.7293176999
  0
LINE
  5
336
100
AcDbEntity
  8
0
100
AcDbLine
 62
7
  6
CONTINUOUS
 10
22.6298715857
 20
10.9536176287
 11
22.6298715857
 21
8.8644586436
  0
LINE
  5
337
100
AcDbEntity
  8
0
100
AcDbLine
 62
7
  6
CONTINUOUS
 10
22.6298859587
 20
11.4324943979
 11
22.6298859587
 21
11.3489320086
  0
LINE
  5
338
100
AcDbEntity
  8
0
100
AcDbLine
 62
7
  6
CONTINUOUS
 10
22.6168335976
 20
8.9114791317
 11
22.6168335948
 21
8.9114634342
  0
LINE
  5
339
100
AcDbEntity
  8
0
100
AcDbLine
 62
7
  6
CONTINUOUS
 10
22.5173935661
 20
11.1712409339
 11
22.5173934656
 21
9.049947762
  0
LINE
  5
33A
100
AcDbEntity
  8
0
100
AcDbLine
 62
7
  6
CONTINUOUS
 10
22.5172229841
 20
9.041834621
 11
22.5173953602
 21
9.0499451267
  0
LINE
  5
33B
100
AcDbEntity
  8
0
100
AcDbLine
 62
7
  6
CONTINUOUS
 10
22.5324488
 20
8.0803629807
 11
22.5298336412
 21
8.045821793
  0
LINE
  5
33C
100
AcDbEntity
  8
0
100
AcDbLine
 62
7
  6
CONTINUOUS
 10
22.6146369132
 20
8.8908395312
 11
22.6168453448
 21
8.9114615083
  0
LINE
  5
33D
100
AcDbEntity
  8
0
100
AcDbLine
 62
7
  6
CONTINUOUS
 10
22.5269975116
 20
8.0208554996
 11
22.5297702523
 21
8.0454013994
  0
LWPOLYLINE
  5
33E
100
AcDbEntity
  8
0
100
AcDbPolyline
 62
7
  6
CONTINUOUS
 90
3
 70
0
 10
22.5141819342
 20
9.0137606442
 10
22.5154635648
 20
9.022158277
 10
22.5172229841
 20
9.041834621
  0
LINE
  5
33F
100
AcDbEntity
  8
0
100
AcDbLine
 62
7
  6
CONTINUOUS
 10
22.5295411728
 20
8.0433734554
 11
22.6500088739
 21
8.6863409745
  0
LWPOLYLINE
  5
340
100
AcDbEntity
  8
0
100
AcDbPolyline
 62
7
  6
CONTINUOUS
 90
5
 70
0
 10
22.9942786148
 20
6.1345780198
 10
23.0457636495
 20
6.234236799
 10
23.094632975
 20
6.3676058117
 10
23.1242821705
 20
6.5043820805
 10
23.1345823942
 20
6.6293590234
  0
LINE
  5
341
100
AcDbEntity
  8
0
100
AcDbLine
 62
7
  6
CONTINUOUS
 10
22.5951775515
 20
11.1091201286
 11
22.5760880277
 21
11.1322331202
  0
LWPOLYLINE
  5
342
100
AcDbEntity
  8
0
100
AcDbPolyline
 62
7
  6
CONTINUOUS
 90
4
 70
0
 10
22.502640911
 20
11.2367459955
 10
22.4829268942
 20
11.2640974436
 10
22.4546848558
 20
11.2855843362
 10
22.4355970246
 20
11.2944421219
  0
LWPOLYLINE
  5
343
100
AcDbEntity
  8
0
100
AcDbPolyline
 62
7
  6
CONTINUOUS
 90
5
 70
0
 10
22.3278686735
 20
11.3331808249
 10
22.3216254956
 20
11.342161344
 10
22.3072985776
 20
11.3558497495
 10
22.2889413245
 20
11.3662553569
 10
22.2726837298
 20
11.3714751436
  0
LWPOLYLINE
  5
344
100
AcDbEntity
  8
0
100
AcDbPolyline
 62
7
  6
CONTINUOUS
 90
4
 70
0
 10
22.5641414568
 20
11.1699707779
 10
22.5447408035
 20
11.1987939312
 10
22.5170380122
 20
11.2231009522
 10
22.5049461022
 20
11.2301121056
  0
LWPOLYLINE
  5
345
100
AcDbEntity
  8
0
100
AcDbPolyline
 62
7
  6
CONTINUOUS
 90
4
 70
0
 10
22.5749121566
 20
7.7539448714
 10
22.5574295645
 20
7.8006675105
 10
22.5431591442
 20
7.8483398718
 10
22.5356622495
 20
7.8813335446
  0
LINE
  5
346
100
AcDbEntity
  8
0
100
AcDbLine
 62
7
  6
CONTINUOUS
 10
22.5357890314
 20
7.8806698368
 11
22.5356622504
 21
7.8813335394
  0
LINE
  5
347
100
AcDbEntity
  8
0
100
AcDbLine
 62
7
  6
CONTINUOUS
 10
22.5357890305
 20
7.880669842
 11
22.5310753245
 21
7.909157622
  0
LINE
  5
348
100
AcDbEntity
  8
0
100
AcDbLine
 62
7
  6
CONTINUOUS
 10
22.5310753245
 20
7.909157622
 11
22.5273397647
 21
7.9410879737
  0
LINE
  5
349
100
AcDbEntity
  8
0
100
AcDbLine
 62
9
  6
CONTINUOUS
 10
22.5278034495
 20
7.9360839196
 11
22.5282520335
 21
7.9322115594
  0
LINE
  5
34A
100
AcDbEntity
  8
0
100
AcDbLine
 62
7
  6
CONTINUOUS
 10
22.6298571931
 20
10.9536596876
 11
22.6268891937
 21
10.9832188169
  0
LWPOLYLINE
  5
34B
100
AcDbEntity
  8
0
100
AcDbPolyline
 62
7
  6
CONTINUOUS
 90
3
 70
0
 10
22.578533311
 20
11.1068556117
 10
22.5757008833
 20
11.1362509609
 10
22.5641414568
 20
11.1699707779
  0
LWPOLYLINE
  5
34C
100
AcDbEntity
  8
0
100
AcDbPolyline
 62
7
  6
CONTINUOUS
 90
3
 70
0
 10
22.5173953597
 20
11.1711490659
 10
22.5143843047
 20
11.202950803
 10
22.502640911
 20
11.2367459955
  0
LWPOLYLINE
  5
34D
100
AcDbEntity
  8
0
100
AcDbPolyline
 62
7
  6
CONTINUOUS
 90
6
 70
0
 10
23.1345820642
 20
6.6293083757
 10
23.1282739871
 20
6.7587540748
 10
23.1002179761
 20
6.9053422439
 10
23.0487626453
 20
7.0539925285
 10
22.9732599777
 20
7.2009582342
 10
22.9041972199
 20
7.3030366748
  0
LINE
  5
34E
100
AcDbEntity
  8
0
100
AcDbLine
 62
7
  6
CONTINUOUS
 10
23.1345823942
 20
6.6293590234
 11
23.1345814219
 21
6.6293082888
  0
LWPOLYLINE
  5
34F
100
AcDbEntity
  8
0
100
AcDbPolyline
 62
7
  6
CONTINUOUS
 90
5
 70
0
 10
22.4267070488
 20
11.282270021
 10
22.4136924321
 20
11.30490278
 10
22.394086021
 20
11.3239725768
 10
22.3689900688
 20
11.3375076922
 10
22.3590808491
 20
11.3408279648
  0
LINE
  5
350
100
AcDbEntity
  8
0
100
AcDbLine
 62
7
  6
CONTINUOUS
 10
22.6353580299
 20
11.9622644785
 11
22.6353093061
 21
11.9623617297
  0
LINE
  5
351
100
AcDbEntity
  8
0
100
AcDbLine
 62
7
  6
CONTINUOUS
 10
22.6351120893
 20
11.9627857481
 11
22.635344635
 21
11.9622918401
  0
LINE
  5
352
100
AcDbEntity
  8
0
100
AcDbLine
 62
7
  6
CONTINUOUS
 10
22.6268891937
 20
10.9832188169
 11
22.6168335976
 21
11.0124478539
  0
LWPOLYLINE
  5
353
100
AcDbEntity
  8
0
100
AcDbPolyline
 62
7
  6
CONTINUOUS
 90
3
 70
0
 10
22.4350454958
 20
11.2522142032
 10
22.4341139861
 20
11.2574888391
 10
22.4267070488
 20
11.282270021
  0
LWPOLYLINE
  5
354
100
AcDbEntity
  8
0
100
AcDbPolyline
 62
7
  6
CONTINUOUS
 90
3
 70
0
 10
22.6168452825
 20
11.0326974261
 10
22.6122113337
 20
11.0691922918
 10
22.5951775515
 20
11.1091201286
  0
ARC
  5
355
100
AcDbEntity
  8
0
100
AcDbCircle
 62
7
  6
CONTINUOUS
 10
-40.3265934562
 20
5.5431402099
 40
43.8201384277
100
AcDbArc
 50
358.2187614728
 51
5.5071683567
  0
ARC
  5
356
100
AcDbEntity
  8
0
100
AcDbCircle
 62
7
  6
CONTINUOUS
 10
1.9751449688
 20
2.7091562992
 40
1.4528679477
100
AcDbArc
 50
351.7612632872
 51
352.2564415345
  0
ARC
  5
357
100
AcDbEntity
  8
0
100
AcDbCircle
 62
7
  6
CONTINUOUS
 10
0.9760397274
 20
10.8931639312
 40
0.275
100
AcDbArc
 50
190.0
 51
80.0
  0
ARC
  5
358
100
AcDbEntity
  8
0
100
AcDbCircle
 62
7
  6
CONTINUOUS
 10
-0.6962678101
 20
10.8931639312
 40
0.275
100
AcDbArc
 50
100.0
 51
350.0
  0
ARC
  5
359
100
AcDbEntity
  8
0
100
AcDbCircle
 62
7
  6
CONTINUOUS
 10
0.3862249616
 20
10.9717404942
 40
0.25
100
AcDbArc
 50
358.0260516848
 51
90.6300714453
  0
ARC
  5
35A
100
AcDbEntity
  8
0
100
AcDbCircle
 62
7
  6
CONTINUOUS
 10
0.8974631644
 20
11.4829786969
 40
0.25
100
AcDbArc
 50
179.3699285546
 51
271.9739483153
  0
ARC
  5
35B
100
AcDbEntity
  8
0
100
AcDbCircle
 62
7
  6
CONTINUOUS
 10
-0.6176912471
 20
11.4829786969
 40
0.25
100
AcDbArc
 50
268.0260516848
 51
0.6300714454
  0
ARC
  5
35C
100
AcDbEntity
  8
0
100
AcDbCircle
 62
7
  6
CONTINUOUS
 10
-0.1064530443
 20
10.9717404942
 40
0.25
100
AcDbArc
 50
89.3699285546
 51
181.9739483152
  0
ARC
  5
35D
100
AcDbEntity
  8
0
100
AcDbCircle
 62
7
  6
CONTINUOUS
 10
0.0009290685
 20
11.5553052615
 40
0.0413119841
100
AcDbArc
 50
270.0
 51
314.9999999993
  0
ARC
  5
35E
100
AcDbEntity
  8
0
100
AcDbCircle
 62
7
  6
CONTINUOUS
 10
0.0671181304
 20
11.6214943234
 40
0.0413119841
100
AcDbArc
 50
314.9999999993
 51
360.0
  0
ARC
  5
35F
100
AcDbEntity
  8
0
100
AcDbCircle
 62
7
  6
CONTINUOUS
 10
-0.0425756684
 20
11.588631528
 40
0.036
100
AcDbArc
 50
44.9999999997
 51
105.9147049392
  0
ARC
  5
360
100
AcDbEntity
  8
0
100
AcDbCircle
 62
7
  6
CONTINUOUS
 10
0.6164801549
 20
11.4860687414
 40
0.031
100
AcDbArc
 50
359.3699285546
 51
18.0698510321
  0
ARC
  5
361
100
AcDbEntity
  8
0
100
AcDbCircle
 62
7
  6
CONTINUOUS
 10
0.3831349172
 20
11.2527235036
 40
0.031
100
AcDbArc
 50
249.3427744753
 51
270.6300714452
  0
ARC
  5
362
100
AcDbEntity
  8
0
100
AcDbCircle
 62
7
  6
CONTINUOUS
 10
-0.3367082376
 20
11.4860687414
 40
0.031
100
AcDbArc
 50
160.3001235792
 51
180.6300714452
  0
ARC
  5
363
100
AcDbEntity
  8
0
100
AcDbCircle
 62
7
  6
CONTINUOUS
 10
-0.1033629998
 20
11.2527235036
 40
0.031
100
AcDbArc
 50
269.3699285548
 51
290.1447114275
  0
ARC
  5
364
100
AcDbEntity
  8
0
100
AcDbCircle
 62
7
  6
CONTINUOUS
 10
0.6720589569
 20
10.9413223377
 40
0.016
100
AcDbArc
 50
10.0000000009
 51
135.0
  0
ARC
  5
365
100
AcDbEntity
  8
0
100
AcDbCircle
 62
7
  6
CONTINUOUS
 10
0.9278813209
 20
11.1971447017
 40
0.016
100
AcDbArc
 50
135.0000000002
 51
259.9999999976
  0
ARC
  5
366
100
AcDbEntity
  8
0
100
AcDbCircle
 62
7
  6
CONTINUOUS
 10
0.9066255564
 20
11.2171365435
 40
0.016
100
AcDbArc
 50
349.6234510996
 51
91.9739483151
  0
ARC
  5
367
100
AcDbEntity
  8
0
100
AcDbCircle
 62
7
  6
CONTINUOUS
 10
0.6520671151
 20
10.9625781022
 40
0.016
100
AcDbArc
 50
178.0260516849
 51
280.3765489001
  0
ARC
  5
368
100
AcDbEntity
  8
0
100
AcDbCircle
 62
7
  6
CONTINUOUS
 10
-0.6481094035
 20
11.1971447017
 40
0.016
100
AcDbArc
 50
280.0000000017
 51
45.0
  0
ARC
  5
369
100
AcDbEntity
  8
0
100
AcDbCircle
 62
7
  6
CONTINUOUS
 10
-0.3922870396
 20
10.9413223377
 40
0.016
100
AcDbArc
 50
45.0
 51
169.9999999983
  0
ARC
  5
36A
100
AcDbEntity
  8
0
100
AcDbCircle
 62
7
  6
CONTINUOUS
 10
-0.3722951978
 20
10.9625781022
 40
0.016
100
AcDbArc
 50
259.6234510997
 51
1.9739483151
  0
ARC
  5
36B
100
AcDbEntity
  8
0
100
AcDbCircle
 62
7
  6
CONTINUOUS
 10
-0.6268536391
 20
11.2171365435
 40
0.016
100
AcDbArc
 50
88.0260516849
 51
190.3765489003
  0
ARC
  5
36C
100
AcDbEntity
  8
0
100
AcDbCircle
 62
7
  6
CONTINUOUS
 10
0.0462650208
 20
11.5464598863
 40
0.003
100
AcDbArc
 50
314.999999992
 51
45.0000000068
  0
ARC
  5
36D
100
AcDbEntity
  8
0
100
AcDbCircle
 62
7
  6
CONTINUOUS
 10
0.0759635056
 20
11.5761583711
 40
0.003
100
AcDbArc
 50
225.0
 51
314.9999999919
  0
ARC
  5
36E
100
AcDbEntity
  8
0
100
AcDbCircle
 62
7
  6
CONTINUOUS
 10
-0.6176912471
 20
11.9756567029
 40
0.25
100
AcDbArc
 50
359.3699285546
 51
91.9739483153
  0
ARC
  5
36F
100
AcDbEntity
  8
0
100
AcDbCircle
 62
7
  6
CONTINUOUS
 10
0.033791864
 20
11.6649990603
 40
0.036
100
AcDbArc
 50
164.0852950604
 51
225.0
  0
ARC
  5
370
100
AcDbEntity
  8
0
100
AcDbCircle
 62
7
  6
CONTINUOUS
 10
-0.3367082376
 20
11.9725666584
 40
0.031
100
AcDbArc
 50
179.3699285546
 51
198.0698747268
  0
ARC
  5
371
100
AcDbEntity
  8
0
100
AcDbCircle
 62
7
  6
CONTINUOUS
 10
-0.6962678101
 20
12.5654714687
 40
0.275
100
AcDbArc
 50
10.0
 51
260.0
  0
ARC
  5
372
100
AcDbEntity
  8
0
100
AcDbCircle
 62
7
  6
CONTINUOUS
 10
-0.1064530443
 20
12.4868949057
 40
0.25
100
AcDbArc
 50
178.0260516848
 51
270.6300714453
  0
ARC
  5
373
100
AcDbEntity
  8
0
100
AcDbCircle
 62
7
  6
CONTINUOUS
 10
-0.1033629998
 20
12.2059118962
 40
0.031
100
AcDbArc
 50
69.3427405619
 51
90.6300714452
  0
ARC
  5
374
100
AcDbEntity
  8
0
100
AcDbCircle
 62
7
  6
CONTINUOUS
 10
-0.6481094035
 20
12.2614906982
 40
0.016
100
AcDbArc
 50
315.0000000002
 51
79.9999999976
  0
ARC
  5
375
100
AcDbEntity
  8
0
100
AcDbCircle
 62
7
  6
CONTINUOUS
 10
-0.3922870396
 20
12.5173130621
 40
0.016
100
AcDbArc
 50
190.0000000009
 51
315.0
  0
ARC
  5
376
100
AcDbEntity
  8
0
100
AcDbCircle
 62
7
  6
CONTINUOUS
 10
-0.3722951978
 20
12.4960572977
 40
0.016
100
AcDbArc
 50
358.0260516849
 51
100.3765489001
  0
ARC
  5
377
100
AcDbEntity
  8
0
100
AcDbCircle
 62
7
  6
CONTINUOUS
 10
-0.6268536391
 20
12.2414988564
 40
0.016
100
AcDbArc
 50
169.6234510996
 51
271.9739483151
  0
ARC
  5
378
100
AcDbEntity
  8
0
100
AcDbCircle
 62
7
  6
CONTINUOUS
 10
0.1398859587
 20
11.7293176999
 40
1.18
100
AcDbArc
 50
58.3110594919
 51
121.6895210958
  0
ARC
  5
379
100
AcDbEntity
  8
0
100
AcDbCircle
 62
7
  6
CONTINUOUS
 10
0.1398859587
 20
11.7293176999
 40
1.18
100
AcDbArc
 50
148.311223134
 51
211.6884162228
  0
ARC
  5
37A
100
AcDbEntity
  8
0
100
AcDbCircle
 62
7
  6
CONTINUOUS
 10
0.1398859587
 20
11.7293176999
 40
1.18
100
AcDbArc
 50
238.3110594919
 51
301.6895210958
  0
ARC
  5
37B
100
AcDbEntity
  8
0
100
AcDbCircle
 62
7
  6
CONTINUOUS
 10
0.1398859587
 20
11.7293176999
 40
1.18
100
AcDbArc
 50
328.311223134
 51
31.6884162228
  0
ARC
  5
37C
100
AcDbEntity
  8
0
100
AcDbCircle
 62
7
  6
CONTINUOUS
 10
0.1398859587
 20
11.7293176999
 40
1.0000026738
100
AcDbArc
 50
236.1474067645
 51
303.8525932355
  0
ARC
  5
37D
100
AcDbEntity
  8
0
100
AcDbCircle
 62
7
  6
CONTINUOUS
 10
0.1398859587
 20
11.7293176999
 40
1.0000026738
100
AcDbArc
 50
146.2046018122
 51
213.7953981878
  0
ARC
  5
37E
100
AcDbEntity
  8
0
100
AcDbCircle
 62
7
  6
CONTINUOUS
 10
0.1398859587
 20
11.7293176999
 40
1.0000026738
100
AcDbArc
 50
56.1474067645
 51
123.8525932355
  0
ARC
  5
37F
100
AcDbEntity
  8
0
100
AcDbCircle
 62
7
  6
CONTINUOUS
 10
0.1398859587
 20
11.7293176999
 40
1.0000026738
100
AcDbArc
 50
326.2046018122
 51
33.7953981878
  0
ARC
  5
380
100
AcDbEntity
  8
0
100
AcDbCircle
 62
9
  6
CONTINUOUS
 10
0.1398859587
 20
11.7293176999
 40
0.8130026738
100
AcDbArc
 50
234.198679128
 51
305.7941172589
  0
ARC
  5
381
100
AcDbEntity
  8
0
100
AcDbCircle
 62
9
  6
CONTINUOUS
 10
0.1398859587
 20
11.7293176999
 40
0.8130026738
100
AcDbArc
 50
144.206499606
 51
215.8001630525
  0
ARC
  5
382
100
AcDbEntity
  8
0
100
AcDbCircle
 62
9
  6
CONTINUOUS
 10
0.1398859587
 20
11.7293176999
 40
0.8130026738
100
AcDbArc
 50
54.198679128
 51
125.7941172589
  0
ARC
  5
383
100
AcDbEntity
  8
0
100
AcDbCircle
 62
9
  6
CONTINUOUS
 10
0.1398859587
 20
11.7293176999
 40
0.8130026738
100
AcDbArc
 50
324.206499606
 51
35.8001630525
  0
ARC
  5
384
100
AcDbEntity
  8
0
100
AcDbCircle
 62
7
  6
CONTINUOUS
 10
0.1398859587
 20
11.7293176999
 40
0.741
100
AcDbArc
 50
62.3704986062
 51
117.6295013938
  0
ARC
  5
385
100
AcDbEntity
  8
0
100
AcDbCircle
 62
7
  6
CONTINUOUS
 10
0.1398859587
 20
11.7293176999
 40
0.741
100
AcDbArc
 50
143.8343894235
 51
177.6295013938
  0
ARC
  5
386
100
AcDbEntity
  8
0
100
AcDbCircle
 62
7
  6
CONTINUOUS
 10
0.1398859587
 20
11.7293176999
 40
0.741
100
AcDbArc
 50
122.3704986062
 51
126.1817907343
  0
ARC
  5
387
100
AcDbEntity
  8
0
100
AcDbCircle
 62
7
  6
CONTINUOUS
 10
0.1398859587
 20
11.7293176999
 40
0.741
100
AcDbArc
 50
53.8264322949
 51
57.6295013938
  0
ARC
  5
388
100
AcDbEntity
  8
0
100
AcDbCircle
 62
7
  6
CONTINUOUS
 10
0.1398859587
 20
11.7293176999
 40
0.741
100
AcDbArc
 50
2.3704986062
 51
36.1575166935
  0
ARC
  5
389
100
AcDbEntity
  8
0
100
AcDbCircle
 62
7
  6
CONTINUOUS
 10
0.1398859587
 20
11.7293176999
 40
0.741
100
AcDbArc
 50
233.8264322949
 51
237.6295013938
  0
ARC
  5
38A
100
AcDbEntity
  8
0
100
AcDbCircle
 62
7
  6
CONTINUOUS
 10
0.1398859587
 20
11.7293176999
 40
0.741
100
AcDbArc
 50
182.3704986062
 51
216.1575166935
  0
ARC
  5
38B
100
AcDbEntity
  8
0
100
AcDbCircle
 62
7
  6
CONTINUOUS
 10
0.1398859587
 20
11.7293176999
 40
0.741
100
AcDbArc
 50
242.3704986062
 51
297.6295013938
  0
ARC
  5
38C
100
AcDbEntity
  8
0
100
AcDbCircle
 62
7
  6
CONTINUOUS
 10
0.1398859587
 20
11.7293176999
 40
0.741
100
AcDbArc
 50
323.8343894235
 51
357.6295013938
  0
ARC
  5
38D
100
AcDbEntity
  8
0
100
AcDbCircle
 62
7
  6
CONTINUOUS
 10
0.1398859587
 20
11.7293176999
 40
0.741
100
AcDbArc
 50
302.3704986062
 51
306.1817907343
  0
ARC
  5
38E
100
AcDbEntity
  8
0
100
AcDbCircle
 62
7
  6
CONTINUOUS
 10
0.1398859587
 20
11.7293176999
 40
0.6515
100
AcDbArc
 50
55.8971654284
 51
124.0982655532
  0
ARC
  5
38F
100
AcDbEntity
  8
0
100
AcDbCircle
 62
7
  6
CONTINUOUS
 10
0.1398859587
 20
11.7293176999
 40
0.6515
100
AcDbArc
 50
325.9692466807
 51
34.0343878822
  0
ARC
  5
390
100
AcDbEntity
  8
0
100
AcDbCircle
 62
7
  6
CONTINUOUS
 10
0.1398859587
 20
11.7293176999
 40
0.6515
100
AcDbArc
 50
235.8971654284
 51
304.0982655532
  0
ARC
  5
391
100
AcDbEntity
  8
0
100
AcDbCircle
 62
7
  6
CONTINUOUS
 10
0.1398859587
 20
11.7293176999
 40
0.6515
100
AcDbArc
 50
145.9692466807
 51
214.0343878822
  0
ARC
  5
392
100
AcDbEntity
  8
0
100
AcDbCircle
 62
9
  6
CONTINUOUS
 10
0.1398859587
 20
11.7293176999
 40
0.6146339942
100
AcDbArc
 50
238.1330735029
 51
301.858131027
  0
ARC
  5
393
100
AcDbEntity
  8
0
100
AcDbCircle
 62
9
  6
CONTINUOUS
 10
0.1398859587
 20
11.7293176999
 40
0.6146339942
100
AcDbArc
 50
328.2120475217
 51
31.7954321345
  0
ARC
  5
394
100
AcDbEntity
  8
0
100
AcDbCircle
 62
9
  6
CONTINUOUS
 10
0.1398859587
 20
11.7293176999
 40
0.6146339942
100
AcDbArc
 50
58.1330735029
 51
121.858131027
  0
ARC
  5
395
100
AcDbEntity
  8
0
100
AcDbCircle
 62
9
  6
CONTINUOUS
 10
0.1398859587
 20
11.7293176999
 40
0.6146339942
100
AcDbArc
 50
148.2120475217
 51
211.7954321345
  0
CIRCLE
  5
396
100
AcDbEntity
  8
0
100
AcDbCircle
 62
7
  6
CONTINUOUS
 10
0.1398859587
 20
11.7293176999
 40
0.5575
  0
CIRCLE
  5
397
100
AcDbEntity
  8
0
100
AcDbCircle
 62
7
  6
CONTINUOUS
 10
0.1398859587
 20
11.7293176999
 40
0.5275
  0
CIRCLE
  5
398
100
AcDbEntity
  8
0
100
AcDbCircle
 62
7
  6
CONTINUOUS
 10
0.1398859587
 20
11.7293176999
 40
0.5132341523
  0
CIRCLE
  5
399
100
AcDbEntity
  8
0
100
AcDbCircle
 62
7
  6
CONTINUOUS
 10
0.1398859587
 20
11.7293176999
 40
0.4545099561
  0
CIRCLE
  5
39A
100
AcDbEntity
  8
0
100
AcDbCircle
 62
7
  6
CONTINUOUS
 10
0.1398859587
 20
11.7293176999
 40
0.4275
  0
CIRCLE
  5
39B
100
AcDbEntity
  8
0
100
AcDbCircle
 62
7
  6
CONTINUOUS
 10
0.1398859587
 20
11.7293176999
 40
0.4175
  0
CIRCLE
  5
39C
100
AcDbEntity
  8
0
100
AcDbCircle
 62
9
  6
CONTINUOUS
 10
0.1398859587
 20
11.7293176999
 40
0.3951446396
  0
ARC
  5
39D
100
AcDbEntity
  8
0
100
AcDbCircle
 62
7
  6
CONTINUOUS
 10
0.1796946748
 20
11.8231521655
 40
0.024
100
AcDbArc
 50
45.0000000008
 51
116.7900431352
  0
ARC
  5
39E
100
AcDbEntity
  8
0
100
AcDbCircle
 62
7
  6
CONTINUOUS
 10
0.2372559581
 20
11.7655908821
 40
0.024
100
AcDbArc
 50
333.2099568642
 51
44.9999999991
  0
ARC
  5
39F
100
AcDbEntity
  8
0
100
AcDbCircle
 62
7
  6
CONTINUOUS
 10
0.3004385303
 20
11.828273317
 40
0.024
100
AcDbArc
 50
225.0
 51
294.2576200455
  0
ARC
  5
3A0
100
AcDbEntity
  8
0
100
AcDbCircle
 62
7
  6
CONTINUOUS
 10
0.3004385303
 20
11.828273317
 40
0.024
100
AcDbArc
 50
335.7423799543
 51
45.0000000008
  0
ARC
  5
3A1
100
AcDbEntity
  8
0
100
AcDbCircle
 62
7
  6
CONTINUOUS
 10
0.2707400455
 20
11.8325159577
 40
0.006
100
AcDbArc
 50
134.9999999986
 51
225.0
  0
ARC
  5
3A2
100
AcDbEntity
  8
0
100
AcDbCircle
 62
7
  6
CONTINUOUS
 10
0.3055596818
 20
11.9490171725
 40
0.024
100
AcDbArc
 50
153.2099568643
 51
225.0
  0
ARC
  5
3A3
100
AcDbEntity
  8
0
100
AcDbCircle
 62
7
  6
CONTINUOUS
 10
0.2433342851
 20
11.8867917758
 40
0.024
100
AcDbArc
 50
45.0000000008
 51
116.7900431373
  0
ARC
  5
3A4
100
AcDbEntity
  8
0
100
AcDbCircle
 62
7
  6
CONTINUOUS
 10
0.2419200715
 20
11.8853775622
 40
0.024
100
AcDbArc
 50
153.2099568643
 51
225.0
  0
ARC
  5
3A5
100
AcDbEntity
  8
0
100
AcDbCircle
 62
7
  6
CONTINUOUS
 10
0.3631209651
 20
11.8914558892
 40
0.024
100
AcDbArc
 50
225.0
 51
296.7900431373
  0
ARC
  5
3A6
100
AcDbEntity
  8
0
100
AcDbCircle
 62
7
  6
CONTINUOUS
 10
0.276004014
 20
11.8795778909
 40
0.006
100
AcDbArc
 50
315.0000000061
 51
44.9999999946
  0
ARC
  5
3A7
100
AcDbEntity
  8
0
100
AcDbCircle
 62
7
  6
CONTINUOUS
 10
0.2491339563
 20
11.8527078333
 40
0.006
100
AcDbArc
 50
225.0
 51
314.9999999987
  0
ARC
  5
3A8
100
AcDbEntity
  8
0
100
AcDbCircle
 62
7
  6
CONTINUOUS
 10
0.2961958896
 20
11.8579718018
 40
0.006
100
AcDbArc
 50
45.0000000007
 51
134.9999999993
  0
ARC
  5
3A9
100
AcDbEntity
  8
0
100
AcDbCircle
 62
7
  6
CONTINUOUS
 10
0.8974631644
 20
11.9756567029
 40
0.25
100
AcDbArc
 50
88.0260516848
 51
180.6300714454
  0
ARC
  5
3AA
100
AcDbEntity
  8
0
100
AcDbCircle
 62
7
  6
CONTINUOUS
 10
0.6164801549
 20
11.9725666584
 40
0.031
100
AcDbArc
 50
340.3001936054
 51
0.6300714452
  0
ARC
  5
3AB
100
AcDbEntity
  8
0
100
AcDbCircle
 62
7
  6
CONTINUOUS
 10
0.9760397274
 20
12.5654714687
 40
0.275
100
AcDbArc
 50
280.0
 51
170.0
  0
ARC
  5
3AC
100
AcDbEntity
  8
0
100
AcDbCircle
 62
7
  6
CONTINUOUS
 10
0.3862249616
 20
12.4868949057
 40
0.25
100
AcDbArc
 50
269.3699285546
 51
1.9739483152
  0
ARC
  5
3AD
100
AcDbEntity
  8
0
100
AcDbCircle
 62
7
  6
CONTINUOUS
 10
0.3831349172
 20
12.2059118962
 40
0.031
100
AcDbArc
 50
89.3699285548
 51
110.1446657135
  0
ARC
  5
3AE
100
AcDbEntity
  8
0
100
AcDbCircle
 62
7
  6
CONTINUOUS
 10
0.9066255564
 20
12.2414988564
 40
0.016
100
AcDbArc
 50
268.0260516849
 51
10.3765489003
  0
ARC
  5
3AF
100
AcDbEntity
  8
0
100
AcDbCircle
 62
7
  6
CONTINUOUS
 10
0.6520671151
 20
12.4960572977
 40
0.016
100
AcDbArc
 50
79.6234510997
 51
181.9739483151
  0
ARC
  5
3B0
100
AcDbEntity
  8
0
100
AcDbCircle
 62
7
  6
CONTINUOUS
 10
0.6720589569
 20
12.5173130621
 40
0.016
100
AcDbArc
 50
225.0
 51
349.9999999983
  0
ARC
  5
3B1
100
AcDbEntity
  8
0
100
AcDbCircle
 62
7
  6
CONTINUOUS
 10
0.9278813209
 20
12.2614906982
 40
0.016
100
AcDbArc
 50
100.0000000017
 51
225.0
  0
ARC
  5
3B2
100
AcDbEntity
  8
0
100
AcDbCircle
 62
7
  6
CONTINUOUS
 10
2.7119374462
 20
10.6970186006
 40
1.0529376856
100
AcDbArc
 50
0.0325072113
 51
18.3964483139
  0
ARC
  5
3B3
100
AcDbEntity
  8
0
100
AcDbCircle
 62
7
  6
CONTINUOUS
 10
2.7140705334
 20
10.6971240737
 40
1.0508892937
100
AcDbArc
 50
18.4276667802
 51
29.9950915419
  0
ARC
  5
3B4
100
AcDbEntity
  8
0
100
AcDbCircle
 62
9
  6
CONTINUOUS
 10
-106.3377384583
 20
173.304574215
 40
196.8986647546
100
AcDbArc
 50
303.8333291588
 51
303.9993991475
  0
ARC
  5
3B5
100
AcDbEntity
  8
0
100
AcDbCircle
 62
9
  6
CONTINUOUS
 10
22.2754776276
 20
4.4641154115
 40
2.4536608868
100
AcDbArc
 50
76.214400131
 51
77.7918440493
  0
ARC
  5
3B6
100
AcDbEntity
  8
0
100
AcDbCircle
 62
9
  6
CONTINUOUS
 10
22.0031533239
 20
4.4692543899
 40
2.4483957741
100
AcDbArc
 50
102.2073850727
 51
103.7883394041
  0
ARC
  5
3B7
100
AcDbEntity
  8
0
100
AcDbCircle
 62
9
  6
CONTINUOUS
 10
4.1385406068
 20
6.0485986234
 40
2.2338006591
100
AcDbArc
 50
260.3624208693
 51
270.0345074982
  0
ARC
  5
3B8
100
AcDbEntity
  8
0
100
AcDbCircle
 62
7
  6
CONTINUOUS
 10
6.3046269117
 20
2.7091562974
 40
1.452867911
100
AcDbArc
 50
187.7435585901
 51
188.23873685
  0
ARC
  5
3B9
100
AcDbEntity
  8
0
100
AcDbCircle
 62
9
  6
CONTINUOUS
 10
4.1662275604
 20
2.4445979735
 40
0.75531491
100
AcDbArc
 50
174.0668175263
 51
175.7203411397
  0
ARC
  5
3BA
100
AcDbEntity
  8
0
100
AcDbCircle
 62
9
  6
CONTINUOUS
 10
4.1135468824
 20
2.4445981874
 40
0.7553123756
100
AcDbArc
 50
4.2796569765
 51
5.9320967633
  0
ARC
  5
3BB
100
AcDbEntity
  8
0
100
AcDbCircle
 62
7
  6
CONTINUOUS
 10
4.1197844906
 20
2.4607758405
 40
0.7124345451
100
AcDbArc
 50
169.0311875079
 51
174.981199992
  0
ARC
  5
3BC
100
AcDbEntity
  8
0
100
AcDbCircle
 62
7
  6
CONTINUOUS
 10
4.1599884503
 20
2.4607759922
 40
0.7124335114
100
AcDbArc
 50
5.0177951092
 51
10.9688162026
  0
ARC
  5
3BD
100
AcDbEntity
  8
0
100
AcDbCircle
 62
7
  6
CONTINUOUS
 10
4.110611261
 20
2.4615861708
 40
0.7032255954
100
AcDbArc
 50
174.9815850016
 51
179.9894413253
  0
ARC
  5
3BE
100
AcDbEntity
  8
0
100
AcDbCircle
 62
7
  6
CONTINUOUS
 10
4.1711387189
 20
2.4616730102
 40
0.7012475222
100
AcDbArc
 50
0.0034932066
 51
5.0244687722
  0
ARC
  5
3BF
100
AcDbEntity
  8
0
100
AcDbCircle
 62
7
  6
CONTINUOUS
 10
23.0338142616
 20
7.9941883027
 40
0.508759573
100
AcDbArc
 50
174.1720323782
 51
175.5463130525
  0
ARC
  5
3C0
100
AcDbEntity
  8
0
100
AcDbCircle
 62
7
  6
CONTINUOUS
 10
21.2460031233
 20
7.9941905906
 40
0.5087141839
100
AcDbArc
 50
4.4541175491
 51
5.8282233442
  0
ARC
  5
3C1
100
AcDbEntity
  8
0
100
AcDbCircle
 62
7
  6
CONTINUOUS
 10
21.2651802444
 20
7.9962089916
 40
0.4894312356
100
AcDbArc
 50
5.8211290518
 51
9.9003936421
  0
ARC
  5
3C2
100
AcDbEntity
  8
0
100
AcDbCircle
 62
7
  6
CONTINUOUS
 10
23.0145667928
 20
7.9962134934
 40
0.4894059514
100
AcDbArc
 50
170.0997012219
 51
174.1790916151
  0
ARC
  5
3C3
100
AcDbEntity
  8
0
100
AcDbCircle
 62
7
  6
CONTINUOUS
 10
21.6235123471
 20
7.2508658029
 40
0.2395264178
100
AcDbArc
 50
104.6407970482
 51
106.9260773816
  0
ARC
  5
3C4
100
AcDbEntity
  8
0
100
AcDbCircle
 62
7
  6
CONTINUOUS
 10
22.6562595865
 20
7.2508658238
 40
0.2395263937
100
AcDbArc
 50
73.0739244186
 51
75.3592066312
  0
ARC
  5
3C5
100
AcDbEntity
  8
0
100
AcDbCircle
 62
7
  6
CONTINUOUS
 10
5.5678344711
 20
10.6970186006
 40
1.0529376857
100
AcDbArc
 50
161.6035516861
 51
179.9674927764
  0
ARC
  5
3C6
100
AcDbEntity
  8
0
100
AcDbCircle
 62
7
  6
CONTINUOUS
 10
5.5657013839
 20
10.6971240737
 40
1.0508892937
100
AcDbArc
 50
150.0049084561
 51
161.5723332199
  0
ARC
  5
3C7
100
AcDbEntity
  8
0
100
AcDbCircle
 62
7
  6
CONTINUOUS
 10
13.3037321899
 20
10.8931639312
 40
0.275
100
AcDbArc
 50
100.0
 51
350.0
  0
ARC
  5
3C8
100
AcDbEntity
  8
0
100
AcDbCircle
 62
7
  6
CONTINUOUS
 10
7.3037321899
 20
10.8931639312
 40
0.275
100
AcDbArc
 50
100.0
 51
350.0
  0
ARC
  5
3C9
100
AcDbEntity
  8
0
100
AcDbCircle
 62
7
  6
CONTINUOUS
 10
8.9760397274
 20
10.8931639312
 40
0.275
100
AcDbArc
 50
190.0
 51
80.0
  0
ARC
  5
3CA
100
AcDbEntity
  8
0
100
AcDbCircle
 62
7
  6
CONTINUOUS
 10
14.3862249616
 20
10.9717404942
 40
0.25
100
AcDbArc
 50
358.0260516849
 51
90.6300714449
  0
ARC
  5
3CB
100
AcDbEntity
  8
0
100
AcDbCircle
 62
7
  6
CONTINUOUS
 10
13.8935469557
 20
10.9717404942
 40
0.25
100
AcDbArc
 50
89.3699285546
 51
181.9739483152
  0
ARC
  5
3CC
100
AcDbEntity
  8
0
100
AcDbCircle
 62
7
  6
CONTINUOUS
 10
7.8935469557
 20
10.9717404942
 40
0.25
100
AcDbArc
 50
89.3699285547
 51
181.9739483152
  0
ARC
  5
3CD
100
AcDbEntity
  8
0
100
AcDbCircle
 62
7
  6
CONTINUOUS
 10
8.3862249616
 20
10.9717404942
 40
0.25
100
AcDbArc
 50
358.0260516848
 51
90.6300714454
  0
ARC
  5
3CE
100
AcDbEntity
  8
0
100
AcDbCircle
 62
7
  6
CONTINUOUS
 10
13.3518905965
 20
11.1971447017
 40
0.016
100
AcDbArc
 50
280.0000000016
 51
45.0
  0
ARC
  5
3CF
100
AcDbEntity
  8
0
100
AcDbCircle
 62
7
  6
CONTINUOUS
 10
13.6077129604
 20
10.9413223377
 40
0.016
100
AcDbArc
 50
45.0
 51
169.9999999983
  0
ARC
  5
3D0
100
AcDbEntity
  8
0
100
AcDbCircle
 62
7
  6
CONTINUOUS
 10
13.6277048022
 20
10.9625781022
 40
0.016
100
AcDbArc
 50
259.6234510997
 51
1.9739483151
  0
ARC
  5
3D1
100
AcDbEntity
  8
0
100
AcDbCircle
 62
7
  6
CONTINUOUS
 10
13.3731463609
 20
11.2171365435
 40
0.016
100
AcDbArc
 50
88.0260516849
 51
190.3765489003
  0
ARC
  5
3D2
100
AcDbEntity
  8
0
100
AcDbCircle
 62
7
  6
CONTINUOUS
 10
7.3518905965
 20
11.1971447017
 40
0.016
100
AcDbArc
 50
280.0000000024
 51
44.9999999998
  0
ARC
  5
3D3
100
AcDbEntity
  8
0
100
AcDbCircle
 62
7
  6
CONTINUOUS
 10
7.6077129604
 20
10.9413223377
 40
0.016
100
AcDbArc
 50
45.0
 51
169.9999999991
  0
ARC
  5
3D4
100
AcDbEntity
  8
0
100
AcDbCircle
 62
7
  6
CONTINUOUS
 10
7.6277048022
 20
10.9625781022
 40
0.016
100
AcDbArc
 50
259.6234510999
 51
1.9739483151
  0
ARC
  5
3D5
100
AcDbEntity
  8
0
100
AcDbCircle
 62
7
  6
CONTINUOUS
 10
7.3731463609
 20
11.2171365435
 40
0.016
100
AcDbArc
 50
88.0260516849
 51
190.3765489004
  0
ARC
  5
3D6
100
AcDbEntity
  8
0
100
AcDbCircle
 62
7
  6
CONTINUOUS
 10
8.6520671151
 20
10.9625781022
 40
0.016
100
AcDbArc
 50
178.0260516849
 51
280.3765489003
  0
ARC
  5
3D7
100
AcDbEntity
  8
0
100
AcDbCircle
 62
7
  6
CONTINUOUS
 10
8.9066255564
 20
11.2171365435
 40
0.016
100
AcDbArc
 50
349.6234510997
 51
91.9739483151
  0
ARC
  5
3D8
100
AcDbEntity
  8
0
100
AcDbCircle
 62
7
  6
CONTINUOUS
 10
8.9278813209
 20
11.1971447017
 40
0.016
100
AcDbArc
 50
135.0
 51
259.9999999983
  0
ARC
  5
3D9
100
AcDbEntity
  8
0
100
AcDbCircle
 62
7
  6
CONTINUOUS
 10
8.6720589569
 20
10.9413223377
 40
0.016
100
AcDbArc
 50
10.0000000017
 51
135.0
  0
ARC
  5
3DA
100
AcDbEntity
  8
0
100
AcDbCircle
 62
7
  6
CONTINUOUS
 10
4.1398859587
 20
11.7293176999
 40
1.495
100
AcDbArc
 50
310.6670806294
 51
229.3293118508
  0
CIRCLE
  5
3DB
100
AcDbEntity
  8
0
100
AcDbCircle
 62
7
  6
CONTINUOUS
 10
4.1398859587
 20
11.7293176999
 40
0.58
  0
ARC
  5
3DC
100
AcDbEntity
  8
0
100
AcDbCircle
 62
7
  6
CONTINUOUS
 10
7.3823087529
 20
11.4829786969
 40
0.25
100
AcDbArc
 50
268.0260516847
 51
0.6300714454
  0
ARC
  5
3DD
100
AcDbEntity
  8
0
100
AcDbCircle
 62
7
  6
CONTINUOUS
 10
7.8966370002
 20
11.2527235036
 40
0.031
100
AcDbArc
 50
269.3699285548
 51
288.069851032
  0
ARC
  5
3DE
100
AcDbEntity
  8
0
100
AcDbCircle
 62
7
  6
CONTINUOUS
 10
7.6632917624
 20
11.4860687414
 40
0.031
100
AcDbArc
 50
159.3427744752
 51
180.6300714454
  0
ARC
  5
3DF
100
AcDbEntity
  8
0
100
AcDbCircle
 62
7
  6
CONTINUOUS
 10
8.0767620804
 20
11.8380207695
 40
0.03
100
AcDbArc
 50
44.9999999995
 51
103.8157171744
  0
ARC
  5
3E0
100
AcDbEntity
  8
0
100
AcDbCircle
 62
7
  6
CONTINUOUS
 10
8.0937326431
 20
11.8210502067
 40
0.03
100
AcDbArc
 50
314.9999999992
 51
45.0000000008
  0
ARC
  5
3E1
100
AcDbEntity
  8
0
100
AcDbCircle
 62
7
  6
CONTINUOUS
 10
8.0446179179
 20
11.7719354816
 40
0.03
100
AcDbArc
 50
241.4592496282
 51
315.0000000006
  0
ARC
  5
3E2
100
AcDbEntity
  8
0
100
AcDbCircle
 62
7
  6
CONTINUOUS
 10
8.1125001689
 20
11.7040532306
 40
0.03
100
AcDbArc
 50
135.0
 51
208.5407503719
  0
ARC
  5
3E3
100
AcDbEntity
  8
0
100
AcDbCircle
 62
7
  6
CONTINUOUS
 10
7.9759252312
 20
11.8227438408
 40
0.018
100
AcDbArc
 50
135.0
 51
198.6122000382
  0
ARC
  5
3E4
100
AcDbEntity
  8
0
100
AcDbCircle
 62
7
  6
CONTINUOUS
 10
7.9261403912
 20
11.8582104536
 40
0.006
100
AcDbArc
 50
225.0000000007
 51
314.9999999994
  0
ARC
  5
3E5
100
AcDbEntity
  8
0
100
AcDbCircle
 62
7
  6
CONTINUOUS
 10
8.8974631644
 20
11.4829786969
 40
0.25
100
AcDbArc
 50
179.3699285546
 51
271.9739483152
  0
ARC
  5
3E6
100
AcDbEntity
  8
0
100
AcDbCircle
 62
7
  6
CONTINUOUS
 10
8.3229149256
 20
11.5408239555
 40
0.0888641812
100
AcDbArc
 50
359.2338173193
 51
111.845901431
  0
ARC
  5
3E7
100
AcDbEntity
  8
0
100
AcDbCircle
 62
7
  6
CONTINUOUS
 10
8.3284537753
 20
11.5407498833
 40
0.0833248363
100
AcDbArc
 50
235.8633887081
 51
359.2338173193
  0
ARC
  5
3E8
100
AcDbEntity
  8
0
100
AcDbCircle
 62
7
  6
CONTINUOUS
 10
8.3247884828
 20
11.5389503983
 40
0.0697243244
100
AcDbArc
 50
150.929221599
 51
166.2636680056
  0
ARC
  5
3E9
100
AcDbEntity
  8
0
100
AcDbCircle
 62
7
  6
CONTINUOUS
 10
8.3194704533
 20
11.5494157819
 40
0.061607623
100
AcDbArc
 50
31.3709027892
 51
111.8459014314
  0
ARC
  5
3EA
100
AcDbEntity
  8
0
100
AcDbCircle
 62
7
  6
CONTINUOUS
 10
8.309463919
 20
11.5426964209
 40
0.0539485538
100
AcDbArc
 50
166.2636680055
 51
293.3999655657
  0
ARC
  5
3EB
100
AcDbEntity
  8
0
100
AcDbCircle
 62
7
  6
CONTINUOUS
 10
8.6164801549
 20
11.4860687414
 40
0.031
100
AcDbArc
 50
359.3699285548
 51
20.1446657137
  0
ARC
  5
3EC
100
AcDbEntity
  8
0
100
AcDbCircle
 62
7
  6
CONTINUOUS
 10
8.3831349172
 20
11.2527235036
 40
0.031
100
AcDbArc
 50
250.3001936056
 51
270.6300714452
  0
ARC
  5
3ED
100
AcDbEntity
  8
0
100
AcDbCircle
 62
7
  6
CONTINUOUS
 10
8.2367595877
 20
11.5136501317
 40
0.006
100
AcDbArc
 50
27.3178031513
 51
134.9999999999
  0
ARC
  5
3EE
100
AcDbEntity
  8
0
100
AcDbCircle
 62
7
  6
CONTINUOUS
 10
8.1398859587
 20
11.7293176999
 40
1.18
100
AcDbArc
 50
238.3110594919
 51
301.6895210958
  0
ARC
  5
3EF
100
AcDbEntity
  8
0
100
AcDbCircle
 62
7
  6
CONTINUOUS
 10
8.1398859587
 20
11.7293176999
 40
1.18
100
AcDbArc
 50
328.311223134
 51
31.6884162228
  0
ARC
  5
3F0
100
AcDbEntity
  8
0
100
AcDbCircle
 62
7
  6
CONTINUOUS
 10
8.1398859587
 20
11.7293176999
 40
1.18
100
AcDbArc
 50
58.3110594919
 51
121.6895210958
  0
ARC
  5
3F1
100
AcDbEntity
  8
0
100
AcDbCircle
 62
7
  6
CONTINUOUS
 10
8.1398859587
 20
11.7293176999
 40
1.18
100
AcDbArc
 50
148.311223134
 51
211.6884162228
  0
ARC
  5
3F2
100
AcDbEntity
  8
0
100
AcDbCircle
 62
7
  6
CONTINUOUS
 10
8.1398859587
 20
11.7293176999
 40
1.0000026738
100
AcDbArc
 50
236.1474067645
 51
303.8525932355
  0
ARC
  5
3F3
100
AcDbEntity
  8
0
100
AcDbCircle
 62
7
  6
CONTINUOUS
 10
8.1398859587
 20
11.7293176999
 40
1.0000026738
100
AcDbArc
 50
146.2046018122
 51
213.7953981878
  0
ARC
  5
3F4
100
AcDbEntity
  8
0
100
AcDbCircle
 62
7
  6
CONTINUOUS
 10
8.1398859587
 20
11.7293176999
 40
1.0000026738
100
AcDbArc
 50
56.1474067645
 51
123.8525932355
  0
ARC
  5
3F5
100
AcDbEntity
  8
0
100
AcDbCircle
 62
7
  6
CONTINUOUS
 10
8.1398859587
 20
11.7293176999
 40
1.0000026738
100
AcDbArc
 50
326.2046018122
 51
33.7953981878
  0
ARC
  5
3F6
100
AcDbEntity
  8
0
100
AcDbCircle
 62
9
  6
CONTINUOUS
 10
8.1398859587
 20
11.7293176999
 40
0.8130026738
100
AcDbArc
 50
54.2048967909
 51
125.800382908
  0
ARC
  5
3F7
100
AcDbEntity
  8
0
100
AcDbCircle
 62
9
  6
CONTINUOUS
 10
8.1398859587
 20
11.7293176999
 40
0.8130026738
100
AcDbArc
 50
324.2002086538
 51
35.7938949064
  0
ARC
  5
3F8
100
AcDbEntity
  8
0
100
AcDbCircle
 62
9
  6
CONTINUOUS
 10
8.1398859587
 20
11.7293176999
 40
0.8130026738
100
AcDbArc
 50
234.2048967909
 51
305.800382908
  0
ARC
  5
3F9
100
AcDbEntity
  8
0
100
AcDbCircle
 62
9
  6
CONTINUOUS
 10
8.1398859587
 20
11.7293176999
 40
0.8130026738
100
AcDbArc
 50
144.2002086538
 51
215.7938949064
  0
ARC
  5
3FA
100
AcDbEntity
  8
0
100
AcDbCircle
 62
7
  6
CONTINUOUS
 10
8.1398859587
 20
11.7293176999
 40
0.741
100
AcDbArc
 50
233.8182092657
 51
237.6295013938
  0
ARC
  5
3FB
100
AcDbEntity
  8
0
100
AcDbCircle
 62
7
  6
CONTINUOUS
 10
8.1398859587
 20
11.7293176999
 40
0.741
100
AcDbArc
 50
182.3704986062
 51
216.1656105765
  0
ARC
  5
3FC
100
AcDbEntity
  8
0
100
AcDbCircle
 62
7
  6
CONTINUOUS
 10
8.1398859587
 20
11.7293176999
 40
0.741
100
AcDbArc
 50
323.8424833065
 51
357.6295013938
  0
ARC
  5
3FD
100
AcDbEntity
  8
0
100
AcDbCircle
 62
7
  6
CONTINUOUS
 10
8.1398859587
 20
11.7293176999
 40
0.741
100
AcDbArc
 50
302.3704986062
 51
306.1735677051
  0
ARC
  5
3FE
100
AcDbEntity
  8
0
100
AcDbCircle
 62
7
  6
CONTINUOUS
 10
8.1398859587
 20
11.7293176999
 40
0.741
100
AcDbArc
 50
242.3704986062
 51
297.6295013938
  0
ARC
  5
3FF
100
AcDbEntity
  8
0
100
AcDbCircle
 62
7
  6
CONTINUOUS
 10
8.1398859587
 20
11.7293176999
 40
0.741
100
AcDbArc
 50
53.8182092657
 51
57.6295013938
  0
ARC
  5
400
100
AcDbEntity
  8
0
100
AcDbCircle
 62
7
  6
CONTINUOUS
 10
8.1398859587
 20
11.7293176999
 40
0.741
100
AcDbArc
 50
2.3704986062
 51
36.1656105765
  0
ARC
  5
401
100
AcDbEntity
  8
0
100
AcDbCircle
 62
7
  6
CONTINUOUS
 10
8.1398859587
 20
11.7293176999
 40
0.741
100
AcDbArc
 50
143.8424833065
 51
177.6295013938
  0
ARC
  5
402
100
AcDbEntity
  8
0
100
AcDbCircle
 62
7
  6
CONTINUOUS
 10
8.1398859587
 20
11.7293176999
 40
0.741
100
AcDbArc
 50
122.3704986062
 51
126.1735677051
  0
ARC
  5
403
100
AcDbEntity
  8
0
100
AcDbCircle
 62
7
  6
CONTINUOUS
 10
8.1398859587
 20
11.7293176999
 40
0.741
100
AcDbArc
 50
62.3704986062
 51
117.6295013938
  0
ARC
  5
404
100
AcDbEntity
  8
0
100
AcDbCircle
 62
7
  6
CONTINUOUS
 10
8.1398859587
 20
11.7293176999
 40
0.6515
100
AcDbArc
 50
55.9017344468
 51
124.1028345716
  0
ARC
  5
405
100
AcDbEntity
  8
0
100
AcDbCircle
 62
7
  6
CONTINUOUS
 10
8.1398859587
 20
11.7293176999
 40
0.6515
100
AcDbArc
 50
325.9656121178
 51
34.0307533193
  0
ARC
  5
406
100
AcDbEntity
  8
0
100
AcDbCircle
 62
7
  6
CONTINUOUS
 10
8.1398859587
 20
11.7293176999
 40
0.6515
100
AcDbArc
 50
235.9017344468
 51
304.1028345716
  0
ARC
  5
407
100
AcDbEntity
  8
0
100
AcDbCircle
 62
7
  6
CONTINUOUS
 10
8.1398859587
 20
11.7293176999
 40
0.6515
100
AcDbArc
 50
145.9656121178
 51
214.0307533193
  0
ARC
  5
408
100
AcDbEntity
  8
0
100
AcDbCircle
 62
9
  6
CONTINUOUS
 10
8.1398859587
 20
11.7293176999
 40
0.6146339942
100
AcDbArc
 50
238.141868973
 51
301.8669264971
  0
ARC
  5
409
100
AcDbEntity
  8
0
100
AcDbCircle
 62
9
  6
CONTINUOUS
 10
8.1398859587
 20
11.7293176999
 40
0.6146339942
100
AcDbArc
 50
328.2045678655
 51
31.7879524783
  0
ARC
  5
40A
100
AcDbEntity
  8
0
100
AcDbCircle
 62
9
  6
CONTINUOUS
 10
8.1398859587
 20
11.7293176999
 40
0.6146339942
100
AcDbArc
 50
58.141868973
 51
121.8669264971
  0
ARC
  5
40B
100
AcDbEntity
  8
0
100
AcDbCircle
 62
9
  6
CONTINUOUS
 10
8.1398859587
 20
11.7293176999
 40
0.6146339942
100
AcDbArc
 50
148.2045678655
 51
211.7879524783
  0
CIRCLE
  5
40C
100
AcDbEntity
  8
0
100
AcDbCircle
 62
7
  6
CONTINUOUS
 10
8.1398859587
 20
11.7293176999
 40
0.5575
  0
CIRCLE
  5
40D
100
AcDbEntity
  8
0
100
AcDbCircle
 62
7
  6
CONTINUOUS
 10
8.1398859587
 20
11.7293176999
 40
0.5275
  0
CIRCLE
  5
40E
100
AcDbEntity
  8
0
100
AcDbCircle
 62
7
  6
CONTINUOUS
 10
8.1398859587
 20
11.7293176999
 40
0.5132341523
  0
CIRCLE
  5
40F
100
AcDbEntity
  8
0
100
AcDbCircle
 62
7
  6
CONTINUOUS
 10
8.1398859587
 20
11.7293176999
 40
0.4545099561
  0
CIRCLE
  5
410
100
AcDbEntity
  8
0
100
AcDbCircle
 62
7
  6
CONTINUOUS
 10
8.1398859587
 20
11.7293176999
 40
0.4275
  0
CIRCLE
  5
411
100
AcDbEntity
  8
0
100
AcDbCircle
 62
7
  6
CONTINUOUS
 10
8.1398859587
 20
11.7293176999
 40
0.4175
  0
CIRCLE
  5
412
100
AcDbEntity
  8
0
100
AcDbCircle
 62
9
  6
CONTINUOUS
 10
8.1398859587
 20
11.7293176999
 40
0.3951446566
  0
ARC
  5
413
100
AcDbEntity
  8
0
100
AcDbCircle
 62
7
  6
CONTINUOUS
 10
8.1616148941
 20
11.7531679558
 40
0.03
100
AcDbArc
 50
61.4592496282
 51
135.0
  0
ARC
  5
414
100
AcDbEntity
  8
0
100
AcDbCircle
 62
7
  6
CONTINUOUS
 10
8.3495958716
 20
11.5719336888
 40
0.121
100
AcDbArc
 50
207.3178031513
 51
235.863388708
  0
ARC
  5
415
100
AcDbEntity
  8
0
100
AcDbCircle
 62
7
  6
CONTINUOUS
 10
8.2971319198
 20
11.5711940367
 40
0.085
100
AcDbArc
 50
293.3999655657
 51
336.6000344342
  0
ARC
  5
416
100
AcDbEntity
  8
0
100
AcDbCircle
 62
7
  6
CONTINUOUS
 10
8.3310888498
 20
11.5564995851
 40
0.048
100
AcDbArc
 50
336.600034434
 51
31.3709027893
  0
ARC
  5
417
100
AcDbEntity
  8
0
100
AcDbCircle
 62
7
  6
CONTINUOUS
 10
8.3862249616
 20
12.4868949057
 40
0.25
100
AcDbArc
 50
269.3699285547
 51
1.9739483152
  0
ARC
  5
418
100
AcDbEntity
  8
0
100
AcDbCircle
 62
7
  6
CONTINUOUS
 10
8.8974631644
 20
11.9756567029
 40
0.25
100
AcDbArc
 50
88.0260516847
 51
180.6300714454
  0
ARC
  5
419
100
AcDbEntity
  8
0
100
AcDbCircle
 62
7
  6
CONTINUOUS
 10
7.8935469557
 20
12.4868949057
 40
0.25
100
AcDbArc
 50
178.0260516848
 51
270.6300714454
  0
ARC
  5
41A
100
AcDbEntity
  8
0
100
AcDbCircle
 62
7
  6
CONTINUOUS
 10
7.3823087529
 20
11.9756567029
 40
0.25
100
AcDbArc
 50
359.3699285546
 51
91.9739483152
  0
ARC
  5
41B
100
AcDbEntity
  8
0
100
AcDbCircle
 62
7
  6
CONTINUOUS
 10
7.9799660385
 20
11.8857020862
 40
0.097
100
AcDbArc
 50
116.55908618
 51
153.4409138194
  0
ARC
  5
41C
100
AcDbEntity
  8
0
100
AcDbCircle
 62
7
  6
CONTINUOUS
 10
7.9461387006
 20
11.9237720648
 40
0.0845
100
AcDbArc
 50
45.0000000001
 51
225.0000000001
  0
ARC
  5
41D
100
AcDbEntity
  8
0
100
AcDbCircle
 62
7
  6
CONTINUOUS
 10
7.9580571352
 20
11.9295312997
 40
0.048
100
AcDbArc
 50
44.9999999999
 51
116.5590861796
  0
ARC
  5
41E
100
AcDbEntity
  8
0
100
AcDbCircle
 62
7
  6
CONTINUOUS
 10
7.936136825
 20
11.9076109895
 40
0.048
100
AcDbArc
 50
153.4409138197
 51
225.0
  0
ARC
  5
41F
100
AcDbEntity
  8
0
100
AcDbCircle
 62
7
  6
CONTINUOUS
 10
8.6164801549
 20
11.9725666584
 40
0.031
100
AcDbArc
 50
339.3427405618
 51
0.6300714454
  0
ARC
  5
420
100
AcDbEntity
  8
0
100
AcDbCircle
 62
7
  6
CONTINUOUS
 10
8.3831349172
 20
12.2059118962
 40
0.031
100
AcDbArc
 50
89.3699285548
 51
108.0698747268
  0
ARC
  5
421
100
AcDbEntity
  8
0
100
AcDbCircle
 62
7
  6
CONTINUOUS
 10
7.8966370002
 20
12.2059118962
 40
0.031
100
AcDbArc
 50
70.3001235793
 51
90.6300714452
  0
ARC
  5
422
100
AcDbEntity
  8
0
100
AcDbCircle
 62
7
  6
CONTINUOUS
 10
7.6632917624
 20
11.9725666584
 40
0.031
100
AcDbArc
 50
179.3699285548
 51
200.1447114277
  0
ARC
  5
423
100
AcDbEntity
  8
0
100
AcDbCircle
 62
7
  6
CONTINUOUS
 10
8.0429242839
 20
11.8897428935
 40
0.018
100
AcDbArc
 50
71.3877999597
 51
135.0
  0
ARC
  5
424
100
AcDbEntity
  8
0
100
AcDbCircle
 62
7
  6
CONTINUOUS
 10
8.6720589569
 20
12.5173130621
 40
0.016
100
AcDbArc
 50
225.0
 51
349.9999999991
  0
ARC
  5
425
100
AcDbEntity
  8
0
100
AcDbCircle
 62
7
  6
CONTINUOUS
 10
8.9278813209
 20
12.2614906982
 40
0.016
100
AcDbArc
 50
100.0000000024
 51
224.9999999998
  0
ARC
  5
426
100
AcDbEntity
  8
0
100
AcDbCircle
 62
7
  6
CONTINUOUS
 10
8.9066255564
 20
12.2414988564
 40
0.016
100
AcDbArc
 50
268.0260516849
 51
10.3765489004
  0
ARC
  5
427
100
AcDbEntity
  8
0
100
AcDbCircle
 62
7
  6
CONTINUOUS
 10
8.6520671151
 20
12.4960572977
 40
0.016
100
AcDbArc
 50
79.6234510999
 51
181.9739483151
  0
ARC
  5
428
100
AcDbEntity
  8
0
100
AcDbCircle
 62
7
  6
CONTINUOUS
 10
7.6077129604
 20
12.5173130621
 40
0.016
100
AcDbArc
 50
190.0000000017
 51
315.0
  0
ARC
  5
429
100
AcDbEntity
  8
0
100
AcDbCircle
 62
7
  6
CONTINUOUS
 10
7.3518905965
 20
12.2614906982
 40
0.016
100
AcDbArc
 50
315.0
 51
79.9999999983
  0
ARC
  5
42A
100
AcDbEntity
  8
0
100
AcDbCircle
 62
7
  6
CONTINUOUS
 10
7.3731463609
 20
12.2414988564
 40
0.016
100
AcDbArc
 50
169.6234510997
 51
271.9739483151
  0
ARC
  5
42B
100
AcDbEntity
  8
0
100
AcDbCircle
 62
7
  6
CONTINUOUS
 10
7.6277048022
 20
12.4960572977
 40
0.016
100
AcDbArc
 50
358.0260516849
 51
100.3765489003
  0
ARC
  5
42C
100
AcDbEntity
  8
0
100
AcDbCircle
 62
7
  6
CONTINUOUS
 10
8.0074576711
 20
11.9395277334
 40
0.006
100
AcDbArc
 50
314.9999999994
 51
45.0000000013
  0
ARC
  5
42D
100
AcDbEntity
  8
0
100
AcDbCircle
 62
9
  6
CONTINUOUS
 10
4.137667039
 20
13.8420239802
 40
9.5564094491
100
AcDbArc
 50
267.7643170651
 51
270.0133036086
  0
ARC
  5
42E
100
AcDbEntity
  8
0
100
AcDbCircle
 62
7
  6
CONTINUOUS
 10
8.9760397274
 20
12.5654714687
 40
0.275
100
AcDbArc
 50
280.0
 51
170.0
  0
ARC
  5
42F
100
AcDbEntity
  8
0
100
AcDbCircle
 62
7
  6
CONTINUOUS
 10
7.3037321899
 20
12.5654714687
 40
0.275
100
AcDbArc
 50
10.0
 51
260.0
  0
ARC
  5
430
100
AcDbEntity
  8
0
100
AcDbCircle
 62
7
  6
CONTINUOUS
 10
13.3823087529
 20
11.4829786969
 40
0.25
100
AcDbArc
 50
268.0260516848
 51
0.6300714454
  0
ARC
  5
431
100
AcDbEntity
  8
0
100
AcDbCircle
 62
7
  6
CONTINUOUS
 10
13.6632917624
 20
11.4860687414
 40
0.031
100
AcDbArc
 50
160.3001936233
 51
180.6300714452
  0
ARC
  5
432
100
AcDbEntity
  8
0
100
AcDbCircle
 62
7
  6
CONTINUOUS
 10
13.3823087529
 20
11.9756567029
 40
0.25
100
AcDbArc
 50
359.3699285546
 51
91.9739483153
  0
ARC
  5
433
100
AcDbEntity
  8
0
100
AcDbCircle
 62
7
  6
CONTINUOUS
 10
13.6632917624
 20
11.9725666584
 40
0.031
100
AcDbArc
 50
179.3699285546
 51
198.0698510201
  0
ARC
  5
434
100
AcDbEntity
  8
0
100
AcDbCircle
 62
7
  6
CONTINUOUS
 10
13.3731463609
 20
12.2414988564
 40
0.016
100
AcDbArc
 50
169.6234510996
 51
271.9739483151
  0
ARC
  5
435
100
AcDbEntity
  8
0
100
AcDbCircle
 62
7
  6
CONTINUOUS
 10
13.6277048022
 20
12.4960572977
 40
0.016
100
AcDbArc
 50
358.0260516849
 51
100.3765489001
  0
ARC
  5
436
100
AcDbEntity
  8
0
100
AcDbCircle
 62
7
  6
CONTINUOUS
 10
13.6077129604
 20
12.5173130621
 40
0.016
100
AcDbArc
 50
190.0000000009
 51
315.0
  0
ARC
  5
437
100
AcDbEntity
  8
0
100
AcDbCircle
 62
7
  6
CONTINUOUS
 10
13.3518905965
 20
12.2614906982
 40
0.016
100
AcDbArc
 50
315.0000000002
 51
79.9999999976
  0
ARC
  5
438
100
AcDbEntity
  8
0
100
AcDbCircle
 62
7
  6
CONTINUOUS
 10
13.8966370002
 20
11.2527235036
 40
0.031
100
AcDbArc
 50
269.3699285548
 51
290.1446657052
  0
ARC
  5
439
100
AcDbEntity
  8
0
100
AcDbCircle
 62
7
  6
CONTINUOUS
 10
14.0473859587
 20
11.6093176999
 40
0.015
100
AcDbArc
 50
155.234959145
 51
298.1124318903
  0
ARC
  5
43A
100
AcDbEntity
  8
0
100
AcDbCircle
 62
7
  6
CONTINUOUS
 10
14.0473859587
 20
11.8493176999
 40
0.015
100
AcDbArc
 50
61.8875681097
 51
204.765040855
  0
ARC
  5
43B
100
AcDbEntity
  8
0
100
AcDbCircle
 62
7
  6
CONTINUOUS
 10
14.1398859587
 20
11.7293176999
 40
1.18
100
AcDbArc
 50
58.3110594921
 51
121.6895210958
  0
ARC
  5
43C
100
AcDbEntity
  8
0
100
AcDbCircle
 62
7
  6
CONTINUOUS
 10
14.1398859587
 20
11.7293176999
 40
1.18
100
AcDbArc
 50
148.311223134
 51
211.6884162228
  0
ARC
  5
43D
100
AcDbEntity
  8
0
100
AcDbCircle
 62
7
  6
CONTINUOUS
 10
14.1398859587
 20
11.7293176999
 40
1.18
100
AcDbArc
 50
238.3110594919
 51
301.6895210957
  0
ARC
  5
43E
100
AcDbEntity
  8
0
100
AcDbCircle
 62
7
  6
CONTINUOUS
 10
14.1398859587
 20
11.7293176999
 40
1.18
100
AcDbArc
 50
328.3112231339
 51
31.6884162229
  0
ARC
  5
43F
100
AcDbEntity
  8
0
100
AcDbCircle
 62
7
  6
CONTINUOUS
 10
14.1398859587
 20
11.7293176999
 40
1.0000026738
100
AcDbArc
 50
236.1474067645
 51
303.8525932353
  0
ARC
  5
440
100
AcDbEntity
  8
0
100
AcDbCircle
 62
7
  6
CONTINUOUS
 10
14.1398859587
 20
11.7293176999
 40
1.0000026738
100
AcDbArc
 50
146.2046018122
 51
213.7953981878
  0
ARC
  5
441
100
AcDbEntity
  8
0
100
AcDbCircle
 62
7
  6
CONTINUOUS
 10
14.1398859587
 20
11.7293176999
 40
1.0000026738
100
AcDbArc
 50
56.1474067647
 51
123.8525932355
  0
ARC
  5
442
100
AcDbEntity
  8
0
100
AcDbCircle
 62
7
  6
CONTINUOUS
 10
14.1398859587
 20
11.7293176999
 40
1.0000026738
100
AcDbArc
 50
326.2046018121
 51
33.7953981879
  0
ARC
  5
443
100
AcDbEntity
  8
0
100
AcDbCircle
 62
9
  6
CONTINUOUS
 10
14.1398859587
 20
11.7293176999
 40
0.8130026738
100
AcDbArc
 50
234.198679128
 51
305.7941172589
  0
ARC
  5
444
100
AcDbEntity
  8
0
100
AcDbCircle
 62
9
  6
CONTINUOUS
 10
14.1398859587
 20
11.7293176999
 40
0.8130026738
100
AcDbArc
 50
144.206499606
 51
215.8001630525
  0
ARC
  5
445
100
AcDbEntity
  8
0
100
AcDbCircle
 62
9
  6
CONTINUOUS
 10
14.1398859587
 20
11.7293176999
 40
0.8130026738
100
AcDbArc
 50
54.1986791279
 51
125.7941172589
  0
ARC
  5
446
100
AcDbEntity
  8
0
100
AcDbCircle
 62
9
  6
CONTINUOUS
 10
14.1398859587
 20
11.7293176999
 40
0.8130026738
100
AcDbArc
 50
324.206499606
 51
35.8001630525
  0
ARC
  5
447
100
AcDbEntity
  8
0
100
AcDbCircle
 62
7
  6
CONTINUOUS
 10
14.1398859587
 20
11.7293176999
 40
0.741
100
AcDbArc
 50
62.3704986062
 51
117.6295013938
  0
ARC
  5
448
100
AcDbEntity
  8
0
100
AcDbCircle
 62
7
  6
CONTINUOUS
 10
14.1398859587
 20
11.7293176999
 40
0.741
100
AcDbArc
 50
143.8343894235
 51
177.6295013938
  0
ARC
  5
449
100
AcDbEntity
  8
0
100
AcDbCircle
 62
7
  6
CONTINUOUS
 10
14.1398859587
 20
11.7293176999
 40
0.741
100
AcDbArc
 50
122.3704986062
 51
126.1817907343
  0
ARC
  5
44A
100
AcDbEntity
  8
0
100
AcDbCircle
 62
7
  6
CONTINUOUS
 10
14.1398859587
 20
11.7293176999
 40
0.741
100
AcDbArc
 50
53.8264322949
 51
57.6295013933
  0
ARC
  5
44B
100
AcDbEntity
  8
0
100
AcDbCircle
 62
7
  6
CONTINUOUS
 10
14.1398859587
 20
11.7293176999
 40
0.741
100
AcDbArc
 50
2.3704986067
 51
36.1575166935
  0
ARC
  5
44C
100
AcDbEntity
  8
0
100
AcDbCircle
 62
7
  6
CONTINUOUS
 10
14.1398859587
 20
11.7293176999
 40
0.741
100
AcDbArc
 50
242.3704986062
 51
297.6295013938
  0
ARC
  5
44D
100
AcDbEntity
  8
0
100
AcDbCircle
 62
7
  6
CONTINUOUS
 10
14.1398859587
 20
11.7293176999
 40
0.741
100
AcDbArc
 50
323.8343894235
 51
357.6295013933
  0
ARC
  5
44E
100
AcDbEntity
  8
0
100
AcDbCircle
 62
7
  6
CONTINUOUS
 10
14.1398859587
 20
11.7293176999
 40
0.741
100
AcDbArc
 50
302.3704986067
 51
306.1817907343
  0
ARC
  5
44F
100
AcDbEntity
  8
0
100
AcDbCircle
 62
7
  6
CONTINUOUS
 10
14.1398859587
 20
11.7293176999
 40
0.741
100
AcDbArc
 50
233.8264322949
 51
237.6295013938
  0
ARC
  5
450
100
AcDbEntity
  8
0
100
AcDbCircle
 62
7
  6
CONTINUOUS
 10
14.1398859587
 20
11.7293176999
 40
0.741
100
AcDbArc
 50
182.3704986062
 51
216.1575166935
  0
ARC
  5
451
100
AcDbEntity
  8
0
100
AcDbCircle
 62
7
  6
CONTINUOUS
 10
14.1398859587
 20
11.7293176999
 40
0.6515
100
AcDbArc
 50
55.8971654284
 51
124.0982655532
  0
ARC
  5
452
100
AcDbEntity
  8
0
100
AcDbCircle
 62
7
  6
CONTINUOUS
 10
14.1398859587
 20
11.7293176999
 40
0.6515
100
AcDbArc
 50
325.9692466807
 51
34.0343878821
  0
ARC
  5
453
100
AcDbEntity
  8
0
100
AcDbCircle
 62
7
  6
CONTINUOUS
 10
14.1398859587
 20
11.7293176999
 40
0.6515
100
AcDbArc
 50
235.8971654284
 51
304.0982655532
  0
ARC
  5
454
100
AcDbEntity
  8
0
100
AcDbCircle
 62
7
  6
CONTINUOUS
 10
14.1398859587
 20
11.7293176999
 40
0.6515
100
AcDbArc
 50
145.9692466807
 51
214.0343878822
  0
ARC
  5
455
100
AcDbEntity
  8
0
100
AcDbCircle
 62
9
  6
CONTINUOUS
 10
14.1398859587
 20
11.7293176999
 40
0.6146339942
100
AcDbArc
 50
238.1330735029
 51
301.858131027
  0
ARC
  5
456
100
AcDbEntity
  8
0
100
AcDbCircle
 62
9
  6
CONTINUOUS
 10
14.1398859587
 20
11.7293176999
 40
0.6146339942
100
AcDbArc
 50
328.2120475218
 51
31.7954321343
  0
ARC
  5
457
100
AcDbEntity
  8
0
100
AcDbCircle
 62
9
  6
CONTINUOUS
 10
14.1398859587
 20
11.7293176999
 40
0.6146339942
100
AcDbArc
 50
58.1330735028
 51
121.858131027
  0
ARC
  5
458
100
AcDbEntity
  8
0
100
AcDbCircle
 62
9
  6
CONTINUOUS
 10
14.1398859587
 20
11.7293176999
 40
0.6146339942
100
AcDbArc
 50
148.2120475217
 51
211.7954321345
  0
CIRCLE
  5
459
100
AcDbEntity
  8
0
100
AcDbCircle
 62
7
  6
CONTINUOUS
 10
14.1398859587
 20
11.7293176999
 40
0.5575
  0
CIRCLE
  5
45A
100
AcDbEntity
  8
0
100
AcDbCircle
 62
7
  6
CONTINUOUS
 10
14.1398859587
 20
11.7293176999
 40
0.5275
  0
CIRCLE
  5
45B
100
AcDbEntity
  8
0
100
AcDbCircle
 62
7
  6
CONTINUOUS
 10
14.1398859587
 20
11.7293176999
 40
0.5132341523
  0
CIRCLE
  5
45C
100
AcDbEntity
  8
0
100
AcDbCircle
 62
7
  6
CONTINUOUS
 10
14.1398859587
 20
11.7293176999
 40
0.4545099561
  0
CIRCLE
  5
45D
100
AcDbEntity
  8
0
100
AcDbCircle
 62
7
  6
CONTINUOUS
 10
14.1398859587
 20
11.7293176999
 40
0.4275
  0
CIRCLE
  5
45E
100
AcDbEntity
  8
0
100
AcDbCircle
 62
7
  6
CONTINUOUS
 10
14.1398859587
 20
11.7293176999
 40
0.4175
  0
CIRCLE
  5
45F
100
AcDbEntity
  8
0
100
AcDbCircle
 62
9
  6
CONTINUOUS
 10
14.1398859587
 20
11.7293176999
 40
0.3951446566
  0
ARC
  5
460
100
AcDbEntity
  8
0
100
AcDbCircle
 62
7
  6
CONTINUOUS
 10
14.3831349172
 20
11.2527235036
 40
0.031
100
AcDbArc
 50
249.3427405468
 51
270.6300714406
  0
ARC
  5
461
100
AcDbEntity
  8
0
100
AcDbCircle
 62
7
  6
CONTINUOUS
 10
14.4273859587
 20
11.7293176999
 40
0.02
100
AcDbArc
 50
275.5287050725
 51
84.4712949275
  0
ARC
  5
462
100
AcDbEntity
  8
0
100
AcDbCircle
 62
7
  6
CONTINUOUS
 10
13.8935469557
 20
12.4868949057
 40
0.25
100
AcDbArc
 50
178.0260516848
 51
270.6300714454
  0
ARC
  5
463
100
AcDbEntity
  8
0
100
AcDbCircle
 62
7
  6
CONTINUOUS
 10
14.3862249616
 20
12.4868949057
 40
0.25
100
AcDbArc
 50
269.3699285543
 51
1.9739483149
  0
ARC
  5
464
100
AcDbEntity
  8
0
100
AcDbCircle
 62
7
  6
CONTINUOUS
 10
13.8966370002
 20
12.2059118962
 40
0.031
100
AcDbArc
 50
69.3427744841
 51
90.6300714452
  0
ARC
  5
465
100
AcDbEntity
  8
0
100
AcDbCircle
 62
7
  6
CONTINUOUS
 10
14.3831349172
 20
12.2059118962
 40
0.031
100
AcDbArc
 50
89.3699285594
 51
110.1447114354
  0
ARC
  5
466
100
AcDbEntity
  8
0
100
AcDbCircle
 62
7
  6
CONTINUOUS
 10
13.3037321899
 20
12.5654714687
 40
0.275
100
AcDbArc
 50
10.0
 51
260.0
  0
ARC
  5
467
100
AcDbEntity
  8
0
100
AcDbCircle
 62
7
  6
CONTINUOUS
 10
24.8674083058
 20
9.1919081605
 40
2.7567698243
100
AcDbArc
 50
180.0706645424
 51
181.1718548927
  0
ARC
  5
468
100
AcDbEntity
  8
0
100
AcDbCircle
 62
7
  6
CONTINUOUS
 10
14.5256572795
 20
10.7140626839
 40
1.02
100
AcDbArc
 50
95.5287050836
 51
117.2838838626
  0
ARC
  5
469
100
AcDbEntity
  8
0
100
AcDbCircle
 62
7
  6
CONTINUOUS
 10
14.5256572795
 20
10.7140626839
 40
1.0
100
AcDbArc
 50
95.5287050839
 51
118.1124318918
  0
ARC
  5
46A
100
AcDbEntity
  8
0
100
AcDbCircle
 62
7
  6
CONTINUOUS
 10
22.1398459472
 20
10.8675652319
 40
0.5099030013
100
AcDbArc
 50
92.6126246687
 51
92.9058947738
  0
ARC
  5
46B
100
AcDbEntity
  8
0
100
AcDbCircle
 62
7
  6
CONTINUOUS
 10
22.1409502676
 20
10.8773423932
 40
0.5000688042
100
AcDbArc
 50
81.537616218
 51
81.8347187379
  0
ARC
  5
46C
100
AcDbEntity
  8
0
100
AcDbCircle
 62
7
  6
CONTINUOUS
 10
22.2216709404
 20
8.6526007037
 40
0.4647817933
100
AcDbArc
 50
50.9492891771
 51
52.6641640533
  0
ARC
  5
46D
100
AcDbEntity
  8
0
100
AcDbCircle
 62
7
  6
CONTINUOUS
 10
22.0362588529
 20
8.6773688519
 40
0.4317456625
100
AcDbArc
 50
132.8879852914
 51
137.0666075741
  0
ARC
  5
46E
100
AcDbEntity
  8
0
100
AcDbCircle
 62
7
  6
CONTINUOUS
 10
22.2586891515
 20
8.6916445327
 40
0.4109103474
100
AcDbArc
 50
40.7749234185
 51
42.4572961483
  0
ARC
  5
46F
100
AcDbEntity
  8
0
100
AcDbCircle
 62
7
  6
CONTINUOUS
 10
22.017177216
 20
8.6952111469
 40
0.405621885
100
AcDbArc
 50
137.0758954474
 51
142.9099494678
  0
ARC
  5
470
100
AcDbEntity
  8
0
100
AcDbCircle
 62
7
  6
CONTINUOUS
 10
21.9981129031
 20
8.7100636461
 40
0.3814575708
100
AcDbArc
 50
142.9626051253
 51
145.8085905373
  0
ARC
  5
471
100
AcDbEntity
  8
0
100
AcDbCircle
 62
7
  6
CONTINUOUS
 10
21.9582019053
 20
8.7338115389
 40
0.3349442982
100
AcDbArc
 50
155.6354011356
 51
157.0570384201
  0
ARC
  5
472
100
AcDbEntity
  8
0
100
AcDbCircle
 62
9
  6
CONTINUOUS
 10
21.9474072133
 20
11.1304502649
 40
0.2775260113
100
AcDbArc
 50
180.3354577037
 51
192.0996710694
  0
ARC
  5
473
100
AcDbEntity
  8
0
100
AcDbCircle
 62
9
  6
CONTINUOUS
 10
22.3324885764
 20
11.1304659196
 40
0.2773973943
100
AcDbArc
 50
350.8292397497
 51
359.9831254166
  0
ARC
  5
474
100
AcDbEntity
  8
0
100
AcDbCircle
 62
7
  6
CONTINUOUS
 10
14.9760397274
 20
10.8931639312
 40
0.275
100
AcDbArc
 50
190.0
 51
80.0
  0
ARC
  5
475
100
AcDbEntity
  8
0
100
AcDbCircle
 62
9
  6
CONTINUOUS
 10
21.8456588759
 20
11.1881866454
 40
0.0851442094
100
AcDbArc
 50
109.4822014252
 51
113.4098756276
  0
ARC
  5
476
100
AcDbEntity
  8
0
100
AcDbCircle
 62
9
  6
CONTINUOUS
 10
21.6980230601
 20
10.9933495589
 40
0.0448452814
100
AcDbArc
 50
169.1554956134
 51
179.8561946358
  0
ARC
  5
477
100
AcDbEntity
  8
0
100
AcDbCircle
 62
9
  6
CONTINUOUS
 10
22.473241953
 20
11.1711415787
 40
0.0441534079
100
AcDbArc
 50
0.1289314313
 51
1.2380661466
  0
ARC
  5
478
100
AcDbEntity
  8
0
100
AcDbCircle
 62
7
  6
CONTINUOUS
 10
14.9278813209
 20
11.1971447017
 40
0.016
100
AcDbArc
 50
135.0000000018
 51
259.9999999915
  0
ARC
  5
479
100
AcDbEntity
  8
0
100
AcDbCircle
 62
7
  6
CONTINUOUS
 10
14.6720589569
 20
10.9413223377
 40
0.016
100
AcDbArc
 50
10.0000000031
 51
135.0
  0
ARC
  5
47A
100
AcDbEntity
  8
0
100
AcDbCircle
 62
7
  6
CONTINUOUS
 10
14.6520671151
 20
10.9625781022
 40
0.016
100
AcDbArc
 50
178.0260516849
 51
280.3765488959
  0
ARC
  5
47B
100
AcDbEntity
  8
0
100
AcDbCircle
 62
7
  6
CONTINUOUS
 10
14.9066255564
 20
11.2171365435
 40
0.016
100
AcDbArc
 50
349.6234511041
 51
91.9739483155
  0
ARC
  5
47C
100
AcDbEntity
  8
0
100
AcDbCircle
 62
7
  6
CONTINUOUS
 10
14.8974631644
 20
11.4829786969
 40
0.25
100
AcDbArc
 50
179.3699285546
 51
271.9739483147
  0
ARC
  5
47D
100
AcDbEntity
  8
0
100
AcDbCircle
 62
7
  6
CONTINUOUS
 10
14.8974631644
 20
11.9756567029
 40
0.25
100
AcDbArc
 50
88.0260516851
 51
180.6300714454
  0
ARC
  5
47E
100
AcDbEntity
  8
0
100
AcDbCircle
 62
7
  6
CONTINUOUS
 10
14.616480155
 20
11.4860687414
 40
0.031
100
AcDbArc
 50
359.3699285561
 51
18.0698747479
  0
ARC
  5
47F
100
AcDbEntity
  8
0
100
AcDbCircle
 62
7
  6
CONTINUOUS
 10
14.616480155
 20
11.9725666584
 40
0.031
100
AcDbArc
 50
340.3001235575
 51
0.6300714406
  0
ARC
  5
480
100
AcDbEntity
  8
0
100
AcDbCircle
 62
7
  6
CONTINUOUS
 10
14.5256572795
 20
12.7445727159
 40
1.02
100
AcDbArc
 50
242.7161161374
 51
264.4712949164
  0
ARC
  5
481
100
AcDbEntity
  8
0
100
AcDbCircle
 62
7
  6
CONTINUOUS
 10
14.5256572795
 20
12.7445727159
 40
1.0
100
AcDbArc
 50
241.8875681082
 51
264.4712949161
  0
ARC
  5
482
100
AcDbEntity
  8
0
100
AcDbCircle
 62
7
  6
CONTINUOUS
 10
14.9760397274
 20
12.5654714687
 40
0.275
100
AcDbArc
 50
280.0
 51
170.0
  0
ARC
  5
483
100
AcDbEntity
  8
0
100
AcDbCircle
 62
7
  6
CONTINUOUS
 10
14.9066255564
 20
12.2414988564
 40
0.016
100
AcDbArc
 50
268.026051678
 51
10.3765488988
  0
ARC
  5
484
100
AcDbEntity
  8
0
100
AcDbCircle
 62
7
  6
CONTINUOUS
 10
14.6520671151
 20
12.4960572977
 40
0.016
100
AcDbArc
 50
79.6234511012
 51
181.973948322
  0
ARC
  5
485
100
AcDbEntity
  8
0
100
AcDbCircle
 62
7
  6
CONTINUOUS
 10
14.6720589569
 20
12.5173130621
 40
0.016
100
AcDbArc
 50
225.0
 51
349.9999999942
  0
ARC
  5
486
100
AcDbEntity
  8
0
100
AcDbCircle
 62
7
  6
CONTINUOUS
 10
14.9278813209
 20
12.2614906982
 40
0.016
100
AcDbArc
 50
100.0000000058
 51
225.0
  0
ARC
  5
487
100
AcDbEntity
  8
0
100
AcDbCircle
 62
7
  6
CONTINUOUS
 10
21.9598364756
 20
11.3543771917
 40
0.3106830316
100
AcDbArc
 50
199.8827359588
 51
201.0499015784
  0
ARC
  5
488
100
AcDbEntity
  8
0
100
AcDbCircle
 62
7
  6
CONTINUOUS
 10
21.9588833955
 20
11.3438421121
 40
0.3096659405
100
AcDbArc
 50
158.9481092954
 51
160.6732860328
  0
ARC
  5
489
100
AcDbEntity
  8
0
100
AcDbCircle
 62
7
  6
CONTINUOUS
 10
21.9452421363
 20
11.4324857335
 40
0.2953561778
100
AcDbArc
 50
177.4730774845
 51
179.9983192141
  0
ARC
  5
48A
100
AcDbEntity
  8
0
100
AcDbCircle
 62
7
  6
CONTINUOUS
 10
21.9992799132
 20
11.2684877609
 40
0.0957670446
100
AcDbArc
 50
80.0932567843
 51
84.7979211255
  0
ARC
  5
48B
100
AcDbEntity
  8
0
100
AcDbCircle
 62
9
  6
CONTINUOUS
 10
21.9878673977
 20
11.2699790266
 40
0.0910722801
100
AcDbArc
 50
75.2606408059
 51
77.3746162842
  0
ARC
  5
48C
100
AcDbEntity
  8
0
100
AcDbCircle
 62
7
  6
CONTINUOUS
 10
22.0863981106
 20
11.3225451358
 40
0.0608818663
100
AcDbArc
 50
61.659480749
 51
63.0441807884
  0
ARC
  5
48D
100
AcDbEntity
  8
0
100
AcDbCircle
 62
7
  6
CONTINUOUS
 10
22.1398859587
 20
11.7293176999
 40
0.9794250637
100
AcDbArc
 50
300.0901610997
 51
240.1281375379
  0
ARC
  5
48E
100
AcDbEntity
  8
0
100
AcDbCircle
 62
9
  6
CONTINUOUS
 10
22.1398859587
 20
11.7293176999
 40
0.7622057121
100
AcDbArc
 50
308.1221127674
 51
231.877508512
  0
ARC
  5
48F
100
AcDbEntity
  8
0
100
AcDbCircle
 62
9
  6
CONTINUOUS
 10
22.1398859587
 20
11.7293176999
 40
0.7298140957
100
AcDbArc
 50
310.2398840663
 51
229.7640215135
  0
ARC
  5
490
100
AcDbEntity
  8
0
100
AcDbCircle
 62
7
  6
CONTINUOUS
 10
22.1398859587
 20
11.7293176999
 40
0.5475
100
AcDbArc
 50
333.1407532231
 51
206.8592467769
  0
ARC
  5
491
100
AcDbEntity
  8
0
100
AcDbCircle
 62
9
  6
CONTINUOUS
 10
22.1398859587
 20
11.7293176999
 40
0.5175
100
AcDbArc
 50
340.5116780865
 51
199.4883219135
  0
ARC
  5
492
100
AcDbEntity
  8
0
100
AcDbCircle
 62
7
  6
CONTINUOUS
 10
22.1398859587
 20
11.7293176999
 40
0.4875
100
AcDbArc
 50
0.0
 51
180.0
  0
ARC
  5
493
100
AcDbEntity
  8
0
100
AcDbCircle
 62
7
  6
CONTINUOUS
 10
22.3200390747
 20
11.3435261981
 40
0.3105721724
100
AcDbArc
 50
19.7472579762
 51
21.0499897318
  0
ARC
  5
494
100
AcDbEntity
  8
0
100
AcDbCircle
 62
7
  6
CONTINUOUS
 10
22.3202935195
 20
11.3542435518
 40
0.3103008482
100
AcDbArc
 50
338.9493796243
 51
340.1179828385
  0
ARC
  5
495
100
AcDbEntity
  8
0
100
AcDbCircle
 62
7
  6
CONTINUOUS
 10
22.3344823011
 20
11.4324832612
 40
0.2954037216
100
AcDbArc
 50
0.4927177831
 51
2.5314139804
  0
ARC
  5
496
100
AcDbEntity
  8
0
100
AcDbCircle
 62
7
  6
CONTINUOUS
 10
22.3423364911
 20
11.432494383
 40
0.2875494676
100
AcDbArc
 50
0.0000029748
 51
0.4902043383
  0
ARC
  5
497
100
AcDbEntity
  8
0
100
AcDbCircle
 62
7
  6
CONTINUOUS
 10
22.200330897
 20
11.3300522745
 40
0.0967134808
100
AcDbArc
 50
151.5472752954
 51
153.5982334124
  0
ARC
  5
498
100
AcDbEntity
  8
0
100
AcDbCircle
 62
9
  6
CONTINUOUS
 10
22.3325531276
 20
11.2478681053
 40
0.0966141919
100
AcDbArc
 50
93.058198364
 51
97.3085618716
  0
ARC
  5
499
100
AcDbEntity
  8
0
100
AcDbCircle
 62
9
  6
CONTINUOUS
 10
22.2514187234
 20
11.2790236117
 40
0.0948715427
100
AcDbArc
 50
77.0460808365
 51
82.9691404507
  0
ARC
  5
49A
100
AcDbEntity
  8
0
100
AcDbCircle
 62
7
  6
CONTINUOUS
 10
22.2405167697
 20
11.2861009993
 40
0.0897086035
100
AcDbArc
 50
104.9742917831
 51
106.8323083096
  0
ARC
  5
49B
100
AcDbEntity
  8
0
100
AcDbCircle
 62
7
  6
CONTINUOUS
 10
22.1520163291
 20
11.3183765454
 40
0.0684366417
100
AcDbArc
 50
121.1621424259
 51
122.4463729016
  0
ARC
  5
49C
100
AcDbEntity
  8
0
100
AcDbCircle
 62
7
  6
CONTINUOUS
 10
22.2352477073
 20
11.32263232
 40
0.0535040359
100
AcDbArc
 50
112.7693765164
 51
114.267224089
  0
ARC
  5
49D
100
AcDbEntity
  8
0
100
AcDbCircle
 62
7
  6
CONTINUOUS
 10
48.6063653738
 20
5.5431402112
 40
43.8201384279
100
AcDbArc
 50
174.492831645
 51
181.7812383983
  0
ARC
  5
49E
100
AcDbEntity
  8
0
100
AcDbCircle
 62
9
  6
CONTINUOUS
 10
114.5420442116
 20
173.1923379728
 40
196.7634165474
100
AcDbArc
 50
236.0005437771
 51
236.1667279165
  0
SPLINE
  5
49F
100
AcDbEntity
  8
0
100
AcDbSpline
 62
7
  6
CONTINUOUS
 70
0
 71
3
 72
41
 73
37
 74
0
 42
0.0000001
 43
0.0000001
 44
0.0000000001
 40
0.0
 40
0.0
 40
0.0
 40
0.0
 40
0.0274496306
 40
0.0412482271
 40
0.0551117349
 40
0.0830897915
 40
0.1115227372
 40
0.1405127871
 40
0.1701354485
 40
0.2004417203
 40
0.2314559602
 40
0.2631747296
 40
0.2955701203
 40
0.3285900622
 40
0.3621628959
 40
0.3961990614
 40
0.4305952164
 40
0.4652371928
 40
0.5000038248
 40
0.5347703773
 40
0.5694121716
 40
0.6038079915
 40
0.637843739
 40
0.6714160152
 40
0.7044353485
 40
0.736830043
 40
0.7685480978
 40
0.7995615957
 40
0.829867146
 40
0.8594891234
 40
0.8884785612
 40
0.9169109928
 40
0.9448886318
 40
0.9587519888
 40
0.9725504835
 40
1.0
 40
1.0
 40
1.0
 40
1.0
 10
22.6295977548
 20
11.4455303977
 30
0.0
 10
22.6290540068
 20
11.4578327191
 30
0.0
 10
22.6270782481
 20
11.4762941715
 30
0.0
 10
22.6221897837
 20
11.5005411728
 30
0.0
 10
22.6157655089
 20
11.5246760274
 30
0.0
 10
22.604902598
 20
11.5543578354
 30
0.0
 10
22.5875864147
 20
11.5886251793
 30
0.0
 10
22.5661469421
 20
11.6213576292
 30
0.0
 10
22.5407990228
 20
11.6522528265
 30
0.0
 10
22.5118054962
 20
11.6810515084
 30
0.0
 10
22.4794385988
 20
11.7075032118
 30
0.0
 10
22.4440069182
 20
11.7313934006
 30
0.0
 10
22.4058324841
 20
11.7525178194
 30
0.0
 10
22.3652642622
 20
11.7707034639
 30
0.0
 10
22.3226680444
 20
11.7857972443
 30
0.0
 10
22.2784268827
 20
11.7976700693
 30
0.0
 10
22.2329397381
 20
11.8062258791
 30
0.0
 10
22.1866146958
 20
11.8113850439
 30
0.0
 10
22.1398694384
 20
11.8131120574
 30
0.0
 10
22.09312436
 20
11.811382572
 30
0.0
 10
22.0467998346
 20
11.8062211343
 30
0.0
 10
22.0013135941
 20
11.7976628067
 30
0.0
 10
21.9570735795
 20
11.7857879631
 30
0.0
 10
21.9144789448
 20
11.7706918441
 30
0.0
 10
21.8739124191
 20
11.7525044559
 30
0.0
 10
21.8357401133
 20
11.7313780575
 30
0.0
 10
21.8003105771
 20
11.7074864175
 30
0.0
 10
21.7679461762
 20
11.6810331957
 30
0.0
 10
21.7389551494
 20
11.6522333674
 30
0.0
 10
21.7136099117
 20
11.6213371344
 30
0.0
 10
21.6921731733
 20
11.5886038639
 30
0.0
 10
21.6748597849
 20
11.5543358819
 30
0.0
 10
21.6639992396
 20
11.5246537238
 30
0.0
 10
21.6575768754
 20
11.5005186717
 30
0.0
 10
21.6526902897
 20
11.4762714595
 30
0.0
 10
21.6507159585
 20
11.4578099515
 30
0.0
 10
21.6501731584
 20
11.4455076394
 30
0.0
  0
SPLINE
  5
4A0
100
AcDbEntity
  8
0
100
AcDbSpline
 62
7
  6
CONTINUOUS
 70
0
 71
3
 72
11
 73
7
 74
0
 42
0.0000001
 43
0.0000001
 44
0.0000000001
 40
0.0
 40
0.0
 40
0.0
 40
0.0
 40
0.2480354392
 40
0.4968881112
 40
0.7472940409
 40
1.0
 40
1.0
 40
1.0
 40
1.0
 10
22.6298859587
 20
11.3489320086
 30
0.0
 10
22.6298859587
 20
11.340476816
 30
0.0
 10
22.6291368131
 20
11.3235292386
 30
0.0
 10
22.6257754837
 20
11.2982460209
 30
0.0
 10
22.6201899166
 20
11.2731967147
 30
0.0
 10
22.6150284321
 20
11.2568160298
 30
0.0
 10
22.6120988584
 20
11.2487150694
 30
0.0
  0
SPLINE
  5
4A1
100
AcDbEntity
  8
0
100
AcDbSpline
 62
7
  6
CONTINUOUS
 70
0
 71
3
 72
11
 73
7
 74
0
 42
0.0000001
 43
0.0000001
 44
0.0000000001
 40
0.0
 40
0.0
 40
0.0
 40
0.0
 40
0.2527059591
 40
0.5031118888
 40
0.7519645608
 40
1.0
 40
1.0
 40
1.0
 40
1.0
 10
21.6676730589
 20
11.2487150694
 30
0.0
 10
21.6647434852
 20
11.2568160298
 30
0.0
 10
21.6595820008
 20
11.2731967147
 30
0.0
 10
21.6539964336
 20
11.2982460209
 30
0.0
 10
21.6506351042
 20
11.3235292386
 30
0.0
 10
21.6498859587
 20
11.340476816
 30
0.0
 10
21.6498859587
 20
11.3489320086
 30
0.0
  0
SPLINE
  5
4A2
100
AcDbEntity
  8
0
100
AcDbSpline
 62
7
  6
CONTINUOUS
 70
0
 71
3
 72
11
 73
7
 74
0
 42
0.0000001
 43
0.0000001
 44
0.0000000001
 40
0.0
 40
0.0
 40
0.0
 40
0.0
 40
0.2526711729
 40
0.5030702734
 40
0.7519386435
 40
1.0
 40
1.0
 40
1.0
 40
1.0
 10
22.6123471765
 20
11.4484597384
 30
0.0
 10
22.6152363222
 20
11.440410996
 30
0.0
 10
22.6203261661
 20
11.4241384597
 30
0.0
 10
22.6258333623
 20
11.3992612268
 30
0.0
 10
22.6291473709
 20
11.374155128
 30
0.0
 10
22.6298859587
 20
11.3573275648
 30
0.0
 10
22.6298859587
 20
11.3489320086
 30
0.0
  0
SPLINE
  5
4A3
100
AcDbEntity
  8
0
100
AcDbSpline
 62
9
  6
CONTINUOUS
 70
0
 71
3
 72
41
 73
37
 74
0
 42
0.0000001
 43
0.0000001
 44
0.0000000001
 40
0.0
 40
0.0
 40
0.0
 40
0.0
 40
0.0269997917
 40
0.0541987682
 40
0.0817384965
 40
0.0956923972
 40
0.1097891588
 40
0.1384551729
 40
0.167839008
 40
0.1980003166
 40
0.2289674821
 40
0.260734605
 40
0.2932678968
 40
0.32650646
 40
0.3603683996
 40
0.3947517244
 40
0.4295402944
 40
0.4646061846
 40
0.4998142427
 40
0.5350253846
 40
0.5701004768
 40
0.6049040823
 40
0.6393079189
 40
0.6731952523
 40
0.7064634124
 40
0.7390296102
 40
0.7708319353
 40
0.8018352739
 40
0.8320324304
 40
0.8614505259
 40
0.8901474111
 40
0.9042575905
 40
0.9182234244
 40
0.9457831435
 40
0.9729959817
 40
1.0
 40
1.0
 40
1.0
 40
1.0
 10
21.6698859587
 20
11.1303842213
 30
0.0
 10
21.6698859624
 20
11.1421512845
 30
0.0
 10
21.6714093936
 20
11.1657996677
 30
0.0
 10
21.6782042321
 20
11.2008589241
 30
0.0
 10
21.6875526126
 20
11.2293868379
 30
0.0
 10
21.6971454037
 20
11.2516471271
 30
0.0
 10
21.7082630488
 20
11.2737384639
 30
0.0
 10
21.724834805
 20
11.3005468665
 30
0.0
 10
21.7485878299
 20
11.3308674967
 30
0.0
 10
21.7760849635
 20
11.3592483538
 30
0.0
 10
21.8070624666
 20
11.3854139346
 30
0.0
 10
21.8412153375
 20
11.4091278523
 30
0.0
 10
21.8782212953
 20
11.4301583521
 30
0.0
 10
21.917721645
 20
11.4483156857
 30
0.0
 10
21.9593416648
 20
11.4634239516
 30
0.0
 10
22.002683157
 20
11.4753432425
 30
0.0
 10
22.0473326715
 20
11.4839622665
 30
0.0
 10
22.092865022
 20
11.4891953827
 30
0.0
 10
22.1388453947
 20
11.491000211
 30
0.0
 10
22.1848356115
 20
11.4893510925
 30
0.0
 10
22.2303973933
 20
11.4842723947
 30
0.0
 10
22.2750956371
 20
11.475804683
 30
0.0
 10
22.3185048114
 20
11.4640327374
 30
0.0
 10
22.3602107522
 20
11.4490659315
 30
0.0
 10
22.3998146833
 20
11.4310433133
 30
0.0
 10
22.4369408262
 20
11.4101391415
 30
0.0
 10
22.4712296046
 20
11.3865422615
 30
0.0
 10
22.5023572699
 20
11.3604829967
 30
0.0
 10
22.5300176933
 20
11.3321967884
 30
0.0
 10
22.5539456691
 20
11.3019582725
 30
0.0
 10
22.5706735399
 20
11.2752068587
 30
0.0
 10
22.5819188336
 20
11.2531527396
 30
0.0
 10
22.5916386898
 20
11.2309260632
 30
0.0
 10
22.6011505501
 20
11.2024317217
 30
0.0
 10
22.6081595644
 20
11.167398213
 30
0.0
 10
22.6098208073
 20
11.1437501941
 30
0.0
 10
22.6098813338
 20
11.1319814445
 30
0.0
  0
SPLINE
  5
4A4
100
AcDbEntity
  8
0
100
AcDbSpline
 62
9
  6
CONTINUOUS
 70
0
 71
3
 72
33
 73
29
 74
0
 42
0.0000001
 43
0.0000001
 44
0.0000000001
 40
0.0
 40
0.0
 40
0.0
 40
0.0
 40
0.027170887
 40
0.0548379003
 40
0.0830423684
 40
0.1118334278
 40
0.1712638835
 40
0.2019649831
 40
0.2332876104
 40
0.2976181054
 40
0.3638946218
 40
0.3976085596
 40
0.4315888033
 40
0.46574893
 40
0.5
 40
0.53425107
 40
0.5684111967
 40
0.6023914404
 40
0.6361053782
 40
0.7023818946
 40
0.7667123896
 40
0.7980350169
 40
0.8287361165
 40
0.8881665722
 40
0.9169576316
 40
0.9451620997
 40
0.972829113
 40
1.0
 40
1.0
 40
1.0
 40
1.0
 10
21.6698859587
 20
11.2493862052
 30
0.0
 10
21.6736187077
 20
11.2590852731
 30
0.0
 10
21.6821406388
 20
11.2782943305
 30
0.0
 10
21.6977613565
 20
11.3060011893
 30
0.0
 10
21.7162375242
 20
11.3326528939
 30
0.0
 10
21.7447849933
 20
11.3668906532
 30
0.0
 10
21.77834704
 20
11.3979506247
 30
0.0
 10
21.815886575
 20
11.4253679107
 30
0.0
 10
21.8569739508
 20
11.4508944289
 30
0.0
 10
21.9130200117
 20
11.4777582172
 30
0.0
 10
21.9730049717
 20
11.4971415137
 30
0.0
 10
22.0230695765
 20
11.5081937746
 30
0.0
 10
22.0615912263
 20
11.5141851905
 30
0.0
 10
22.1006124371
 20
11.5177986716
 30
0.0
 10
22.1398859587
 20
11.5190025577
 30
0.0
 10
22.1791594802
 20
11.5177986716
 30
0.0
 10
22.218180691
 20
11.5141851905
 30
0.0
 10
22.2567023408
 20
11.5081937746
 30
0.0
 10
22.3067669457
 20
11.4971415137
 30
0.0
 10
22.3667519056
 20
11.4777582172
 30
0.0
 10
22.4227979665
 20
11.4508944289
 30
0.0
 10
22.4638853423
 20
11.4253679107
 30
0.0
 10
22.5014248773
 20
11.3979506247
 30
0.0
 10
22.534986924
 20
11.3668906532
 30
0.0
 10
22.5635343931
 20
11.3326528939
 30
0.0
 10
22.5820105608
 20
11.3060011893
 30
0.0
 10
22.5976312786
 20
11.2782943305
 30
0.0
 10
22.6061532097
 20
11.2590852731
 30
0.0
 10
22.6098859587
 20
11.2493862052
 30
0.0
  0
SPLINE
  5
4A5
100
AcDbEntity
  8
0
100
AcDbSpline
 62
9
  6
CONTINUOUS
 70
0
 71
3
 72
24
 73
20
 74
0
 42
0.0000001
 43
0.0000001
 44
0.0000000001
 40
0.0
 40
0.0
 40
0.0
 40
0.0
 40
0.0540102107
 40
0.108419966
 40
0.1635129269
 40
0.1914284436
 40
0.219630438
 40
0.2769820102
 40
0.3357733193
 40
0.3961228709
 40
0.4580858754
 40
0.5216501008
 40
0.5867478662
 40
0.6532581395
 40
0.7210142769
 40
0.789804386
 40
0.8594083618
 40
0.9295895631
 40
1.0
 40
1.0
 40
1.0
 40
1.0
 10
22.6273859587
 20
11.577246588
 30
0.0
 10
22.6273859587
 20
11.58946908
 30
0.0
 10
22.6258012488
 20
11.6140330673
 30
0.0
 10
22.6187334513
 20
11.6504484383
 30
0.0
 10
22.6090097785
 20
11.6800777352
 30
0.0
 10
22.5990322728
 20
11.7031957414
 30
0.0
 10
22.5874687095
 20
11.7261376597
 30
0.0
 10
22.5702325842
 20
11.7539758415
 30
0.0
 10
22.5455285331
 20
11.7854555327
 30
0.0
 10
22.5169324247
 20
11.8149151018
 30
0.0
 10
22.4847193662
 20
11.8420674155
 30
0.0
 10
22.4492074594
 20
11.8666664816
 30
0.0
 10
22.4107325671
 20
11.888472197
 30
0.0
 10
22.3696677419
 20
11.9072859847
 30
0.0
 10
22.3264055675
 20
11.922925365
 30
0.0
 10
22.2813608181
 20
11.9352475806
 30
0.0
 10
22.2349563576
 20
11.9441351505
 30
0.0
 10
22.187648489
 20
11.9494945086
 30
0.0
 10
22.1558198162
 20
11.950693254
 30
0.0
 10
22.1398859587
 20
11.950693254
 30
0.0
  0
SPLINE
  5
4A6
100
AcDbEntity
  8
0
100
AcDbSpline
 62
9
  6
CONTINUOUS
 70
0
 71
3
 72
24
 73
20
 74
0
 42
0.0000001
 43
0.0000001
 44
0.0000000001
 40
0.0
 40
0.0
 40
0.0
 40
0.0
 40
0.0704104369
 40
0.1405916382
 40
0.210195614
 40
0.2789857231
 40
0.3467418605
 40
0.4132521338
 40
0.4783498992
 40
0.5419141246
 40
0.6038771291
 40
0.6642266807
 40
0.7230179898
 40
0.780369562
 40
0.8085715564
 40
0.8364870731
 40
0.891580034
 40
0.9459897893
 40
1.0
 40
1.0
 40
1.0
 40
1.0
 10
22.1398859587
 20
11.950693254
 30
0.0
 10
22.1239521011
 20
11.950693254
 30
0.0
 10
22.0921234283
 20
11.9494945086
 30
0.0
 10
22.0448155597
 20
11.9441351505
 30
0.0
 10
21.9984110992
 20
11.9352475806
 30
0.0
 10
21.9533663498
 20
11.922925365
 30
0.0
 10
21.9101041754
 20
11.9072859847
 30
0.0
 10
21.8690393503
 20
11.888472197
 30
0.0
 10
21.8305644579
 20
11.8666664816
 30
0.0
 10
21.7950525512
 20
11.8420674155
 30
0.0
 10
21.7628394926
 20
11.8149151018
 30
0.0
 10
21.7342433842
 20
11.7854555327
 30
0.0
 10
21.7095393331
 20
11.7539758415
 30
0.0
 10
21.6923032078
 20
11.7261376597
 30
0.0
 10
21.6807396445
 20
11.7031957414
 30
0.0
 10
21.6707621388
 20
11.6800777352
 30
0.0
 10
21.661038466
 20
11.6504484383
 30
0.0
 10
21.6539706685
 20
11.6140330673
 30
0.0
 10
21.6523859587
 20
11.58946908
 30
0.0
 10
21.6523859587
 20
11.577246588
 30
0.0
  0
SPLINE
  5
4A7
100
AcDbEntity
  8
0
100
AcDbSpline
 62
7
  6
CONTINUOUS
 70
0
 71
3
 72
11
 73
7
 74
0
 42
0.0000001
 43
0.0000001
 44
0.0000000001
 40
0.0
 40
0.0
 40
0.0
 40
0.0
 40
0.2481405798
 40
0.4970570963
 40
0.7474356652
 40
1.0
 40
1.0
 40
1.0
 40
1.0
 10
21.6498859587
 20
11.3489320086
 30
0.0
 10
21.6498859587
 20
11.3571432651
 30
0.0
 10
21.6505923972
 20
11.3736000045
 30
0.0
 10
21.6537622952
 20
11.3981585778
 30
0.0
 10
21.6590307704
 20
11.4225033906
 30
0.0
 10
21.6639022471
 20
11.4384407168
 30
0.0
 10
21.6666681378
 20
11.4463274179
 30
0.0
  0
SPLINE
  5
4A8
100
AcDbEntity
  8
0
100
AcDbSpline
 62
9
  6
CONTINUOUS
 70
0
 71
3
 72
41
 73
37
 74
0
 42
0.0000001
 43
0.0000001
 44
0.0000000001
 40
0.0
 40
0.0
 40
0.0
 40
0.0
 40
0.0270038365
 40
0.0542183555
 40
0.0817837764
 40
0.0957537753
 40
0.1098685091
 40
0.1385751967
 40
0.1680043199
 40
0.1982129883
 40
0.2292269193
 40
0.2610386451
 40
0.2936131141
 40
0.3268880719
 40
0.3607804591
 40
0.3951875155
 40
0.4299924884
 40
0.4650671152
 40
0.5002760736
 40
0.5354803624
 40
0.5705411129
 40
0.6053233676
 40
0.6396994901
 40
0.673553598
 40
0.7067840541
 40
0.7393091744
 40
0.7710683178
 40
0.8020282771
 40
0.8321836202
 40
0.8615622393
 40
0.8902234786
 40
0.9043180934
 40
0.9182700392
 40
0.9458064176
 40
0.9730026557
 40
1.0
 40
1.0
 40
1.0
 40
1.0
 10
22.6298754345
 20
11.4349545341
 30
0.0
 10
22.629770522
 20
11.447216569
 30
0.0
 10
22.627972557
 20
11.4718512084
 30
0.0
 10
22.620585042
 20
11.5083407324
 30
0.0
 10
22.6105983974
 20
11.538010538
 30
0.0
 10
22.6004132756
 20
11.5611513521
 30
0.0
 10
22.5886407335
 20
11.5841115446
 30
0.0
 10
22.5711475489
 20
11.6119585122
 30
0.0
 10
22.5461463812
 20
11.6434288329
 30
0.0
 10
22.5172637354
 20
11.6728615921
 30
0.0
 10
22.4847762614
 20
11.699971229
 30
0.0
 10
22.4490029672
 20
11.7245130051
 30
0.0
 10
22.4102810765
 20
11.7462480253
 30
0.0
 10
22.3689848772
 20
11.7649801183
 30
0.0
 10
22.3255057741
 20
11.780528388
 30
0.0
 10
22.2802589575
 20
11.7927484803
 30
0.0
 10
22.233675594
 20
11.8015270458
 30
0.0
 10
22.1861986073
 20
11.8067762531
 30
0.0
 10
22.1382808299
 20
11.8084543264
 30
0.0
 10
22.0903783506
 20
11.8065361828
 30
0.0
 10
22.0429470683
 20
11.8010491698
 30
0.0
 10
21.9964394168
 20
11.7920373057
 30
0.0
 10
21.9512975767
 20
11.7795906136
 30
0.0
 10
21.9079517283
 20
11.7638245678
 30
0.0
 10
21.8668158227
 20
11.7448855564
 30
0.0
 10
21.8282797374
 20
11.722956394
 30
0.0
 10
21.7927160992
 20
11.6982350682
 30
0.0
 10
21.7604601549
 20
11.6709621281
 30
0.0
 10
21.7318288976
 20
11.6413838801
 30
0.0
 10
21.7070966548
 20
11.6097873082
 30
0.0
 10
21.6898424974
 20
11.5818531178
 30
0.0
 10
21.6782672452
 20
11.5588352721
 30
0.0
 10
21.6682795384
 20
11.5356417339
 30
0.0
 10
21.6585464383
 20
11.5059187209
 30
0.0
 10
21.6514720788
 20
11.4693918799
 30
0.0
 10
21.6498859587
 20
11.4447539334
 30
0.0
 10
21.6498859587
 20
11.4324943979
 30
0.0
  0
SPLINE
  5
4A9
100
AcDbEntity
  8
0
100
AcDbSpline
 62
7
  6
CONTINUOUS
 70
0
 71
3
 72
23
 73
19
 74
0
 42
0.0000001
 43
0.0000001
 44
0.0000000001
 40
0.0
 40
0.0
 40
0.0
 40
0.0
 40
0.0539433027
 40
0.1086328241
 40
0.1643099296
 40
0.2211572873
 40
0.2793078006
 40
0.3388482118
 40
0.3998208666
 40
0.4622184009
 40
0.5259934011
 40
0.5910588391
 40
0.6572958015
 40
0.7245479814
 40
0.7926393841
 40
0.8613947823
 40
0.9306133999
 40
1.0
 40
1.0
 40
1.0
 40
1.0
 10
21.6583275156
 20
11.5034733894
 30
0.0
 10
21.6605737816
 20
11.5144010882
 30
0.0
 10
21.6663639983
 20
11.5361669611
 30
0.0
 10
21.6787062989
 20
11.5678966826
 30
0.0
 10
21.6946606211
 20
11.5986517547
 30
0.0
 10
21.7140859931
 20
11.6281952673
 30
0.0
 10
21.7368372278
 20
11.6562919319
 30
0.0
 10
21.7627237217
 20
11.6827314454
 30
0.0
 10
21.791548479
 20
11.707303636
 30
0.0
 10
21.8230781422
 20
11.729828992
 30
0.0
 10
21.8570728587
 20
11.750125776
 30
0.0
 10
21.8932627743
 20
11.768047728
 30
0.0
 10
21.9313705993
 20
11.7834467159
 30
0.0
 10
21.9710943028
 20
11.7962159315
 30
0.0
 10
22.0121308817
 20
11.8062480492
 30
0.0
 10
22.0541658423
 20
11.8134730305
 30
0.0
 10
22.0968612118
 20
11.8178233968
 30
0.0
 10
22.1255359052
 20
11.8187968161
 30
0.0
 10
22.1398859587
 20
11.8187968161
 30
0.0
  0
SPLINE
  5
4AA
100
AcDbEntity
  8
0
100
AcDbSpline
 62
7
  6
CONTINUOUS
 70
0
 71
3
 72
23
 73
19
 74
0
 42
0.0000001
 43
0.0000001
 44
0.0000000001
 40
0.0
 40
0.0
 40
0.0
 40
0.0
 40
0.0693863465
 40
0.1386047199
 40
0.2073599
 40
0.2754511204
 40
0.3427031622
 40
0.4089400378
 40
0.4740054451
 40
0.5377804718
 40
0.6001780873
 40
0.6611508723
 40
0.7206914514
 40
0.7788421558
 40
0.8356897086
 40
0.891366992
 40
0.9460566433
 40
1.0
 40
1.0
 40
1.0
 40
1.0
 10
22.1398859587
 20
11.8187968161
 30
0.0
 10
22.1542356432
 20
11.8187968161
 30
0.0
 10
22.1829096008
 20
11.8178234471
 30
0.0
 10
22.225603891
 20
11.8134733035
 30
0.0
 10
22.2676378233
 20
11.8062486906
 30
0.0
 10
22.3086734506
 20
11.7962170805
 30
0.0
 10
22.3483963021
 20
11.7834485038
 30
0.0
 10
22.3865033972
 20
11.768050276
 30
0.0
 10
22.4226927257
 20
11.7501291938
 30
0.0
 10
22.4566870172
 20
11.7298333756
 30
0.0
 10
22.4882164341
 20
11.7073090656
 30
0.0
 10
22.5170411389
 20
11.6827379855
 30
0.0
 10
22.5429277855
 20
11.6562996274
 30
0.0
 10
22.5656793899
 20
11.6282041461
 30
0.0
 10
22.5851053524
 20
11.598661821
 30
0.0
 10
22.6010604936
 20
11.5679079229
 30
0.0
 10
22.6134038384
 20
11.5361793381
 30
0.0
 10
22.6191949135
 20
11.5144141722
 30
0.0
 10
22.6214416427
 20
11.5034868084
 30
0.0
  0
SPLINE
  5
4AB
100
AcDbEntity
  8
0
100
AcDbSpline
 62
7
  6
CONTINUOUS
 70
0
 71
3
 72
11
 73
7
 74
0
 42
0.0000001
 43
0.0000001
 44
0.0000000001
 40
0.0
 40
0.0
 40
0.0
 40
0.0
 40
0.2736100635
 40
0.5003111614
 40
0.7269609786
 40
1.0
 40
1.0
 40
1.0
 40
1.0
 10
8.1420079622
 20
11.7271970629
 30
0.0
 10
8.1251884522
 20
11.7103767032
 30
0.0
 10
8.1040500792
 20
11.6700023038
 30
0.0
 10
8.1323635443
 20
11.6063155187
 30
0.0
 10
8.1961563293
 20
11.5778279576
 30
0.0
 10
8.236201294
 20
11.5993576708
 30
0.0
 10
8.2530234221
 20
11.6161809934
 30
0.0
  0
SPLINE
  5
4AC
100
AcDbEntity
  8
0
100
AcDbSpline
 62
7
  6
CONTINUOUS
 70
0
 71
3
 72
11
 73
7
 74
0
 42
0.0000001
 43
0.0000001
 44
0.0000000001
 40
0.0
 40
0.0
 40
0.0
 40
0.0
 40
0.2895273334
 40
0.4992134133
 40
0.7088994931
 40
1.0
 40
1.0
 40
1.0
 40
1.0
 10
8.2273550675
 20
11.6418485911
 30
0.0
 10
8.2155295816
 20
11.6300231052
 30
0.0
 10
8.1932909293
 20
11.6114819035
 30
0.0
 10
8.1503791848
 20
11.6243745823
 30
0.0
 10
8.1378492606
 20
11.667062034
 30
0.0
 10
8.1554339405
 20
11.6901356169
 30
0.0
 10
8.1672509911
 20
11.7019526675
 30
0.0
  0
SPLINE
  5
4AD
100
AcDbEntity
  8
0
100
AcDbSpline
 62
7
  6
CONTINUOUS
 70
0
 71
3
 72
11
 73
7
 74
0
 42
0.0000001
 43
0.0000001
 44
0.0000000001
 40
0.0
 40
0.0
 40
0.0
 40
0.0
 40
0.2911005069
 40
0.5007865867
 40
0.7104726666
 40
1.0
 40
1.0
 40
1.0
 40
1.0
 10
8.1672509911
 20
11.7019526675
 30
0.0
 10
8.1790680417
 20
11.7137697181
 30
0.0
 10
8.2021416246
 20
11.731354398
 30
0.0
 10
8.2448290763
 20
11.7188244738
 30
0.0
 10
8.2577217551
 20
11.6759127293
 30
0.0
 10
8.2391805534
 20
11.653674077
 30
0.0
 10
8.2273550675
 20
11.6418485911
 30
0.0
  0
SPLINE
  5
4AE
100
AcDbEntity
  8
0
100
AcDbSpline
 62
7
  6
CONTINUOUS
 70
0
 71
3
 72
11
 73
7
 74
0
 42
0.0000001
 43
0.0000001
 44
0.0000000001
 40
0.0
 40
0.0
 40
0.0
 40
0.0
 40
0.2736080349
 40
0.5002785358
 40
0.7269596811
 40
1.0
 40
1.0
 40
1.0
 40
1.0
 10
8.1420074306
 20
11.7271965312
 30
0.0
 10
8.1588265516
 20
11.7440167234
 30
0.0
 10
8.1991957752
 20
11.7651551002
 30
0.0
 10
8.2628955637
 20
11.7368327861
 30
0.0
 10
8.2913739553
 20
11.6730527979
 30
0.0
 10
8.269845048
 20
11.633003599
 30
0.0
 10
8.2530228862
 20
11.6161804574
 30
0.0
  0
SPLINE
  5
4AF
100
AcDbEntity
  8
0
100
AcDbSpline
 62
7
  6
CONTINUOUS
 70
0
 71
3
 72
11
 73
7
 74
0
 42
0.0000001
 43
0.0000001
 44
0.0000000001
 40
0.0
 40
0.0
 40
0.0
 40
0.0
 40
0.273039475
 40
0.4997206271
 40
0.7263911349
 40
1.0
 40
1.0
 40
1.0
 40
1.0
 10
0.1964545012
 20
11.7858862424
 30
0.0
 10
0.1796313805
 20
11.8027083202
 30
0.0
 10
0.1395822434
 20
11.8242371207
 30
0.0
 10
0.07580233
 20
11.7957587625
 30
0.0
 10
0.0474799838
 20
11.7320589019
 30
0.0
 10
0.0686184622
 20
11.6916896177
 30
0.0
 10
0.0854387365
 20
11.6748704778
 30
0.0
  0
SPLINE
  5
4B0
100
AcDbEntity
  8
0
100
AcDbSpline
 62
7
  6
CONTINUOUS
 70
0
 71
3
 72
11
 73
7
 74
0
 42
0.0000001
 43
0.0000001
 44
0.0000000001
 40
0.0
 40
0.0
 40
0.0
 40
0.0
 40
0.2736079326
 40
0.5003103346
 40
0.7269614556
 40
1.0
 40
1.0
 40
1.0
 40
1.0
 10
0.0854387365
 20
11.6748704778
 30
0.0
 10
0.1022590108
 20
11.6580513379
 30
0.0
 10
0.1426331368
 20
11.6369134223
 30
0.0
 10
0.2063195974
 20
11.6652267431
 30
0.0
 10
0.2348070782
 20
11.7290193483
 30
0.0
 10
0.2132776218
 20
11.7690641646
 30
0.0
 10
0.1964545012
 20
11.7858862424
 30
0.0
  0
SPLINE
  5
4B1
100
AcDbEntity
  8
0
100
AcDbSpline
 62
7
  6
CONTINUOUS
 70
0
 71
3
 72
11
 73
7
 74
0
 42
0.0000001
 43
0.0000001
 44
0.0000000001
 40
0.0
 40
0.0
 40
0.0
 40
0.0
 40
0.2895273334
 40
0.4992134133
 40
0.7088994931
 40
1.0
 40
1.0
 40
1.0
 40
1.0
 10
0.170786525
 20
11.7602182663
 30
0.0
 10
0.1826120109
 20
11.7483927804
 30
0.0
 10
0.2011532126
 20
11.7261541281
 30
0.0
 10
0.1882605338
 20
11.6832423836
 30
0.0
 10
0.1455730821
 20
11.6707124594
 30
0.0
 10
0.1224994992
 20
11.6882971393
 30
0.0
 10
0.1106824486
 20
11.7001141899
 30
0.0
  0
SPLINE
  5
4B2
100
AcDbEntity
  8
0
100
AcDbSpline
 62
7
  6
CONTINUOUS
 70
0
 71
3
 72
11
 73
7
 74
0
 42
0.0000001
 43
0.0000001
 44
0.0000000001
 40
0.0
 40
0.0
 40
0.0
 40
0.0
 40
0.2911005069
 40
0.5007865867
 40
0.7104726666
 40
1.0
 40
1.0
 40
1.0
 40
1.0
 10
0.1106824486
 20
11.7001141899
 30
0.0
 10
0.098865398
 20
11.7119312405
 30
0.0
 10
0.0812807181
 20
11.7350048234
 30
0.0
 10
0.0938106423
 20
11.7776922751
 30
0.0
 10
0.1367223868
 20
11.7905849539
 30
0.0
 10
0.1589610391
 20
11.7720437522
 30
0.0
 10
0.170786525
 20
11.7602182663
 30
0.0
  0
SPLINE
  5
4B3
100
AcDbEntity
  8
0
100
AcDbSpline
 62
7
  6
CONTINUOUS
 70
0
 71
3
 72
13
 73
9
 74
0
 42
0.0000001
 43
0.0000001
 44
0.0000000001
 40
0.0
 40
0.0
 40
0.0
 40
0.0
 40
0.2445637021
 40
0.3714508123
 40
0.4997203553
 40
0.628000208
 40
0.7549788492
 40
1.0
 40
1.0
 40
1.0
 40
1.0
 10
22.20526601
 20
11.3766225487
 30
0.0
 10
22.1987222511
 20
11.3803256711
 30
0.0
 10
22.1879214971
 20
11.3845461878
 30
0.0
 10
22.1727969949
 20
11.3873718302
 30
0.0
 10
22.1610020355
 20
11.3881230881
 30
0.0
 10
22.149197269
 20
11.3874648316
 30
0.0
 10
22.1340417076
 20
11.3847173771
 30
0.0
 10
22.1231865704
 20
11.3805962166
 30
0.0
 10
22.1166018419
 20
11.3769374008
 30
0.0
  0
SPLINE
  5
4B4
100
AcDbEntity
  8
0
100
AcDbSpline
 62
7
  6
CONTINUOUS
 70
0
 71
3
 72
11
 73
7
 74
0
 42
0.0000001
 43
0.0000001
 44
0.0000000001
 40
0.0
 40
0.0
 40
0.0
 40
0.0
 40
0.2492561822
 40
0.5006438418
 40
0.7517449185
 40
1.0
 40
1.0
 40
1.0
 40
1.0
 10
22.2637728326
 20
11.3735361781
 30
0.0
 10
22.2599786086
 20
11.374413527
 30
0.0
 10
22.2522405601
 20
11.3757056822
 30
0.0
 10
22.2404782494
 20
11.3762115044
 30
0.0
 10
22.2287571395
 20
11.3753020521
 30
0.0
 10
22.2210842755
 20
11.373765713
 30
0.0
 10
22.2173373571
 20
11.3727632655
 30
0.0
  0
SPLINE
  5
4B5
100
AcDbEntity
  8
0
100
AcDbSpline
 62
7
  6
CONTINUOUS
 70
0
 71
3
 72
9
 73
5
 74
0
 42
0.0000001
 43
0.0000001
 44
0.0000000001
 40
0.0
 40
0.0
 40
0.0
 40
0.0
 40
0.2474047503
 40
1.0
 40
1.0
 40
1.0
 40
1.0
 10
22.3433333646
 20
11.3453290871
 30
0.0
 10
22.341068552
 20
11.345976337
 30
0.0
 10
22.3318129362
 20
11.3482276401
 30
0.0
 10
22.3222213699
 20
11.3490653712
 30
0.0
 10
22.3150576259
 20
11.3489165581
 30
0.0
  0
SPLINE
  5
4B6
100
AcDbEntity
  8
0
100
AcDbSpline
 62
7
  6
CONTINUOUS
 70
0
 71
3
 72
12
 73
8
 74
0
 42
0.0000001
 43
0.0000001
 44
0.0000000001
 40
0.0
 40
0.0
 40
0.0
 40
0.0
 40
0.2495958807
 40
0.3740451682
 40
0.4984936679
 40
0.7480835284
 40
1.0
 40
1.0
 40
1.0
 40
1.0
 10
22.6499807944
 20
8.6863441601
 30
0.0
 10
22.6522928262
 20
8.6986547882
 30
0.0
 10
22.6546417917
 20
8.7173414379
 30
0.0
 10
22.6554323551
 20
8.7423574947
 30
0.0
 10
22.6546531856
 20
8.7673770502
 30
0.0
 10
22.6507405192
 20
8.7986289131
 30
0.0
 10
22.6445852085
 20
8.8231043069
 30
0.0
 10
22.64078551
 20
8.8351621001
 30
0.0
  0
SPLINE
  5
4B7
100
AcDbEntity
  8
0
100
AcDbSpline
 62
7
  6
CONTINUOUS
 70
0
 71
3
 72
9
 73
5
 74
0
 42
0.0000001
 43
0.0000001
 44
0.0000000001
 40
0.0
 40
0.0
 40
0.0
 40
0.0
 40
0.4952095858
 40
1.0
 40
1.0
 40
1.0
 40
1.0
 10
22.64078551
 20
8.8351621001
 30
0.0
 10
22.6369120917
 20
8.8474538328
 30
0.0
 10
22.6275918845
 20
8.8718254653
 30
0.0
 10
22.6155033577
 20
8.89494366
 30
0.0
 10
22.6087789875
 20
8.9062291274
 30
0.0
  0
SPLINE
  5
4B8
100
AcDbEntity
  8
0
100
AcDbSpline
 62
7
  6
CONTINUOUS
 70
0
 71
3
 72
9
 73
5
 74
0
 42
0.0000001
 43
0.0000001
 44
0.0000000001
 40
0.0
 40
0.0
 40
0.0
 40
0.0
 40
0.2464157969
 40
1.0
 40
1.0
 40
1.0
 40
1.0
 10
22.6087789875
 20
8.9062291274
 30
0.0
 10
22.6059860876
 20
8.9109164336
 30
0.0
 10
22.5942168976
 20
8.9296769918
 30
0.0
 10
22.5807610608
 20
8.9473691198
 30
0.0
 10
22.5698637359
 20
8.9600056544
 30
0.0
  0
SPLINE
  5
4B9
100
AcDbEntity
  8
0
100
AcDbSpline
 62
7
  6
CONTINUOUS
 70
0
 71
3
 72
9
 73
5
 74
0
 42
0.0000001
 43
0.0000001
 44
0.0000000001
 40
0.0
 40
0.0
 40
0.0
 40
0.0
 40
0.2464483965
 40
1.0
 40
1.0
 40
1.0
 40
1.0
 10
22.5618508608
 20
8.9690256634
 30
0.0
 10
22.5582446578
 20
8.9729676674
 30
0.0
 10
22.5433051239
 20
8.9886802558
 30
0.0
 10
22.5271732685
 20
9.0032528789
 30
0.0
 10
22.5144871762
 20
9.0135449756
 30
0.0
  0
SPLINE
  5
4BA
100
AcDbEntity
  8
0
100
AcDbSpline
 62
7
  6
CONTINUOUS
 70
0
 71
3
 72
13
 73
9
 74
0
 42
0.0000001
 43
0.0000001
 44
0.0000000001
 40
0.0
 40
0.0
 40
0.0
 40
0.0
 40
0.2373597116
 40
0.3601529556
 40
0.4852158924
 40
0.6122031405
 40
0.7406868843
 40
1.0
 40
1.0
 40
1.0
 40
1.0
 10
22.503554505
 20
9.0221460613
 30
0.0
 10
22.4791587704
 20
9.0407574496
 30
0.0
 10
22.4392985148
 20
9.065447647
 30
0.0
 10
22.3822126951
 20
9.0915383654
 30
0.0
 10
22.3365788425
 20
9.1080146585
 30
0.0
 10
22.2890612141
 20
9.120949972
 30
0.0
 10
22.2236479751
 20
9.1334248144
 30
0.0
 10
22.1734070667
 20
9.1372097744
 30
0.0
 10
22.1398846083
 20
9.1372097071
 30
0.0
  0
SPLINE
  5
4BB
100
AcDbEntity
  8
0
100
AcDbSpline
 62
7
  6
CONTINUOUS
 70
0
 71
3
 72
19
 73
15
 74
0
 42
0.0000001
 43
0.0000001
 44
0.0000000001
 40
0.0
 40
0.0
 40
0.0
 40
0.0
 40
0.1282688379
 40
0.1923158837
 40
0.2562193641
 40
0.3833491841
 40
0.4465653026
 40
0.5094908351
 40
0.634292842
 40
0.69618569
 40
0.7576985351
 40
0.8188339521
 40
0.8796015359
 40
1.0
 40
1.0
 40
1.0
 40
1.0
 10
22.1398841898
 20
5.6683288433
 30
0.0
 10
22.1833893476
 20
5.6683287676
 30
0.0
 10
22.2487087959
 20
5.6723893786
 30
0.0
 10
22.3346208284
 20
5.6857327491
 30
0.0
 10
22.4191794805
 20
5.7042401385
 30
0.0
 10
22.5016073859
 20
5.7304801415
 30
0.0
 10
22.5806347617
 20
5.764279319
 30
0.0
 10
22.6566463188
 20
5.8026734737
 30
0.0
 10
22.7284675443
 20
5.8480327254
 30
0.0
 10
22.7949217597
 20
5.8997921965
 30
0.0
 10
22.8416562821
 20
5.941502034
 30
0.0
 10
22.8851787436
 20
5.9860249525
 30
0.0
 10
22.9385253051
 20
6.0485929812
 30
0.0
 10
22.9735423071
 20
6.0994020893
 30
0.0
 10
22.9942799678
 20
6.1345803196
 30
0.0
  0
SPLINE
  5
4BC
100
AcDbEntity
  8
0
100
AcDbSpline
 62
7
  6
CONTINUOUS
 70
0
 71
3
 72
19
 73
15
 74
0
 42
0.0000001
 43
0.0000001
 44
0.0000000001
 40
0.0
 40
0.0
 40
0.0
 40
0.0
 40
0.1203984729
 40
0.1811660592
 40
0.2423014772
 40
0.303814322
 40
0.3657071686
 40
0.4905091707
 40
0.5534347
 40
0.6166508153
 40
0.7437806298
 40
0.8076841089
 40
0.8717311549
 40
1.0
 40
1.0
 40
1.0
 40
1.0
 10
21.2854919494
 20
6.1345803198
 30
0.0
 10
21.3062295397
 20
6.0994022089
 30
0.0
 10
21.341246409
 20
6.0485932671
 30
0.0
 10
21.3945927516
 20
5.9860254218
 30
0.0
 10
21.4381150265
 20
5.9415026224
 30
0.0
 10
21.4848493431
 20
5.8997928816
 30
0.0
 10
21.5513032621
 20
5.84803351
 30
0.0
 10
21.6231241646
 20
5.8026743084
 30
0.0
 10
21.6991353837
 20
5.7642801496
 30
0.0
 10
21.7781624117
 20
5.730480929
 30
0.0
 10
21.8605899645
 20
5.704240825
 30
0.0
 10
21.9451482723
 20
5.68573328
 30
0.0
 10
22.0310599709
 20
5.6723897149
 30
0.0
 10
22.0963791807
 20
5.6683289143
 30
0.0
 10
22.1398841898
 20
5.6683288433
 30
0.0
  0
SPLINE
  5
4BD
100
AcDbEntity
  8
0
100
AcDbSpline
 62
7
  6
CONTINUOUS
 70
0
 71
3
 72
16
 73
12
 74
0
 42
0.0000001
 43
0.0000001
 44
0.0000000001
 40
0.0
 40
0.0
 40
0.0
 40
0.0
 40
0.1311563576
 40
0.2616654216
 40
0.3908875293
 40
0.4548405134
 40
0.5182528815
 40
0.6432007736
 40
0.7653505371
 40
0.8843539352
 40
1.0
 40
1.0
 40
1.0
 40
1.0
 10
22.1398846083
 20
9.1372095949
 30
0.0
 10
22.1209922953
 20
9.137209557
 30
0.0
 10
22.083281354
 20
9.1356027187
 30
0.0
 10
22.0273675888
 20
9.1284701001
 30
0.0
 10
21.9817246081
 20
9.1186409795
 30
0.0
 10
21.9461780514
 20
9.1084778977
 30
0.0
 10
21.91171255
 20
9.0969105439
 30
0.0
 10
21.8703156278
 20
9.0797936542
 30
0.0
 10
21.8236244872
 20
9.0551064672
 30
0.0
 10
21.7807168458
 20
9.0266601209
 30
0.0
 10
21.754630315
 20
9.0050415829
 30
0.0
 10
21.7424268979
 20
8.9937026935
 30
0.0
  0
SPLINE
  5
4BE
100
AcDbEntity
  8
0
100
AcDbSpline
 62
7
  6
CONTINUOUS
 70
0
 71
3
 72
9
 73
5
 74
0
 42
0.0000001
 43
0.0000001
 44
0.0000000001
 40
0.0
 40
0.0
 40
0.0
 40
0.0
 40
0.5042064815
 40
1.0
 40
1.0
 40
1.0
 40
1.0
 10
21.6825846126
 20
8.9244273003
 30
0.0
 10
21.6768990093
 20
8.9160542044
 30
0.0
 10
21.6662924552
 20
8.8989810432
 30
0.0
 10
21.6571937529
 20
8.8810558437
 30
0.0
 10
21.6530881716
 20
8.871990019
 30
0.0
  0
SPLINE
  5
4BF
100
AcDbEntity
  8
0
100
AcDbSpline
 62
7
  6
CONTINUOUS
 70
0
 71
3
 72
12
 73
8
 74
0
 42
0.0000001
 43
0.0000001
 44
0.0000000001
 40
0.0
 40
0.0
 40
0.0
 40
0.0
 40
0.253518464
 40
0.503246321
 40
0.6274070222
 40
0.7514172944
 40
1.0
 40
1.0
 40
1.0
 40
1.0
 10
21.6497539206
 20
8.8643777047
 30
0.0
 10
21.6437705547
 20
8.8502415188
 30
0.0
 10
21.6338212717
 20
8.8213160168
 30
0.0
 10
21.6267391777
 20
8.7838490627
 30
0.0
 10
21.6244677858
 20
8.7537609346
 30
0.0
 10
21.6244606905
 20
8.7236621577
 30
0.0
 10
21.6270129284
 20
8.7011369157
 30
0.0
 10
21.629791139
 20
8.6863440724
 30
0.0
  0
SPLINE
  5
4C0
100
AcDbEntity
  8
0
100
AcDbSpline
 62
7
  6
CONTINUOUS
 70
0
 71
3
 72
11
 73
7
 74
0
 42
0.0000001
 43
0.0000001
 44
0.0000000001
 40
0.0
 40
0.0
 40
0.0
 40
0.0
 40
0.2451132258
 40
0.4962504262
 40
0.7493025293
 40
1.0
 40
1.0
 40
1.0
 40
1.0
 10
22.1139969999
 20
11.3768118593
 30
0.0
 10
22.1094148176
 20
11.3787380207
 30
0.0
 10
22.0997749246
 20
11.3818137525
 30
0.0
 10
22.0846880755
 20
11.3840780602
 30
0.0
 10
22.0693194197
 20
11.3839249223
 30
0.0
 10
22.0591949342
 20
11.3822259876
 30
0.0
 10
22.054267
 20
11.3809767791
 30
0.0
  0
SPLINE
  5
4C1
100
AcDbEntity
  8
0
100
AcDbSpline
 62
7
  6
CONTINUOUS
 70
0
 71
3
 72
9
 73
5
 74
0
 42
0.0000001
 43
0.0000001
 44
0.0000000001
 40
0.0
 40
0.0
 40
0.0
 40
0.0
 40
0.502277293
 40
1.0
 40
1.0
 40
1.0
 40
1.0
 10
22.007962988
 20
11.3638603515
 30
0.0
 10
22.0025572752
 20
11.3643544884
 30
0.0
 10
21.9916954417
 20
11.3644505997
 30
0.0
 10
21.9809637422
 20
11.3627426582
 30
0.0
 10
21.975746459
 20
11.3614334998
 30
0.0
  0
SPLINE
  5
4C2
100
AcDbEntity
  8
0
100
AcDbSpline
 62
7
  6
CONTINUOUS
 70
0
 71
3
 72
9
 73
5
 74
0
 42
0.0000001
 43
0.0000001
 44
0.0000000001
 40
0.0
 40
0.0
 40
0.0
 40
0.0
 40
0.2523615491
 40
1.0
 40
1.0
 40
1.0
 40
1.0
 10
21.9141081782
 20
11.3290836962
 30
0.0
 10
21.9128483655
 20
11.3288879185
 30
0.0
 10
21.9078723001
 20
11.3280132707
 30
0.0
 10
21.9029646885
 20
11.3267418007
 30
0.0
 10
21.8993766577
 20
11.3255618139
 30
0.0
  0
SPLINE
  5
4C3
100
AcDbEntity
  8
0
100
AcDbSpline
 62
9
  6
CONTINUOUS
 70
0
 71
3
 72
25
 73
21
 74
0
 42
0.0000001
 43
0.0000001
 44
0.0000000001
 40
0.0
 40
0.0
 40
0.0
 40
0.0
 40
0.0319540533
 40
0.049578989
 40
0.0684600333
 40
0.0886680668
 40
0.1102379961
 40
0.133177902
 40
0.1574759124
 40
0.1831052498
 40
0.2100279127
 40
0.267556655
 40
0.3296250728
 40
0.3957241789
 40
0.4653040743
 40
0.5377887072
 40
0.6125852562
 40
0.6890904597
 40
0.8447881302
 40
1.0
 40
1.0
 40
1.0
 40
1.0
 10
22.7329630694
 20
7.4993594994
 30
0.0
 10
22.7286860061
 20
7.5041615481
 30
0.0
 10
22.7209007146
 20
7.5106143116
 30
0.0
 10
22.709079023
 20
7.5176962764
 30
0.0
 10
22.6987994963
 20
7.5226927761
 30
0.0
 10
22.6874523957
 20
7.5272154984
 30
0.0
 10
22.6750755955
 20
7.5312933678
 30
0.0
 10
22.6617141783
 20
7.5349482772
 30
0.0
 10
22.6474117112
 20
7.5382029603
 30
0.0
 10
22.632212814
 20
7.5410795826
 30
0.0
 10
22.610324552
 20
7.5445151296
 30
0.0
 10
22.5810204943
 20
7.5478972168
 30
0.0
 10
22.5437508247
 20
7.5507260787
 30
0.0
 10
22.503993597
 20
7.5525758926
 30
0.0
 10
22.4621121909
 20
7.5536175302
 30
0.0
 10
22.4184704169
 20
7.5540215973
 30
0.0
 10
22.3734338607
 20
7.5539600438
 30
0.0
 10
22.3116530308
 20
7.5534831741
 30
0.0
 10
22.2336931253
 20
7.552595156
 30
0.0
 10
22.1711199735
 20
7.5524721769
 30
0.0
 10
22.1398859591
 20
7.5528031152
 30
0.0
  0
SPLINE
  5
4C4
100
AcDbEntity
  8
0
100
AcDbSpline
 62
9
  6
CONTINUOUS
 70
0
 71
3
 72
25
 73
21
 74
0
 42
0.0000001
 43
0.0000001
 44
0.0000000001
 40
0.0
 40
0.0
 40
0.0
 40
0.0
 40
0.0319540396
 40
0.049578967
 40
0.0684600027
 40
0.0886680277
 40
0.110237949
 40
0.1331778476
 40
0.1574758516
 40
0.1831051833
 40
0.2100278417
 40
0.2675565775
 40
0.3296249925
 40
0.3957240993
 40
0.4653039984
 40
0.5377886379
 40
0.6125851955
 40
0.6890904095
 40
0.8447881045
 40
1.0
 40
1.0
 40
1.0
 40
1.0
 10
21.5468087863
 20
7.4993594302
 30
0.0
 10
21.5510858414
 20
7.5041614838
 30
0.0
 10
21.5588711232
 20
7.5106142552
 30
0.0
 10
21.570692805
 20
7.5176962284
 30
0.0
 10
21.5809723252
 20
7.5226927341
 30
0.0
 10
21.5923194203
 20
7.5272154618
 30
0.0
 10
21.604696216
 20
7.5312933362
 30
0.0
 10
21.6180576296
 20
7.53494825
 30
0.0
 10
21.6323600941
 20
7.5382029371
 30
0.0
 10
21.6475589896
 20
7.5410795631
 30
0.0
 10
21.669447251
 20
7.5445151146
 30
0.0
 10
21.6987513099
 20
7.5478972063
 30
0.0
 10
21.7360209833
 20
7.5507260723
 30
0.0
 10
21.7757782173
 20
7.5525758892
 30
0.0
 10
21.8176596321
 20
7.5536175287
 30
0.0
 10
21.8613014166
 20
7.5540215971
 30
0.0
 10
21.9063379849
 20
7.5539600442
 30
0.0
 10
21.9681188331
 20
7.5534831747
 30
0.0
 10
22.0460787628
 20
7.5525951562
 30
0.0
 10
22.1086519343
 20
7.5524721768
 30
0.0
 10
22.1398859587
 20
7.5528031152
 30
0.0
  0
SPLINE
  5
4C5
100
AcDbEntity
  8
0
100
AcDbSpline
 62
9
  6
CONTINUOUS
 70
0
 71
3
 72
24
 73
20
 74
0
 42
0.0000001
 43
0.0000001
 44
0.0000000001
 40
0.0
 40
0.0
 40
0.0
 40
0.0
 40
0.0180874647
 40
0.0367329284
 40
0.0561307966
 40
0.0764295482
 40
0.1200972469
 40
0.16824942
 40
0.2209833257
 40
0.2781584373
 40
0.3083273879
 40
0.3394885759
 40
0.4045764541
 40
0.4729751667
 40
0.5441897403
 40
0.6176951305
 40
0.6929449685
 40
0.8464170371
 40
1.0
 40
1.0
 40
1.0
 40
1.0
 10
21.6532695537
 20
7.6480303728
 30
0.0
 10
21.6547865916
 20
7.6507069322
 30
0.0
 10
21.6582162704
 20
7.6559513035
 30
0.0
 10
21.6643413403
 20
7.6632985319
 30
0.0
 10
21.6714624568
 20
7.6702333439
 30
0.0
 10
21.6824979926
 20
7.6791636534
 30
0.0
 10
21.6987390853
 20
7.6892953114
 30
0.0
 10
21.7210487369
 20
7.6997268368
 30
0.0
 10
21.7463699343
 20
7.7088506467
 30
0.0
 10
21.7693149379
 20
7.7153300804
 30
0.0
 10
21.7889225173
 20
7.7200114204
 30
0.0
 10
21.8099575773
 20
7.7244830268
 30
0.0
 10
21.8375391634
 20
7.7293858681
 30
0.0
 10
21.8720192354
 20
7.7342682347
 30
0.0
 10
21.9080461646
 20
7.738323654
 30
0.0
 10
21.9453168323
 20
7.7416456604
 30
0.0
 10
21.996600505
 20
7.7452431385
 30
0.0
 10
22.0615632197
 20
7.7483188826
 30
0.0
 10
22.1137704942
 20
7.749843044
 30
0.0
 10
22.1398859583
 20
7.7504979094
 30
0.0
  0
SPLINE
  5
4C6
100
AcDbEntity
  8
0
100
AcDbSpline
 62
9
  6
CONTINUOUS
 70
0
 71
3
 72
9
 73
5
 74
0
 42
0.0000001
 43
0.0000001
 44
0.0000000001
 40
0.0
 40
0.0
 40
0.0
 40
0.0
 40
0.4956838332
 40
1.0
 40
1.0
 40
1.0
 40
1.0
 10
21.8808736241
 20
11.3194681463
 30
0.0
 10
21.8855537973
 20
11.321007527
 30
0.0
 10
21.8952667458
 20
11.3233327371
 30
0.0
 10
21.9052183409
 20
11.3241252354
 30
0.0
 10
21.9102309469
 20
11.3241428627
 30
0.0
  0
SPLINE
  5
4C7
100
AcDbEntity
  8
0
100
AcDbSpline
 62
9
  6
CONTINUOUS
 70
0
 71
3
 72
24
 73
20
 74
0
 42
0.0000001
 43
0.0000001
 44
0.0000000001
 40
0.0
 40
0.0
 40
0.0
 40
0.0
 40
0.0180874647
 40
0.0367329284
 40
0.0561307966
 40
0.0764295481
 40
0.1200972469
 40
0.16824942
 40
0.2209833257
 40
0.2781584373
 40
0.3083273879
 40
0.3394885759
 40
0.4045764542
 40
0.4729751668
 40
0.5441897403
 40
0.6176951305
 40
0.6929449686
 40
0.8464170372
 40
1.0
 40
1.0
 40
1.0
 40
1.0
 10
22.6265023636
 20
7.6480303728
 30
0.0
 10
22.6249853257
 20
7.6507069322
 30
0.0
 10
22.6215556469
 20
7.6559513035
 30
0.0
 10
22.6154305771
 20
7.6632985319
 30
0.0
 10
22.6083094605
 20
7.6702333439
 30
0.0
 10
22.5972739247
 20
7.6791636534
 30
0.0
 10
22.581032832
 20
7.6892953114
 30
0.0
 10
22.5587231804
 20
7.6997268368
 30
0.0
 10
22.5334019829
 20
7.7088506467
 30
0.0
 10
22.5104569793
 20
7.7153300804
 30
0.0
 10
22.4908493999
 20
7.7200114204
 30
0.0
 10
22.4698143398
 20
7.7244830268
 30
0.0
 10
22.4422327538
 20
7.7293858681
 30
0.0
 10
22.4077526818
 20
7.7342682347
 30
0.0
 10
22.3717257525
 20
7.738323654
 30
0.0
 10
22.3344550848
 20
7.7416456604
 30
0.0
 10
22.283171412
 20
7.7452431386
 30
0.0
 10
22.2182086973
 20
7.7483188827
 30
0.0
 10
22.1660014227
 20
7.749843044
 30
0.0
 10
22.1398859587
 20
7.7504979094
 30
0.0
  0
SPLINE
  5
4C8
100
AcDbEntity
  8
0
100
AcDbSpline
 62
7
  6
CONTINUOUS
 70
0
 71
3
 72
23
 73
19
 74
0
 42
0.0000001
 43
0.0000001
 44
0.0000000001
 40
0.0
 40
0.0
 40
0.0
 40
0.0
 40
0.023010964
 40
0.04608301
 40
0.0929975571
 40
0.1418277892
 40
0.1932504367
 40
0.2476360797
 40
0.3051173258
 40
0.3656515337
 40
0.4290703394
 40
0.4951161996
 40
0.5634686859
 40
0.6337633971
 40
0.7056057986
 40
0.7785816818
 40
0.8522654588
 40
1.0
 40
1.0
 40
1.0
 40
1.0
 10
22.5356622504
 20
7.8813335394
 30
0.0
 10
22.5349863754
 20
7.8848137215
 30
0.0
 10
22.5332935376
 20
7.8917224165
 30
0.0
 10
22.5285826357
 20
7.9052716581
 30
0.0
 10
22.5202255899
 20
7.9216704464
 30
0.0
 10
22.5067868909
 20
7.9400309916
 30
0.0
 10
22.490179359
 20
7.9572015669
 30
0.0
 10
22.4706795213
 20
7.9731708657
 30
0.0
 10
22.4485502406
 20
7.9879259403
 30
0.0
 10
22.4240505289
 20
8.0014426595
 30
0.0
 10
22.3974391829
 20
8.0136913689
 30
0.0
 10
22.3689762451
 20
8.0246384973
 30
0.0
 10
22.3389232196
 20
8.0342484318
 30
0.0
 10
22.3075426888
 20
8.0424844968
 30
0.0
 10
22.2750987309
 20
8.0493093048
 30
0.0
 10
22.2418538738
 20
8.0546859519
 30
0.0
 10
22.1967856661
 20
8.0598751582
 30
0.0
 10
22.1626468108
 20
8.0614809119
 30
0.0
 10
22.1398859587
 20
8.0614809119
 30
0.0
  0
SPLINE
  5
4C9
100
AcDbEntity
  8
0
100
AcDbSpline
 62
9
  6
CONTINUOUS
 70
0
 71
3
 72
23
 73
19
 74
0
 42
0.0000001
 43
0.0000001
 44
0.0000000001
 40
0.0
 40
0.0
 40
0.0
 40
0.0
 40
0.0200069752
 40
0.0403450957
 40
0.0826817272
 40
0.1281479021
 40
0.1773432917
 40
0.2305059797
 40
0.2876233719
 40
0.3485139053
 40
0.4128821868
 40
0.4803551593
 40
0.550505804
 40
0.6228688639
 40
0.6969514639
 40
0.7722404318
 40
0.8482074582
 40
1.0
 40
1.0
 40
1.0
 40
1.0
 10
22.5749121566
 20
7.7539448714
 30
0.0
 10
22.5737228064
 20
7.7568512268
 30
0.0
 10
22.5709897122
 20
7.7625807565
 30
0.0
 10
22.5641750137
 20
7.7736487233
 30
0.0
 10
22.5531400579
 20
7.7866834466
 30
0.0
 10
22.5367128603
 20
7.8006684735
 30
0.0
 10
22.517208554
 20
7.8133316407
 30
0.0
 10
22.4948932663
 20
7.8247476513
 30
0.0
 10
22.4700252906
 20
7.8349815606
 30
0.0
 10
22.4428670399
 20
7.8440844135
 30
0.0
 10
22.4136846236
 20
7.8521027432
 30
0.0
 10
22.3827475407
 20
7.8590804248
 30
0.0
 10
22.350327622
 20
7.865060458
 30
0.0
 10
22.3166982832
 20
7.8700855633
 30
0.0
 10
22.2821341137
 20
7.8741983798
 30
0.0
 10
22.2469100319
 20
7.8774420315
 30
0.0
 10
22.1994495398
 20
7.8806628154
 30
0.0
 10
22.1637085244
 20
7.8819088297
 30
0.0
 10
22.1398859587
 20
7.8822738718
 30
0.0
  0
SPLINE
  5
4CA
100
AcDbEntity
  8
0
100
AcDbSpline
 62
9
  6
CONTINUOUS
 70
0
 71
3
 72
23
 73
19
 74
0
 42
0.0000001
 43
0.0000001
 44
0.0000000001
 40
0.0
 40
0.0
 40
0.0
 40
0.0
 40
0.0200069752
 40
0.0403450957
 40
0.0826817272
 40
0.1281479021
 40
0.1773432917
 40
0.2305059797
 40
0.2876233719
 40
0.3485139053
 40
0.4128821868
 40
0.4803551593
 40
0.550505804
 40
0.6228688639
 40
0.6969514638
 40
0.7722404318
 40
0.8482074582
 40
1.0
 40
1.0
 40
1.0
 40
1.0
 10
21.7048597607
 20
7.7539448714
 30
0.0
 10
21.7060491109
 20
7.7568512268
 30
0.0
 10
21.7087822051
 20
7.7625807565
 30
0.0
 10
21.7155969036
 20
7.7736487233
 30
0.0
 10
21.7266318594
 20
7.7866834466
 30
0.0
 10
21.743059057
 20
7.8006684735
 30
0.0
 10
21.7625633633
 20
7.8133316406
 30
0.0
 10
21.784878651
 20
7.8247476512
 30
0.0
 10
21.8097466267
 20
7.8349815606
 30
0.0
 10
21.8369048774
 20
7.8440844135
 30
0.0
 10
21.8660872937
 20
7.8521027432
 30
0.0
 10
21.8970243766
 20
7.8590804248
 30
0.0
 10
21.9294442953
 20
7.865060458
 30
0.0
 10
21.9630736341
 20
7.8700855633
 30
0.0
 10
21.9976378036
 20
7.8741983798
 30
0.0
 10
22.0328618854
 20
7.8774420315
 30
0.0
 10
22.0803223775
 20
7.8806628154
 30
0.0
 10
22.1160633929
 20
7.8819088297
 30
0.0
 10
22.1398859587
 20
7.8822738718
 30
0.0
  0
SPLINE
  5
4CB
100
AcDbEntity
  8
0
100
AcDbSpline
 62
7
  6
CONTINUOUS
 70
0
 71
3
 72
23
 73
19
 74
0
 42
0.0000001
 43
0.0000001
 44
0.0000000001
 40
0.0
 40
0.0
 40
0.0
 40
0.0
 40
0.0230109641
 40
0.0460830101
 40
0.0929975571
 40
0.1418277891
 40
0.1932504366
 40
0.2476360794
 40
0.3051173254
 40
0.3656515333
 40
0.4290703389
 40
0.4951161991
 40
0.5634686854
 40
0.6337633965
 40
0.7056057981
 40
0.7785816814
 40
0.8522654585
 40
1.0
 40
1.0
 40
1.0
 40
1.0
 10
21.7441096668
 20
7.8813335391
 30
0.0
 10
21.7447855418
 20
7.8848137212
 30
0.0
 10
21.7464783795
 20
7.8917224162
 30
0.0
 10
21.7511892813
 20
7.9052716579
 30
0.0
 10
21.7595463269
 20
7.9216704463
 30
0.0
 10
21.7729850257
 20
7.9400309917
 30
0.0
 10
21.7895925575
 20
7.9572015671
 30
0.0
 10
21.8090923951
 20
7.9731708661
 30
0.0
 10
21.8312216758
 20
7.9879259408
 30
0.0
 10
21.8557213875
 20
8.00144266
 30
0.0
 10
21.8823327335
 20
8.0136913696
 30
0.0
 10
21.9107956713
 20
8.024638498
 30
0.0
 10
21.9408486969
 20
8.0342484326
 30
0.0
 10
21.9722292278
 20
8.0424844977
 30
0.0
 10
22.0046731858
 20
8.0493093057
 30
0.0
 10
22.0379180431
 20
8.0546859529
 30
0.0
 10
22.082986251
 20
8.0598751592
 30
0.0
 10
22.1171251064
 20
8.0614809128
 30
0.0
 10
22.1398859587
 20
8.0614809128
 30
0.0
  0
SPLINE
  5
4CC
100
AcDbEntity
  8
0
100
AcDbSpline
 62
7
  6
CONTINUOUS
 70
0
 71
3
 72
9
 73
5
 74
0
 42
0.0000001
 43
0.0000001
 44
0.0000000001
 40
0.0
 40
0.0
 40
0.0
 40
0.0
 40
0.253054983
 40
1.0
 40
1.0
 40
1.0
 40
1.0
 10
21.7534631488
 20
7.9541411513
 30
0.0
 10
21.7539149045
 20
7.960839968
 30
0.0
 10
21.7552473951
 20
7.9873394038
 30
0.0
 10
21.7547203947
 20
8.0139397171
 30
0.0
 10
21.7531809111
 20
8.0336977103
 30
0.0
  0
SPLINE
  5
4CD
100
AcDbEntity
  8
0
100
AcDbSpline
 62
7
  6
CONTINUOUS
 70
0
 71
3
 72
9
 73
5
 74
0
 42
0.0000001
 43
0.0000001
 44
0.0000000001
 40
0.0
 40
0.0
 40
0.0
 40
0.0
 40
0.2530517259
 40
1.0
 40
1.0
 40
1.0
 40
1.0
 10
22.526308946
 20
7.9541408879
 30
0.0
 10
22.5258570818
 20
7.9608394165
 30
0.0
 10
22.5245241486
 20
7.9873380728
 30
0.0
 10
22.5250516232
 20
8.0139376147
 30
0.0
 10
22.5265909249
 20
8.0336951353
 30
0.0
  0
SPLINE
  5
4CE
100
AcDbEntity
  8
0
100
AcDbSpline
 62
9
  6
CONTINUOUS
 70
0
 71
3
 72
16
 73
12
 74
0
 42
0.0000001
 43
0.0000001
 44
0.0000000001
 40
0.0
 40
0.0
 40
0.0
 40
0.0
 40
0.1220236863
 40
0.2449815002
 40
0.3688481817
 40
0.4933084994
 40
0.6182875816
 40
0.6811381127
 40
0.7443129621
 40
0.8716785135
 40
1.0
 40
1.0
 40
1.0
 40
1.0
 10
23.1048977428
 20
6.7170849637
 30
0.0
 10
23.1048978832
 20
6.7427126307
 30
0.0
 10
23.1027232562
 20
6.7941890722
 30
0.0
 10
23.0930406844
 20
6.8711322527
 30
0.0
 10
23.0769448749
 20
6.9475222948
 30
0.0
 10
23.0545555641
 20
7.0227479271
 30
0.0
 10
23.0308051353
 20
7.0839656742
 30
0.0
 10
23.0088601854
 20
7.1319100319
 30
0.0
 10
22.9848043556
 20
7.1793945989
 30
0.0
 10
22.9510174923
 20
7.2372973889
 30
0.0
 10
22.9203924667
 20
7.2814835993
 30
0.0
 10
22.9042027942
 20
7.3030292612
 30
0.0
  0
SPLINE
  5
4CF
100
AcDbEntity
  8
0
100
AcDbSpline
 62
9
  6
CONTINUOUS
 70
0
 71
3
 72
35
 73
31
 74
0
 42
0.0000001
 43
0.0000001
 44
0.0000000001
 40
0.0
 40
0.0
 40
0.0
 40
0.0
 40
0.0326459661
 40
0.0489663565
 40
0.0652797491
 40
0.0815853964
 40
0.0978843404
 40
0.1304568511
 40
0.1629784537
 40
0.1954350393
 40
0.227820501
 40
0.2601208097
 40
0.3244049595
 40
0.3882498382
 40
0.4515979132
 40
0.5144044623
 40
0.57665557
 40
0.6383680296
 40
0.6995757575
 40
0.7299974769
 40
0.7602849497
 40
0.7904544672
 40
0.8205545252
 40
0.8355976885
 40
0.8506450179
 40
0.8807379796
 40
0.9107760415
 40
0.9406825993
 40
0.9704200726
 40
1.0
 40
1.0
 40
1.0
 40
1.0
 10
22.1398857507
 20
5.8363066501
 30
0.0
 10
22.1556647103
 20
5.8363751713
 30
0.0
 10
22.179333188
 20
5.836980657
 30
0.0
 10
22.210838218
 20
5.8387311077
 30
0.0
 10
22.2344264594
 20
5.8405241989
 30
0.0
 10
22.2579588083
 20
5.8428423081
 30
0.0
 10
22.2892281153
 20
5.8466930887
 30
0.0
 10
22.3280887294
 20
5.852914604
 30
0.0
 10
22.3742931599
 20
5.8623816142
 30
0.0
 10
22.4199467046
 20
5.8738661505
 30
0.0
 10
22.464922484
 20
5.887407908
 30
0.0
 10
22.5237447105
 20
5.9080945402
 30
0.0
 10
22.5950626997
 20
5.9388425816
 30
0.0
 10
22.6763623528
 20
5.9833395551
 30
0.0
 10
22.7525749596
 20
6.0348216938
 30
0.0
 10
22.8229121855
 20
6.0928859147
 30
0.0
 10
22.8866626613
 20
6.1570120479
 30
0.0
 10
22.943200628
 20
6.2265840853
 30
0.0
 10
22.9839736603
 20
6.2886441863
 30
0.0
 10
23.0124783122
 20
6.3402425886
 30
0.0
 10
23.0317350486
 20
6.3797445431
 30
0.0
 10
23.0488483494
 20
6.420051608
 30
0.0
 10
23.0612552019
 20
6.4542948225
 30
0.0
 10
23.0700226169
 20
6.4820382665
 30
0.0
 10
23.078005046
 20
6.5100141792
 30
0.0
 10
23.0865201423
 20
6.5453590664
 30
0.0
 10
23.0944758516
 20
6.5881632583
 30
0.0
 10
23.1002467256
 20
6.6311427725
 30
0.0
 10
23.1038514418
 20
6.6741346406
 30
0.0
 10
23.1047894095
 20
6.7028047798
 30
0.0
 10
23.1048859583
 20
6.7171016224
 30
0.0
  0
SPLINE
  5
4D0
100
AcDbEntity
  8
0
100
AcDbSpline
 62
9
  6
CONTINUOUS
 70
0
 71
3
 72
12
 73
8
 74
0
 42
0.0000001
 43
0.0000001
 44
0.0000000001
 40
0.0
 40
0.0
 40
0.0
 40
0.0
 40
0.2686060298
 40
0.5214947269
 40
0.7633638227
 40
0.8819886421
 40
1.0
 40
1.0
 40
1.0
 40
1.0
 10
23.1048859583
 20
6.7171016224
 30
0.0
 10
23.1097688206
 20
6.7102279087
 30
0.0
 10
23.118435197
 20
6.6962693795
 30
0.0
 10
23.1280140738
 20
6.6742082986
 30
0.0
 10
23.1327406947
 20
6.6554376592
 30
0.0
 10
23.1344610979
 20
6.640500324
 30
0.0
 10
23.1346526228
 20
6.6330627176
 30
0.0
 10
23.1345823942
 20
6.6293590234
 30
0.0
  0
SPLINE
  5
4D1
100
AcDbEntity
  8
0
100
AcDbSpline
 62
9
  6
CONTINUOUS
 70
0
 71
3
 72
12
 73
8
 74
0
 42
0.0000001
 43
0.0000001
 44
0.0000000001
 40
0.0
 40
0.0
 40
0.0
 40
0.0
 40
0.2686238294
 40
0.5215170518
 40
0.7633656431
 40
0.8819875678
 40
1.0
 40
1.0
 40
1.0
 40
1.0
 10
21.1748859593
 20
6.7171015556
 30
0.0
 10
21.1700026326
 20
6.7102271875
 30
0.0
 10
21.1613315718
 20
6.6962706433
 30
0.0
 10
21.1517453199
 20
6.6742111587
 30
0.0
 10
21.1470267059
 20
6.6554380959
 30
0.0
 10
21.1453110533
 20
6.6405006319
 30
0.0
 10
21.1451193795
 20
6.6330629588
 30
0.0
 10
21.1451888907
 20
6.6293591104
 30
0.0
  0
SPLINE
  5
4D2
100
AcDbEntity
  8
0
100
AcDbSpline
 62
9
  6
CONTINUOUS
 70
0
 71
3
 72
22
 73
18
 74
0
 42
0.0000001
 43
0.0000001
 44
0.0000000001
 40
0.0
 40
0.0
 40
0.0
 40
0.0
 40
0.1405017046
 40
0.2101103571
 40
0.2789184118
 40
0.3466863505
 40
0.4132023589
 40
0.4783087013
 40
0.5418856301
 40
0.6038582298
 40
0.6642182313
 40
0.7230106282
 40
0.7803615321
 40
0.8364683675
 40
0.8915709394
 40
0.9459654175
 40
1.0
 40
1.0
 40
1.0
 40
1.0
 10
22.1398859587
 20
8.3810763063
 30
0.0
 10
22.1654857188
 20
8.3810763192
 30
0.0
 10
22.2038557882
 20
8.3782116847
 30
0.0
 10
22.253797505
 20
8.3686207577
 30
0.0
 10
22.2900734074
 20
8.3586981863
 30
0.0
 10
22.3249172634
 20
8.3461225756
 30
0.0
 10
22.3579868612
 20
8.3309761226
 30
0.0
 10
22.3889650256
 20
8.3134111972
 30
0.0
 10
22.4175664326
 20
8.2936090897
 30
0.0
 10
22.4435019606
 20
8.2717376841
 30
0.0
 10
22.4665334798
 20
8.248021864
 30
0.0
 10
22.4864236807
 20
8.2226705724
 30
0.0
 10
22.5029628239
 20
8.1959181776
 30
0.0
 10
22.5160240019
 20
8.168043841
 30
0.0
 10
22.5254771895
 20
8.1393077558
 30
0.0
 10
22.5311778025
 20
8.1099842625
 30
0.0
 10
22.5324481492
 20
8.0902051118
 30
0.0
 10
22.5324481814
 20
8.0803598765
 30
0.0
  0
SPLINE
  5
4D3
100
AcDbEntity
  8
0
100
AcDbSpline
 62
9
  6
CONTINUOUS
 70
0
 71
3
 72
21
 73
17
 74
0
 42
0.0000001
 43
0.0000001
 44
0.0000000001
 40
0.0
 40
0.0
 40
0.0
 40
0.0
 40
0.0533102958
 40
0.1070896375
 40
0.1617373297
 40
0.2175807649
 40
0.2748987889
 40
0.3339361535
 40
0.3948101192
 40
0.4574834848
 40
0.5875321364
 40
0.6546903961
 40
0.7229332676
 40
0.7919544573
 40
0.8614025847
 40
1.0
 40
1.0
 40
1.0
 40
1.0
 10
21.8003551663
 20
9.0773711865
 30
0.0
 10
21.8003561225
 20
9.0794928783
 30
0.0
 10
21.800675887
 20
9.0837609947
 30
0.0
 10
21.8020760394
 20
9.0900645087
 30
0.0
 10
21.8043656574
 20
9.0962099136
 30
0.0
 10
21.8075143468
 20
9.1021209248
 30
0.0
 10
21.8114914363
 20
9.1077247058
 30
0.0
 10
21.8162667648
 20
9.1129387995
 30
0.0
 10
21.8217684656
 20
9.1177093396
 30
0.0
 10
21.8300618549
 20
9.1234864274
 30
0.0
 10
21.8394080663
 20
9.1280922943
 30
0.0
 10
21.8494476203
 20
9.1314145169
 30
0.0
 10
21.8573831739
 20
9.1332595661
 30
0.0
 10
21.8655373282
 20
9.134427834
 30
0.0
 10
21.876553568
 20
9.135071636
 30
0.0
 10
21.8848685585
 20
9.1345194722
 30
0.0
 10
21.8903186889
 20
9.1336693941
 30
0.0
  0
SPLINE
  5
4D4
100
AcDbEntity
  8
0
100
AcDbSpline
 62
9
  6
CONTINUOUS
 70
0
 71
3
 72
21
 73
17
 74
0
 42
0.0000001
 43
0.0000001
 44
0.0000000001
 40
0.0
 40
0.0
 40
0.0
 40
0.0
 40
0.0533102958
 40
0.1070896375
 40
0.1617373297
 40
0.217580765
 40
0.2748987889
 40
0.3339361535
 40
0.3948101192
 40
0.4574834848
 40
0.5875321364
 40
0.6546903961
 40
0.7229332676
 40
0.7919544573
 40
0.8614025847
 40
1.0
 40
1.0
 40
1.0
 40
1.0
 10
21.8003551663
 20
11.1985702984
 30
0.0
 10
21.8003561225
 20
11.2006919902
 30
0.0
 10
21.800675887
 20
11.2049601067
 30
0.0
 10
21.8020760394
 20
11.2112636207
 30
0.0
 10
21.8043656574
 20
11.2174090255
 30
0.0
 10
21.8075143468
 20
11.2233200368
 30
0.0
 10
21.8114914363
 20
11.2289238177
 30
0.0
 10
21.8162667648
 20
11.2341379115
 30
0.0
 10
21.8217684656
 20
11.2389084515
 30
0.0
 10
21.8300618549
 20
11.2446855393
 30
0.0
 10
21.8394080663
 20
11.2492914063
 30
0.0
 10
21.8494476203
 20
11.2526136288
 30
0.0
 10
21.8573831739
 20
11.254458678
 30
0.0
 10
21.8655373282
 20
11.255626946
 30
0.0
 10
21.876553568
 20
11.256270748
 30
0.0
 10
21.8848685585
 20
11.2557185841
 30
0.0
 10
21.8903186889
 20
11.2548685061
 30
0.0
  0
SPLINE
  5
4D5
100
AcDbEntity
  8
0
100
AcDbSpline
 62
9
  6
CONTINUOUS
 70
0
 71
3
 72
10
 73
6
 74
0
 42
0.0000001
 43
0.0000001
 44
0.0000000001
 40
0.0
 40
0.0
 40
0.0
 40
0.0
 40
0.2483781355
 40
0.4993025746
 40
1.0
 40
1.0
 40
1.0
 40
1.0
 10
22.1398859587
 20
7.4891574694
 30
0.0
 10
22.1224310114
 20
7.4891574694
 30
0.0
 10
22.087341916
 20
7.4894684503
 30
0.0
 10
22.0170813471
 20
7.490978941
 30
0.0
 10
21.9642896203
 20
7.4927631471
 30
0.0
 10
21.9291226239
 20
7.4939453542
 30
0.0
  0
SPLINE
  5
4D6
100
AcDbEntity
  8
0
100
AcDbSpline
 62
7
  6
CONTINUOUS
 70
0
 71
3
 72
14
 73
10
 74
0
 42
0.0000001
 43
0.0000001
 44
0.0000000001
 40
0.0
 40
0.0
 40
0.0
 40
0.0
 40
0.277617391
 40
0.4115292786
 40
0.541083337
 40
0.6654748921
 40
0.7839196429
 40
0.8956639025
 40
1.0
 40
1.0
 40
1.0
 40
1.0
 10
21.9291226239
 20
7.4939453542
 30
0.0
 10
21.9015002868
 20
7.4948739328
 30
0.0
 10
21.8605534873
 20
7.4962491257
 30
0.0
 10
21.8067019603
 20
7.4975642469
 30
0.0
 10
21.7680925858
 20
7.4981374883
 30
0.0
 10
21.7310181724
 20
7.498185968
 30
0.0
 10
21.6957206025
 20
7.4975855177
 30
0.0
 10
21.6624419255
 20
7.4962126697
 30
0.0
 10
21.6409815547
 20
7.4946441029
 30
0.0
 10
21.6306409781
 20
7.4936622842
 30
0.0
  0
SPLINE
  5
4D7
100
AcDbEntity
  8
0
100
AcDbSpline
 62
7
  6
CONTINUOUS
 70
0
 71
3
 72
11
 73
7
 74
0
 42
0.0000001
 43
0.0000001
 44
0.0000000001
 40
0.0
 40
0.0
 40
0.0
 40
0.0
 40
0.2730832444
 40
0.531106002
 40
0.7735387487
 40
1.0
 40
1.0
 40
1.0
 40
1.0
 10
21.6306410031
 20
7.4936623297
 30
0.0
 10
21.624421372
 20
7.4930717869
 30
0.0
 10
21.6123392656
 20
7.4917642102
 30
0.0
 10
21.5948119717
 20
7.4892923246
 30
0.0
 10
21.5784426938
 20
7.4863311337
 30
0.0
 10
21.5679824066
 20
7.4839257126
 30
0.0
 10
21.5629700462
 20
7.482614664
 30
0.0
  0
SPLINE
  5
4D8
100
AcDbEntity
  8
0
100
AcDbSpline
 62
7
  6
CONTINUOUS
 70
0
 71
3
 72
10
 73
6
 74
0
 42
0.0000001
 43
0.0000001
 44
0.0000000001
 40
0.0
 40
0.0
 40
0.0
 40
0.0
 40
0.2874962754
 40
0.5485340719
 40
1.0
 40
1.0
 40
1.0
 40
1.0
 10
21.5537771902
 20
7.4800162179
 30
0.0
 10
21.548701263
 20
7.478466279
 30
0.0
 10
21.5391090632
 20
7.4751479253
 30
0.0
 10
21.5223452327
 20
7.4674459748
 30
0.0
 10
21.5113204347
 20
7.4597239912
 30
0.0
 10
21.5056664255
 20
7.4536009487
 30
0.0
  0
SPLINE
  5
4D9
100
AcDbEntity
  8
0
100
AcDbSpline
 62
9
  6
CONTINUOUS
 70
0
 71
3
 72
18
 73
14
 74
0
 42
0.0000001
 43
0.0000001
 44
0.0000000001
 40
0.0
 40
0.0
 40
0.0
 40
0.0
 40
0.1341367844
 40
0.2693948859
 40
0.4039013629
 40
0.4702839826
 40
0.5357723597
 40
0.6631308066
 40
0.7841296317
 40
0.8416829385
 40
0.8969820158
 40
0.9498196443
 40
1.0
 40
1.0
 40
1.0
 40
1.0
 10
22.1398859587
 20
7.4528062692
 30
0.0
 10
22.1159626115
 20
7.4529817094
 30
0.0
 10
22.0679189818
 20
7.453764551
 30
0.0
 10
21.995906816
 20
7.4557026142
 30
0.0
 10
21.9359821305
 20
7.4575649478
 30
0.0
 10
21.8884927546
 20
7.4589592179
 30
0.0
 10
21.8422740052
 20
7.4601838625
 30
0.0
 10
21.7863077146
 20
7.461284542
 30
0.0
 10
21.7317418662
 20
7.4614267495
 30
0.0
 10
21.6900387131
 20
7.4606630587
 30
0.0
 10
21.6605037376
 20
7.4596169773
 30
0.0
 10
21.6323095609
 20
7.4580281988
 30
0.0
 10
21.6139942614
 20
7.4565259926
 30
0.0
 10
21.605087231
 20
7.4556507822
 30
0.0
  0
SPLINE
  5
4DA
100
AcDbEntity
  8
0
100
AcDbSpline
 62
9
  6
CONTINUOUS
 70
0
 71
3
 72
10
 73
6
 74
0
 42
0.0000001
 43
0.0000001
 44
0.0000000001
 40
0.0
 40
0.0
 40
0.0
 40
0.0
 40
0.2483781355
 40
0.4993025746
 40
1.0
 40
1.0
 40
1.0
 40
1.0
 10
22.1398859587
 20
7.4891574694
 30
0.0
 10
22.1573409059
 20
7.4891574694
 30
0.0
 10
22.1924300013
 20
7.4894684503
 30
0.0
 10
22.2626905702
 20
7.490978941
 30
0.0
 10
22.315482297
 20
7.4927631471
 30
0.0
 10
22.3506492935
 20
7.4939453542
 30
0.0
  0
SPLINE
  5
4DB
100
AcDbEntity
  8
0
100
AcDbSpline
 62
7
  6
CONTINUOUS
 70
0
 71
3
 72
14
 73
10
 74
0
 42
0.0000001
 43
0.0000001
 44
0.0000000001
 40
0.0
 40
0.0
 40
0.0
 40
0.0
 40
0.2776182263
 40
0.4115303956
 40
0.5410846042
 40
0.6654761488
 40
0.7839207007
 40
0.8956645482
 40
1.0
 40
1.0
 40
1.0
 40
1.0
 10
22.3506492935
 20
7.4939453542
 30
0.0
 10
22.3782720946
 20
7.4948739484
 30
0.0
 10
22.4192195703
 20
7.4962491643
 30
0.0
 10
22.4730719667
 20
7.4975642897
 30
0.0
 10
22.5116819163
 20
7.4981375138
 30
0.0
 10
22.5487568354
 20
7.49818595
 30
0.0
 10
22.5840548295
 20
7.4975854235
 30
0.0
 10
22.6173338367
 20
7.4962124605
 30
0.0
 10
22.6387943919
 20
7.494643781
 30
0.0
 10
22.6491350414
 20
7.4936618947
 30
0.0
  0
LINE
  5
4DC
100
AcDbEntity
  8
0
100
AcDbLine
 62
9
  6
CONTINUOUS
 10
22.6491350414
 20
7.4936618947
 11
22.6746846863
 21
7.4556507822
  0
SPLINE
  5
4DD
100
AcDbEntity
  8
0
100
AcDbSpline
 62
9
  6
CONTINUOUS
 70
0
 71
3
 72
11
 73
7
 74
0
 42
0.0000001
 43
0.0000001
 44
0.0000000001
 40
0.0
 40
0.0
 40
0.0
 40
0.0
 40
0.2350130775
 40
0.4767871501
 40
0.7309379631
 40
1.0
 40
1.0
 40
1.0
 40
1.0
 10
21.65317792
 20
8.872263003
 30
0.0
 10
21.6531872647
 20
8.876333518
 30
0.0
 10
21.6543597336
 20
8.8846287204
 30
0.0
 10
21.6594423398
 20
8.8963775049
 30
0.0
 10
21.6676705279
 20
8.9069189486
 30
0.0
 10
21.6747136129
 20
8.9127365424
 30
0.0
 10
21.678571809
 20
8.9153504325
 30
0.0
  0
SPLINE
  5
4DE
100
AcDbEntity
  8
0
100
AcDbSpline
 62
7
  6
CONTINUOUS
 70
0
 71
3
 72
11
 73
7
 74
0
 42
0.0000001
 43
0.0000001
 44
0.0000000001
 40
0.0
 40
0.0
 40
0.0
 40
0.0
 40
0.2730822617
 40
0.5311046484
 40
0.7735377054
 40
1.0
 40
1.0
 40
1.0
 40
1.0
 10
22.6491350127
 20
7.4936619374
 30
0.0
 10
22.6553542445
 20
7.4930713964
 30
0.0
 10
22.6674355872
 20
7.4917638342
 30
0.0
 10
22.6849617927
 20
7.489292016
 30
0.0
 10
22.701330099
 20
7.4863309409
 30
0.0
 10
22.7117897839
 20
7.4839256412
 30
0.0
 10
22.7168018664
 20
7.4826146656
 30
0.0
  0
SPLINE
  5
4DF
100
AcDbEntity
  8
0
100
AcDbSpline
 62
7
  6
CONTINUOUS
 70
0
 71
3
 72
10
 73
6
 74
0
 42
0.0000001
 43
0.0000001
 44
0.0000000001
 40
0.0
 40
0.0
 40
0.0
 40
0.0
 40
0.2874962765
 40
0.5485340731
 40
1.0
 40
1.0
 40
1.0
 40
1.0
 10
22.7259947292
 20
7.480016218
 30
0.0
 10
22.7310706554
 20
7.4784662796
 30
0.0
 10
22.7406628535
 20
7.4751479268
 30
0.0
 10
22.7574266808
 20
7.4674459783
 30
0.0
 10
22.7684514769
 20
7.4597239965
 30
0.0
 10
22.774105485
 20
7.4536009553
 30
0.0
  0
SPLINE
  5
4E0
100
AcDbEntity
  8
0
100
AcDbSpline
 62
9
  6
CONTINUOUS
 70
0
 71
3
 72
15
 73
11
 74
0
 42
0.0000001
 43
0.0000001
 44
0.0000000001
 40
0.0
 40
0.0
 40
0.0
 40
0.0
 40
0.0916845333
 40
0.1924814641
 40
0.3030933625
 40
0.4237283818
 40
0.5542639141
 40
0.6942693958
 40
0.8431222868
 40
1.0
 40
1.0
 40
1.0
 40
1.0
 10
23.1048859574
 20
6.7171301165
 30
0.0
 10
23.0998927178
 20
6.7241588348
 30
0.0
 10
23.0881309743
 20
6.7380247115
 30
0.0
 10
23.0668775764
 20
6.7571131614
 30
0.0
 10
23.0414111143
 20
6.7752773024
 30
0.0
 10
23.0119567328
 20
6.7923848626
 30
0.0
 10
22.9787514039
 20
6.8082908334
 30
0.0
 10
22.9420788864
 20
6.8228738753
 30
0.0
 10
22.9022481389
 20
6.8359989662
 30
0.0
 10
22.8744860103
 20
6.8435272365
 30
0.0
 10
22.8601596818
 20
6.8470471406
 30
0.0
  0
SPLINE
  5
4E1
100
AcDbEntity
  8
0
100
AcDbSpline
 62
9
  6
CONTINUOUS
 70
0
 71
3
 72
37
 73
33
 74
0
 42
0.0000001
 43
0.0000001
 44
0.0000000001
 40
0.0
 40
0.0
 40
0.0
 40
0.0
 40
0.032644784
 40
0.0489646669
 40
0.0652776461
 40
0.0815829113
 40
0.0978814883
 40
0.1304530875
 40
0.1629732252
 40
0.1954277532
 40
0.2278108171
 40
0.260109468
 40
0.3243933593
 40
0.3882382836
 40
0.4515809822
 40
0.51438288
 40
0.576634214
 40
0.6075666951
 40
0.6383675619
 40
0.6690407876
 40
0.6995881003
 40
0.7300069123
 40
0.7602935459
 40
0.7904633229
 40
0.820563498
 40
0.8356066008
 40
0.8506539052
 40
0.8807467757
 40
0.910783665
 40
0.9406866783
 40
0.9704200867
 40
1.0
 40
1.0
 40
1.0
 40
1.0
 10
22.1398859587
 20
5.8363066505
 30
0.0
 10
22.1241065081
 20
5.8363750609
 30
0.0
 10
22.1004372614
 20
5.8369766876
 30
0.0
 10
22.0689306016
 20
5.8387176338
 30
0.0
 10
22.0453407511
 20
5.8405020961
 30
0.0
 10
22.0218064862
 20
5.8428112846
 30
0.0
 10
21.9905345384
 20
5.846651437
 30
0.0
 10
21.9516712103
 20
5.8528656626
 30
0.0
 10
21.9054673542
 20
5.8623417029
 30
0.0
 10
21.8598178909
 20
5.8738439941
 30
0.0
 10
21.814847285
 20
5.8874033334
 30
0.0
 10
21.7560265727
 20
5.9080997305
 30
0.0
 10
21.6846946623
 20
5.9388228322
 30
0.0
 10
21.6033709029
 20
5.9832865787
 30
0.0
 10
21.5271802109
 20
6.0348078426
 30
0.0
 10
21.4568609432
 20
6.0928877902
 30
0.0
 10
21.4035938871
 20
6.1464413471
 30
0.0
 10
21.364624075
 20
6.1919996638
 30
0.0
 10
21.3373210312
 20
6.2273755169
 30
0.0
 10
21.3119638848
 20
6.263943962
 30
0.0
 10
21.2886067741
 20
6.3016041577
 30
0.0
 10
21.2672879072
 20
6.3402407762
 30
0.0
 10
21.2480386153
 20
6.3797464059
 30
0.0
 10
21.2309125643
 20
6.4200509678
 30
0.0
 10
21.2184895164
 20
6.4542910169
 30
0.0
 10
21.2097105966
 20
6.4820329255
 30
0.0
 10
21.20171974
 20
6.5100084089
 30
0.0
 10
21.1932009515
 20
6.5453544551
 30
0.0
 10
21.1852504104
 20
6.5881603861
 30
0.0
 10
21.1794946743
 20
6.6311407333
 30
0.0
 10
21.1759100329
 20
6.6741335054
 30
0.0
 10
21.1749810723
 20
6.7028037155
 30
0.0
 10
21.1748859593
 20
6.7171015231
 30
0.0
  0
SPLINE
  5
4E2
100
AcDbEntity
  8
0
100
AcDbSpline
 62
9
  6
CONTINUOUS
 70
0
 71
3
 72
15
 73
11
 74
0
 42
0.0000001
 43
0.0000001
 44
0.0000000001
 40
0.0
 40
0.0
 40
0.0
 40
0.0
 40
0.0917117226
 40
0.1925436085
 40
0.3031288002
 40
0.4237221082
 40
0.5542723959
 40
0.6943068377
 40
0.8431427904
 40
1.0
 40
1.0
 40
1.0
 40
1.0
 10
21.1748859597
 20
6.7171282288
 30
0.0
 10
21.1798805309
 20
6.7241589886
 30
0.0
 10
21.1916562886
 20
6.7380212716
 30
0.0
 10
21.2129199918
 20
6.7571008681
 30
0.0
 10
21.2383736122
 20
6.7752758499
 30
0.0
 10
21.2678178644
 20
6.7923911834
 30
0.0
 10
21.3010285837
 20
6.8082859349
 30
0.0
 10
21.3377059589
 20
6.8228609487
 30
0.0
 10
21.3775313156
 20
6.8359971387
 30
0.0
 10
21.4052880953
 20
6.8435308702
 30
0.0
 10
21.419612285
 20
6.8470505279
 30
0.0
  0
SPLINE
  5
4E3
100
AcDbEntity
  8
0
100
AcDbSpline
 62
9
  6
CONTINUOUS
 70
0
 71
3
 72
22
 73
18
 74
0
 42
0.0000001
 43
0.0000001
 44
0.0000000001
 40
0.0
 40
0.0
 40
0.0
 40
0.0
 40
0.0571518127
 40
0.1150863367
 40
0.1738696151
 40
0.2335621489
 40
0.2942384675
 40
0.355912454
 40
0.4185610948
 40
0.4821088865
 40
0.5464331326
 40
0.6113625127
 40
0.6766782521
 40
0.7421434462
 40
0.8074859217
 40
0.8724411267
 40
1.0
 40
1.0
 40
1.0
 40
1.0
 10
21.4196119366
 20
6.8470268573
 30
0.0
 10
21.4195672996
 20
6.8265183292
 30
0.0
 10
21.4216689184
 20
6.7851830041
 30
0.0
 10
21.4314456488
 20
6.7234463037
 30
0.0
 10
21.4480573787
 20
6.6622315584
 30
0.0
 10
21.471553772
 20
6.6022542365
 30
0.0
 10
21.5019516108
 20
6.5442882694
 30
0.0
 10
21.5389254168
 20
6.4890031612
 30
0.0
 10
21.582135531
 20
6.4371010486
 30
0.0
 10
21.6309991538
 20
6.3891251631
 30
0.0
 10
21.6849325162
 20
6.3456247212
 30
0.0
 10
21.7431728676
 20
6.3069426911
 30
0.0
 10
21.8049818447
 20
6.2734122984
 30
0.0
 10
21.8695233102
 20
6.2451534716
 30
0.0
 10
21.9360201151
 20
6.2222645285
 30
0.0
 10
22.0256208719
 20
6.1989109183
 30
0.0
 10
22.0942581293
 20
6.1888231455
 30
0.0
 10
22.1398859587
 20
6.1851715161
 30
0.0
  0
SPLINE
  5
4E4
100
AcDbEntity
  8
0
100
AcDbSpline
 62
9
  6
CONTINUOUS
 70
0
 71
3
 72
16
 73
12
 74
0
 42
0.0000001
 43
0.0000001
 44
0.0000000001
 40
0.0
 40
0.0
 40
0.0
 40
0.0
 40
0.122024844
 40
0.2449834929
 40
0.3688507463
 40
0.4933117006
 40
0.6182908641
 40
0.6811410704
 40
0.7443152922
 40
0.8716795052
 40
1.0
 40
1.0
 40
1.0
 40
1.0
 10
21.1748738437
 20
6.7170844658
 30
0.0
 10
21.1748736462
 20
6.7427062082
 30
0.0
 10
21.1770471306
 20
6.7941706731
 30
0.0
 10
21.1867250048
 20
6.8710961392
 30
0.0
 10
21.2028132002
 20
6.9474689829
 30
0.0
 10
21.225192075
 20
7.0226782594
 30
0.0
 10
21.2489316513
 20
7.0838833224
 30
0.0
 10
21.2708666212
 20
7.131818085
 30
0.0
 10
21.2949114556
 20
7.1792933164
 30
0.0
 10
21.3286831528
 20
7.2371855244
 30
0.0
 10
21.3592947337
 20
7.2813646871
 30
0.0
 10
21.3754774298
 20
7.3029072174
 30
0.0
  0
SPLINE
  5
4E5
100
AcDbEntity
  8
0
100
AcDbSpline
 62
9
  6
CONTINUOUS
 70
0
 71
3
 72
14
 73
10
 74
0
 42
0.0000001
 43
0.0000001
 44
0.0000000001
 40
0.0
 40
0.0
 40
0.0
 40
0.0
 40
0.1229490065
 40
0.2470769787
 40
0.3719678577
 40
0.4970543496
 40
0.6225131637
 40
0.7485155275
 40
1.0
 40
1.0
 40
1.0
 40
1.0
 10
21.6050916399
 20
7.4556512155
 30
0.0
 10
21.5903455873
 20
7.4337011022
 30
0.0
 10
21.5623489663
 20
7.3884664407
 30
0.0
 10
21.525324751
 20
7.3174710908
 30
0.0
 10
21.4934370538
 20
7.2435164901
 30
0.0
 10
21.4670244627
 20
7.1671362256
 30
0.0
 10
21.4461758786
 20
7.0887986614
 30
0.0
 10
21.4260590238
 20
6.9824480354
 30
0.0
 10
21.419788034
 20
6.9011148903
 30
0.0
 10
21.4196119366
 20
6.8470268573
 30
0.0
  0
LINE
  5
4E6
100
AcDbEntity
  8
0
100
AcDbLine
 62
9
  6
CONTINUOUS
 10
21.6306369046
 20
7.4936619374
 11
21.605087231
 21
7.4556507822
  0
SPLINE
  5
4E7
100
AcDbEntity
  8
0
100
AcDbSpline
 62
9
  6
CONTINUOUS
 70
0
 71
3
 72
34
 73
30
 74
0
 42
0.0000001
 43
0.0000001
 44
0.0000000001
 40
0.0
 40
0.0
 40
0.0
 40
0.0
 40
0.0322933075
 40
0.0646017826
 40
0.0968969351
 40
0.1291517812
 40
0.1613664655
 40
0.1935403682
 40
0.2096122526
 40
0.2256754664
 40
0.2577786815
 40
0.2898489239
 40
0.321877762
 40
0.3538520557
 40
0.3857555619
 40
0.4175766481
 40
0.4493093727
 40
0.4809478717
 40
0.5124869359
 40
0.5752562922
 40
0.6064851586
 40
0.6376082806
 40
0.6995031145
 40
0.7302546078
 40
0.7608611358
 40
0.8216201043
 40
0.8817546083
 40
0.9412333519
 40
1.0
 40
1.0
 40
1.0
 40
1.0
 10
22.1398859589
 20
6.9287026828
 30
0.0
 10
22.1328230349
 20
6.9280346342
 30
0.0
 10
22.1186710881
 20
6.9269307174
 30
0.0
 10
22.0974074242
 20
6.9258846355
 30
0.0
 10
22.0761332396
 20
6.9253632799
 30
0.0
 10
22.0548745829
 20
6.9252765265
 30
0.0
 10
22.0336435513
 20
6.9253826486
 30
0.0
 10
22.0159672196
 20
6.9254336108
 30
0.0
 10
22.0018394838
 20
6.925334105
 30
0.0
 10
21.9877288748
 20
6.9250961745
 30
0.0
 10
21.9701100407
 20
6.92452082
 30
0.0
 10
21.9490007846
 20
6.9234735482
 30
0.0
 10
21.9279359657
 20
6.922145532
 30
0.0
 10
21.9069219975
 20
6.9206137596
 30
0.0
 10
21.8859629651
 20
6.9189628945
 30
0.0
 10
21.8650633832
 20
6.9172352966
 30
0.0
 10
21.844228444
 20
6.9154343257
 30
0.0
 10
21.8234609661
 20
6.913573432
 30
0.0
 10
21.7959099132
 20
6.9110217285
 30
0.0
 10
21.7684673796
 20
6.9082699217
 30
0.0
 10
21.7411568215
 20
6.9051505438
 30
0.0
 10
21.7140718215
 20
6.9017635688
 30
0.0
 10
21.6871383402
 20
6.8980232091
 30
0.0
 10
21.6603563239
 20
6.8940358631
 30
0.0
 10
21.633841484
 20
6.8899505499
 30
0.0
 10
21.6009891269
 20
6.8846101599
 30
0.0
 10
21.5619665156
 20
6.8777150504
 30
0.0
 10
21.5234868722
 20
6.870290238
 30
0.0
 10
21.4980561689
 20
6.8649849637
 30
0.0
 10
21.4854379199
 20
6.8622543732
 30
0.0
  0
SPLINE
  5
4E8
100
AcDbEntity
  8
0
100
AcDbSpline
 62
9
  6
CONTINUOUS
 70
0
 71
3
 72
18
 73
14
 74
0
 42
0.0000001
 43
0.0000001
 44
0.0000000001
 40
0.0
 40
0.0
 40
0.0
 40
0.0
 40
0.1341364631
 40
0.2693942485
 40
0.4039004591
 40
0.4702829781
 40
0.5357712835
 40
0.6631296955
 40
0.7841286646
 40
0.8416821224
 40
0.8969814091
 40
0.9498193087
 40
1.0
 40
1.0
 40
1.0
 40
1.0
 10
22.1398859585
 20
7.4528062692
 30
0.0
 10
22.1638090503
 20
7.4529817075
 30
0.0
 10
22.2118521687
 20
7.4537645362
 30
0.0
 10
22.2838635774
 20
7.4557025695
 30
0.0
 10
22.3437876451
 20
7.4575648812
 30
0.0
 10
22.3912765495
 20
7.4589591438
 30
0.0
 10
22.4374948789
 20
7.4601837908
 30
0.0
 10
22.4934607121
 20
7.4612844944
 30
0.0
 10
22.5480261545
 20
7.4614267679
 30
0.0
 10
22.5897290538
 20
7.4606631662
 30
0.0
 10
22.6192639001
 20
7.4596171688
 30
0.0
 10
22.647457994
 20
7.4580284948
 30
0.0
 10
22.6657732565
 20
7.4565263767
 30
0.0
 10
22.6746802774
 20
7.4556512155
 30
0.0
  0
SPLINE
  5
4E9
100
AcDbEntity
  8
0
100
AcDbSpline
 62
9
  6
CONTINUOUS
 70
0
 71
3
 72
14
 73
10
 74
0
 42
0.0000001
 43
0.0000001
 44
0.0000000001
 40
0.0
 40
0.0
 40
0.0
 40
0.0
 40
0.1229490065
 40
0.2470769787
 40
0.3719678577
 40
0.4970543496
 40
0.6225131637
 40
0.7485155275
 40
1.0
 40
1.0
 40
1.0
 40
1.0
 10
22.6746802774
 20
7.4556512155
 30
0.0
 10
22.68942633
 20
7.4337011022
 30
0.0
 10
22.717422951
 20
7.3884664407
 30
0.0
 10
22.7544471663
 20
7.3174710908
 30
0.0
 10
22.7863348635
 20
7.2435164901
 30
0.0
 10
22.8127474546
 20
7.1671362256
 30
0.0
 10
22.8335960387
 20
7.0887986614
 30
0.0
 10
22.8537128935
 20
6.9824480354
 30
0.0
 10
22.8599838833
 20
6.9011148903
 30
0.0
 10
22.8601599807
 20
6.8470268573
 30
0.0
  0
SPLINE
  5
4EA
100
AcDbEntity
  8
0
100
AcDbSpline
 62
9
  6
CONTINUOUS
 70
0
 71
3
 72
22
 73
18
 74
0
 42
0.0000001
 43
0.0000001
 44
0.0000000001
 40
0.0
 40
0.0
 40
0.0
 40
0.0
 40
0.0571518127
 40
0.1150863367
 40
0.1738696151
 40
0.2335621489
 40
0.2942384675
 40
0.355912454
 40
0.4185610948
 40
0.4821088865
 40
0.5464331326
 40
0.6113625127
 40
0.6766782521
 40
0.7421434462
 40
0.8074859217
 40
0.8724411267
 40
1.0
 40
1.0
 40
1.0
 40
1.0
 10
22.8601599807
 20
6.8470268573
 30
0.0
 10
22.8602046177
 20
6.8265183292
 30
0.0
 10
22.858102999
 20
6.7851830041
 30
0.0
 10
22.8483262685
 20
6.7234463037
 30
0.0
 10
22.8317145387
 20
6.6622315584
 30
0.0
 10
22.8082181453
 20
6.6022542365
 30
0.0
 10
22.7778203065
 20
6.5442882694
 30
0.0
 10
22.7408465005
 20
6.4890031612
 30
0.0
 10
22.6976363863
 20
6.4371010486
 30
0.0
 10
22.6487727635
 20
6.3891251631
 30
0.0
 10
22.5948394011
 20
6.3456247212
 30
0.0
 10
22.5365990497
 20
6.3069426911
 30
0.0
 10
22.4747900726
 20
6.2734122984
 30
0.0
 10
22.4102486071
 20
6.2451534717
 30
0.0
 10
22.3437518022
 20
6.2222645285
 30
0.0
 10
22.2541510455
 20
6.1989109183
 30
0.0
 10
22.1855137881
 20
6.1888231455
 30
0.0
 10
22.1398859587
 20
6.1851715161
 30
0.0
  0
SPLINE
  5
4EB
100
AcDbEntity
  8
0
100
AcDbSpline
 62
9
  6
CONTINUOUS
 70
0
 71
3
 72
22
 73
18
 74
0
 42
0.0000001
 43
0.0000001
 44
0.0000000001
 40
0.0
 40
0.0
 40
0.0
 40
0.0
 40
0.056936835
 40
0.1155702686
 40
0.175642112
 40
0.2369096757
 40
0.2991781991
 40
0.3622346174
 40
0.4258828072
 40
0.4899356803
 40
0.5542211721
 40
0.6185816913
 40
0.7468231862
 40
0.8106424665
 40
0.874128668
 40
0.9372410786
 40
1.0
 40
1.0
 40
1.0
 40
1.0
 10
21.4854333223
 20
6.8622572079
 30
0.0
 10
21.4867853017
 20
6.8437313801
 30
0.0
 10
21.4911481371
 20
6.806227136
 30
0.0
 10
21.5026297084
 20
6.7500170771
 30
0.0
 10
21.5194436997
 20
6.6936785742
 30
0.0
 10
21.541756228
 20
6.6379953201
 30
0.0
 10
21.5697050912
 20
6.5838124822
 30
0.0
 10
21.6031041251
 20
6.531879068
 30
0.0
 10
21.6417550316
 20
6.4829781918
 30
0.0
 10
21.685228636
 20
6.4377534003
 30
0.0
 10
21.7331061225
 20
6.3968477371
 30
0.0
 10
21.8018681326
 20
6.3487636197
 30
0.0
 10
21.8772058764
 20
6.3109887232
 30
0.0
 10
21.9564027501
 20
6.2846497204
 30
0.0
 10
22.0170228637
 20
6.2706310642
 30
0.0
 10
22.0783229549
 20
6.2623477762
 30
0.0
 10
22.1194114642
 20
6.2605341551
 30
0.0
 10
22.1398859587
 20
6.260534155
 30
0.0
  0
SPLINE
  5
4EC
100
AcDbEntity
  8
0
100
AcDbSpline
 62
9
  6
CONTINUOUS
 70
0
 71
3
 72
34
 73
30
 74
0
 42
0.0000001
 43
0.0000001
 44
0.0000000001
 40
0.0
 40
0.0
 40
0.0
 40
0.0
 40
0.0322932271
 40
0.0646016543
 40
0.0968967509
 40
0.1291515417
 40
0.1613662168
 40
0.1935401601
 40
0.2096120936
 40
0.2256753822
 40
0.257778757
 40
0.2898491141
 40
0.3218779892
 40
0.3538522311
 40
0.3857556061
 40
0.4175764927
 40
0.4493088724
 40
0.4809467916
 40
0.5124850337
 40
0.5752527367
 40
0.606481153
 40
0.6376042027
 40
0.6994997998
 40
0.7302520399
 40
0.7608595212
 40
0.8216206544
 40
0.881756812
 40
0.9412356577
 40
1.0
 40
1.0
 40
1.0
 40
1.0
 10
22.1398859587
 20
6.9287026782
 30
0.0
 10
22.1469488673
 20
6.9280341681
 30
0.0
 10
22.1611008565
 20
6.9269298411
 30
0.0
 10
22.1823646457
 20
6.9258841916
 30
0.0
 10
22.2036389618
 20
6.9253639256
 30
0.0
 10
22.2248977313
 20
6.9252781671
 30
0.0
 10
22.2461288914
 20
6.9253848123
 30
0.0
 10
22.2638053567
 20
6.9254357151
 30
0.0
 10
22.277933218
 20
6.9253357817
 30
0.0
 10
22.2920439678
 20
6.9250971053
 30
0.0
 10
22.3096629775
 20
6.9245214537
 30
0.0
 10
22.3307724482
 20
6.9234744087
 30
0.0
 10
22.3518374624
 20
6.922146993
 30
0.0
 10
22.3728515867
 20
6.92061593
 30
0.0
 10
22.3938107153
 20
6.9189656187
 30
0.0
 10
22.414710282
 20
6.9172379859
 30
0.0
 10
22.435545076
 20
6.9154366317
 30
0.0
 10
22.4563122584
 20
6.9135752297
 30
0.0
 10
22.4838627235
 20
6.9110225145
 30
0.0
 10
22.5113046549
 20
6.9082693546
 30
0.0
 10
22.5386147853
 20
6.905148899
 30
0.0
 10
22.5656999875
 20
6.9017617191
 30
0.0
 10
22.5926340873
 20
6.8980222918
 30
0.0
 10
22.6194170352
 20
6.8940363381
 30
0.0
 10
22.6459331096
 20
6.889952323
 30
0.0
 10
22.6787869375
 20
6.8846130945
 30
0.0
 10
22.7178108933
 20
6.8777191731
 30
0.0
 10
22.7562908743
 20
6.8702953826
 30
0.0
 10
22.7817210555
 20
6.8649890753
 30
0.0
 10
22.7943385949
 20
6.8622572069
 30
0.0
  0
SPLINE
  5
4ED
100
AcDbEntity
  8
0
100
AcDbSpline
 62
9
  6
CONTINUOUS
 70
0
 71
3
 72
22
 73
18
 74
0
 42
0.0000001
 43
0.0000001
 44
0.0000000001
 40
0.0
 40
0.0
 40
0.0
 40
0.0
 40
0.056936835
 40
0.1155702687
 40
0.175642112
 40
0.2369096758
 40
0.2991781991
 40
0.3622346175
 40
0.4258828073
 40
0.4899356804
 40
0.5542211721
 40
0.6185816914
 40
0.7468231863
 40
0.8106424665
 40
0.8741286681
 40
0.9372410786
 40
1.0
 40
1.0
 40
1.0
 40
1.0
 10
22.7943385949
 20
6.8622572069
 30
0.0
 10
22.7929866155
 20
6.8437313791
 30
0.0
 10
22.7886237801
 20
6.8062271351
 30
0.0
 10
22.7771422087
 20
6.7500170762
 30
0.0
 10
22.7603282173
 20
6.6936785734
 30
0.0
 10
22.738015689
 20
6.6379953193
 30
0.0
 10
22.7100668257
 20
6.5838124815
 30
0.0
 10
22.6766677918
 20
6.5318790674
 30
0.0
 10
22.6380168853
 20
6.4829781914
 30
0.0
 10
22.5945432809
 20
6.4377533999
 30
0.0
 10
22.5466657945
 20
6.3968477368
 30
0.0
 10
22.4779037844
 20
6.3487636195
 30
0.0
 10
22.4025660406
 20
6.3109887231
 30
0.0
 10
22.323369167
 20
6.2846497204
 30
0.0
 10
22.2627490535
 20
6.2706310642
 30
0.0
 10
22.2014489623
 20
6.2623477762
 30
0.0
 10
22.1603604531
 20
6.2605341551
 30
0.0
 10
22.1398859587
 20
6.260534155
 30
0.0
  0
SPLINE
  5
4EE
100
AcDbEntity
  8
0
100
AcDbSpline
 62
9
  6
CONTINUOUS
 70
0
 71
3
 72
12
 73
8
 74
0
 42
0.0000001
 43
0.0000001
 44
0.0000000001
 40
0.0
 40
0.0
 40
0.0
 40
0.0
 40
0.2352102615
 40
0.355746983
 40
0.4787767846
 40
0.7332627044
 40
1.0
 40
1.0
 40
1.0
 40
1.0
 10
21.6539786524
 20
11.0017869406
 30
0.0
 10
21.6546191884
 20
11.005144161
 30
0.0
 10
21.6561679121
 20
11.0101325562
 30
0.0
 10
21.6592702165
 20
11.0163694069
 30
0.0
 10
21.6631670681
 20
11.0224831363
 30
0.0
 10
21.6693683336
 20
11.0295740031
 30
0.0
 10
21.6753100177
 20
11.034335417
 30
0.0
 10
21.678516855
 20
11.0365122772
 30
0.0
  0
SPLINE
  5
4EF
100
AcDbEntity
  8
0
100
AcDbSpline
 62
9
  6
CONTINUOUS
 70
0
 71
3
 72
10
 73
6
 74
0
 42
0.0000001
 43
0.0000001
 44
0.0000000001
 40
0.0
 40
0.0
 40
0.0
 40
0.0
 40
0.4989447355
 40
0.7506750624
 40
1.0
 40
1.0
 40
1.0
 40
1.0
 10
21.9633891293
 20
11.3583344045
 30
0.0
 10
21.9706045961
 20
11.3601389482
 30
0.0
 10
21.9818420912
 20
11.3615433907
 30
0.0
 10
21.9967516276
 20
11.3608573436
 30
0.0
 10
22.0041468287
 20
11.3596617148
 30
0.0
 10
22.0077735741
 20
11.358849181
 30
0.0
  0
SPLINE
  5
4F0
100
AcDbEntity
  8
0
100
AcDbSpline
 62
9
  6
CONTINUOUS
 70
0
 71
3
 72
11
 73
7
 74
0
 42
0.0000001
 43
0.0000001
 44
0.0000000001
 40
0.0
 40
0.0
 40
0.0
 40
0.0
 40
0.2518482109
 40
0.505841781
 40
0.7570227805
 40
1.0
 40
1.0
 40
1.0
 40
1.0
 10
22.048792243
 20
11.3795901757
 30
0.0
 10
22.0542037357
 20
11.3809681732
 30
0.0
 10
22.0653460173
 20
11.3827527928
 30
0.0
 10
22.0822098746
 20
11.3825189001
 30
0.0
 10
22.0985898694
 20
11.3794290407
 30
0.0
 10
22.1088947354
 20
11.375483709
 30
0.0
 10
22.1137048212
 20
11.3730571617
 30
0.0
  0
SPLINE
  5
4F1
100
AcDbEntity
  8
0
100
AcDbSpline
 62
9
  6
CONTINUOUS
 70
0
 71
3
 72
21
 73
17
 74
0
 42
0.0000001
 43
0.0000001
 44
0.0000000001
 40
0.0
 40
0.0
 40
0.0
 40
0.0
 40
0.1405306498
 40
0.210157092
 40
0.2789684356
 40
0.3467320629
 40
0.4132601742
 40
0.478384961
 40
0.5419700103
 40
0.6641546902
 40
0.7229694182
 40
0.780336394
 40
0.8364392546
 40
0.8915459242
 40
0.9459556539
 40
1.0
 40
1.0
 40
1.0
 40
1.0
 10
22.1398853824
 20
8.3810797095
 30
0.0
 10
22.1142845821
 20
8.3810796807
 30
0.0
 10
22.0759160682
 20
8.3781815675
 30
0.0
 10
22.0259674033
 20
8.3686305818
 30
0.0
 10
21.9896882695
 20
8.3587265115
 30
0.0
 10
21.9548606527
 20
8.3461152845
 30
0.0
 10
21.9218004847
 20
8.3309571938
 30
0.0
 10
21.8908097838
 20
8.3134031865
 30
0.0
 10
21.8531836499
 20
8.2873801573
 30
0.0
 10
21.820222168
 20
8.2568721959
 30
0.0
 10
21.7933617892
 20
8.222665119
 30
0.0
 10
21.776779826
 20
8.1959337685
 30
0.0
 10
21.7637384505
 20
8.1680504218
 30
0.0
 10
21.7543232304
 20
8.1393052193
 30
0.0
 10
21.748611601
 20
8.1099855866
 30
0.0
 10
21.7473237781
 20
8.0902054892
 30
0.0
 10
21.7473237571
 20
8.0803601031
 30
0.0
  0
SPLINE
  5
4F2
100
AcDbEntity
  8
0
100
AcDbSpline
 62
9
  6
CONTINUOUS
 70
0
 71
3
 72
14
 73
10
 74
0
 42
0.0000001
 43
0.0000001
 44
0.0000000001
 40
0.0
 40
0.0
 40
0.0
 40
0.0
 40
0.2745945339
 40
0.4054437774
 40
0.5315098558
 40
0.6531017116
 40
0.7710358158
 40
0.8862805778
 40
1.0
 40
1.0
 40
1.0
 40
1.0
 10
22.5764819432
 20
8.9624375107
 30
0.0
 10
22.5823392992
 20
8.9600946313
 30
0.0
 10
22.5906557949
 20
8.9556371636
 30
0.0
 10
22.6001371475
 20
8.9478996309
 30
0.0
 10
22.6060746566
 20
8.9415015042
 30
0.0
 10
22.6107948116
 20
8.9345125893
 30
0.0
 10
22.6142376176
 20
8.9270844292
 30
0.0
 10
22.6163518366
 20
8.919362324
 30
0.0
 10
22.6168409428
 20
8.9140917326
 30
0.0
 10
22.6168453188
 20
8.9114791433
 30
0.0
  0
SPLINE
  5
4F3
100
AcDbEntity
  8
0
100
AcDbSpline
 62
9
  6
CONTINUOUS
 70
0
 71
3
 72
16
 73
12
 74
0
 42
0.0000001
 43
0.0000001
 44
0.0000000001
 40
0.0
 40
0.0
 40
0.0
 40
0.0
 40
0.1411684169
 40
0.278984949
 40
0.4120881153
 40
0.4765996192
 40
0.5396467109
 40
0.6613632304
 40
0.7778297386
 40
0.8900592944
 40
1.0
 40
1.0
 40
1.0
 40
1.0
 10
22.5166945923
 20
9.0421365867
 30
0.0
 10
22.5209413975
 20
9.0415576026
 30
0.0
 10
22.5292674716
 20
9.039834119
 30
0.0
 10
22.5410881863
 20
9.0356200699
 30
0.0
 10
22.5501231741
 20
9.0308246175
 30
0.0
 10
22.556614083
 20
9.0262814647
 30
0.0
 10
22.5624226873
 20
9.021417547
 30
0.0
 10
22.5686452576
 20
9.0146412884
 30
0.0
 10
22.5742715289
 20
9.0055297065
 30
0.0
 10
22.5777632589
 20
8.9957730082
 30
0.0
 10
22.5785321811
 20
8.9890009781
 30
0.0
 10
22.5785333093
 20
8.9856630087
 30
0.0
  0
SPLINE
  5
4F4
100
AcDbEntity
  8
0
100
AcDbSpline
 62
7
  6
CONTINUOUS
 70
0
 71
3
 72
9
 73
5
 74
0
 42
0.0000001
 43
0.0000001
 44
0.0000000001
 40
0.0
 40
0.0
 40
0.0
 40
0.0
 40
0.5239006741
 40
1.0
 40
1.0
 40
1.0
 40
1.0
 10
22.4329498307
 20
9.0664425738
 30
0.0
 10
22.434180822
 20
9.0735148047
 30
0.0
 10
22.436061022
 20
9.0871026728
 30
0.0
 10
22.4367732482
 20
9.1008091975
 30
0.0
 10
22.4367732482
 20
9.107332781
 30
0.0
  0
SPLINE
  5
4F5
100
AcDbEntity
  8
0
100
AcDbSpline
 62
9
  6
CONTINUOUS
 70
0
 71
3
 72
17
 73
13
 74
0
 42
0.0000001
 43
0.0000001
 44
0.0000000001
 40
0.0
 40
0.0
 40
0.0
 40
0.0
 40
0.1400582145
 40
0.2786074899
 40
0.413292374
 40
0.5424123882
 40
0.6651093171
 40
0.7240274704
 40
0.7813592247
 40
0.8920313771
 40
0.9462131872
 40
1.0
 40
1.0
 40
1.0
 40
1.0
 10
22.4367732482
 20
9.107332781
 30
0.0
 10
22.4418983134
 20
9.1076285763
 30
0.0
 10
22.4521579432
 20
9.1073917899
 30
0.0
 10
22.4671232367
 20
9.1046927516
 30
0.0
 10
22.4810946479
 20
9.0997435567
 30
0.0
 10
22.493449405
 20
9.0926531035
 30
0.0
 10
22.502139116
 20
9.0851594428
 30
0.0
 10
22.5077665693
 20
9.0784249966
 30
0.0
 10
22.5123308016
 20
9.0714543067
 30
0.0
 10
22.5155118986
 20
9.0638449861
 30
0.0
 10
22.5171150608
 20
9.0559756087
 30
0.0
 10
22.5173908216
 20
9.0520132827
 30
0.0
 10
22.517395249
 20
9.0500418241
 30
0.0
  0
SPLINE
  5
4F6
100
AcDbEntity
  8
0
100
AcDbSpline
 62
7
  6
CONTINUOUS
 70
0
 71
3
 72
9
 73
5
 74
0
 42
0.0000001
 43
0.0000001
 44
0.0000000001
 40
0.0
 40
0.0
 40
0.0
 40
0.0
 40
0.5297444033
 40
1.0
 40
1.0
 40
1.0
 40
1.0
 10
22.3348626338
 20
9.1072281232
 30
0.0
 10
22.3359282939
 20
9.1156663206
 30
0.0
 10
22.3375569404
 20
9.1316475696
 30
0.0
 10
22.3381973838
 20
9.1477049912
 30
0.0
 10
22.3381973838
 20
9.1552551009
 30
0.0
  0
SPLINE
  5
4F7
100
AcDbEntity
  8
0
100
AcDbSpline
 62
9
  6
CONTINUOUS
 70
0
 71
3
 72
21
 73
17
 74
0
 42
0.0000001
 43
0.0000001
 44
0.0000000001
 40
0.0
 40
0.0
 40
0.0
 40
0.0
 40
0.135339584
 40
0.2037345602
 40
0.2720857882
 40
0.3400320274
 40
0.4072477032
 40
0.5382953503
 40
0.6017695656
 40
0.6635489541
 40
0.7235100543
 40
0.7816780373
 40
0.8381960283
 40
0.8932457668
 40
0.9470695211
 40
1.0
 40
1.0
 40
1.0
 40
1.0
 10
22.3381973838
 20
9.1552551009
 30
0.0
 10
22.3435322863
 20
9.1566390845
 30
0.0
 10
22.3517755941
 20
9.1579855907
 30
0.0
 10
22.3628564247
 20
9.1583875306
 30
0.0
 10
22.3711933746
 20
9.1579897951
 30
0.0
 10
22.3794191324
 20
9.1568900008
 30
0.0
 10
22.3900036796
 20
9.154498723
 30
0.0
 10
22.4000614904
 20
9.1507563201
 30
0.0
 10
22.4092355623
 20
9.1457510576
 30
0.0
 10
22.4154728444
 20
9.1414845592
 30
0.0
 10
22.4210462477
 20
9.1367050048
 30
0.0
 10
22.4258778865
 20
9.1314628153
 30
0.0
 10
22.4299252007
 20
9.1258378672
 30
0.0
 10
22.4331452021
 20
9.119900164
 30
0.0
 10
22.4354945922
 20
9.1137231256
 30
0.0
 10
22.4364565582
 20
9.1094649023
 30
0.0
 10
22.4367732482
 20
9.107332781
 30
0.0
  0
SPLINE
  5
4F8
100
AcDbEntity
  8
0
100
AcDbSpline
 62
7
  6
CONTINUOUS
 70
0
 71
3
 72
9
 73
5
 74
0
 42
0.0000001
 43
0.0000001
 44
0.0000000001
 40
0.0
 40
0.0
 40
0.0
 40
0.0
 40
0.5328703239
 40
1.0
 40
1.0
 40
1.0
 40
1.0
 10
22.2254970572
 20
9.1308983769
 30
0.0
 10
22.2260268466
 20
9.1401241945
 30
0.0
 10
22.2268360554
 20
9.1574491257
 30
0.0
 10
22.2271608832
 20
9.1747914662
 30
0.0
 10
22.2271608832
 20
9.182892411
 30
0.0
  0
SPLINE
  5
4F9
100
AcDbEntity
  8
0
100
AcDbSpline
 62
9
  6
CONTINUOUS
 70
0
 71
3
 72
20
 73
16
 74
0
 42
0.0000001
 43
0.0000001
 44
0.0000000001
 40
0.0
 40
0.0
 40
0.0
 40
0.0
 40
0.1273632648
 40
0.1927804656
 40
0.2588951412
 40
0.3253780448
 40
0.3919151628
 40
0.5237959132
 40
0.5886055325
 40
0.6522001573
 40
0.7143215621
 40
0.7748246289
 40
0.8336572897
 40
0.8907973696
 40
1.0
 40
1.0
 40
1.0
 40
1.0
 10
22.2271608832
 20
9.182892411
 30
0.0
 10
22.2319266198
 20
9.1852731006
 30
0.0
 10
22.2395254672
 20
9.1881507063
 30
0.0
 10
22.2500737522
 20
9.1906328174
 30
0.0
 10
22.2582801643
 20
9.1918321217
 30
0.0
 10
22.2666053955
 20
9.1923298229
 30
0.0
 10
22.2776917949
 20
9.1920227411
 30
0.0
 10
22.2886323061
 20
9.1902965965
 30
0.0
 10
22.2990838208
 20
9.1872094297
 30
0.0
 10
22.3065023725
 20
9.1842653437
 30
0.0
 10
22.3134423986
 20
9.1807003128
 30
0.0
 10
22.3198127385
 20
9.1765497762
 30
0.0
 10
22.3255500568
 20
9.1718793405
 30
0.0
 10
22.3321606827
 20
9.165156248
 30
0.0
 10
22.3361603504
 20
9.1593433878
 30
0.0
 10
22.3381973838
 20
9.1552551009
 30
0.0
  0
SPLINE
  5
4FA
100
AcDbEntity
  8
0
100
AcDbSpline
 62
9
  6
CONTINUOUS
 70
0
 71
3
 72
21
 73
17
 74
0
 42
0.0000001
 43
0.0000001
 44
0.0000000001
 40
0.0
 40
0.0
 40
0.0
 40
0.0
 40
0.1190435833
 40
0.1809902041
 40
0.244228788
 40
0.3085142237
 40
0.3735980023
 40
0.4391978106
 40
0.5049732678
 40
0.5705618297
 40
0.6356050042
 40
0.6997752994
 40
0.7628213255
 40
0.8245466993
 40
0.884767609
 40
1.0
 40
1.0
 40
1.0
 40
1.0
 10
22.1106405781
 20
9.1885081574
 30
0.0
 10
22.1145096156
 20
9.1917436173
 30
0.0
 10
22.1209800725
 20
9.1959933597
 30
0.0
 10
22.1303574223
 20
9.2003856018
 30
0.0
 10
22.1379222995
 20
9.2031086847
 30
0.0
 10
22.1458280641
 20
9.2051733591
 30
0.0
 10
22.153986569
 20
9.2065353285
 30
0.0
 10
22.1622947164
 20
9.2071860206
 30
0.0
 10
22.1706491974
 20
9.2071347432
 30
0.0
 10
22.1789465732
 20
9.2063854647
 30
0.0
 10
22.1870835502
 20
9.2049441625
 30
0.0
 10
22.1949568535
 20
9.2028112397
 30
0.0
 10
22.2024657135
 20
9.2000046809
 30
0.0
 10
22.2095291699
 20
9.1965766637
 30
0.0
 10
22.2181064168
 20
9.1913259398
 30
0.0
 10
22.2238476926
 20
9.1864781766
 30
0.0
 10
22.2271608832
 20
9.182892411
 30
0.0
  0
SPLINE
  5
4FB
100
AcDbEntity
  8
0
100
AcDbSpline
 62
7
  6
CONTINUOUS
 70
0
 71
3
 72
9
 73
5
 74
0
 42
0.0000001
 43
0.0000001
 44
0.0000000001
 40
0.0
 40
0.0
 40
0.0
 40
0.0
 40
0.5319471153
 40
1.0
 40
1.0
 40
1.0
 40
1.0
 10
21.9986284931
 20
9.1207398218
 30
0.0
 10
21.997777289
 20
9.1297594053
 30
0.0
 10
21.9964766178
 20
9.1467458026
 30
0.0
 10
21.9959578679
 20
9.163778013
 30
0.0
 10
21.9959578679
 20
9.171749482
 30
0.0
  0
SPLINE
  5
4FC
100
AcDbEntity
  8
0
100
AcDbSpline
 62
9
  6
CONTINUOUS
 70
0
 71
3
 72
20
 73
16
 74
0
 42
0.0000001
 43
0.0000001
 44
0.0000000001
 40
0.0
 40
0.0
 40
0.0
 40
0.0
 40
0.111898953
 40
0.1704976779
 40
0.2307394398
 40
0.2925148183
 40
0.3556928069
 40
0.4200674286
 40
0.4853382161
 40
0.6170722105
 40
0.682961056
 40
0.748412212
 40
0.8131379501
 40
0.876844715
 40
1.0
 40
1.0
 40
1.0
 40
1.0
 10
21.9959578679
 20
9.171749482
 30
0.0
 10
21.9986561614
 20
9.1756220594
 30
0.0
 10
22.0035701611
 20
9.1809945168
 30
0.0
 10
22.0112207191
 20
9.1870250601
 30
0.0
 10
22.0176719335
 20
9.1911055052
 30
0.0
 10
22.0246664111
 20
9.1946109002
 30
0.0
 10
22.0321313394
 20
9.197481889
 30
0.0
 10
22.0399706885
 20
9.1996917112
 30
0.0
 10
22.0508125994
 20
9.2017474676
 30
0.0
 10
22.0619454811
 20
9.2024200399
 30
0.0
 10
22.0730269517
 20
9.2016610101
 30
0.0
 10
22.0812066784
 20
9.2003697955
 30
0.0
 10
22.0891543867
 20
9.1983934549
 30
0.0
 10
22.0991925782
 20
9.1949280764
 30
0.0
 10
22.106284808
 20
9.191338762
 30
0.0
 10
22.1106405781
 20
9.1885081574
 30
0.0
  0
SPLINE
  5
4FD
100
AcDbEntity
  8
0
100
AcDbSpline
 62
7
  6
CONTINUOUS
 70
0
 71
3
 72
9
 73
5
 74
0
 42
0.0000001
 43
0.0000001
 44
0.0000000001
 40
0.0
 40
0.0
 40
0.0
 40
0.0
 40
0.5277334275
 40
1.0
 40
1.0
 40
1.0
 40
1.0
 10
21.8942345968
 20
9.0877725854
 30
0.0
 10
21.8929802162
 20
9.0957841115
 30
0.0
 10
21.8910625901
 20
9.1110431791
 30
0.0
 10
21.8903186889
 20
9.1264125637
 30
0.0
 10
21.8903186889
 20
9.1336693941
 30
0.0
  0
SPLINE
  5
4FE
100
AcDbEntity
  8
0
100
AcDbSpline
 62
9
  6
CONTINUOUS
 70
0
 71
3
 72
21
 73
17
 74
0
 42
0.0000001
 43
0.0000001
 44
0.0000000001
 40
0.0
 40
0.0
 40
0.0
 40
0.0
 40
0.0531479136
 40
0.1075658336
 40
0.1634850469
 40
0.2210423483
 40
0.2803139983
 40
0.3413399917
 40
0.4040522898
 40
0.4682513678
 40
0.5998954518
 40
0.6668780375
 40
0.7342003149
 40
0.8015353936
 40
0.868531312
 40
1.0
 40
1.0
 40
1.0
 40
1.0
 10
21.8903186889
 20
9.1336693941
 30
0.0
 10
21.8909845101
 20
9.1357630707
 30
0.0
 10
21.8926429878
 20
9.1399072229
 30
0.0
 10
21.8959832705
 20
9.145802688
 30
0.0
 10
21.9001462867
 20
9.151377775
 30
0.0
 10
21.9050776632
 20
9.1565643362
 30
0.0
 10
21.910723727
 20
9.1612971962
 30
0.0
 10
21.9170300376
 20
9.1655015186
 30
0.0
 10
21.9239118621
 20
9.169134664
 30
0.0
 10
21.9338050873
 20
9.1732104633
 30
0.0
 10
21.9443854466
 20
9.1759648813
 30
0.0
 10
21.955304749
 20
9.1773273229
 30
0.0
 10
21.9636453954
 20
9.1776307445
 30
0.0
 10
21.971982227
 20
9.1772268865
 30
0.0
 10
21.9828804452
 20
9.1757708629
 30
0.0
 10
21.9908644986
 20
9.1736447964
 30
0.0
 10
21.9959578679
 20
9.171749482
 30
0.0
  0
SPLINE
  5
4FF
100
AcDbEntity
  8
0
100
AcDbSpline
 62
7
  6
CONTINUOUS
 70
0
 71
3
 72
9
 73
5
 74
0
 42
0.0000001
 43
0.0000001
 44
0.0000000001
 40
0.0
 40
0.0
 40
0.0
 40
0.0
 40
0.2647178888
 40
1.0
 40
1.0
 40
1.0
 40
1.0
 10
21.8040978592
 20
9.0394078738
 30
0.0
 10
21.803527405
 20
9.0424236085
 30
0.0
 10
21.8015835467
 20
9.0538531938
 30
0.0
 10
21.8005205596
 20
9.0654445766
 30
0.0
 10
21.8003826265
 20
9.0739685289
 30
0.0
  0
SPLINE
  5
500
100
AcDbEntity
  8
0
100
AcDbSpline
 62
9
  6
CONTINUOUS
 70
0
 71
3
 72
16
 73
12
 74
0
 42
0.0000001
 43
0.0000001
 44
0.0000000001
 40
0.0
 40
0.0
 40
0.0
 40
0.0
 40
0.055843818
 40
0.1119307593
 40
0.2256343848
 40
0.3427282673
 40
0.464201395
 40
0.5907657373
 40
0.7226347683
 40
0.8593212238
 40
1.0
 40
1.0
 40
1.0
 40
1.0
 10
21.679033422
 20
11.0707053289
 30
0.0
 10
21.6790325377
 20
11.0721767934
 30
0.0
 10
21.6791807234
 20
11.0751287598
 30
0.0
 10
21.6800891823
 20
11.0810128464
 30
0.0
 10
21.6823650382
 20
11.0882759199
 30
0.0
 10
21.6867557728
 20
11.0965084354
 30
0.0
 10
21.6927096724
 20
11.1041254411
 30
0.0
 10
21.7001237175
 20
11.1109141997
 30
0.0
 10
21.7087997514
 20
11.116733197
 30
0.0
 10
21.7185111332
 20
11.1214872031
 30
0.0
 10
21.7254538482
 20
11.1238429139
 30
0.0
 10
21.7290310775
 20
11.1248145428
 30
0.0
  0
SPLINE
  5
501
100
AcDbEntity
  8
0
100
AcDbSpline
 62
9
  6
CONTINUOUS
 70
0
 71
3
 72
16
 73
12
 74
0
 42
0.0000001
 43
0.0000001
 44
0.0000000001
 40
0.0
 40
0.0
 40
0.0
 40
0.0
 40
0.0557349167
 40
0.1117203731
 40
0.2252599561
 40
0.3422656559
 40
0.4637394435
 40
0.5903975204
 40
0.7224069645
 40
0.8592292805
 40
1.0
 40
1.0
 40
1.0
 40
1.0
 10
21.6790334161
 20
8.9495193176
 30
0.0
 10
21.6790329683
 20
8.9510115056
 30
0.0
 10
21.6791863471
 20
8.9540052832
 30
0.0
 10
21.6801226136
 20
8.9599719223
 30
0.0
 10
21.6824652087
 20
8.9673335397
 30
0.0
 10
21.6869793915
 20
8.9756634493
 30
0.0
 10
21.6930963927
 20
8.9833512931
 30
0.0
 10
21.7007065966
 20
8.9901744845
 30
0.0
 10
21.7095962278
 20
8.9959935895
 30
0.0
 10
21.719531252
 20
9.0007076639
 30
0.0
 10
21.7266234764
 20
9.003007972
 30
0.0
 10
21.7302743517
 20
9.0039435572
 30
0.0
  0
SPLINE
  5
502
100
AcDbEntity
  8
0
100
AcDbSpline
 62
9
  6
CONTINUOUS
 70
0
 71
3
 72
16
 73
12
 74
0
 42
0.0000001
 43
0.0000001
 44
0.0000000001
 40
0.0
 40
0.0
 40
0.0
 40
0.0
 40
0.1087664536
 40
0.1640415172
 40
0.220271307
 40
0.3364373849
 40
0.4585588571
 40
0.5867835238
 40
0.720732083
 40
0.859089027
 40
1.0
 40
1.0
 40
1.0
 40
1.0
 10
21.7291682284
 20
9.019281178
 30
0.0
 10
21.7291705659
 20
9.0229265741
 30
0.0
 10
21.7298584322
 20
9.0284531644
 30
0.0
 10
21.7320787611
 20
9.0355069595
 30
0.0
 10
21.7352314236
 20
9.0424750657
 30
0.0
 10
21.7408488866
 20
9.0506943771
 30
0.0
 10
21.7497230653
 20
9.059291852
 30
0.0
 10
21.7605164945
 20
9.0664470942
 30
0.0
 10
21.7728691959
 20
9.0718537826
 30
0.0
 10
21.7863011126
 20
9.0754194935
 30
0.0
 10
21.7956415234
 20
9.0764780181
 30
0.0
 10
21.8003607393
 20
9.0766606056
 30
0.0
  0
SPLINE
  5
503
100
AcDbEntity
  8
0
100
AcDbSpline
 62
9
  6
CONTINUOUS
 70
0
 71
3
 72
16
 73
12
 74
0
 42
0.0000001
 43
0.0000001
 44
0.0000000001
 40
0.0
 40
0.0
 40
0.0
 40
0.0
 40
0.1087655984
 40
0.1640412288
 40
0.2202721219
 40
0.3364409184
 40
0.4585643772
 40
0.586789751
 40
0.7207374889
 40
0.8590921515
 40
1.0
 40
1.0
 40
1.0
 40
1.0
 10
21.7291682408
 20
11.1404955369
 30
0.0
 10
21.7291718221
 20
11.1441403534
 30
0.0
 10
21.7298613501
 20
11.1496658523
 30
0.0
 10
21.7320833491
 20
11.1567179756
 30
0.0
 10
21.7352374055
 20
11.1636843364
 30
0.0
 10
21.7408557718
 20
11.1719013847
 30
0.0
 10
21.7497299923
 20
11.1804963526
 30
0.0
 10
21.7605225989
 20
11.1876493591
 30
0.0
 10
21.7728737123
 20
11.193054334
 30
0.0
 10
21.7863035191
 20
11.1966189378
 30
0.0
 10
21.7956423399
 20
11.1976771616
 30
0.0
 10
21.8003607393
 20
11.1978597176
 30
0.0
  0
SPLINE
  5
504
100
AcDbEntity
  8
0
100
AcDbSpline
 62
9
  6
CONTINUOUS
 70
0
 71
3
 72
10
 73
6
 74
0
 42
0.0000001
 43
0.0000001
 44
0.0000000001
 40
0.0
 40
0.0
 40
0.0
 40
0.0
 40
0.4572516379
 40
0.7169929957
 40
1.0
 40
1.0
 40
1.0
 40
1.0
 10
21.4657123984
 20
7.4105213976
 30
0.0
 10
21.4711685971
 20
7.4163781237
 30
0.0
 10
21.4814392194
 20
7.4239817648
 30
0.0
 10
21.4970333985
 20
7.4319278889
 30
0.0
 10
21.5058796139
 20
7.4354463113
 30
0.0
 10
21.5105461394
 20
7.4371099434
 30
0.0
  0
SPLINE
  5
505
100
AcDbEntity
  8
0
100
AcDbSpline
 62
9
  6
CONTINUOUS
 70
0
 71
3
 72
11
 73
7
 74
0
 42
0.0000001
 43
0.0000001
 44
0.0000000001
 40
0.0
 40
0.0
 40
0.0
 40
0.0
 40
0.2177449554
 40
0.4574166838
 40
0.71848312
 40
1.0
 40
1.0
 40
1.0
 40
1.0
 10
21.5105461394
 20
7.4371099434
 30
0.0
 10
21.5171475252
 20
7.4394633596
 30
0.0
 10
21.531268208
 20
7.4437053348
 30
0.0
 10
21.5538583354
 20
7.4487154818
 30
0.0
 10
21.5787216446
 20
7.4527515386
 30
0.0
 10
21.5960741567
 20
7.4547652007
 30
0.0
 10
21.6050916399
 20
7.4556512155
 30
0.0
  0
SPLINE
  5
506
100
AcDbEntity
  8
0
100
AcDbSpline
 62
9
  6
CONTINUOUS
 70
0
 71
3
 72
10
 73
6
 74
0
 42
0.0000001
 43
0.0000001
 44
0.0000000001
 40
0.0
 40
0.0
 40
0.0
 40
0.0
 40
0.4572516063
 40
0.7169929695
 40
1.0
 40
1.0
 40
1.0
 40
1.0
 10
22.8140595437
 20
7.410521371
 30
0.0
 10
22.8086033449
 20
7.4163781038
 30
0.0
 10
22.7983327179
 20
7.4239817533
 30
0.0
 10
22.782738529
 20
7.4319278847
 30
0.0
 10
22.7738923071
 20
7.43544631
 30
0.0
 10
22.7692257779
 20
7.4371099434
 30
0.0
  0
SPLINE
  5
507
100
AcDbEntity
  8
0
100
AcDbSpline
 62
9
  6
CONTINUOUS
 70
0
 71
3
 72
11
 73
7
 74
0
 42
0.0000001
 43
0.0000001
 44
0.0000000001
 40
0.0
 40
0.0
 40
0.0
 40
0.0
 40
0.2177459425
 40
0.4574179498
 40
0.7184840238
 40
1.0
 40
1.0
 40
1.0
 40
1.0
 10
22.7692257779
 20
7.4371099434
 30
0.0
 10
22.762624665
 20
7.4394632624
 30
0.0
 10
22.7485046008
 20
7.443705083
 30
0.0
 10
22.7259155021
 20
7.4487150987
 30
0.0
 10
22.7010533859
 20
7.4527510944
 30
0.0
 10
22.6837017219
 20
7.4547647588
 30
0.0
 10
22.6746846863
 20
7.4556507822
 30
0.0
  0
SPLINE
  5
508
100
AcDbEntity
  8
0
100
AcDbSpline
 62
9
  6
CONTINUOUS
 70
0
 71
3
 72
21
 73
17
 74
0
 42
0.0000001
 43
0.0000001
 44
0.0000000001
 40
0.0
 40
0.0
 40
0.0
 40
0.0
 40
0.0531479136
 40
0.1075658336
 40
0.1634850469
 40
0.2210423483
 40
0.2803139983
 40
0.3413399917
 40
0.4040522898
 40
0.4682513678
 40
0.5998954518
 40
0.6668780375
 40
0.7342003149
 40
0.8015353936
 40
0.868531312
 40
1.0
 40
1.0
 40
1.0
 40
1.0
 10
21.8903186889
 20
11.2548685061
 30
0.0
 10
21.8909845101
 20
11.2569621827
 30
0.0
 10
21.8926429878
 20
11.2611063349
 30
0.0
 10
21.8959832705
 20
11.2670018
 30
0.0
 10
21.9001462867
 20
11.272576887
 30
0.0
 10
21.9050776632
 20
11.2777634481
 30
0.0
 10
21.910723727
 20
11.2824963082
 30
0.0
 10
21.9170300376
 20
11.2867006306
 30
0.0
 10
21.9239118621
 20
11.2903337759
 30
0.0
 10
21.9338050873
 20
11.2944095752
 30
0.0
 10
21.9443854466
 20
11.2971639933
 30
0.0
 10
21.955304749
 20
11.2985264348
 30
0.0
 10
21.9636453954
 20
11.2988298565
 30
0.0
 10
21.971982227
 20
11.2984259985
 30
0.0
 10
21.9828804452
 20
11.2969699749
 30
0.0
 10
21.9908644986
 20
11.2948439083
 30
0.0
 10
21.9959578679
 20
11.292948594
 30
0.0
  0
SPLINE
  5
509
100
AcDbEntity
  8
0
100
AcDbSpline
 62
7
  6
CONTINUOUS
 70
0
 71
3
 72
11
 73
7
 74
0
 42
0.0000001
 43
0.0000001
 44
0.0000000001
 40
0.0
 40
0.0
 40
0.0
 40
0.0
 40
0.279000989
 40
0.5380310421
 40
0.7778907277
 40
1.0
 40
1.0
 40
1.0
 40
1.0
 10
21.8903186889
 20
11.2548685061
 30
0.0
 10
21.8903186889
 20
11.2590977085
 30
0.0
 10
21.8905460943
 20
11.2672564231
 30
0.0
 10
21.8916938534
 20
11.2790035081
 30
0.0
 10
21.8936682089
 20
11.2897672301
 30
0.0
 10
21.895631437
 20
11.2965077141
 30
0.0
 10
21.8967769503
 20
11.2996736659
 30
0.0
  0
SPLINE
  5
50A
100
AcDbEntity
  8
0
100
AcDbSpline
 62
9
  6
CONTINUOUS
 70
0
 71
3
 72
11
 73
7
 74
0
 42
0.0000001
 43
0.0000001
 44
0.0000000001
 40
0.0
 40
0.0
 40
0.0
 40
0.0
 40
0.2614455243
 40
0.5134422894
 40
0.7584537916
 40
1.0
 40
1.0
 40
1.0
 40
1.0
 10
22.6168390365
 20
10.9859650659
 30
0.0
 10
22.6189024417
 20
10.9836458954
 30
0.0
 10
22.6226125796
 20
10.9787690834
 30
0.0
 10
22.6267842559
 20
10.9707333798
 30
0.0
 10
22.6292978915
 20
10.9622775794
 30
0.0
 10
22.6298572128
 20
10.9564855799
 30
0.0
 10
22.6298572128
 20
10.9536176287
 30
0.0
  0
SPLINE
  5
50B
100
AcDbEntity
  8
0
100
AcDbSpline
 62
9
  6
CONTINUOUS
 70
0
 71
3
 72
14
 73
10
 74
0
 42
0.0000001
 43
0.0000001
 44
0.0000000001
 40
0.0
 40
0.0
 40
0.0
 40
0.0
 40
0.2738453938
 40
0.404390932
 40
0.5303018826
 40
0.6519554357
 40
0.7701468303
 40
0.8857943314
 40
1.0
 40
1.0
 40
1.0
 40
1.0
 10
22.5788836547
 20
11.0826322734
 30
0.0
 10
22.5844303773
 20
11.0802100674
 30
0.0
 10
22.5922822405
 20
11.0757125012
 30
0.0
 10
22.6011979376
 20
11.0680653821
 30
0.0
 10
22.6067644416
 20
11.0617915306
 30
0.0
 10
22.6111816924
 20
11.0549839107
 30
0.0
 10
22.6144029265
 20
11.0477810801
 30
0.0
 10
22.616380896
 20
11.0403129051
 30
0.0
 10
22.6168398165
 20
11.0352235557
 30
0.0
 10
22.6168452783
 20
11.032699385
 30
0.0
  0
SPLINE
  5
50C
100
AcDbEntity
  8
0
100
AcDbSpline
 62
7
  6
CONTINUOUS
 70
0
 71
3
 72
15
 73
11
 74
0
 42
0.0000001
 43
0.0000001
 44
0.0000000001
 40
0.0
 40
0.0
 40
0.0
 40
0.0
 40
0.1672195821
 40
0.3227111594
 40
0.466304538
 40
0.5979121701
 40
0.7175609836
 40
0.824881811
 40
0.9189460882
 40
1.0
 40
1.0
 40
1.0
 40
1.0
 10
21.9959578679
 20
11.292948594
 30
0.0
 10
21.9959578679
 20
11.2965042809
 30
0.0
 10
21.9960506394
 20
11.3033668757
 30
0.0
 10
21.9965141084
 20
11.3132734525
 30
0.0
 10
21.9973065343
 20
11.3224000759
 30
0.0
 10
21.9984394607
 20
11.3307234241
 30
0.0
 10
21.999916522
 20
11.3382086644
 30
0.0
 10
22.0017500549
 20
11.3447954199
 30
0.0
 10
22.0040170168
 20
11.3503727297
 30
0.0
 10
22.0060255104
 20
11.3535543118
 30
0.0
 10
22.0071474714
 20
11.3548626096
 30
0.0
  0
SPLINE
  5
50D
100
AcDbEntity
  8
0
100
AcDbSpline
 62
9
  6
CONTINUOUS
 70
0
 71
3
 72
20
 73
16
 74
0
 42
0.0000001
 43
0.0000001
 44
0.0000000001
 40
0.0
 40
0.0
 40
0.0
 40
0.0
 40
0.111898953
 40
0.1704976779
 40
0.2307394398
 40
0.2925148183
 40
0.3556928069
 40
0.4200674286
 40
0.4853382161
 40
0.6170722105
 40
0.682961056
 40
0.748412212
 40
0.8131379501
 40
0.876844715
 40
1.0
 40
1.0
 40
1.0
 40
1.0
 10
21.9959578679
 20
11.292948594
 30
0.0
 10
21.9986561614
 20
11.2968211713
 30
0.0
 10
22.0035701611
 20
11.3021936287
 30
0.0
 10
22.0112207191
 20
11.3082241721
 30
0.0
 10
22.0176719335
 20
11.3123046172
 30
0.0
 10
22.0246664111
 20
11.3158100122
 30
0.0
 10
22.0321313394
 20
11.318681001
 30
0.0
 10
22.0399706885
 20
11.3208908232
 30
0.0
 10
22.0508125994
 20
11.3229465795
 30
0.0
 10
22.0619454811
 20
11.3236191519
 30
0.0
 10
22.0730269517
 20
11.3228601221
 30
0.0
 10
22.0812066784
 20
11.3215689074
 30
0.0
 10
22.0891543867
 20
11.3195925669
 30
0.0
 10
22.0991925782
 20
11.3161271884
 30
0.0
 10
22.106284808
 20
11.3125378739
 30
0.0
 10
22.1106405781
 20
11.3097072693
 30
0.0
  0
SPLINE
  5
50E
100
AcDbEntity
  8
0
100
AcDbSpline
 62
9
  6
CONTINUOUS
 70
0
 71
3
 72
21
 73
17
 74
0
 42
0.0000001
 43
0.0000001
 44
0.0000000001
 40
0.0
 40
0.0
 40
0.0
 40
0.0
 40
0.1190435833
 40
0.1809902041
 40
0.244228788
 40
0.3085142237
 40
0.3735980023
 40
0.4391978106
 40
0.5049732678
 40
0.5705618297
 40
0.6356050042
 40
0.6997752994
 40
0.7628213255
 40
0.8245466993
 40
0.884767609
 40
1.0
 40
1.0
 40
1.0
 40
1.0
 10
22.1106405781
 20
11.3097072693
 30
0.0
 10
22.1145096156
 20
11.3129427292
 30
0.0
 10
22.1209800725
 20
11.3171924716
 30
0.0
 10
22.1303574223
 20
11.3215847137
 30
0.0
 10
22.1379222995
 20
11.3243077967
 30
0.0
 10
22.1458280641
 20
11.326372471
 30
0.0
 10
22.153986569
 20
11.3277344404
 30
0.0
 10
22.1622947164
 20
11.3283851326
 30
0.0
 10
22.1706491974
 20
11.3283338551
 30
0.0
 10
22.1789465732
 20
11.3275845766
 30
0.0
 10
22.1870835502
 20
11.3261432745
 30
0.0
 10
22.1949568535
 20
11.3240103516
 30
0.0
 10
22.2024657135
 20
11.3212037928
 30
0.0
 10
22.2095291699
 20
11.3177757757
 30
0.0
 10
22.2181064168
 20
11.3125250518
 30
0.0
 10
22.2238476926
 20
11.3076772885
 30
0.0
 10
22.2271608832
 20
11.304091523
 30
0.0
  0
SPLINE
  5
50F
100
AcDbEntity
  8
0
100
AcDbSpline
 62
7
  6
CONTINUOUS
 70
0
 71
3
 72
18
 73
14
 74
0
 42
0.0000001
 43
0.0000001
 44
0.0000000001
 40
0.0
 40
0.0
 40
0.0
 40
0.0
 40
0.190006569
 40
0.3636702107
 40
0.5203973011
 40
0.6596014605
 40
0.780382635
 40
0.832982905
 40
0.8797588105
 40
0.9202506255
 40
0.9540216901
 40
0.9806867175
 40
1.0
 40
1.0
 40
1.0
 40
1.0
 10
22.1106405781
 20
11.3097072693
 30
0.0
 10
22.1106405781
 20
11.3137325312
 30
0.0
 10
22.1106644246
 20
11.3214368744
 30
0.0
 10
22.1107861057
 20
11.3324608699
 30
0.0
 10
22.1109942335
 20
11.342407236
 30
0.0
 10
22.1112928584
 20
11.3512303826
 30
0.0
 10
22.111625315
 20
11.3578447553
 30
0.0
 10
22.1119586714
 20
11.3624969825
 30
0.0
 10
22.1122263016
 20
11.3654482956
 30
0.0
 10
22.1125247973
 20
11.3679951487
 30
0.0
 10
22.1128544248
 20
11.3701093709
 30
0.0
 10
22.1132166462
 20
11.3717589827
 30
0.0
 10
22.1135228557
 20
11.3726907036
 30
0.0
 10
22.1137048212
 20
11.3730571617
 30
0.0
  0
SPLINE
  5
510
100
AcDbEntity
  8
0
100
AcDbSpline
 62
9
  6
CONTINUOUS
 70
0
 71
3
 72
16
 73
12
 74
0
 42
0.0000001
 43
0.0000001
 44
0.0000000001
 40
0.0
 40
0.0
 40
0.0
 40
0.0
 40
0.1411702554
 40
0.2789880299
 40
0.4120915526
 40
0.4766028904
 40
0.5396496362
 40
0.6613650127
 40
0.7778300942
 40
0.8900586696
 40
1.0
 40
1.0
 40
1.0
 40
1.0
 10
22.5166945923
 20
11.1633356987
 30
0.0
 10
22.5209418781
 20
11.1627566491
 30
0.0
 10
22.529268872
 20
11.1610329083
 30
0.0
 10
22.5410907774
 20
11.1568181182
 30
0.0
 10
22.5501265164
 20
11.1520217747
 30
0.0
 10
22.5566177893
 20
11.1474777616
 30
0.0
 10
22.5624265741
 20
11.1426129528
 30
0.0
 10
22.5686490869
 20
11.1358354909
 30
0.0
 10
22.5742747561
 20
11.1267223727
 30
0.0
 10
22.577765209
 20
11.116964142
 30
0.0
 10
22.5785328712
 20
11.1101912781
 30
0.0
 10
22.5785333114
 20
11.1068529553
 30
0.0
  0
SPLINE
  5
511
100
AcDbEntity
  8
0
100
AcDbSpline
 62
9
  6
CONTINUOUS
 70
0
 71
3
 72
13
 73
9
 74
0
 42
0.0000001
 43
0.0000001
 44
0.0000000001
 40
0.0
 40
0.0
 40
0.0
 40
0.0
 40
0.1193055059
 40
0.2430576622
 40
0.4976900722
 40
0.6265124172
 40
0.7541194179
 40
1.0
 40
1.0
 40
1.0
 40
1.0
 10
22.1137048212
 20
11.3730571617
 30
0.0
 10
22.1169551586
 20
11.3751888653
 30
0.0
 10
22.1239380369
 20
11.3790014315
 30
0.0
 10
22.1391645191
 20
11.3846870185
 30
0.0
 10
22.15572009
 20
11.3872517119
 30
0.0
 10
22.1723961916
 20
11.3866287737
 30
0.0
 10
22.1885653184
 20
11.3839207845
 30
0.0
 10
22.2001383869
 20
11.379529657
 30
0.0
 10
22.2071080385
 20
11.3755802345
 30
0.0
  0
SPLINE
  5
512
100
AcDbEntity
  8
0
100
AcDbSpline
 62
9
  6
CONTINUOUS
 70
0
 71
3
 72
15
 73
11
 74
0
 42
0.0000001
 43
0.0000001
 44
0.0000000001
 40
0.0
 40
0.0
 40
0.0
 40
0.0
 40
0.1399384702
 40
0.2784047354
 40
0.413083539
 40
0.5422831609
 40
0.6651458059
 40
0.7814154307
 40
0.8922441309
 40
1.0
 40
1.0
 40
1.0
 40
1.0
 10
22.4367732482
 20
11.2285318929
 30
0.0
 10
22.4418522035
 20
11.228825027
 30
0.0
 10
22.4520201045
 20
11.2285977707
 30
0.0
 10
22.4668604841
 20
11.2259527651
 30
0.0
 10
22.480734362
 20
11.2210985252
 30
0.0
 10
22.4930368153
 20
11.2141301581
 30
0.0
 10
22.5033152859
 20
11.2054143584
 30
0.0
 10
22.5111426704
 20
11.1952400414
 30
0.0
 10
22.5160564963
 20
11.183968199
 30
0.0
 10
22.5173004267
 20
11.1760120935
 30
0.0
 10
22.5173850532
 20
11.1720955859
 30
0.0
  0
SPLINE
  5
513
100
AcDbEntity
  8
0
100
AcDbSpline
 62
9
  6
CONTINUOUS
 70
0
 71
3
 72
9
 73
5
 74
0
 42
0.0000001
 43
0.0000001
 44
0.0000000001
 40
0.0
 40
0.0
 40
0.0
 40
0.0
 40
0.2532068743
 40
1.0
 40
1.0
 40
1.0
 40
1.0
 10
22.4175147176
 20
11.2992327424
 30
0.0
 10
22.4190647276
 20
11.2989844547
 30
0.0
 10
22.4251610745
 20
11.297854699
 30
0.0
 10
22.4311482255
 20
11.296121276
 30
0.0
 10
22.4354778022
 20
11.2944812531
 30
0.0
  0
SPLINE
  5
514
100
AcDbEntity
  8
0
100
AcDbSpline
 62
7
  6
CONTINUOUS
 70
0
 71
3
 72
18
 73
14
 74
0
 42
0.0000001
 43
0.0000001
 44
0.0000000001
 40
0.0
 40
0.0
 40
0.0
 40
0.0
 40
0.1828089276
 40
0.3504817369
 40
0.5025812787
 40
0.6387264818
 40
0.7584011092
 40
0.8114567117
 40
0.8595539036
 40
0.9024490463
 40
0.9400208617
 40
0.972368326
 40
1.0
 40
1.0
 40
1.0
 40
1.0
 10
22.2271608832
 20
11.304091523
 30
0.0
 10
22.2271608832
 20
11.3080610156
 30
0.0
 10
22.2270914897
 20
11.3156716845
 30
0.0
 10
22.226738712
 20
11.3265800551
 30
0.0
 10
22.2261350371
 20
11.3364633149
 30
0.0
 10
22.2252688066
 20
11.3452802629
 30
0.0
 10
22.2243041008
 20
11.3519220915
 30
0.0
 10
22.2233456386
 20
11.3566217665
 30
0.0
 10
22.2225699871
 20
11.3596536396
 30
0.0
 10
22.2217025482
 20
11.3623097021
 30
0.0
 10
22.2207343401
 20
11.3645652322
 30
0.0
 10
22.2196567051
 20
11.3663963894
 30
0.0
 10
22.2187901009
 20
11.3673872781
 30
0.0
 10
22.2183339428
 20
11.3677770332
 30
0.0
  0
SPLINE
  5
515
100
AcDbEntity
  8
0
100
AcDbSpline
 62
9
  6
CONTINUOUS
 70
0
 71
3
 72
9
 73
5
 74
0
 42
0.0000001
 43
0.0000001
 44
0.0000000001
 40
0.0
 40
0.0
 40
0.0
 40
0.0
 40
0.5034116965
 40
1.0
 40
1.0
 40
1.0
 40
1.0
 10
22.3273987325
 20
11.344344705
 30
0.0
 10
22.3327224959
 20
11.3446306282
 30
0.0
 10
22.3433612943
 20
11.3443424109
 30
0.0
 10
22.3538146934
 20
11.3423227021
 30
0.0
 10
22.3588729238
 20
11.3408828422
 30
0.0
  0
SPLINE
  5
516
100
AcDbEntity
  8
0
100
AcDbSpline
 62
7
  6
CONTINUOUS
 70
0
 71
3
 72
13
 73
9
 74
0
 42
0.0000001
 43
0.0000001
 44
0.0000000001
 40
0.0
 40
0.0
 40
0.0
 40
0.0
 40
0.299001951
 40
0.5646118409
 40
0.6851891469
 40
0.797909306
 40
0.9028642236
 40
1.0
 40
1.0
 40
1.0
 40
1.0
 10
22.3381973838
 20
11.2764542129
 30
0.0
 10
22.3381973838
 20
11.2822572494
 30
0.0
 10
22.3378674246
 20
11.2932198894
 30
0.0
 10
22.3363564899
 20
11.3064567474
 30
0.0
 10
22.3344138037
 20
11.3159486721
 30
0.0
 10
22.3326681229
 20
11.3222833464
 30
0.0
 10
22.3305721389
 20
11.3280305125
 30
0.0
 10
22.3288284463
 20
11.3315582142
 30
0.0
 10
22.3278686735
 20
11.3331808249
 30
0.0
  0
SPLINE
  5
517
100
AcDbEntity
  8
0
100
AcDbSpline
 62
9
  6
CONTINUOUS
 70
0
 71
3
 72
21
 73
17
 74
0
 42
0.0000001
 43
0.0000001
 44
0.0000000001
 40
0.0
 40
0.0
 40
0.0
 40
0.0
 40
0.135339584
 40
0.2037345602
 40
0.2720857882
 40
0.3400320274
 40
0.4072477032
 40
0.5382953503
 40
0.6017695656
 40
0.6635489541
 40
0.7235100543
 40
0.7816780373
 40
0.8381960283
 40
0.8932457668
 40
0.947069521
 40
1.0
 40
1.0
 40
1.0
 40
1.0
 10
22.3381973838
 20
11.2764542129
 30
0.0
 10
22.3435322863
 20
11.2778381965
 30
0.0
 10
22.3517755941
 20
11.2791847027
 30
0.0
 10
22.3628564247
 20
11.2795866425
 30
0.0
 10
22.3711933746
 20
11.279188907
 30
0.0
 10
22.3794191324
 20
11.2780891128
 30
0.0
 10
22.3900036796
 20
11.275697835
 30
0.0
 10
22.4000614904
 20
11.2719554321
 30
0.0
 10
22.4092355623
 20
11.2669501696
 30
0.0
 10
22.4154728444
 20
11.2626836712
 30
0.0
 10
22.4210462477
 20
11.2579041168
 30
0.0
 10
22.4258778865
 20
11.2526619273
 30
0.0
 10
22.4299252007
 20
11.2470369791
 30
0.0
 10
22.4331452021
 20
11.241099276
 30
0.0
 10
22.4354945922
 20
11.2349222376
 30
0.0
 10
22.4364565582
 20
11.2306640143
 30
0.0
 10
22.4367732482
 20
11.2285318929
 30
0.0
  0
SPLINE
  5
518
100
AcDbEntity
  8
0
100
AcDbSpline
 62
9
  6
CONTINUOUS
 70
0
 71
3
 72
20
 73
16
 74
0
 42
0.0000001
 43
0.0000001
 44
0.0000000001
 40
0.0
 40
0.0
 40
0.0
 40
0.0
 40
0.1273632648
 40
0.1927804656
 40
0.2588951412
 40
0.3253780448
 40
0.3919151628
 40
0.5237959132
 40
0.5886055325
 40
0.6522001573
 40
0.7143215621
 40
0.7748246289
 40
0.8336572897
 40
0.8907973696
 40
1.0
 40
1.0
 40
1.0
 40
1.0
 10
22.2271608832
 20
11.304091523
 30
0.0
 10
22.2319266198
 20
11.3064722126
 30
0.0
 10
22.2395254672
 20
11.3093498182
 30
0.0
 10
22.2500737522
 20
11.3118319294
 30
0.0
 10
22.2582801643
 20
11.3130312337
 30
0.0
 10
22.2666053955
 20
11.3135289348
 30
0.0
 10
22.2776917949
 20
11.313221853
 30
0.0
 10
22.2886323061
 20
11.3114957085
 30
0.0
 10
22.2990838208
 20
11.3084085417
 30
0.0
 10
22.3065023725
 20
11.3054644557
 30
0.0
 10
22.3134423986
 20
11.3018994247
 30
0.0
 10
22.3198127385
 20
11.2977488882
 30
0.0
 10
22.3255500568
 20
11.2930784524
 30
0.0
 10
22.3321606827
 20
11.2863553599
 30
0.0
 10
22.3361603504
 20
11.2805424998
 30
0.0
 10
22.3381973838
 20
11.2764542129
 30
0.0
  0
SPLINE
  5
519
100
AcDbEntity
  8
0
100
AcDbSpline
 62
9
  6
CONTINUOUS
 70
0
 71
3
 72
10
 73
6
 74
0
 42
0.0000001
 43
0.0000001
 44
0.0000000001
 40
0.0
 40
0.0
 40
0.0
 40
0.0
 40
0.2452589877
 40
0.4957950057
 40
1.0
 40
1.0
 40
1.0
 40
1.0
 10
22.2180164787
 20
11.3680298164
 30
0.0
 10
22.2215112181
 20
11.3693451028
 30
0.0
 10
22.2287602871
 20
11.3715392056
 30
0.0
 10
22.2437789491
 20
11.3741675325
 30
0.0
 10
22.2554126621
 20
11.374121914
 30
0.0
 10
22.2630313713
 20
11.3731817553
 30
0.0
  0
SPLINE
  5
51A
100
AcDbEntity
  8
0
100
AcDbSpline
 62
7
  6
CONTINUOUS
 70
0
 71
3
 72
9
 73
5
 74
0
 42
0.0000001
 43
0.0000001
 44
0.0000000001
 40
0.0
 40
0.0
 40
0.0
 40
0.0
 40
0.4847213729
 40
1.0
 40
1.0
 40
1.0
 40
1.0
 10
2.9324496121
 20
11.3396613594
 30
0.0
 10
2.9480763823
 20
11.3074363304
 30
0.0
 10
2.9784065903
 20
11.2400192737
 30
0.0
 10
3.0053733386
 20
11.1711997441
 30
0.0
 10
3.0185094643
 20
11.135465914
 30
0.0
  0
SPLINE
  5
51B
100
AcDbEntity
  8
0
100
AcDbSpline
 62
7
  6
CONTINUOUS
 70
0
 71
3
 72
11
 73
7
 74
0
 42
0.0000001
 43
0.0000001
 44
0.0000000001
 40
0.0
 40
0.0
 40
0.0
 40
0.0
 40
0.2331563393
 40
0.4773961783
 40
0.7329450922
 40
1.0
 40
1.0
 40
1.0
 40
1.0
 10
3.0185094643
 20
11.135465914
 30
0.0
 10
3.0295524683
 20
11.1054259434
 30
0.0
 10
3.0510673601
 20
11.0435107662
 30
0.0
 10
3.0810649964
 20
10.9474600622
 30
0.0
 10
3.1095280275
 20
10.8461026687
 30
0.0
 10
3.1270901604
 20
10.7765384039
 30
0.0
 10
3.1356406925
 20
10.7408908427
 30
0.0
  0
SPLINE
  5
51C
100
AcDbEntity
  8
0
100
AcDbSpline
 62
7
  6
CONTINUOUS
 70
0
 71
3
 72
11
 73
7
 74
0
 42
0.0000001
 43
0.0000001
 44
0.0000000001
 40
0.0
 40
0.0
 40
0.0
 40
0.0
 40
0.2227837011
 40
0.4635041
 40
0.7224886082
 40
1.0
 40
1.0
 40
1.0
 40
1.0
 10
3.1356406925
 20
10.7408908427
 30
0.0
 10
3.1530521849
 20
10.6683015306
 30
0.0
 10
3.1856450057
 20
10.5163947286
 30
0.0
 10
3.2270696495
 20
10.277830459
 30
0.0
 10
3.2628963986
 20
10.0198406907
 30
0.0
 10
3.2823693025
 20
9.8411081658
 30
0.0
 10
3.2912879595
 20
9.7485509216
 30
0.0
  0
SPLINE
  5
51D
100
AcDbEntity
  8
0
100
AcDbSpline
 62
7
  6
CONTINUOUS
 70
0
 71
3
 72
20
 73
16
 74
0
 42
0.0000001
 43
0.0000001
 44
0.0000000001
 40
0.0
 40
0.0
 40
0.0
 40
0.0
 40
0.0105273014
 40
0.0230295723
 40
0.0537995859
 40
0.0919853886
 40
0.1372547446
 40
0.189165725
 40
0.2470992754
 40
0.3104194029
 40
0.3784894601
 40
0.5259982652
 40
0.6832127827
 40
0.8434876872
 40
1.0
 40
1.0
 40
1.0
 40
1.0
 10
4.863882994
 20
2.5225555684
 30
0.0
 10
4.863386225
 20
2.5269955855
 30
0.0
 10
4.8624190783
 20
2.5367219463
 30
0.0
 10
4.8605030782
 20
2.5594740879
 30
0.0
 10
4.8581825523
 20
2.5939684375
 30
0.0
 10
4.855508631
 20
2.642371508
 30
0.0
 10
4.8528119593
 20
2.6997572802
 30
0.0
 10
4.8500948862
 20
2.7655307505
 30
0.0
 10
4.8473574434
 20
2.8389699043
 30
0.0
 10
4.8446021117
 20
2.9192705416
 30
0.0
 10
4.8408068421
 20
3.0375727449
 30
0.0
 10
4.8361281795
 20
3.1957149149
 30
0.0
 10
4.8305837602
 20
3.3929793566
 30
0.0
 10
4.8249901733
 20
3.594064943
 30
0.0
 10
4.8211346592
 20
3.7284522384
 30
0.0
 10
4.8191526513
 20
3.7948455104
 30
0.0
  0
SPLINE
  5
51E
100
AcDbEntity
  8
0
100
AcDbSpline
 62
7
  6
CONTINUOUS
 70
0
 71
3
 72
20
 73
16
 74
0
 42
0.0000001
 43
0.0000001
 44
0.0000000001
 40
0.0
 40
0.0
 40
0.0
 40
0.0
 40
0.0105290705
 40
0.0230329654
 40
0.0538058012
 40
0.0919938787
 40
0.1372649835
 40
0.1891771394
 40
0.247111317
 40
0.3104315779
 40
0.3785013283
 40
0.5260083331
 40
0.6832198956
 40
0.8434912513
 40
1.0
 40
1.0
 40
1.0
 40
1.0
 10
3.415890299
 20
2.522567865
 30
0.0
 10
3.4163870407
 20
2.5270085969
 30
0.0
 10
3.417354147
 20
2.5367363129
 30
0.0
 10
3.4192700724
 20
2.5594908849
 30
0.0
 10
3.4215905324
 20
2.59398776
 30
0.0
 10
3.4242643852
 20
2.642393272
 30
0.0
 10
3.4269609818
 20
2.6997806975
 30
0.0
 10
3.4296779782
 20
2.7655550392
 30
0.0
 10
3.4324153418
 20
2.8389943036
 30
0.0
 10
3.4351705921
 20
2.9192943551
 30
0.0
 10
3.438965737
 20
3.0375945735
 30
0.0
 10
3.4436442546
 20
3.1957330602
 30
0.0
 10
3.4491885093
 20
3.3929920625
 30
0.0
 10
3.4547819276
 20
3.5940714235
 30
0.0
 10
3.4586373225
 20
3.7284543955
 30
0.0
 10
3.460619266
 20
3.7948455104
 30
0.0
  0
LINE
  5
51F
100
AcDbEntity
  8
0
100
AcDbLine
 62
7
  6
CONTINUOUS
 10
4.8191524801
 20
3.7948454988
 11
4.8100097326
 21
4.096332144
  0
LINE
  5
520
100
AcDbEntity
  8
0
100
AcDbLine
 62
7
  6
CONTINUOUS
 10
3.4606190994
 20
3.7948455008
 11
3.469761838
 21
4.0963321469
  0
SPLINE
  5
521
100
AcDbEntity
  8
0
100
AcDbSpline
 62
7
  6
CONTINUOUS
 70
0
 71
3
 72
9
 73
5
 74
0
 42
0.0000001
 43
0.0000001
 44
0.0000000001
 40
0.0
 40
0.0
 40
0.0
 40
0.0
 40
0.5152786271
 40
1.0
 40
1.0
 40
1.0
 40
1.0
 10
5.261262453
 20
11.135465914
 30
0.0
 10
5.2743985787
 20
11.1711997441
 30
0.0
 10
5.301365327
 20
11.2400192737
 30
0.0
 10
5.331695535
 20
11.3074363304
 30
0.0
 10
5.3473223052
 20
11.3396613594
 30
0.0
  0
SPLINE
  5
522
100
AcDbEntity
  8
0
100
AcDbSpline
 62
7
  6
CONTINUOUS
 70
0
 71
3
 72
11
 73
7
 74
0
 42
0.0000001
 43
0.0000001
 44
0.0000000001
 40
0.0
 40
0.0
 40
0.0
 40
0.0
 40
0.2670549078
 40
0.5226038217
 40
0.7668436607
 40
1.0
 40
1.0
 40
1.0
 40
1.0
 10
5.1441312248
 20
10.7408908427
 30
0.0
 10
5.1526817569
 20
10.7765384039
 30
0.0
 10
5.1702438898
 20
10.8461026687
 30
0.0
 10
5.1987069209
 20
10.9474600622
 30
0.0
 10
5.2287045572
 20
11.0435107662
 30
0.0
 10
5.250219449
 20
11.1054259434
 30
0.0
 10
5.261262453
 20
11.135465914
 30
0.0
  0
SPLINE
  5
523
100
AcDbEntity
  8
0
100
AcDbSpline
 62
7
  6
CONTINUOUS
 70
0
 71
3
 72
11
 73
7
 74
0
 42
0.0000001
 43
0.0000001
 44
0.0000000001
 40
0.0
 40
0.0
 40
0.0
 40
0.0
 40
0.2775113918
 40
0.5364959
 40
0.7772162989
 40
1.0
 40
1.0
 40
1.0
 40
1.0
 10
4.9884839578
 20
9.7485509216
 30
0.0
 10
4.9974026149
 20
9.8411081658
 30
0.0
 10
5.0168755187
 20
10.0198406907
 30
0.0
 10
5.0527022678
 20
10.277830459
 30
0.0
 10
5.0941269116
 20
10.5163947286
 30
0.0
 10
5.1267197324
 20
10.6683015306
 30
0.0
 10
5.1441312248
 20
10.7408908427
 30
0.0
  0
SPLINE
  5
524
100
AcDbEntity
  8
0
100
AcDbSpline
 62
7
  6
CONTINUOUS
 70
0
 71
3
 72
11
 73
7
 74
0
 42
0.0000001
 43
0.0000001
 44
0.0000000001
 40
0.0
 40
0.0
 40
0.0
 40
0.0
 40
0.2503407101
 40
0.5005717613
 40
0.7505136691
 40
1.0
 40
1.0
 40
1.0
 40
1.0
 10
4.1398859582
 20
1.7403460209
 30
0.0
 10
4.173690111
 20
1.7403460208
 30
0.0
 10
4.2413710081
 20
1.745078918
 30
0.0
 10
4.3408654566
 20
1.7658515233
 30
0.0
 10
4.4365625902
 20
1.7997541655
 30
0.0
 10
4.4966991292
 20
1.8308369801
 30
0.0
 10
4.5254632996
 20
1.8483742732
 30
0.0
  0
SPLINE
  5
525
100
AcDbEntity
  8
0
100
AcDbSpline
 62
7
  6
CONTINUOUS
 70
0
 71
3
 72
17
 73
13
 74
0
 42
0.0000001
 43
0.0000001
 44
0.0000000001
 40
0.0
 40
0.0
 40
0.0
 40
0.0
 40
0.1258056697
 40
0.2514396035
 40
0.3768262486
 40
0.4394353864
 40
0.5019657609
 40
0.6267714885
 40
0.7513803757
 40
0.8136386856
 40
0.8758390936
 40
1.0
 40
1.0
 40
1.0
 40
1.0
 10
4.5254633405
 20
1.8483732626
 30
0.0
 10
4.551813595
 20
1.8644388041
 30
0.0
 10
4.6024637275
 20
1.8999885532
 30
0.0
 10
4.6710037585
 20
1.9623498164
 30
0.0
 10
4.7211271302
 20
2.0210158923
 30
0.0
 10
4.7564332979
 20
2.0713632765
 30
0.0
 10
4.7883518282
 20
2.1237597772
 30
0.0
 10
4.8216638145
 20
2.192906087
 30
0.0
 10
4.8458503241
 20
2.2656661257
 30
0.0
 10
4.8595287368
 20
2.3252534441
 30
0.0
 10
4.8693690163
 20
2.3854726496
 30
0.0
 10
4.8723860848
 20
2.4312589662
 30
0.0
 10
4.8723860496
 20
2.4617170734
 30
0.0
  0
SPLINE
  5
526
100
AcDbEntity
  8
0
100
AcDbSpline
 62
7
  6
CONTINUOUS
 70
0
 71
3
 72
17
 73
13
 74
0
 42
0.0000001
 43
0.0000001
 44
0.0000000001
 40
0.0
 40
0.0
 40
0.0
 40
0.0
 40
0.1241609068
 40
0.1863613153
 40
0.2486196258
 40
0.3732285131
 40
0.4980342381
 40
0.5605646096
 40
0.6231737438
 40
0.7485603828
 40
0.8741943171
 40
1.0
 40
1.0
 40
1.0
 40
1.0
 10
3.4073858674
 20
2.4617170717
 30
0.0
 10
3.4073858322
 20
2.4312589644
 30
0.0
 10
3.410402901
 20
2.3854726475
 30
0.0
 10
3.4202431812
 20
2.3252534416
 30
0.0
 10
3.4339215943
 20
2.265666123
 30
0.0
 10
3.4581081039
 20
2.1929060847
 30
0.0
 10
3.4914200886
 20
2.1237597756
 30
0.0
 10
3.5233386164
 20
2.0713632759
 30
0.0
 10
3.5586447811
 20
2.0210158933
 30
0.0
 10
3.6087681504
 20
1.9623498181
 30
0.0
 10
3.6773081832
 20
1.8999885538
 30
0.0
 10
3.7279583189
 20
1.8644388034
 30
0.0
 10
3.7543085762
 20
1.8483732602
 30
0.0
  0
SPLINE
  5
527
100
AcDbEntity
  8
0
100
AcDbSpline
 62
7
  6
CONTINUOUS
 70
0
 71
3
 72
11
 73
7
 74
0
 42
0.0000001
 43
0.0000001
 44
0.0000000001
 40
0.0
 40
0.0
 40
0.0
 40
0.0
 40
0.2494863309
 40
0.4994282387
 40
0.7496592899
 40
1.0
 40
1.0
 40
1.0
 40
1.0
 10
3.7543086172
 20
1.8483742735
 30
0.0
 10
3.7830727876
 20
1.8308369804
 30
0.0
 10
3.8432093265
 20
1.7997541657
 30
0.0
 10
3.93890646
 20
1.7658515235
 30
0.0
 10
4.0384009084
 20
1.7450789181
 30
0.0
 10
4.1060818055
 20
1.7403460209
 30
0.0
 10
4.1398859582
 20
1.7403460209
 30
0.0
  0
SPLINE
  5
528
100
AcDbEntity
  8
0
100
AcDbSpline
 62
9
  6
CONTINUOUS
 70
0
 71
3
 72
16
 73
12
 74
0
 42
0.0000001
 43
0.0000001
 44
0.0000000001
 40
0.0
 40
0.0
 40
0.0
 40
0.0
 40
0.1652228619
 40
0.3193478194
 40
0.4621439434
 40
0.5933947312
 40
0.7129139593
 40
0.8205750147
 40
0.9162857142
 40
0.9596439269
 40
1.0
 40
1.0
 40
1.0
 40
1.0
 10
2.9324496121
 20
11.3396613594
 30
0.0
 10
2.9708954774
 20
11.3353277346
 30
0.0
 10
3.0451766022
 20
11.3266965562
 30
0.0
 10
3.1525493492
 20
11.3131827902
 30
0.0
 10
3.2518654983
 20
11.2994138149
 30
0.0
 10
3.3429368893
 20
11.2852603844
 30
0.0
 10
3.4255844308
 20
11.2705867156
 30
0.0
 10
3.4996679527
 20
11.2554253098
 30
0.0
 10
3.5558813307
 20
11.2420155021
 30
0.0
 10
3.596416249
 20
11.2309503643
 30
0.0
 10
3.6151992835
 20
11.2253308755
 30
0.0
 10
3.6242123607
 20
11.2224907665
 30
0.0
  0
LINE
  5
529
100
AcDbEntity
  8
0
100
AcDbLine
 62
7
  6
CONTINUOUS
 10
4.515205202
 20
3.8463175246
 11
4.5149016336
 21
4.2928887186
  0
SPLINE
  5
52A
100
AcDbEntity
  8
0
100
AcDbSpline
 62
9
  6
CONTINUOUS
 70
0
 71
3
 72
11
 73
7
 74
0
 42
0.0000001
 43
0.0000001
 44
0.0000000001
 40
0.0
 40
0.0
 40
0.0
 40
0.0
 40
0.2333759855
 40
0.4784432205
 40
0.7344105778
 40
1.0
 40
1.0
 40
1.0
 40
1.0
 10
4.8191528179
 20
3.7948455008
 30
0.0
 10
4.795134737
 20
3.7962275842
 30
0.0
 10
4.7459109072
 20
3.7994223497
 30
0.0
 10
4.6706268475
 20
3.8078848924
 30
0.0
 10
4.5928996085
 20
3.8226351078
 30
0.0
 10
4.5411017231
 20
3.8374317907
 30
0.0
 10
4.515205202
 20
3.8463175246
 30
0.0
  0
SPLINE
  5
52B
100
AcDbEntity
  8
0
100
AcDbSpline
 62
9
  6
CONTINUOUS
 70
0
 71
3
 72
9
 73
5
 74
0
 42
0.0000001
 43
0.0000001
 44
0.0000000001
 40
0.0
 40
0.0
 40
0.0
 40
0.0
 40
0.4982234434
 40
1.0
 40
1.0
 40
1.0
 40
1.0
 10
4.5152051936
 20
3.8463175273
 30
0.0
 10
4.4534101109
 20
3.8363048727
 30
0.0
 10
4.3286332933
 20
3.8204991499
 30
0.0
 10
4.2029334042
 20
3.8147950168
 30
0.0
 10
4.1398859587
 20
3.8147950168
 30
0.0
  0
LINE
  5
52C
100
AcDbEntity
  8
0
100
AcDbLine
 62
7
  6
CONTINUOUS
 10
3.7645667231
 20
3.8463175274
 11
3.764870291
 21
4.2928887239
  0
SPLINE
  5
52D
100
AcDbEntity
  8
0
100
AcDbSpline
 62
9
  6
CONTINUOUS
 70
0
 71
3
 72
12
 73
8
 74
0
 42
0.0000001
 43
0.0000001
 44
0.0000000001
 40
0.0
 40
0.0
 40
0.0
 40
0.0
 40
0.2634386323
 40
0.5216581571
 40
0.6461350872
 40
0.7671825342
 40
1.0
 40
1.0
 40
1.0
 40
1.0
 10
3.7645667156
 20
3.8463175245
 30
0.0
 10
3.7391410439
 20
3.8367593426
 30
0.0
 10
3.6872676374
 20
3.8218184772
 30
0.0
 10
3.6215997442
 20
3.8102385879
 30
0.0
 10
3.5700741636
 20
3.8036470564
 30
0.0
 10
3.5209959264
 20
3.798703064
 30
0.0
 10
3.4845850429
 20
3.7962245837
 30
0.0
 10
3.4606190994
 20
3.7948455008
 30
0.0
  0
SPLINE
  5
52E
100
AcDbEntity
  8
0
100
AcDbSpline
 62
9
  6
CONTINUOUS
 70
0
 71
3
 72
9
 73
5
 74
0
 42
0.0000001
 43
0.0000001
 44
0.0000000001
 40
0.0
 40
0.0
 40
0.0
 40
0.0
 40
0.2495124434
 40
1.0
 40
1.0
 40
1.0
 40
1.0
 10
4.5149050682
 20
4.2928892521
 30
0.0
 10
4.4837288625
 20
4.291737928
 30
0.0
 10
4.3587635689
 20
4.2876104288
 30
0.0
 10
4.2337221694
 20
4.2856152126
 30
0.0
 10
4.1398859529
 20
4.2856152127
 30
0.0
  0
SPLINE
  5
52F
100
AcDbEntity
  8
0
100
AcDbSpline
 62
9
  6
CONTINUOUS
 70
0
 71
3
 72
9
 73
5
 74
0
 42
0.0000001
 43
0.0000001
 44
0.0000000001
 40
0.0
 40
0.0
 40
0.0
 40
0.0
 40
0.4940777472
 40
1.0
 40
1.0
 40
1.0
 40
1.0
 10
4.810016916
 20
4.096327726
 30
0.0
 10
4.7609762413
 20
4.1280394784
 30
0.0
 10
4.6616283327
 20
4.1920817777
 30
0.0
 10
4.5637358801
 20
4.2583731593
 30
0.0
 10
4.5149016261
 20
4.2928887239
 30
0.0
  0
SPLINE
  5
530
100
AcDbEntity
  8
0
100
AcDbSpline
 62
7
  6
CONTINUOUS
 70
0
 71
3
 72
19
 73
15
 74
0
 42
0.0000001
 43
0.0000001
 44
0.0000000001
 40
0.0
 40
0.0
 40
0.0
 40
0.0
 40
0.0090025607
 40
0.020138386
 40
0.0486255034
 40
0.0850921648
 40
0.129168691
 40
0.1804280855
 40
0.2382146308
 40
0.3705174673
 40
0.5200939335
 40
0.6798417598
 40
0.8423384904
 40
1.0
 40
1.0
 40
1.0
 40
1.0
 10
4.5230986948
 20
1.9298905238
 30
0.0
 10
4.5229425659
 20
1.9356394089
 30
0.0
 10
4.5226486584
 20
1.9485009346
 30
0.0
 10
4.5220836987
 20
1.9795587288
 30
0.0
 10
4.5214399522
 20
2.0281621703
 30
0.0
 10
4.5207405706
 20
2.097809291
 30
0.0
 10
4.5200774056
 20
2.182004704
 30
0.0
 10
4.5194514467
 20
2.2798202254
 30
0.0
 10
4.5186306314
 20
2.4339961928
 30
0.0
 10
4.5177440488
 20
2.6509793709
 30
0.0
 10
4.5168716347
 20
2.9330977463
 30
0.0
 10
4.5161538396
 20
3.2345050389
 30
0.0
 10
4.5155934334
 20
3.541077542
 30
0.0
 10
4.5153170422
 20
3.7456004577
 30
0.0
 10
4.515205194
 20
3.8463175274
 30
0.0
  0
SPLINE
  5
531
100
AcDbEntity
  8
0
100
AcDbSpline
 62
9
  6
CONTINUOUS
 70
0
 71
3
 72
15
 73
11
 74
0
 42
0.0000001
 43
0.0000001
 44
0.0000000001
 40
0.0
 40
0.0
 40
0.0
 40
0.0
 40
0.1268017712
 40
0.2540945011
 40
0.38126592
 40
0.5077594982
 40
0.6331681917
 40
0.757187403
 40
0.8795282604
 40
1.0
 40
1.0
 40
1.0
 40
1.0
 10
4.8650076282
 20
2.5133975536
 30
0.0
 10
4.8623719431
 20
2.4839339264
 30
0.0
 10
4.8538173924
 20
2.4251376258
 30
0.0
 10
4.8316132743
 20
2.3388428118
 30
0.0
 10
4.8003111934
 20
2.2554773787
 30
0.0
 10
4.7602199797
 20
2.1764412735
 30
0.0
 10
4.7116648212
 20
2.1031748442
 30
0.0
 10
4.6555827745
 20
2.0367561998
 30
0.0
 10
4.5928919816
 20
1.9782164687
 30
0.0
 10
4.5468900408
 20
1.9448517505
 30
0.0
 10
4.5230986948
 20
1.9298905238
 30
0.0
  0
SPLINE
  5
532
100
AcDbEntity
  8
0
100
AcDbSpline
 62
9
  6
CONTINUOUS
 70
0
 71
3
 72
13
 73
9
 74
0
 42
0.0000001
 43
0.0000001
 44
0.0000000001
 40
0.0
 40
0.0
 40
0.0
 40
0.0
 40
0.2526763444
 40
0.5029294066
 40
0.627455314
 40
0.7516969012
 40
0.8758135967
 40
1.0
 40
1.0
 40
1.0
 40
1.0
 10
4.5230986948
 20
1.9298905238
 30
0.0
 10
4.4942137757
 20
1.9118167291
 30
0.0
 10
4.4342752702
 20
1.8795923261
 30
0.0
 10
4.3547712435
 20
1.8498361583
 30
0.0
 10
4.2895872038
 20
1.8329307881
 30
0.0
 10
4.2400996182
 20
1.823770184
 30
0.0
 10
4.1901293293
 20
1.8182032578
 30
0.0
 10
4.1566325217
 20
1.8169490636
 30
0.0
 10
4.1398859587
 20
1.8169490636
 30
0.0
  0
SPLINE
  5
533
100
AcDbEntity
  8
0
100
AcDbSpline
 62
7
  6
CONTINUOUS
 70
0
 71
3
 72
19
 73
15
 74
0
 42
0.0000001
 43
0.0000001
 44
0.0000000001
 40
0.0
 40
0.0
 40
0.0
 40
0.0
 40
0.0090025607
 40
0.020138386
 40
0.0486255034
 40
0.0850921648
 40
0.129168691
 40
0.1804280855
 40
0.2382146308
 40
0.3705174673
 40
0.5200939335
 40
0.6798417598
 40
0.8423384904
 40
1.0
 40
1.0
 40
1.0
 40
1.0
 10
3.7566732225
 20
1.9298905238
 30
0.0
 10
3.7568293514
 20
1.9356394089
 30
0.0
 10
3.7571232589
 20
1.9485009346
 30
0.0
 10
3.7576882186
 20
1.9795587288
 30
0.0
 10
3.7583319651
 20
2.0281621703
 30
0.0
 10
3.7590313467
 20
2.097809291
 30
0.0
 10
3.7596945118
 20
2.182004704
 30
0.0
 10
3.7603204706
 20
2.2798202254
 30
0.0
 10
3.7611412859
 20
2.4339961928
 30
0.0
 10
3.7620278685
 20
2.6509793709
 30
0.0
 10
3.7629002826
 20
2.9330977463
 30
0.0
 10
3.7636180777
 20
3.2345050389
 30
0.0
 10
3.7641784839
 20
3.541077542
 30
0.0
 10
3.7644548751
 20
3.7456004577
 30
0.0
 10
3.7645667233
 20
3.8463175274
 30
0.0
  0
SPLINE
  5
534
100
AcDbEntity
  8
0
100
AcDbSpline
 62
9
  6
CONTINUOUS
 70
0
 71
3
 72
11
 73
7
 74
0
 42
0.0000001
 43
0.0000001
 44
0.0000000001
 40
0.0
 40
0.0
 40
0.0
 40
0.0
 40
0.2476825442
 40
0.4954517518
 40
0.7455712226
 40
1.0
 40
1.0
 40
1.0
 40
1.0
 10
4.1398859587
 20
1.8169490636
 30
0.0
 10
4.1064928691
 20
1.8169490636
 30
0.0
 10
4.039594739
 20
1.8218531822
 30
0.0
 10
3.9411301196
 20
1.8436436844
 30
0.0
 10
3.8458465834
 20
1.8793180024
 30
0.0
 10
3.7857546503
 20
1.9116987385
 30
0.0
 10
3.7566732225
 20
1.9298905238
 30
0.0
  0
SPLINE
  5
535
100
AcDbEntity
  8
0
100
AcDbSpline
 62
9
  6
CONTINUOUS
 70
0
 71
3
 72
14
 73
10
 74
0
 42
0.0000001
 43
0.0000001
 44
0.0000000001
 40
0.0
 40
0.0
 40
0.0
 40
0.0
 40
0.1195485267
 40
0.2419176811
 40
0.3664429184
 40
0.4923833209
 40
0.7459336981
 40
0.8731914634
 40
1.0
 40
1.0
 40
1.0
 40
1.0
 10
3.7566732225
 20
1.9298905238
 30
0.0
 10
3.733076957
 20
1.9447347562
 30
0.0
 10
3.6873041065
 20
1.9780191508
 30
0.0
 10
3.6247267092
 20
2.0364811257
 30
0.0
 10
3.5684208752
 20
2.1029951167
 30
0.0
 10
3.5031634798
 20
2.2009987659
 30
0.0
 10
3.4553436787
 20
2.310365083
 30
0.0
 10
3.4259152052
 20
2.4251658407
 30
0.0
 10
3.4173989762
 20
2.4839450831
 30
0.0
 10
3.4147642891
 20
2.5133975536
 30
0.0
  0
SPLINE
  5
536
100
AcDbEntity
  8
0
100
AcDbSpline
 62
9
  6
CONTINUOUS
 70
0
 71
3
 72
15
 73
11
 74
0
 42
0.0000001
 43
0.0000001
 44
0.0000000001
 40
0.0
 40
0.0
 40
0.0
 40
0.0
 40
0.2437278286
 40
0.3059759204
 40
0.3685498714
 40
0.4943268517
 40
0.6206448402
 40
0.747259901
 40
0.8738439969
 40
1.0
 40
1.0
 40
1.0
 40
1.0
 10
3.7561360226
 20
1.9107335983
 30
0.0
 10
3.7073711209
 20
1.9411766605
 30
0.0
 10
3.6509571339
 20
1.9878356922
 30
0.0
 10
3.5927606724
 20
2.0524005628
 30
0.0
 10
3.5558238666
 20
2.0985944196
 30
0.0
 10
3.5146862921
 20
2.1605977299
 30
0.0
 10
3.4744940954
 20
2.2405988693
 30
0.0
 10
3.4437040451
 20
2.3248597949
 30
0.0
 10
3.422567352
 20
2.4119870559
 30
0.0
 10
3.4150608736
 20
2.4712772452
 30
0.0
 10
3.4130187028
 20
2.5009631232
 30
0.0
  0
LINE
  5
537
100
AcDbEntity
  8
0
100
AcDbLine
 62
7
  6
CONTINUOUS
 10
3.7357407702
 20
12.4293176999
 11
3.3923859587
 21
13.0240256786
  0
SPLINE
  5
538
100
AcDbEntity
  8
0
100
AcDbSpline
 62
7
  6
CONTINUOUS
 70
0
 71
3
 72
16
 73
12
 74
0
 42
0.0000001
 43
0.0000001
 44
0.0000000001
 40
0.0
 40
0.0
 40
0.0
 40
0.0
 40
0.2065838086
 40
0.3906799314
 40
0.5516713508
 40
0.6892103429
 40
0.8030322737
 40
0.8929300555
 40
0.9586892493
 40
0.9824216239
 40
1.0
 40
1.0
 40
1.0
 40
1.0
 10
4.8874848853
 20
13.0239734016
 30
0.0
 10
4.8638380734
 20
12.9830159193
 30
0.0
 10
4.8190565662
 20
12.9055951672
 30
0.0
 10
4.7557710563
 20
12.7963000681
 30
0.0
 10
4.7005435793
 20
12.7006043635
 30
0.0
 10
4.6534423291
 20
12.6187939141
 30
0.0
 10
4.6144659917
 20
12.5510860292
 30
0.0
 10
4.583641614
 20
12.4976462395
 30
0.0
 10
4.5629876953
 20
12.4621497869
 30
0.0
 10
4.5506367029
 20
12.4409772411
 30
0.0
 10
4.5458805929
 20
12.4328028037
 30
0.0
 10
4.5438684673
 20
12.4293176999
 30
0.0
  0
LINE
  5
539
100
AcDbEntity
  8
0
100
AcDbLine
 62
7
  6
CONTINUOUS
 10
4.523635876
 20
1.9107335857
 11
4.5231058491
 21
1.9298950229
  0
SPLINE
  5
53A
100
AcDbEntity
  8
0
100
AcDbSpline
 62
9
  6
CONTINUOUS
 70
0
 71
3
 72
14
 73
10
 74
0
 42
0.0000001
 43
0.0000001
 44
0.0000000001
 40
0.0
 40
0.0
 40
0.0
 40
0.0
 40
0.2524343738
 40
0.3790595152
 40
0.5052227644
 40
0.6306224359
 40
0.7550315978
 40
0.878212196
 40
1.0
 40
1.0
 40
1.0
 40
1.0
 10
4.8667532145
 20
2.5009631232
 30
0.0
 10
4.8626667223
 20
2.4415601048
 30
0.0
 10
4.8461630053
 20
2.3526655123
 30
0.0
 10
4.8051770163
 20
2.24059055
 30
0.0
 10
4.7650959135
 20
2.160647665
 30
0.0
 10
4.716074561
 20
2.086498047
 30
0.0
 10
4.6590783607
 20
2.0191997713
 30
0.0
 10
4.5950599096
 20
1.9597998935
 30
0.0
 10
4.5480055924
 20
1.9259438693
 30
0.0
 10
4.523635876
 20
1.9107335857
 30
0.0
  0
SPLINE
  5
53B
100
AcDbEntity
  8
0
100
AcDbSpline
 62
9
  6
CONTINUOUS
 70
0
 71
3
 72
11
 73
7
 74
0
 42
0.0000001
 43
0.0000001
 44
0.0000000001
 40
0.0
 40
0.0
 40
0.0
 40
0.0
 40
0.2520006495
 40
0.5022360573
 40
0.7512811599
 40
1.0
 40
1.0
 40
1.0
 40
1.0
 10
4.523635667
 20
1.9107334409
 30
0.0
 10
4.4947803879
 20
1.8927817227
 30
0.0
 10
4.4347957657
 20
1.8608149778
 30
0.0
 10
4.3394824303
 20
1.8255758202
 30
0.0
 10
4.2406490226
 20
1.8038740752
 30
0.0
 10
4.1734270803
 20
1.7989133298
 30
0.0
 10
4.1398859587
 20
1.7989133298
 30
0.0
  0
LINE
  5
53C
100
AcDbEntity
  8
0
100
AcDbLine
 62
7
  6
CONTINUOUS
 10
3.7561360297
 20
1.9107338496
 11
3.7566660816
 21
1.929895348
  0
SPLINE
  5
53D
100
AcDbEntity
  8
0
100
AcDbSpline
 62
9
  6
CONTINUOUS
 70
0
 71
3
 72
11
 73
7
 74
0
 42
0.0000001
 43
0.0000001
 44
0.0000000001
 40
0.0
 40
0.0
 40
0.0
 40
0.0
 40
0.2482983247
 40
0.4966159389
 40
0.7466821276
 40
1.0
 40
1.0
 40
1.0
 40
1.0
 10
4.1398859587
 20
1.7989133298
 30
0.0
 10
4.1063984849
 20
1.7989133298
 30
0.0
 10
4.039323661
 20
1.8037757586
 30
0.0
 10
3.9406258847
 20
1.8253288606
 30
0.0
 10
3.8452472934
 20
1.8605983724
 30
0.0
 10
3.7851463512
 20
1.8926883606
 30
0.0
 10
3.7561362656
 20
1.9107334306
 30
0.0
  0
SPLINE
  5
53E
100
AcDbEntity
  8
0
100
AcDbSpline
 62
7
  6
CONTINUOUS
 70
0
 71
3
 72
10
 73
6
 74
0
 42
0.0000001
 43
0.0000001
 44
0.0000000001
 40
0.0
 40
0.0
 40
0.0
 40
0.0
 40
0.2315023889
 40
0.6002788588
 40
1.0
 40
1.0
 40
1.0
 40
1.0
 10
2.6448859587
 20
11.7293176999
 30
0.0
 10
2.6631839317
 20
11.7145249012
 30
0.0
 10
2.7087448029
 20
11.6737954371
 30
0.0
 10
2.7766200473
 20
11.5977867634
 30
0.0
 10
2.8217711178
 20
11.5338516022
 30
0.0
 10
2.8436541286
 20
11.4996215023
 30
0.0
  0
SPLINE
  5
53F
100
AcDbEntity
  8
0
100
AcDbSpline
 62
7
  6
CONTINUOUS
 70
0
 71
3
 72
11
 73
7
 74
0
 42
0.0000001
 43
0.0000001
 44
0.0000000001
 40
0.0
 40
0.0
 40
0.0
 40
0.0
 40
0.2701937153
 40
0.4632806036
 40
0.6488360305
 40
1.0
 40
1.0
 40
1.0
 40
1.0
 10
5.4361177887
 20
11.4996215023
 30
0.0
 10
5.4509115696
 20
11.5227624038
 30
0.0
 10
5.4775301267
 20
11.561664705
 30
0.0
 10
5.5181783606
 20
11.6136519659
 30
0.0
 10
5.5672347308
 20
11.6693339255
 30
0.0
 10
5.6071264715
 20
11.7068758423
 30
0.0
 10
5.6348859587
 20
11.7293176999
 30
0.0
  0
LINE
  5
540
100
AcDbEntity
  8
0
100
AcDbLine
 62
7
  6
CONTINUOUS
 10
4.8723859583
 20
2.4616971322
 11
4.8667547091
 21
2.50094314
  0
SPLINE
  5
541
100
AcDbEntity
  8
0
100
AcDbSpline
 62
9
  6
CONTINUOUS
 70
0
 71
3
 72
16
 73
12
 74
0
 42
0.0000001
 43
0.0000001
 44
0.0000000001
 40
0.0
 40
0.0
 40
0.0
 40
0.0
 40
0.1652228638
 40
0.3193478219
 40
0.462143946
 40
0.5933947337
 40
0.7129139619
 40
0.8205750174
 40
0.9162857162
 40
0.9596439281
 40
1.0
 40
1.0
 40
1.0
 40
1.0
 10
5.3473223052
 20
11.3396613594
 30
0.0
 10
5.3088764385
 20
11.3353277344
 30
0.0
 10
5.2345953112
 20
11.3266965557
 30
0.0
 10
5.1272225608
 20
11.3131827892
 30
0.0
 10
5.027906409
 20
11.2994138132
 30
0.0
 10
4.9368350157
 20
11.2852603821
 30
0.0
 10
4.854187472
 20
11.2705867126
 30
0.0
 10
4.7801039485
 20
11.2554253061
 30
0.0
 10
4.7238905694
 20
11.2420154977
 30
0.0
 10
4.6833556508
 20
11.2309503593
 30
0.0
 10
4.6645726164
 20
11.2253308702
 30
0.0
 10
4.6555595393
 20
11.222490761
 30
0.0
  0
SPLINE
  5
542
100
AcDbEntity
  8
0
100
AcDbSpline
 62
9
  6
CONTINUOUS
 70
0
 71
3
 72
15
 73
11
 74
0
 42
0.0000001
 43
0.0000001
 44
0.0000000001
 40
0.0
 40
0.0
 40
0.0
 40
0.0
 40
0.1544989475
 40
0.3009066406
 40
0.4390360425
 40
0.5687102589
 40
0.6897700475
 40
0.802082673
 40
0.9055283027
 40
1.0
 40
1.0
 40
1.0
 40
1.0
 10
5.2612624492
 20
11.1354659036
 30
0.0
 10
5.2253614929
 20
11.1315961254
 30
0.0
 10
5.155458977
 20
11.1238780947
 30
0.0
 10
5.0535550994
 20
11.1118512216
 30
0.0
 10
4.9575321712
 20
11.0995314317
 30
0.0
 10
4.8675451334
 20
11.0867710575
 30
0.0
 10
4.783747852
 20
11.0734170563
 30
0.0
 10
4.706261166
 20
11.0595040542
 30
0.0
 10
4.6351996845
 20
11.0450712397
 30
0.0
 10
4.5901233181
 20
11.0346530858
 30
0.0
 10
4.5686980511
 20
11.0293177852
 30
0.0
  0
SPLINE
  5
543
100
AcDbEntity
  8
0
100
AcDbSpline
 62
9
  6
CONTINUOUS
 70
0
 71
3
 72
12
 73
8
 74
0
 42
0.0000001
 43
0.0000001
 44
0.0000000001
 40
0.0
 40
0.0
 40
0.0
 40
0.0
 40
0.280280334
 40
0.413198823
 40
0.5411091002
 40
0.7813601525
 40
1.0
 40
1.0
 40
1.0
 40
1.0
 10
5.1441312235
 20
10.7408908372
 30
0.0
 10
5.0852535606
 20
10.7382074947
 30
0.0
 10
4.9984581465
 20
10.7341445755
 30
0.0
 10
4.8848391001
 20
10.7279469701
 30
0.0
 10
4.7796698039
 20
10.7214359263
 30
0.0
 10
4.6566240342
 20
10.7120372384
 30
0.0
 10
4.5605788205
 20
10.7025933982
 30
0.0
 10
4.5148861424
 20
10.6974908221
 30
0.0
  0
LINE
  5
544
100
AcDbEntity
  8
0
100
AcDbLine
 62
7
  6
CONTINUOUS
 10
3.407385959
 20
2.4616965392
 11
3.413020119
 21
2.5009425408
  0
SPLINE
  5
545
100
AcDbEntity
  8
0
100
AcDbSpline
 62
9
  6
CONTINUOUS
 70
0
 71
3
 72
9
 73
5
 74
0
 42
0.0000001
 43
0.0000001
 44
0.0000000001
 40
0.0
 40
0.0
 40
0.0
 40
0.0
 40
0.5059221349
 40
1.0
 40
1.0
 40
1.0
 40
1.0
 10
3.7648702912
 20
4.2928887239
 30
0.0
 10
3.7163169289
 20
4.2579815677
 30
0.0
 10
3.6180104926
 20
4.192275723
 30
0.0
 10
3.5188015477
 20
4.1280432649
 30
0.0
 10
3.469762011
 20
4.0963322587
 30
0.0
  0
SPLINE
  5
546
100
AcDbEntity
  8
0
100
AcDbSpline
 62
9
  6
CONTINUOUS
 70
0
 71
3
 72
12
 73
8
 74
0
 42
0.0000001
 43
0.0000001
 44
0.0000000001
 40
0.0
 40
0.0
 40
0.0
 40
0.0
 40
0.2802798173
 40
0.413198168
 40
0.5411083917
 40
0.7813596058
 40
1.0
 40
1.0
 40
1.0
 40
1.0
 10
3.1356406938
 20
10.7408908372
 30
0.0
 10
3.1945175844
 20
10.7382075299
 30
0.0
 10
3.2813118825
 20
10.7341446641
 30
0.0
 10
3.3949295004
 20
10.7279471589
 30
0.0
 10
3.5000976073
 20
10.7214362321
 30
0.0
 10
3.6231421334
 20
10.7120377254
 30
0.0
 10
3.7191864224
 20
10.7025940798
 30
0.0
 10
3.7648787067
 20
10.6974916114
 30
0.0
  0
SPLINE
  5
547
100
AcDbEntity
  8
0
100
AcDbSpline
 62
9
  6
CONTINUOUS
 70
0
 71
3
 72
15
 73
11
 74
0
 42
0.0000001
 43
0.0000001
 44
0.0000000001
 40
0.0
 40
0.0
 40
0.0
 40
0.0
 40
0.1544989504
 40
0.3009066462
 40
0.4390360502
 40
0.5687102674
 40
0.6897700552
 40
0.8020826787
 40
0.9055283057
 40
1.0
 40
1.0
 40
1.0
 40
1.0
 10
3.0185094681
 20
11.1354659036
 30
0.0
 10
3.0544104267
 20
11.1315961251
 30
0.0
 10
3.124312947
 20
11.123878094
 30
0.0
 10
3.2262168309
 20
11.1118512201
 30
0.0
 10
3.3222397648
 20
11.0995314294
 30
0.0
 10
3.412226807
 20
11.0867710542
 30
0.0
 10
3.4960240916
 20
11.0734170521
 30
0.0
 10
3.5735107797
 20
11.059504049
 30
0.0
 10
3.6445722625
 20
11.0450712334
 30
0.0
 10
3.6896486295
 20
11.0346530786
 30
0.0
 10
3.7110738966
 20
11.0293177777
 30
0.0
  0
ENDSEC
  0
SECTION
  2
OBJECTS
  0
DICTIONARY
  5
C
100
AcDbDictionary
280
0
281
1
  3
ACAD_GROUP
350
D
  3
ACAD_MLINESTYLE
350
17
  3
ACAD_LAYOUT
350
1A
  3
ACAD_PLOTSETTINGS
350
19
  3
ACAD_PLOTSTYLENAME
350
E
  0
DICTIONARY
  5
D
102
{ACAD_REACTORS
330
C
102
}
100
AcDbDictionary
280
0
281
1
  0
ACDBDICTIONARYWDFLT
  5
E
102
{ACAD_REACTORS
330
C
102
}
100
AcDbDictionary
281
1
  3
Normal
350
F
100
AcDbDictionaryWithDefault
340
F
  0
DICTIONARY
  5
17
102
{ACAD_REACTORS
330
C
102
}
100
AcDbDictionary
280
0
281
1
  3
Standard
350
18
  0
DICTIONARY
  5
19
102
{ACAD_REACTORS
330
C
102
}
100
AcDbDictionary
281
1
  0
DICTIONARY
  5
1A
102
{ACAD_REACTORS
330
C
102
}
100
AcDbDictionary
281
1
  3
Model
350
548
  3
Layout1
350
549
  0
ACDBPLACEHOLDER
  5
F
102
{ACAD_REACTORS
330
E
102
}
  0
MLINESTYLE
  5
18
102
{ACAD_REACTORS
330
17
102
}
100
AcDbMlineStyle
  2
STANDARD
 70
0
  3

 62
256
 51
90.0
 52
90.0
 71
2
 49
0.5
 62
256
  6
BYLAYER
 49
-0.5
 62
256
  6
BYLAYER
  0
LAYOUT
  5
548
102
{ACAD_REACTORS
330
1A
102
}
100
AcDbPlotSettings
  1

  2
none_device
  4
ANSI_C_(22.00_x_17.00_Inches)
  6

 40
0.0
 41
0.0
 42
0.0
 43
0.0
 44
558.8
 45
431.8
 46
0.0
 47
0.0
 48
0.0
 49
0.0
140
0.0
141
0.0
142
1.0
143
1.0
 70
1024
 72
0
 73
0
 74
0
  7

 75
0
147
1.0
148
0.0
149
0.0
100
AcDbLayout
  1
Model
 70
0
 71
0
 10
0.0
 20
0.0
 11
22.0
 21
17.0
 12
0.0
 22
0.0
 32
0.0
 14
0.0
 24
0.0
 34
0.0
 15
0.0
 25
0.0
 35
0.0
146
0.0
 13
0.0
 23
0.0
 33
0.0
 16
1.0
 26
0.0
 36
0.0
 17
0.0
 27
1.0
 37
0.0
 76
0
330
202
345
0
346
0
  0
LAYOUT
  5
549
102
{ACAD_REACTORS
330
1A
102
}
100
AcDbPlotSettings
  1

  2
none_device
  4
ANSI_C_(22.00_x_17.00_Inches)
  6

 40
0.0
 41
0.0
 42
0.0
 43
0.0
 44
558.8
 45
431.8
 46
0.0
 47
0.0
 48
0.0
 49
0.0
140
0.0
141
0.0
142
1.0
143
1.0
 70
0
 72
0
 73
0
 74
0
  7

 75
0
147
1.0
148
0.0
149
0.0
100
AcDbLayout
  1
Layout1
 70
0
 71
1
 10
0.0
 20
0.0
 11
22.0
 21
17.0
 12
0.0
 22
0.0
 32
0.0
 14
0.0
 24
0.0
 34
0.0
 15
0.0
 25
0.0
 35
0.0
146
0.0
 13
0.0
 23
0.0
 33
0.0
 16
1.0
 26
0.0
 36
0.0
 17
0.0
 27
1.0
 37
0.0
 76
0
330
203
345
0
346
0
  0
ENDSEC
  0
EOF
