999
DXF file: 3-9301l_front.dxf
999
Pro/ENGINEER 2018400 by Parametric Technology Corporation
  0
SECTION
  2
HEADER
  9
$ACADVER
  1
AC1027
  9
$DWGCODEPAGE
  3
ANSI_1252
  9
$EXTMAX
 10
11.0
 20
8.5
 30
0.0
  9
$EXTMIN
 10
0.0
 20
0.0
 30
0.0
  9
$LIMMIN
 10
0.0
 20
0.0
  9
$LIMMAX
 10
11.0
 20
8.5
  9
$VIEWCTR
 10
5.5
 20
4.25
  9
$VIEWSIZE
 40
8.5
  9
$CLAYER
  8
0
  9
$LTSCALE
 40
0.605
  9
$CELTYPE
  6
BYLAYER
  9
$DIMSCALE
 40
1.0
  9
$DIMASZ
 40
0.1
  9
$DIMEXO
 40
0.0625
  9
$DIMDLI
 40
0.418
  9
$DIMEXE
 40
0.125
  9
$DIMCEN
 40
0.099
  9
$DIMLFAC
 40
1.0
  9
$DIMBLK
  1
_FILLED
  9
$DIMALT
 70
1
  9
$DIMALTD
 70
2
  9
$DIMALTTD
 70
2
  9
$DIMALTF
 40
25.4
  9
$DIMTXT
 40
0.08
  9
$DIMTOL
 70
1
  9
$DIMLIM
 70
0
  9
$DIMTFAC
 40
1.0
  9
$DIMTP
 40
0.001
  9
$DIMTM
 40
0.001
  9
$DIMGAP
 40
0.09
  9
$DIMDSEP
 70
46
  9
$AUNITS
 70
0
  9
$PDMODE
 70
3
  9
$PDSIZE
 40
0.3125
  9
$HANDSEED
  5
2C9
  9
$TILEMODE
 70
1
  9
$MEASUREMENT
 70
0
  9
$INSUNITS
 70
1
  0
ENDSEC
  0
SECTION
  2
CLASSES
  0
CLASS
  1
ACDBDICTIONARYWDFLT
  2
AcDbDictionaryWithDefault
  3
AutoCAD 2000
 90
0
 91
1
280
0
281
0
  0
CLASS
  1
ACDBPLACEHOLDER
  2
AcDbPlaceHolder
  3
AutoCAD 2000
 90
0
 91
1
280
0
281
0
  0
CLASS
  1
LAYOUT
  2
AcDbLayout
  3
AutoCAD 2000
 90
0
 91
0
280
0
281
0
  0
ENDSEC
  0
SECTION
  2
TABLES
  0
TABLE
  2
VPORT
  5
8
100
AcDbSymbolTable
 70
2
  0
VPORT
  5
1F4
100
AcDbSymbolTableRecord
100
AcDbViewportTableRecord
  2
*ACTIVE
 70
0
 10
0.0
 20
0.0
 11
1.0
 21
1.0
 12
5.5
 22
4.25
 13
0.0
 23
0.0
 14
1.0
 24
1.0
 15
0.0
 25
0.0
 16
0.0
 26
0.0
 36
1.0
 17
0.0
 27
0.0
 37
0.0
 40
8.5
 41
1.2941176471
 42
50.0
 43
0.0
 44
0.0
 50
0.0
 51
0.0
 71
0
 72
100
 73
1
 74
1
 75
0
 76
0
 77
0
 78
0
  0
ENDTAB
  0
TABLE
  2
LTYPE
  5
5
100
AcDbSymbolTable
 70
6
  0
LTYPE
  5
14
100
AcDbSymbolTableRecord
100
AcDbLinetypeTableRecord
  2
BYBLOCK
 70
0
  3

 72
65
 73
0
 40
0.0
  0
LTYPE
  5
15
100
AcDbSymbolTableRecord
100
AcDbLinetypeTableRecord
  2
BYLAYER
 70
0
  3

 72
65
 73
0
 40
0.0
  0
LTYPE
  5
16
100
AcDbSymbolTableRecord
100
AcDbLinetypeTableRecord
  2
CONTINUOUS
 70
64
  3
Solid line
 72
65
 73
0
 40
0.0
  0
LTYPE
  5
1F5
100
AcDbSymbolTableRecord
100
AcDbLinetypeTableRecord
  2
CENTER
 70
64
  3
____ _ ____ _ ____ _ ____ _ ____ _ ____ _ ____
 72
65
 73
4
 40
0.6
 49
0.375
 74
0
 49
-0.075
 74
0
 49
0.075
 74
0
 49
-0.075
 74
0
  0
LTYPE
  5
1F6
100
AcDbSymbolTableRecord
100
AcDbLinetypeTableRecord
  2
HIDDEN
 70
64
  3
- - - - - - - - - - - - - - - - - - - -
 72
65
 73
2
 40
0.2
 49
0.1
 74
0
 49
-0.1
 74
0
  0
LTYPE
  5
1F7
100
AcDbSymbolTableRecord
100
AcDbLinetypeTableRecord
  2
PHANTOM
 70
64
  3
_____ _ _ _____ _ _ _____ _ _ _____
 72
65
 73
6
 40
0.8
 49
0.45
 74
0
 49
-0.05
 74
0
 49
0.1
 74
0
 49
-0.05
 74
0
 49
0.1
 74
0
 49
-0.05
 74
0
  0
LTYPE
  5
1F8
100
AcDbSymbolTableRecord
100
AcDbLinetypeTableRecord
  2
DOT
 70
64
  3
. . . . . . . . . . . . . . . . . . . .
 72
65
 73
2
 40
0.2
 49
0.1
 74
0
 49
-0.1
 74
0
  0
LTYPE
  5
1F9
100
AcDbSymbolTableRecord
100
AcDbLinetypeTableRecord
  2
DASHED
 70
64
  3
- - - - - - - - - - - - - - - - - - - -
 72
65
 73
2
 40
0.2
 49
0.1
 74
0
 49
-0.1
 74
0
  0
ENDTAB
  0
TABLE
  2
LAYER
  5
2
100
AcDbSymbolTable
 70
36
  0
LAYER
  5
10
100
AcDbSymbolTableRecord
100
AcDbLayerTableRecord
  2
0
 70
0
 62
7
  6
CONTINUOUS
370
-3
390
F
  0
LAYER
  5
1FA
100
AcDbSymbolTableRecord
100
AcDbLayerTableRecord
  2
DEFAULT_1
 70
0
 62
7
  6
CENTER
370
-3
390
F
  0
LAYER
  5
1FB
100
AcDbSymbolTableRecord
100
AcDbLayerTableRecord
  2
DEFAULT_2
 70
0
 62
8
  6
HIDDEN
370
-3
390
F
  0
LAYER
  5
1FC
100
AcDbSymbolTableRecord
100
AcDbLayerTableRecord
  2
DEFAULT_3
 70
0
 62
7
  6
PHANTOM
370
-3
390
F
  0
LAYER
  5
1FD
100
AcDbSymbolTableRecord
100
AcDbLayerTableRecord
  2
2-116_ASSY_DATUMS
 70
0
 62
7
  6
CONTINUOUS
370
-3
390
F
  0
LAYER
  5
1FE
100
AcDbSymbolTableRecord
100
AcDbLayerTableRecord
  2
2-218_ASSY_PLANES
 70
0
 62
7
  6
CONTINUOUS
370
-3
390
F
  0
LAYER
  5
1FF
100
AcDbSymbolTableRecord
100
AcDbLayerTableRecord
  2
2-259_ASSY_PLANES
 70
0
 62
7
  6
CONTINUOUS
370
-3
390
F
  0
LAYER
  5
200
100
AcDbSymbolTableRecord
100
AcDbLayerTableRecord
  2
ALL_ASSEMBLY_MEMBERS
 70
0
 62
7
  6
CONTINUOUS
370
-3
390
F
  0
LAYER
  5
201
100
AcDbSymbolTableRecord
100
AcDbLayerTableRecord
  2
ALL_FEATURES
 70
0
 62
7
  6
CONTINUOUS
370
-3
390
F
  0
LAYER
  5
202
100
AcDbSymbolTableRecord
100
AcDbLayerTableRecord
  2
AXES_FEATURES
 70
0
 62
7
  6
CONTINUOUS
370
-3
390
F
  0
LAYER
  5
203
100
AcDbSymbolTableRecord
100
AcDbLayerTableRecord
  2
CHAMFER_FEATURES
 70
0
 62
7
  6
CONTINUOUS
370
-3
390
F
  0
LAYER
  5
204
100
AcDbSymbolTableRecord
100
AcDbLayerTableRecord
  2
CURVES
 70
0
 62
7
  6
CONTINUOUS
370
-3
390
F
  0
LAYER
  5
205
100
AcDbSymbolTableRecord
100
AcDbLayerTableRecord
  2
CUT_FEATURES
 70
0
 62
7
  6
CONTINUOUS
370
-3
390
F
  0
LAYER
  5
206
100
AcDbSymbolTableRecord
100
AcDbLayerTableRecord
  2
DATUM_CURVES
 70
0
 62
7
  6
CONTINUOUS
370
-3
390
F
  0
LAYER
  5
207
100
AcDbSymbolTableRecord
100
AcDbLayerTableRecord
  2
DATUM_PLANES
 70
0
 62
7
  6
CONTINUOUS
370
-3
390
F
  0
LAYER
  5
208
100
AcDbSymbolTableRecord
100
AcDbLayerTableRecord
  2
DATUM_SHAPER
 70
0
 62
7
  6
CONTINUOUS
370
-3
390
F
  0
LAYER
  5
209
100
AcDbSymbolTableRecord
100
AcDbLayerTableRecord
  2
DEFAULT_COORDINATE_SYSTEM
 70
0
 62
7
  6
CONTINUOUS
370
-3
390
F
  0
LAYER
  5
20A
100
AcDbSymbolTableRecord
100
AcDbLayerTableRecord
  2
DEFAULT_DATUM_AXES
 70
0
 62
7
  6
CONTINUOUS
370
-3
390
F
  0
LAYER
  5
20B
100
AcDbSymbolTableRecord
100
AcDbLayerTableRecord
  2
DEFAULT_DATUM_CURVES
 70
0
 62
7
  6
CONTINUOUS
370
-3
390
F
  0
LAYER
  5
20C
100
AcDbSymbolTableRecord
100
AcDbLayerTableRecord
  2
DEFAULT_DATUM_PLANES
 70
0
 62
7
  6
CONTINUOUS
370
-3
390
F
  0
LAYER
  5
20D
100
AcDbSymbolTableRecord
100
AcDbLayerTableRecord
  2
DEFAULT_SURFACES
 70
0
 62
7
  6
CONTINUOUS
370
-3
390
F
  0
LAYER
  5
20E
100
AcDbSymbolTableRecord
100
AcDbLayerTableRecord
  2
DIMENSIONS
 70
0
 62
7
  6
CONTINUOUS
370
-3
390
F
  0
LAYER
  5
20F
100
AcDbSymbolTableRecord
100
AcDbLayerTableRecord
  2
PART_REFERENCE_DIMENSIONS
 70
0
 62
7
  6
CONTINUOUS
370
-3
390
F
  0
LAYER
  5
210
100
AcDbSymbolTableRecord
100
AcDbLayerTableRecord
  2
PLATED_SURFACE_AREA
 70
0
 62
7
  6
CONTINUOUS
370
-3
390
F
  0
LAYER
  5
211
100
AcDbSymbolTableRecord
100
AcDbLayerTableRecord
  2
PROTRUSION_FEATURES
 70
0
 62
7
  6
CONTINUOUS
370
-3
390
F
  0
LAYER
  5
212
100
AcDbSymbolTableRecord
100
AcDbLayerTableRecord
  2
QUILT
 70
0
 62
7
  6
CONTINUOUS
370
-3
390
F
  0
LAYER
  5
213
100
AcDbSymbolTableRecord
100
AcDbLayerTableRecord
  2
QUILTS
 70
0
 62
7
  6
CONTINUOUS
370
-3
390
F
  0
LAYER
  5
214
100
AcDbSymbolTableRecord
100
AcDbLayerTableRecord
  2
REFERENCE_DIMENSIONS
 70
0
 62
7
  6
CONTINUOUS
370
-3
390
F
  0
LAYER
  5
215
100
AcDbSymbolTableRecord
100
AcDbLayerTableRecord
  2
ROUND_FEATURES
 70
0
 62
7
  6
CONTINUOUS
370
-3
390
F
  0
LAYER
  5
216
100
AcDbSymbolTableRecord
100
AcDbLayerTableRecord
  2
SET_SCRW_MATE
 70
0
 62
7
  6
CONTINUOUS
370
-3
390
F
  0
LAYER
  5
217
100
AcDbSymbolTableRecord
100
AcDbLayerTableRecord
  2
SHELL_FEATURES
 70
0
 62
7
  6
CONTINUOUS
370
-3
390
F
  0
LAYER
  5
218
100
AcDbSymbolTableRecord
100
AcDbLayerTableRecord
  2
SIZE_REF
 70
0
 62
7
  6
CONTINUOUS
370
-3
390
F
  0
LAYER
  5
219
100
AcDbSymbolTableRecord
100
AcDbLayerTableRecord
  2
WETTED_SURFACE_AREA
 70
0
 62
7
  6
CONTINUOUS
370
-3
390
F
  0
LAYER
  5
21A
100
AcDbSymbolTableRecord
100
AcDbLayerTableRecord
  2
XSEC_DATUMS
 70
0
 62
7
  6
CONTINUOUS
370
-3
390
F
  0
ENDTAB
  0
TABLE
  2
STYLE
  5
3
100
AcDbSymbolTable
 70
1
  0
STYLE
  5
11
100
AcDbSymbolTableRecord
100
AcDbTextStyleTableRecord
  2
STANDARD
 70
0
 40
0.0
 41
0.8
 50
0.0
 71
0
 42
0.2
  3
txt
  4

  0
STYLE
  5
21B
100
AcDbSymbolTableRecord
100
AcDbTextStyleTableRecord
  2
TEXTSTYLE_1
 70
0
 40
0.0
 41
0.8
 50
0.0
 71
0
 42
0.2
  3
gdt
  4

  0
ENDTAB
  0
TABLE
  2
VIEW
  5
6
100
AcDbSymbolTable
 70
0
  0
ENDTAB
  0
TABLE
  2
UCS
  5
7
100
AcDbSymbolTable
 70
0
  0
ENDTAB
  0
TABLE
  2
APPID
  5
9
100
AcDbSymbolTable
 70
1
  0
APPID
  5
21C
100
AcDbSymbolTableRecord
100
AcDbRegAppTableRecord
  2
ACAD
 70
0
  0
ENDTAB
  0
TABLE
  2
BLOCK_RECORD
  5
1
100
AcDbSymbolTable
 70
0
  0
BLOCK_RECORD
  5
21D
100
AcDbSymbolTableRecord
100
AcDbBlockTableRecord
  2
*Model_Space
  0
BLOCK_RECORD
  5
21E
100
AcDbSymbolTableRecord
100
AcDbBlockTableRecord
  2
*Paper_Space
  0
BLOCK_RECORD
  5
21F
100
AcDbSymbolTableRecord
100
AcDbBlockTableRecord
  2
_FILLED
  0
ENDTAB
  0
TABLE
  2
DIMSTYLE
  5
A
100
AcDbSymbolTable
 70
1
100
AcDbDimStyleTable
 71
0
  0
DIMSTYLE
105
220
100
AcDbSymbolTableRecord
100
AcDbDimStyleTableRecord
  2
STANDARD
 70
0
  3

  4

 40
1.0
 41
0.1
 42
0.0625
 43
0.38
 44
0.125
 45
0.0
 46
0.0
 47
0.001
 48
0.001
140
0.08
141
0.09
142
0.0
143
25.4
144
1.0
145
0.0
146
1.0
147
0.09
 71
1.0
 72
0.0
 73
1
 74
1
 75
0
 76
0
 77
0
 78
4
 79
1
170
1
171
2
172
0
173
0
174
0
175
0
176
0
177
0
178
0
270
2
179
3
271
3
272
3
273
2
274
2
275
0
280
0
281
0
282
0
283
1
284
4
285
0
286
0
287
3
288
0
340
11
278
46
341
21F
342
21F
343
21F
344
21F
  0
ENDTAB
  0
ENDSEC
  0
SECTION
  2
BLOCKS
  0
BLOCK
  5
20
100
AcDbEntity
  8
0
100
AcDbBlockBegin
  2
*Model_Space
 70
0
 10
0.0
 20
0.0
 30
0.0
  3
*Model_Space
  1

  0
ENDBLK
  5
21
100
AcDbEntity
  8
0
100
AcDbBlockEnd
  0
BLOCK
  5
1C
100
AcDbEntity
  8
0
100
AcDbBlockBegin
  2
*Paper_Space
 70
0
 10
0.0
 20
0.0
 30
0.0
  3
*Paper_Space
  1

  0
ENDBLK
  5
1D
100
AcDbEntity
  8
0
100
AcDbBlockEnd
  0
BLOCK
  5
221
100
AcDbEntity
  8
0
100
AcDbBlockBegin
  2
_FILLED
 70
64
 10
0.0
 20
0.0
  3
_FILLED
  1

  0
SOLID
  5
222
100
AcDbEntity
  8
0
  6
BYBLOCK
 62
0
100
AcDbTrace
 10
0.0
 20
0.0
 11
-1.0
 21
0.2
 12
-1.0
 22
-0.2
 13
-1.0
 23
-0.2
  0
ENDBLK
  5
223
100
AcDbEntity
  8
0
  6
BYBLOCK
 62
0
100
AcDbBlockEnd
  0
ENDSEC
  0
SECTION
  2
ENTITIES
  0
MTEXT
  5
224
100
AcDbEntity
  8
0
100
AcDbMText
 62
2
  6
CONTINUOUS
  7
STANDARD
 71
3
 72
1
 10
3.1364518634
 20
2.7194183529
 30
0.0
 11
1.0
 21
0.0
 31
0.0
 73
2
 44
0.9
  1
SCALE  .500
 40
0.08
 41
0.704
  0
LINE
  5
225
100
AcDbEntity
  8
0
100
AcDbLine
 62
7
  6
CONTINUOUS
 10
0.0
 20
0.0
 11
0.0
 21
8.5
  0
LINE
  5
226
100
AcDbEntity
  8
0
100
AcDbLine
 62
7
  6
CONTINUOUS
 10
0.0
 20
0.0
 11
11.0
 21
0.0
  0
LINE
  5
227
100
AcDbEntity
  8
0
100
AcDbLine
 62
7
  6
CONTINUOUS
 10
0.0
 20
8.5
 11
11.0
 21
8.5
  0
LINE
  5
228
100
AcDbEntity
  8
0
100
AcDbLine
 62
7
  6
CONTINUOUS
 10
11.0
 20
0.0
 11
11.0
 21
8.5
  0
LINE
  5
229
100
AcDbEntity
  8
ALL_ASSEMBLY_MEMBERS
100
AcDbLine
 62
7
  6
CONTINUOUS
 10
1.829439441
 20
4.6770645664
 11
1.829439441
 21
4.9145645664
  0
LINE
  5
22A
100
AcDbEntity
  8
ALL_ASSEMBLY_MEMBERS
100
AcDbLine
 62
7
  6
CONTINUOUS
 10
1.8944683587
 20
4.6877163022
 11
1.8944683587
 21
4.9039128306
  0
LINE
  5
22B
100
AcDbEntity
  8
ALL_ASSEMBLY_MEMBERS
100
AcDbLine
 62
7
  6
CONTINUOUS
 10
1.990939441
 20
4.6865645664
 11
1.990939441
 21
4.9050645664
  0
LINE
  5
22C
100
AcDbEntity
  8
ALL_ASSEMBLY_MEMBERS
100
AcDbLine
 62
7
  6
CONTINUOUS
 10
2.1628193134
 20
4.5986899122
 11
2.1628193134
 21
4.9929392206
  0
LINE
  5
22D
100
AcDbEntity
  8
ALL_ASSEMBLY_MEMBERS
100
AcDbLine
 62
7
  6
CONTINUOUS
 10
2.6902373995
 20
4.7012096028
 11
2.6902373995
 21
4.89041953
  0
LINE
  5
22E
100
AcDbEntity
  8
ALL_ASSEMBLY_MEMBERS
100
AcDbLine
 62
7
  6
CONTINUOUS
 10
3.086939441
 20
4.6708145664
 11
3.086939441
 21
4.9208145664
  0
LINE
  5
22F
100
AcDbEntity
  8
ALL_ASSEMBLY_MEMBERS
100
AcDbLine
 62
7
  6
CONTINUOUS
 10
3.109439441
 20
4.6708145664
 11
3.109439441
 21
4.9208145664
  0
LINE
  5
230
100
AcDbEntity
  8
ALL_ASSEMBLY_MEMBERS
100
AcDbLine
 62
7
  6
CONTINUOUS
 10
3.121939441
 20
4.9209395046
 11
3.121939441
 21
4.6706896298
  0
LINE
  5
231
100
AcDbEntity
  8
ALL_ASSEMBLY_MEMBERS
100
AcDbLine
 62
7
  6
CONTINUOUS
 10
3.0439244383
 20
4.5277995637
 11
2.9987473244
 21
4.6964028481
  0
LINE
  5
232
100
AcDbEntity
  8
ALL_ASSEMBLY_MEMBERS
100
AcDbLine
 62
7
  6
CONTINUOUS
 10
2.9480588542
 20
4.8855747941
 11
2.9458241387
 21
4.893914866
  0
LINE
  5
233
100
AcDbEntity
  8
ALL_ASSEMBLY_MEMBERS
100
AcDbLine
 62
7
  6
CONTINUOUS
 10
2.9458241387
 20
4.893914866
 11
3.2138391414
 21
5.1619298687
  0
LINE
  5
234
100
AcDbEntity
  8
ALL_ASSEMBLY_MEMBERS
100
AcDbLine
 62
7
  6
CONTINUOUS
 10
3.109439441
 20
4.6708145664
 11
3.121939441
 21
4.6833145664
  0
LINE
  5
235
100
AcDbEntity
  8
ALL_ASSEMBLY_MEMBERS
100
AcDbLine
 62
7
  6
CONTINUOUS
 10
3.109439441
 20
4.9208145664
 11
3.121939441
 21
4.9083145664
  0
LINE
  5
236
100
AcDbEntity
  8
ALL_ASSEMBLY_MEMBERS
100
AcDbLine
 62
7
  6
CONTINUOUS
 10
3.5799544437
 20
5.0638295691
 11
3.6780547433
 21
4.6977142668
  0
LINE
  5
237
100
AcDbEntity
  8
ALL_ASSEMBLY_MEMBERS
100
AcDbLine
 62
7
  6
CONTINUOUS
 10
3.6780547433
 20
4.6977142668
 11
3.4100397406
 21
4.4296992641
  0
LINE
  5
238
100
AcDbEntity
  8
ALL_ASSEMBLY_MEMBERS
100
AcDbLine
 62
7
  6
CONTINUOUS
 10
3.4100397406
 20
4.4296992641
 11
3.0439244383
 21
4.5277995637
  0
LINE
  5
239
100
AcDbEntity
  8
ALL_ASSEMBLY_MEMBERS
100
AcDbLine
 62
7
  6
CONTINUOUS
 10
5.072447192
 20
4.5396817756
 11
5.1069459095
 21
4.1909866957
  0
LINE
  5
23A
100
AcDbEntity
  8
ALL_ASSEMBLY_MEMBERS
100
AcDbLine
 62
7
  6
CONTINUOUS
 10
8.3990595685
 20
4.9929392206
 11
7.8716414825
 21
4.89041953
  0
LINE
  5
23B
100
AcDbEntity
  8
ALL_ASSEMBLY_MEMBERS
100
AcDbLine
 62
7
  6
CONTINUOUS
 10
2.1628193134
 20
4.9929392206
 11
2.6902373995
 21
4.89041953
  0
LINE
  5
23C
100
AcDbEntity
  8
ALL_ASSEMBLY_MEMBERS
100
AcDbLine
 62
7
  6
CONTINUOUS
 10
5.124689441
 20
5.1388081384
 11
5.124689441
 21
4.6128101985
  0
LINE
  5
23D
100
AcDbEntity
  8
ALL_ASSEMBLY_MEMBERS
100
AcDbLine
 62
7
  6
CONTINUOUS
 10
7.474939441
 20
4.6708145664
 11
7.452439441
 21
4.6708145664
  0
LINE
  5
23E
100
AcDbEntity
  8
ALL_ASSEMBLY_MEMBERS
100
AcDbLine
 62
7
  6
CONTINUOUS
 10
3.086939441
 20
4.6708145664
 11
3.109439441
 21
4.6708145664
  0
LINE
  5
23F
100
AcDbEntity
  8
ALL_ASSEMBLY_MEMBERS
100
AcDbLine
 62
7
  6
CONTINUOUS
 10
3.2138391414
 20
5.1619298687
 11
3.5799544437
 21
5.0638295691
  0
LINE
  5
240
100
AcDbEntity
  8
ALL_ASSEMBLY_MEMBERS
100
AcDbLine
 62
7
  6
CONTINUOUS
 10
5.437189441
 20
5.1388096124
 11
5.437189441
 21
4.6128097906
  0
LINE
  5
241
100
AcDbEntity
  8
ALL_ASSEMBLY_MEMBERS
100
AcDbLine
 62
7
  6
CONTINUOUS
 10
5.48943169
 20
4.5396817756
 11
5.4549329725
 21
4.1909866957
  0
LINE
  5
242
100
AcDbEntity
  8
ALL_ASSEMBLY_MEMBERS
100
AcDbLine
 62
7
  6
CONTINUOUS
 10
7.474939441
 20
4.9208145664
 11
7.452439441
 21
4.9208145664
  0
LINE
  5
243
100
AcDbEntity
  8
ALL_ASSEMBLY_MEMBERS
100
AcDbLine
 62
7
  6
CONTINUOUS
 10
3.086939441
 20
4.9208145664
 11
3.109439441
 21
4.9208145664
  0
LINE
  5
244
100
AcDbEntity
  8
ALL_ASSEMBLY_MEMBERS
100
AcDbLine
 62
7
  6
CONTINUOUS
 10
7.3480397406
 20
4.4296992641
 11
6.9819244383
 21
4.5277995637
  0
LINE
  5
245
100
AcDbEntity
  8
ALL_ASSEMBLY_MEMBERS
100
AcDbLine
 62
7
  6
CONTINUOUS
 10
2.1628193134
 20
4.5986899122
 11
2.6902373995
 21
4.7012096028
  0
LINE
  5
246
100
AcDbEntity
  8
ALL_ASSEMBLY_MEMBERS
100
AcDbLine
 62
7
  6
CONTINUOUS
 10
8.3990595685
 20
4.5986899122
 11
7.8716414825
 21
4.7012096028
  0
LINE
  5
247
100
AcDbEntity
  8
ALL_ASSEMBLY_MEMBERS
100
AcDbLine
 62
7
  6
CONTINUOUS
 10
7.1518391414
 20
5.1619298687
 11
7.5179544437
 21
5.0638295691
  0
LINE
  5
248
100
AcDbEntity
  8
ALL_ASSEMBLY_MEMBERS
100
AcDbLine
 62
7
  6
CONTINUOUS
 10
6.8838241387
 20
4.893914866
 11
7.1518391414
 21
5.1619298687
  0
LINE
  5
249
100
AcDbEntity
  8
ALL_ASSEMBLY_MEMBERS
100
AcDbLine
 62
7
  6
CONTINUOUS
 10
7.452439441
 20
4.9208145664
 11
7.439939441
 21
4.9083145664
  0
LINE
  5
24A
100
AcDbEntity
  8
ALL_ASSEMBLY_MEMBERS
100
AcDbLine
 62
7
  6
CONTINUOUS
 10
7.452439441
 20
4.6708145664
 11
7.439939441
 21
4.6833145664
  0
LINE
  5
24B
100
AcDbEntity
  8
ALL_ASSEMBLY_MEMBERS
100
AcDbLine
 62
7
  6
CONTINUOUS
 10
7.6160547433
 20
4.6977142668
 11
7.3480397406
 21
4.4296992641
  0
LINE
  5
24C
100
AcDbEntity
  8
ALL_ASSEMBLY_MEMBERS
100
AcDbLine
 62
7
  6
CONTINUOUS
 10
6.9819244383
 20
4.5277995637
 11
6.8838241387
 21
4.893914866
  0
LINE
  5
24D
100
AcDbEntity
  8
ALL_ASSEMBLY_MEMBERS
100
AcDbLine
 62
7
  6
CONTINUOUS
 10
7.439939441
 20
4.6706896282
 11
7.439939441
 21
4.920939503
  0
LINE
  5
24E
100
AcDbEntity
  8
ALL_ASSEMBLY_MEMBERS
100
AcDbLine
 62
7
  6
CONTINUOUS
 10
7.452439441
 20
4.6708145664
 11
7.452439441
 21
4.9208145664
  0
LINE
  5
24F
100
AcDbEntity
  8
ALL_ASSEMBLY_MEMBERS
100
AcDbLine
 62
7
  6
CONTINUOUS
 10
7.474939441
 20
4.6708145664
 11
7.474939441
 21
4.9208145664
  0
LINE
  5
250
100
AcDbEntity
  8
ALL_ASSEMBLY_MEMBERS
100
AcDbLine
 62
7
  6
CONTINUOUS
 10
7.5179544437
 20
5.0638295691
 11
7.5631315576
 21
4.8952262847
  0
LINE
  5
251
100
AcDbEntity
  8
ALL_ASSEMBLY_MEMBERS
100
AcDbLine
 62
7
  6
CONTINUOUS
 10
7.6138200277
 20
4.7060543387
 11
7.6160547433
 21
4.6977142668
  0
LINE
  5
252
100
AcDbEntity
  8
ALL_ASSEMBLY_MEMBERS
100
AcDbLine
 62
7
  6
CONTINUOUS
 10
7.8716414825
 20
4.7012096028
 11
7.8716414825
 21
4.89041953
  0
LINE
  5
253
100
AcDbEntity
  8
ALL_ASSEMBLY_MEMBERS
100
AcDbLine
 62
7
  6
CONTINUOUS
 10
8.3990595685
 20
4.5986899122
 11
8.3990595685
 21
4.9929392206
  0
LINE
  5
254
100
AcDbEntity
  8
ALL_ASSEMBLY_MEMBERS
100
AcDbLine
 62
7
  6
CONTINUOUS
 10
8.570939441
 20
4.6865645664
 11
8.570939441
 21
4.9050645664
  0
LINE
  5
255
100
AcDbEntity
  8
ALL_ASSEMBLY_MEMBERS
100
AcDbLine
 62
7
  6
CONTINUOUS
 10
8.6674105232
 20
4.6877163022
 11
8.6674105232
 21
4.9039128306
  0
LINE
  5
256
100
AcDbEntity
  8
ALL_ASSEMBLY_MEMBERS
100
AcDbLine
 62
7
  6
CONTINUOUS
 10
8.732439441
 20
4.6770645664
 11
8.732439441
 21
4.9145645664
  0
ARC
  5
257
100
AcDbEntity
  8
ALL_ASSEMBLY_MEMBERS
100
AcDbCircle
 62
7
  6
CONTINUOUS
 10
5.2809320868
 20
2.3783936316
 40
1.8126179821
100
AcDbArc
 50
89.9997675382
 51
90.4502295648
  0
ARC
  5
258
100
AcDbEntity
  8
ALL_ASSEMBLY_MEMBERS
100
AcDbCircle
 62
7
  6
CONTINUOUS
 10
5.2038016487
 20
3.7456608651
 40
0.8100827682
100
AcDbArc
 50
94.9261787275
 51
95.3293855715
  0
ARC
  5
259
100
AcDbEntity
  8
ALL_ASSEMBLY_MEMBERS
100
AcDbCircle
 62
7
  6
CONTINUOUS
 10
2.833344146
 20
3.9649892152
 40
0.75
100
AcDbArc
 50
70.2371945424
 51
101.0
  0
ARC
  5
25A
100
AcDbEntity
  8
ALL_ASSEMBLY_MEMBERS
100
AcDbCircle
 62
7
  6
CONTINUOUS
 10
5.1967022748
 20
3.8215415532
 40
0.7338706593
100
AcDbArc
 50
95.419420376
 51
95.5472000455
  0
ARC
  5
25B
100
AcDbEntity
  8
ALL_ASSEMBLY_MEMBERS
100
AcDbCircle
 62
7
  6
CONTINUOUS
 10
5.1922026102
 20
3.8675109654
 40
0.6876815639
100
AcDbArc
 50
95.544290131
 51
95.8391253564
  0
ARC
  5
25C
100
AcDbEntity
  8
ALL_ASSEMBLY_MEMBERS
100
AcDbCircle
 62
7
  6
CONTINUOUS
 10
2.1329577057
 20
4.7523145664
 40
0.1565
100
AcDbArc
 50
204.842656017
 51
281.0
  0
ARC
  5
25D
100
AcDbEntity
  8
ALL_ASSEMBLY_MEMBERS
100
AcDbCircle
 62
7
  6
CONTINUOUS
 10
1.9433894673
 20
4.7445645664
 40
0.075
100
AcDbArc
 50
229.2861651139
 51
309.3458297662
  0
ARC
  5
25E
100
AcDbEntity
  8
ALL_ASSEMBLY_MEMBERS
100
AcDbCircle
 62
7
  6
CONTINUOUS
 10
1.8664202565
 20
4.6551232974
 40
0.043
100
AcDbArc
 50
49.2861651139
 51
149.3187124064
  0
ARC
  5
25F
100
AcDbEntity
  8
ALL_ASSEMBLY_MEMBERS
100
AcDbCircle
 62
7
  6
CONTINUOUS
 10
2.1329577057
 20
4.8393145664
 40
0.1565
100
AcDbArc
 50
79.0
 51
155.157343983
  0
ARC
  5
260
100
AcDbEntity
  8
ALL_ASSEMBLY_MEMBERS
100
AcDbCircle
 62
7
  6
CONTINUOUS
 10
1.8684252695
 20
4.7958145664
 40
0.1249858285
100
AcDbArc
 50
108.1750968409
 51
251.8249031591
  0
ARC
  5
261
100
AcDbEntity
  8
ALL_ASSEMBLY_MEMBERS
100
AcDbCircle
 62
7
  6
CONTINUOUS
 10
1.9433894673
 20
4.8470645664
 40
0.075
100
AcDbArc
 50
50.6541702338
 51
130.7138348861
  0
ARC
  5
262
100
AcDbEntity
  8
ALL_ASSEMBLY_MEMBERS
100
AcDbCircle
 62
7
  6
CONTINUOUS
 10
1.8664202565
 20
4.9365058354
 40
0.043
100
AcDbArc
 50
210.6812875936
 51
310.7138348861
  0
ARC
  5
263
100
AcDbEntity
  8
ALL_ASSEMBLY_MEMBERS
100
AcDbCircle
 62
7
  6
CONTINUOUS
 10
3.311939441
 20
4.7958145664
 40
0.59
100
AcDbArc
 50
188.606752368
 51
171.393247632
  0
ARC
  5
264
100
AcDbEntity
  8
ALL_ASSEMBLY_MEMBERS
100
AcDbCircle
 62
7
  6
CONTINUOUS
 10
3.311939441
 20
4.7958145664
 40
0.5000013369
100
AcDbArc
 50
189.3287117835
 51
170.6712882165
  0
ARC
  5
265
100
AcDbEntity
  8
ALL_ASSEMBLY_MEMBERS
100
AcDbCircle
 62
7
  6
CONTINUOUS
 10
3.311939441
 20
4.7958145664
 40
0.4065013369
100
AcDbArc
 50
192.1208215562
 51
167.8783163058
  0
ARC
  5
266
100
AcDbEntity
  8
ALL_ASSEMBLY_MEMBERS
100
AcDbCircle
 62
7
  6
CONTINUOUS
 10
3.311939441
 20
4.7958145664
 40
0.3705
100
AcDbArc
 50
227.3764232079
 51
282.6237776714
  0
ARC
  5
267
100
AcDbEntity
  8
ALL_ASSEMBLY_MEMBERS
100
AcDbCircle
 62
7
  6
CONTINUOUS
 10
3.311939441
 20
4.7958145664
 40
0.3705
100
AcDbArc
 50
287.3762223286
 51
342.6237776714
  0
ARC
  5
268
100
AcDbEntity
  8
ALL_ASSEMBLY_MEMBERS
100
AcDbCircle
 62
7
  6
CONTINUOUS
 10
3.311939441
 20
4.7958145664
 40
0.3705
100
AcDbArc
 50
347.3762223286
 51
42.6235767921
  0
ARC
  5
269
100
AcDbEntity
  8
ALL_ASSEMBLY_MEMBERS
100
AcDbCircle
 62
7
  6
CONTINUOUS
 10
3.311939441
 20
4.7958145664
 40
0.3705
100
AcDbArc
 50
194.1314000334
 51
222.6235767921
  0
ARC
  5
26A
100
AcDbEntity
  8
ALL_ASSEMBLY_MEMBERS
100
AcDbCircle
 62
7
  6
CONTINUOUS
 10
3.311939441
 20
4.7958145664
 40
0.3705
100
AcDbArc
 50
107.3762223286
 51
162.6237776714
  0
ARC
  5
26B
100
AcDbEntity
  8
ALL_ASSEMBLY_MEMBERS
100
AcDbCircle
 62
7
  6
CONTINUOUS
 10
3.311939441
 20
4.7958145664
 40
0.3705
100
AcDbArc
 50
47.3764232079
 51
102.6237776714
  0
ARC
  5
26C
100
AcDbEntity
  8
ALL_ASSEMBLY_MEMBERS
100
AcDbCircle
 62
7
  6
CONTINUOUS
 10
3.311939441
 20
4.7958145664
 40
0.32575
100
AcDbArc
 50
197.9037574106
 51
162.0962425894
  0
ARC
  5
26D
100
AcDbEntity
  8
ALL_ASSEMBLY_MEMBERS
100
AcDbCircle
 62
7
  6
CONTINUOUS
 10
3.311939441
 20
4.7958145664
 40
0.3073169971
100
AcDbArc
 50
200.061870978
 51
159.938129022
  0
ARC
  5
26E
100
AcDbEntity
  8
ALL_ASSEMBLY_MEMBERS
100
AcDbCircle
 62
7
  6
CONTINUOUS
 10
3.311939441
 20
4.7958145664
 40
0.27025
100
AcDbArc
 50
206.1468875244
 51
153.8637861995
  0
ARC
  5
26F
100
AcDbEntity
  8
ALL_ASSEMBLY_MEMBERS
100
AcDbCircle
 62
7
  6
CONTINUOUS
 10
3.311939441
 20
4.7958145664
 40
0.2275
100
AcDbArc
 50
213.3669941408
 51
146.6330058592
  0
CIRCLE
  5
270
100
AcDbEntity
  8
ALL_ASSEMBLY_MEMBERS
100
AcDbCircle
 62
7
  6
CONTINUOUS
 10
3.311939441
 20
4.7958145664
 40
0.16525
  0
CIRCLE
  5
271
100
AcDbEntity
  8
ALL_ASSEMBLY_MEMBERS
100
AcDbCircle
 62
7
  6
CONTINUOUS
 10
3.311939441
 20
4.7958145664
 40
0.14175
  0
CIRCLE
  5
272
100
AcDbEntity
  8
ALL_ASSEMBLY_MEMBERS
100
AcDbCircle
 62
7
  6
CONTINUOUS
 10
3.311939441
 20
4.7958145664
 40
0.136
  0
CIRCLE
  5
273
100
AcDbEntity
  8
ALL_ASSEMBLY_MEMBERS
100
AcDbCircle
 62
7
  6
CONTINUOUS
 10
3.311939441
 20
4.7958145664
 40
0.118
  0
CIRCLE
  5
274
100
AcDbEntity
  8
ALL_ASSEMBLY_MEMBERS
100
AcDbCircle
 62
7
  6
CONTINUOUS
 10
3.311939441
 20
4.7958145664
 40
0.09
  0
CIRCLE
  5
275
100
AcDbEntity
  8
ALL_ASSEMBLY_MEMBERS
100
AcDbCircle
 62
7
  6
CONTINUOUS
 10
3.311939441
 20
4.7958145664
 40
0.085
  0
ARC
  5
276
100
AcDbEntity
  8
ALL_ASSEMBLY_MEMBERS
100
AcDbCircle
 62
7
  6
CONTINUOUS
 10
2.833344146
 20
5.6266399176
 40
0.75
100
AcDbArc
 50
259.0
 51
289.7628054576
  0
ARC
  5
277
100
AcDbEntity
  8
ALL_ASSEMBLY_MEMBERS
100
AcDbCircle
 62
7
  6
CONTINUOUS
 10
5.094803264
 20
4.5907798838
 40
0.0577001662
100
AcDbArc
 50
246.4017232062
 51
247.4391923503
  0
ARC
  5
278
100
AcDbEntity
  8
ALL_ASSEMBLY_MEMBERS
100
AcDbCircle
 62
7
  6
CONTINUOUS
 10
5.2809467952
 20
2.3783936317
 40
1.8126179821
100
AcDbArc
 50
89.5497704352
 51
90.0002324618
  0
ARC
  5
279
100
AcDbEntity
  8
ALL_ASSEMBLY_MEMBERS
100
AcDbCircle
 62
7
  6
CONTINUOUS
 10
5.3577746168
 20
3.7423647286
 40
0.8133927636
100
AcDbArc
 50
84.6709554254
 51
85.1058821691
  0
ARC
  5
27A
100
AcDbEntity
  8
ALL_ASSEMBLY_MEMBERS
100
AcDbCircle
 62
7
  6
CONTINUOUS
 10
7.728534736
 20
3.9649892152
 40
0.75
100
AcDbArc
 50
79.0
 51
109.7628054576
  0
ARC
  5
27B
100
AcDbEntity
  8
ALL_ASSEMBLY_MEMBERS
100
AcDbCircle
 62
7
  6
CONTINUOUS
 10
5.36588836
 20
3.8290962654
 40
0.7262825364
100
AcDbArc
 50
84.3264639099
 51
84.6728056377
  0
ARC
  5
27C
100
AcDbEntity
  8
ALL_ASSEMBLY_MEMBERS
100
AcDbCircle
 62
7
  6
CONTINUOUS
 10
5.3707693734
 20
3.8782845256
 40
0.6768526952
100
AcDbArc
 50
84.1601445363
 51
84.3259851849
  0
ARC
  5
27D
100
AcDbEntity
  8
ALL_FEATURES
100
AcDbCircle
 62
7
  6
CONTINUOUS
 10
5.280939441
 20
4.7958145664
 40
0.59
100
AcDbArc
 50
287.5818020922
 51
252.4181979078
  0
ARC
  5
27E
100
AcDbEntity
  8
ALL_FEATURES
100
AcDbCircle
 62
7
  6
CONTINUOUS
 10
5.280939441
 20
4.7958145664
 40
0.575
100
AcDbArc
 50
288.2227684446
 51
251.7772315554
  0
ARC
  5
27F
100
AcDbEntity
  8
ALL_FEATURES
100
AcDbCircle
 62
7
  6
CONTINUOUS
 10
5.280939441
 20
4.7958145664
 40
0.5655
100
AcDbArc
 50
288.651090832
 51
251.348909168
  0
ARC
  5
280
100
AcDbEntity
  8
ALL_FEATURES
100
AcDbCircle
 62
7
  6
CONTINUOUS
 10
5.280939441
 20
4.7958145664
 40
0.441
100
AcDbArc
 50
296.202731331
 51
71.9125266733
  0
ARC
  5
281
100
AcDbEntity
  8
ALL_FEATURES
100
AcDbCircle
 62
7
  6
CONTINUOUS
 10
5.280939441
 20
4.7958145664
 40
0.441
100
AcDbArc
 50
108.0874733267
 51
243.797268669
  0
ARC
  5
282
100
AcDbEntity
  8
ALL_FEATURES
100
AcDbCircle
 62
7
  6
CONTINUOUS
 10
5.280939441
 20
4.7958145664
 40
0.4165
100
AcDbArc
 50
298.3209388048
 51
68.9350464563
  0
ARC
  5
283
100
AcDbEntity
  8
ALL_FEATURES
100
AcDbCircle
 62
7
  6
CONTINUOUS
 10
5.280939441
 20
4.7958145664
 40
0.4165
100
AcDbArc
 50
111.0649535437
 51
241.6790611952
  0
ARC
  5
284
100
AcDbEntity
  8
ALL_FEATURES
100
AcDbCircle
 62
7
  6
CONTINUOUS
 10
5.280939441
 20
4.7958145664
 40
0.2655
100
AcDbArc
 50
315.0951987628
 51
53.9399773265
  0
ARC
  5
285
100
AcDbEntity
  8
ALL_FEATURES
100
AcDbCircle
 62
7
  6
CONTINUOUS
 10
5.280939441
 20
4.7958145664
 40
0.2655
100
AcDbArc
 50
126.0600226735
 51
224.9054972198
  0
ARC
  5
286
100
AcDbEntity
  8
ALL_ASSEMBLY_MEMBERS
100
AcDbCircle
 62
7
  6
CONTINUOUS
 10
5.280939441
 20
4.7958145664
 40
0.23425
100
AcDbArc
 50
131.8508806577
 51
228.1491193423
  0
ARC
  5
287
100
AcDbEntity
  8
ALL_ASSEMBLY_MEMBERS
100
AcDbCircle
 62
7
  6
CONTINUOUS
 10
5.280939441
 20
4.7958145664
 40
0.23425
100
AcDbArc
 50
311.8508806577
 51
48.1491193423
  0
ARC
  5
288
100
AcDbEntity
  8
ALL_ASSEMBLY_MEMBERS
100
AcDbCircle
 62
7
  6
CONTINUOUS
 10
5.280939441
 20
4.7958145664
 40
0.20275
100
AcDbArc
 50
140.4309317992
 51
219.5690682008
  0
ARC
  5
289
100
AcDbEntity
  8
ALL_ASSEMBLY_MEMBERS
100
AcDbCircle
 62
7
  6
CONTINUOUS
 10
5.280939441
 20
4.7958145664
 40
0.20275
100
AcDbArc
 50
320.4309317992
 51
39.5690682008
  0
ARC
  5
28A
100
AcDbEntity
  8
ALL_ASSEMBLY_MEMBERS
100
AcDbCircle
 62
7
  6
CONTINUOUS
 10
5.280939441
 20
4.7958145664
 40
0.17
100
AcDbArc
 50
336.8359686455
 51
23.1640313545
  0
ARC
  5
28B
100
AcDbEntity
  8
ALL_ASSEMBLY_MEMBERS
100
AcDbCircle
 62
7
  6
CONTINUOUS
 10
5.280939441
 20
4.7958145664
 40
0.17
100
AcDbArc
 50
156.8359686455
 51
203.1640313545
  0
ARC
  5
28C
100
AcDbEntity
  8
ALL_ASSEMBLY_MEMBERS
100
AcDbCircle
 62
7
  6
CONTINUOUS
 10
5.280939441
 20
4.7958145664
 40
0.1625
100
AcDbArc
 50
344.1338342343
 51
15.8661657657
  0
ARC
  5
28D
100
AcDbEntity
  8
ALL_ASSEMBLY_MEMBERS
100
AcDbCircle
 62
7
  6
CONTINUOUS
 10
5.280939441
 20
4.7958145664
 40
0.1625
100
AcDbArc
 50
164.1338342343
 51
195.8661657657
  0
ARC
  5
28E
100
AcDbEntity
  8
ALL_ASSEMBLY_MEMBERS
100
AcDbCircle
 62
7
  6
CONTINUOUS
 10
5.280939441
 20
4.7958145664
 40
0.16
100
AcDbArc
 50
167.6659018965
 51
192.3340981035
  0
ARC
  5
28F
100
AcDbEntity
  8
ALL_ASSEMBLY_MEMBERS
100
AcDbCircle
 62
7
  6
CONTINUOUS
 10
5.280939441
 20
4.7958145664
 40
0.16
100
AcDbArc
 50
347.6659018965
 51
12.3340981035
  0
ARC
  5
290
100
AcDbEntity
  8
ALL_ASSEMBLY_MEMBERS
100
AcDbCircle
 62
7
  6
CONTINUOUS
 10
5.280939441
 20
4.7958145664
 40
0.1585249984
100
AcDbArc
 50
170.3031386663
 51
189.6177246807
  0
ARC
  5
291
100
AcDbEntity
  8
ALL_ASSEMBLY_MEMBERS
100
AcDbCircle
 62
7
  6
CONTINUOUS
 10
5.4668086629
 20
4.5915579438
 40
0.0585206852
100
AcDbArc
 50
292.5113521647
 51
293.5556787811
  0
ARC
  5
292
100
AcDbEntity
  8
ALL_ASSEMBLY_MEMBERS
100
AcDbCircle
 62
7
  6
CONTINUOUS
 10
5.280939441
 20
5.1398145664
 40
0.15625
100
AcDbArc
 50
0.0
 51
180.0
  0
ARC
  5
293
100
AcDbEntity
  8
ALL_ASSEMBLY_MEMBERS
100
AcDbCircle
 62
7
  6
CONTINUOUS
 10
7.249939441
 20
4.7958145664
 40
0.59
100
AcDbArc
 50
8.606752368
 51
351.393247632
  0
ARC
  5
294
100
AcDbEntity
  8
ALL_ASSEMBLY_MEMBERS
100
AcDbCircle
 62
7
  6
CONTINUOUS
 10
7.249939441
 20
4.7958145664
 40
0.5000013369
100
AcDbArc
 50
9.3287117835
 51
350.6712882165
  0
ARC
  5
295
100
AcDbEntity
  8
ALL_ASSEMBLY_MEMBERS
100
AcDbCircle
 62
7
  6
CONTINUOUS
 10
7.249939441
 20
4.7958145664
 40
0.4065013369
100
AcDbArc
 50
12.1208215562
 51
347.8783163058
  0
ARC
  5
296
100
AcDbEntity
  8
ALL_ASSEMBLY_MEMBERS
100
AcDbCircle
 62
7
  6
CONTINUOUS
 10
7.249939441
 20
4.7958145664
 40
0.3705
100
AcDbArc
 50
47.3764232079
 51
102.6237776714
  0
ARC
  5
297
100
AcDbEntity
  8
ALL_ASSEMBLY_MEMBERS
100
AcDbCircle
 62
7
  6
CONTINUOUS
 10
7.249939441
 20
4.7958145664
 40
0.3705
100
AcDbArc
 50
107.3762223286
 51
162.6237776714
  0
ARC
  5
298
100
AcDbEntity
  8
ALL_ASSEMBLY_MEMBERS
100
AcDbCircle
 62
7
  6
CONTINUOUS
 10
7.249939441
 20
4.7958145664
 40
0.3705
100
AcDbArc
 50
167.3762223286
 51
222.6235767921
  0
ARC
  5
299
100
AcDbEntity
  8
ALL_ASSEMBLY_MEMBERS
100
AcDbCircle
 62
7
  6
CONTINUOUS
 10
7.249939441
 20
4.7958145664
 40
0.3705
100
AcDbArc
 50
14.1314000334
 51
42.6235767921
  0
ARC
  5
29A
100
AcDbEntity
  8
ALL_ASSEMBLY_MEMBERS
100
AcDbCircle
 62
7
  6
CONTINUOUS
 10
7.249939441
 20
4.7958145664
 40
0.3705
100
AcDbArc
 50
287.3762223286
 51
342.6237776714
  0
ARC
  5
29B
100
AcDbEntity
  8
ALL_ASSEMBLY_MEMBERS
100
AcDbCircle
 62
7
  6
CONTINUOUS
 10
7.249939441
 20
4.7958145664
 40
0.3705
100
AcDbArc
 50
227.3764232079
 51
282.6237776714
  0
ARC
  5
29C
100
AcDbEntity
  8
ALL_ASSEMBLY_MEMBERS
100
AcDbCircle
 62
7
  6
CONTINUOUS
 10
7.249939441
 20
4.7958145664
 40
0.32575
100
AcDbArc
 50
17.9037574106
 51
342.0962425894
  0
ARC
  5
29D
100
AcDbEntity
  8
ALL_ASSEMBLY_MEMBERS
100
AcDbCircle
 62
7
  6
CONTINUOUS
 10
7.249939441
 20
4.7958145664
 40
0.3073169971
100
AcDbArc
 50
20.0618709781
 51
339.938129022
  0
ARC
  5
29E
100
AcDbEntity
  8
ALL_ASSEMBLY_MEMBERS
100
AcDbCircle
 62
7
  6
CONTINUOUS
 10
7.249939441
 20
4.7958145664
 40
0.27025
100
AcDbArc
 50
26.1468875244
 51
333.8637861995
  0
ARC
  5
29F
100
AcDbEntity
  8
ALL_ASSEMBLY_MEMBERS
100
AcDbCircle
 62
7
  6
CONTINUOUS
 10
7.249939441
 20
4.7958145664
 40
0.2275
100
AcDbArc
 50
33.3669941408
 51
326.6330058592
  0
CIRCLE
  5
2A0
100
AcDbEntity
  8
ALL_ASSEMBLY_MEMBERS
100
AcDbCircle
 62
7
  6
CONTINUOUS
 10
7.249939441
 20
4.7958145664
 40
0.16525
  0
CIRCLE
  5
2A1
100
AcDbEntity
  8
ALL_ASSEMBLY_MEMBERS
100
AcDbCircle
 62
7
  6
CONTINUOUS
 10
7.249939441
 20
4.7958145664
 40
0.14175
  0
CIRCLE
  5
2A2
100
AcDbEntity
  8
ALL_ASSEMBLY_MEMBERS
100
AcDbCircle
 62
7
  6
CONTINUOUS
 10
7.249939441
 20
4.7958145664
 40
0.136
  0
CIRCLE
  5
2A3
100
AcDbEntity
  8
ALL_ASSEMBLY_MEMBERS
100
AcDbCircle
 62
7
  6
CONTINUOUS
 10
7.249939441
 20
4.7958145664
 40
0.118
  0
CIRCLE
  5
2A4
100
AcDbEntity
  8
ALL_ASSEMBLY_MEMBERS
100
AcDbCircle
 62
7
  6
CONTINUOUS
 10
7.249939441
 20
4.7958145664
 40
0.09
  0
CIRCLE
  5
2A5
100
AcDbEntity
  8
ALL_ASSEMBLY_MEMBERS
100
AcDbCircle
 62
7
  6
CONTINUOUS
 10
7.249939441
 20
4.7958145664
 40
0.085
  0
ARC
  5
2A6
100
AcDbEntity
  8
ALL_ASSEMBLY_MEMBERS
100
AcDbCircle
 62
7
  6
CONTINUOUS
 10
8.4289211763
 20
4.7523145664
 40
0.1565
100
AcDbArc
 50
259.0
 51
335.157343983
  0
ARC
  5
2A7
100
AcDbEntity
  8
ALL_ASSEMBLY_MEMBERS
100
AcDbCircle
 62
7
  6
CONTINUOUS
 10
8.6184894147
 20
4.7445645664
 40
0.075
100
AcDbArc
 50
230.6541702338
 51
310.7138348861
  0
ARC
  5
2A8
100
AcDbEntity
  8
ALL_ASSEMBLY_MEMBERS
100
AcDbCircle
 62
7
  6
CONTINUOUS
 10
8.6954586255
 20
4.6551232974
 40
0.043
100
AcDbArc
 50
30.6812875936
 51
130.7138348861
  0
ARC
  5
2A9
100
AcDbEntity
  8
ALL_ASSEMBLY_MEMBERS
100
AcDbCircle
 62
7
  6
CONTINUOUS
 10
8.4289211763
 20
4.8393145664
 40
0.1565
100
AcDbArc
 50
24.842656017
 51
101.0
  0
ARC
  5
2AA
100
AcDbEntity
  8
ALL_ASSEMBLY_MEMBERS
100
AcDbCircle
 62
7
  6
CONTINUOUS
 10
8.6934536125
 20
4.7958145664
 40
0.1249858285
100
AcDbArc
 50
288.1750968409
 51
71.8249031591
  0
ARC
  5
2AB
100
AcDbEntity
  8
ALL_ASSEMBLY_MEMBERS
100
AcDbCircle
 62
7
  6
CONTINUOUS
 10
8.6184894147
 20
4.8470645664
 40
0.075
100
AcDbArc
 50
49.2861651139
 51
129.3458297662
  0
ARC
  5
2AC
100
AcDbEntity
  8
ALL_ASSEMBLY_MEMBERS
100
AcDbCircle
 62
7
  6
CONTINUOUS
 10
8.6954586255
 20
4.9365058354
 40
0.043
100
AcDbArc
 50
229.2861651139
 51
329.3187124064
  0
ARC
  5
2AD
100
AcDbEntity
  8
ALL_ASSEMBLY_MEMBERS
100
AcDbCircle
 62
7
  6
CONTINUOUS
 10
7.728534736
 20
5.6266399176
 40
0.75
100
AcDbArc
 50
250.2371945424
 51
281.0
  0
SPLINE
  5
2AE
100
AcDbEntity
  8
ALL_ASSEMBLY_MEMBERS
100
AcDbSpline
 62
7
  6
CONTINUOUS
 70
0
 71
3
 72
21
 73
17
 74
0
 42
0.0000001
 43
0.0000001
 44
0.0000000001
 40
0.0
 40
0.0
 40
0.0
 40
0.0
 40
0.1566166934
 40
0.3100202103
 40
0.4570674709
 40
0.5272604941
 40
0.5947501362
 40
0.6591920546
 40
0.7202584129
 40
0.7776398407
 40
0.8310474137
 40
0.8802146987
 40
0.9249000136
 40
0.9648891305
 40
0.9830645811
 40
1.0
 40
1.0
 40
1.0
 40
1.0
 10
5.280939441
 20
4.1767098654
 30
0.0
 10
5.2872133054
 20
4.1767098654
 30
0.0
 10
5.2996324697
 20
4.1767870687
 30
0.0
 10
5.3179392037
 20
4.1771332504
 30
0.0
 10
5.3327795041
 20
4.1776139509
 30
0.0
 10
5.3441745642
 20
4.1781138286
 30
0.0
 10
5.3522605829
 20
4.1785344506
 30
0.0
 10
5.3599776526
 20
4.1790043003
 30
0.0
 10
5.3672858743
 20
4.1795208938
 30
0.0
 10
5.3741474777
 20
4.1800814458
 30
0.0
 10
5.3805270192
 20
4.1806829236
 30
0.0
 10
5.3863916109
 20
4.1813219864
 30
0.0
 10
5.3917110072
 20
4.1819951389
 30
0.0
 10
5.3957870473
 20
4.1825987799
 30
0.0
 10
5.3987532275
 20
4.1831016266
 30
0.0
 10
5.4001361754
 20
4.1833583672
 30
0.0
 10
5.4008019998
 20
4.183488443
 30
0.0
  0
SPLINE
  5
2AF
100
AcDbEntity
  8
ALL_ASSEMBLY_MEMBERS
100
AcDbSpline
 62
7
  6
CONTINUOUS
 70
0
 71
3
 72
21
 73
17
 74
0
 42
0.0000001
 43
0.0000001
 44
0.0000000001
 40
0.0
 40
0.0
 40
0.0
 40
0.0
 40
0.1566166934
 40
0.3100202103
 40
0.4570674709
 40
0.5272604941
 40
0.5947501362
 40
0.6591920546
 40
0.7202584129
 40
0.7776398407
 40
0.8310474137
 40
0.8802146987
 40
0.9249000136
 40
0.9648891305
 40
0.9830645811
 40
1.0
 40
1.0
 40
1.0
 40
1.0
 10
5.280939441
 20
4.1767098654
 30
0.0
 10
5.2746655766
 20
4.1767098654
 30
0.0
 10
5.2622464123
 20
4.1767870687
 30
0.0
 10
5.2439396783
 20
4.1771332504
 30
0.0
 10
5.2290993779
 20
4.1776139509
 30
0.0
 10
5.2177043178
 20
4.1781138286
 30
0.0
 10
5.209618299
 20
4.1785344506
 30
0.0
 10
5.2019012294
 20
4.1790043003
 30
0.0
 10
5.1945930077
 20
4.1795208938
 30
0.0
 10
5.1877314043
 20
4.1800814458
 30
0.0
 10
5.1813518628
 20
4.1806829236
 30
0.0
 10
5.1754872711
 20
4.1813219864
 30
0.0
 10
5.1701678748
 20
4.1819951389
 30
0.0
 10
5.1660918347
 20
4.1825987799
 30
0.0
 10
5.1631256545
 20
4.1831016266
 30
0.0
 10
5.1617427065
 20
4.1833583672
 30
0.0
 10
5.1610768822
 20
4.183488443
 30
0.0
  0
SPLINE
  5
2B0
100
AcDbEntity
  8
ALL_ASSEMBLY_MEMBERS
100
AcDbSpline
 62
7
  6
CONTINUOUS
 70
0
 71
3
 72
39
 73
35
 74
0
 42
0.0000001
 43
0.0000001
 44
0.0000000001
 40
0.0
 40
0.0
 40
0.0
 40
0.0
 40
0.0077443318
 40
0.0161629964
 40
0.0252479308
 40
0.0349880673
 40
0.0563834056
 40
0.0802424716
 40
0.0930562505
 40
0.1064368363
 40
0.1348264083
 40
0.1652540049
 40
0.1975534576
 40
0.2315440085
 40
0.2670379121
 40
0.3417327959
 40
0.4199703667
 40
0.5
 40
0.5800296333
 40
0.6582672041
 40
0.7329620879
 40
0.7684559915
 40
0.8024465424
 40
0.8347459951
 40
0.8651735917
 40
0.8935631637
 40
0.9069437495
 40
0.9197575284
 40
0.9436165944
 40
0.9650119327
 40
0.9747520692
 40
0.9838370036
 40
0.9922556682
 40
1.0
 40
1.0
 40
1.0
 40
1.0
 10
5.3944356404
 20
4.1843364731
 30
0.0
 10
5.3938623738
 20
4.1842068432
 30
0.0
 10
5.3926625282
 20
4.1839512036
 30
0.0
 10
5.3907807356
 20
4.1835895052
 30
0.0
 10
5.3887438148
 20
4.183234075
 30
0.0
 10
5.3857292597
 20
4.1827540392
 30
0.0
 10
5.3815948508
 20
4.1821796666
 30
0.0
 10
5.3772181969
 20
4.1816616712
 30
0.0
 10
5.3734406243
 20
4.1812612716
 30
0.0
 10
5.3693178894
 20
4.1808563415
 30
0.0
 10
5.3638592016
 20
4.1803795067
 30
0.0
 10
5.3569634232
 20
4.1798609391
 30
0.0
 10
5.3496383236
 20
4.1793886495
 30
0.0
 10
5.3419251521
 20
4.1789651432
 30
0.0
 10
5.3309944831
 20
4.1784605585
 30
0.0
 10
5.3167018798
 20
4.1779753232
 30
0.0
 10
5.2990246303
 20
4.1776258649
 30
0.0
 10
5.280939441
 20
4.1775084756
 30
0.0
 10
5.2628542517
 20
4.1776258649
 30
0.0
 10
5.2451770022
 20
4.1779753232
 30
0.0
 10
5.2308843989
 20
4.1784605585
 30
0.0
 10
5.2199537299
 20
4.1789651432
 30
0.0
 10
5.2122405584
 20
4.1793886495
 30
0.0
 10
5.2049154588
 20
4.1798609391
 30
0.0
 10
5.1980196804
 20
4.1803795067
 30
0.0
 10
5.1925609926
 20
4.1808563415
 30
0.0
 10
5.1884382577
 20
4.1812612716
 30
0.0
 10
5.1846606851
 20
4.1816616712
 30
0.0
 10
5.1802840312
 20
4.1821796666
 30
0.0
 10
5.1761496223
 20
4.1827540392
 30
0.0
 10
5.1731350672
 20
4.183234075
 30
0.0
 10
5.1710981464
 20
4.1835895052
 30
0.0
 10
5.1692163538
 20
4.1839512036
 30
0.0
 10
5.1680165082
 20
4.1842068432
 30
0.0
 10
5.1674432416
 20
4.1843364731
 30
0.0
  0
SPLINE
  5
2B1
100
AcDbEntity
  8
ALL_ASSEMBLY_MEMBERS
100
AcDbSpline
 62
7
  6
CONTINUOUS
 70
0
 71
3
 72
19
 73
15
 74
0
 42
0.0000001
 43
0.0000001
 44
0.0000000001
 40
0.0
 40
0.0
 40
0.0
 40
0.0
 40
0.0559048042
 40
0.1144044532
 40
0.1751606724
 40
0.2378166359
 40
0.367357246
 40
0.5
 40
0.632642754
 40
0.7621833641
 40
0.8248393276
 40
0.8855955468
 40
0.9440951958
 40
1.0
 40
1.0
 40
1.0
 40
1.0
 10
5.2152539641
 20
4.1879607806
 30
0.0
 10
5.2176987192
 20
4.1878103709
 30
0.0
 10
5.2227032998
 20
4.1875281092
 30
0.0
 10
5.2303691681
 20
4.1871649279
 30
0.0
 10
5.2383333566
 20
4.1868539035
 30
0.0
 10
5.249410738
 20
4.1865072694
 30
0.0
 10
5.2636406612
 20
4.1862198919
 30
0.0
 10
5.280939441
 20
4.1861051043
 30
0.0
 10
5.2982382208
 20
4.1862198919
 30
0.0
 10
5.312468144
 20
4.1865072694
 30
0.0
 10
5.3235455254
 20
4.1868539035
 30
0.0
 10
5.3315097139
 20
4.1871649279
 30
0.0
 10
5.3391755821
 20
4.1875281092
 30
0.0
 10
5.3441801628
 20
4.1878103709
 30
0.0
 10
5.3466249179
 20
4.1879607806
 30
0.0
  0
SPLINE
  5
2B2
100
AcDbEntity
  8
ALL_ASSEMBLY_MEMBERS
100
AcDbSpline
 62
7
  6
CONTINUOUS
 70
0
 71
3
 72
35
 73
31
 74
0
 42
0.0000001
 43
0.0000001
 44
0.0000000001
 40
0.0
 40
0.0
 40
0.0
 40
0.0
 40
0.0967753139
 40
0.1926724085
 40
0.2866973075
 40
0.3779840148
 40
0.4656678406
 40
0.5489046249
 40
0.6269061897
 40
0.6989375693
 40
0.7643185367
 40
0.7943253478
 40
0.822447122
 40
0.8486225823
 40
0.8727956566
 40
0.8949124171
 40
0.9149298005
 40
0.9328146504
 40
0.9485393446
 40
0.9620918526
 40
0.9680572883
 40
0.9734863219
 40
0.9783852776
 40
0.9827641534
 40
0.986639292
 40
0.990036533
 40
0.9929950516
 40
0.995574875
 40
0.9978668749
 40
1.0
 40
1.0
 40
1.0
 40
1.0
 10
5.280939441
 20
4.189392719
 30
0.0
 10
5.2855126575
 20
4.189392719
 30
0.0
 10
5.2946176377
 20
4.1893538496
 30
0.0
 10
5.3081648556
 20
4.1891796679
 30
0.0
 10
5.3214507104
 20
4.1888910653
 30
0.0
 10
5.334345382
 20
4.188491035
 30
0.0
 10
5.3467260902
 20
4.1879837031
 30
0.0
 10
5.358473604
 20
4.1873739351
 30
0.0
 10
5.3694746994
 20
4.1866680075
 30
0.0
 10
5.3796235878
 20
4.1858731386
 30
0.0
 10
5.3875001001
 20
4.1851236567
 30
0.0
 10
5.3933009603
 20
4.1844779973
 30
0.0
 10
5.3972549855
 20
4.1839903591
 30
0.0
 10
5.400928951
 20
4.183486725
 30
0.0
 10
5.404314091
 20
4.1829684478
 30
0.0
 10
5.4074022882
 20
4.1824367612
 30
0.0
 10
5.4101862344
 20
4.1818930908
 30
0.0
 10
5.4126595806
 20
4.1813391562
 30
0.0
 10
5.4148165508
 20
4.1807763428
 30
0.0
 10
5.4164081379
 20
4.1802827066
 30
0.0
 10
5.4175157539
 20
4.1798783271
 30
0.0
 10
5.4182285618
 20
4.1795866128
 30
0.0
 10
5.4188591155
 20
4.1792936382
 30
0.0
 10
5.4194071456
 20
4.1789994823
 30
0.0
 10
5.4198725704
 20
4.1787041793
 30
0.0
 10
5.4202555442
 20
4.1784076111
 30
0.0
 10
5.4205562725
 20
4.178109255
 30
0.0
 10
5.4207745509
 20
4.1778077853
 30
0.0
 10
5.4209086296
 20
4.1775018079
 30
0.0
 10
5.420939441
 20
4.177291718
 30
0.0
 10
5.420939441
 20
4.177190915
 30
0.0
  0
SPLINE
  5
2B3
100
AcDbEntity
  8
ALL_ASSEMBLY_MEMBERS
100
AcDbSpline
 62
7
  6
CONTINUOUS
 70
0
 71
3
 72
44
 73
40
 74
0
 42
0.0000001
 43
0.0000001
 44
0.0000000001
 40
0.0
 40
0.0
 40
0.0
 40
0.0
 40
0.0877192247
 40
0.1746045078
 40
0.2597420461
 40
0.3423253278
 40
0.4215520501
 40
0.4966596069
 40
0.5669441303
 40
0.6317841841
 40
0.6619962606
 40
0.6906613747
 40
0.7177390956
 40
0.7431981328
 40
0.7670273686
 40
0.7892350972
 40
0.8098671564
 40
0.8290111857
 40
0.8380768386
 40
0.846839882
 40
0.8636506279
 40
0.8718214047
 40
0.8799642307
 40
0.8840635242
 40
0.8882031697
 40
0.8967073424
 40
0.9057163693
 40
0.9104915424
 40
0.9154930082
 40
0.9263342565
 40
0.9385317353
 40
0.9451695145
 40
0.9521855787
 40
0.9595620347
 40
0.9672279278
 40
0.975120164
 40
0.9832035298
 40
0.9914884176
 40
1.0
 40
1.0
 40
1.0
 40
1.0
 10
5.280939441
 20
4.163311234
 30
0.0
 10
5.2862983583
 20
4.163311234
 30
0.0
 10
5.2969653058
 20
4.1633579163
 30
0.0
 10
5.3128322117
 20
4.1635672554
 30
0.0
 10
5.3283828945
 20
4.163914045
 30
0.0
 10
5.3434619288
 20
4.1643947048
 30
0.0
 10
5.3579230498
 20
4.1650045607
 30
0.0
 10
5.3716261292
 20
4.1657377803
 30
0.0
 10
5.3844417841
 20
4.1665877911
 30
0.0
 10
5.3945098625
 20
4.1674052104
 30
0.0
 10
5.4020341825
 20
4.1681200646
 30
0.0
 10
5.407256647
 20
4.1686689753
 30
0.0
 10
5.4121842039
 20
4.1692429912
 30
0.0
 10
5.416811069
 20
4.1698419773
 30
0.0
 10
5.4211341419
 20
4.1704668064
 30
0.0
 10
5.4251547674
 20
4.1711189603
 30
0.0
 10
5.4288795124
 20
4.1718027871
 30
0.0
 10
5.431800299
 20
4.1724150728
 30
0.0
 10
5.4339991262
 20
4.1729323162
 30
0.0
 10
5.436050219
 20
4.1734533601
 30
0.0
 10
5.4380325966
 20
4.1740224624
 30
0.0
 10
5.4399535459
 20
4.1746596779
 30
0.0
 10
5.4411237378
 20
4.1750916169
 30
0.0
 10
5.442052239
 20
4.1754652287
 30
0.0
 10
5.442993435
 20
4.1758658746
 30
0.0
 10
5.4441918866
 20
4.17642734
 30
0.0
 10
5.4453895055
 20
4.1770772156
 30
0.0
 10
5.446370996
 20
4.177672423
 30
0.0
 10
5.4474213771
 20
4.1783682166
 30
0.0
 10
5.4487821314
 20
4.1794130301
 30
0.0
 10
5.4501034765
 20
4.1806608406
 30
0.0
 10
5.4511436263
 20
4.1818507358
 30
0.0
 10
5.451918921
 20
4.1828766889
 30
0.0
 10
5.4526501394
 20
4.1840101409
 30
0.0
 10
5.4533182187
 20
4.1852433673
 30
0.0
 10
5.4539008166
 20
4.1865668649
 30
0.0
 10
5.4543768531
 20
4.1879725677
 30
0.0
 10
5.4547336148
 20
4.1894520974
 30
0.0
 10
5.4548817767
 20
4.190469235
 30
0.0
 10
5.4549329725
 20
4.1909866957
 30
0.0
  0
SPLINE
  5
2B4
100
AcDbEntity
  8
ALL_ASSEMBLY_MEMBERS
100
AcDbSpline
 62
7
  6
CONTINUOUS
 70
0
 71
3
 72
66
 73
62
 74
0
 42
0.0000001
 43
0.0000001
 44
0.0000000001
 40
0.0
 40
0.0
 40
0.0
 40
0.0
 40
0.0050182834
 40
0.0102409348
 40
0.0157130114
 40
0.0214802678
 40
0.0275744036
 40
0.0340223361
 40
0.0408573134
 40
0.0480936331
 40
0.0557049707
 40
0.0636699447
 40
0.0719593762
 40
0.0805228134
 40
0.0893168147
 40
0.0982985492
 40
0.1074245822
 40
0.1166585929
 40
0.1259692894
 40
0.1353273348
 40
0.1447066494
 40
0.1540805438
 40
0.1634209597
 40
0.1727004701
 40
0.1818882954
 40
0.190948238
 40
0.1998424338
 40
0.2085310921
 40
0.2169646794
 40
0.2250893507
 40
0.2402979212
 40
0.2473320567
 40
0.2539602401
 40
0.2602178426
 40
0.2661391081
 40
0.2717521586
 40
0.2770913073
 40
0.2822022604
 40
0.2871297839
 40
0.2919167583
 40
0.2966016125
 40
0.3012113931
 40
0.305770189
 40
0.3148287935
 40
0.3332225762
 40
0.342744399
 40
0.3525784884
 40
0.373331811
 40
0.3957209739
 40
0.4198555049
 40
0.4457833544
 40
0.4734977275
 40
0.5029646527
 40
0.5341201169
 40
0.5668883179
 40
0.6011694983
 40
0.6738382289
 40
0.7511673806
 40
0.832076777
 40
0.915430448
 40
1.0
 40
1.0
 40
1.0
 40
1.0
 10
5.490195873
 20
4.5379136618
 30
0.0
 10
5.4906472301
 20
4.5381105992
 30
0.0
 10
5.4915628973
 20
4.5385251068
 30
0.0
 10
5.4929473377
 20
4.5392046242
 30
0.0
 10
5.4943723794
 20
4.5399661732
 30
0.0
 10
5.4958432593
 20
4.5408212379
 30
0.0
 10
5.4973586173
 20
4.5417876773
 30
0.0
 10
5.4989122795
 20
4.5428853043
 30
0.0
 10
5.5004957319
 20
4.5441306795
 30
0.0
 10
5.5020945466
 20
4.545536386
 30
0.0
 10
5.5036853857
 20
4.5471134894
 30
0.0
 10
5.505238841
 20
4.548868479
 30
0.0
 10
5.5067243754
 20
4.5508008684
 30
0.0
 10
5.5081132611
 20
4.5529024377
 30
0.0
 10
5.5093713493
 20
4.5551632556
 30
0.0
 10
5.5104729615
 20
4.557565271
 30
0.0
 10
5.5113969789
 20
4.5600873286
 30
0.0
 10
5.512119348
 20
4.5627080491
 30
0.0
 10
5.5126285927
 20
4.5654015418
 30
0.0
 10
5.5129147521
 20
4.5681422722
 30
0.0
 10
5.5129689921
 20
4.5709035634
 30
0.0
 10
5.5127947343
 20
4.5736580594
 30
0.0
 10
5.5123934507
 20
4.5763789323
 30
0.0
 10
5.5117698856
 20
4.579038736
 30
0.0
 10
5.5109415708
 20
4.5816129302
 30
0.0
 10
5.509924027
 20
4.5840775167
 30
0.0
 10
5.5087340467
 20
4.5864085382
 30
0.0
 10
5.5074030915
 20
4.5885898585
 30
0.0
 10
5.5059613096
 20
4.5906074179
 30
0.0
 10
5.5039707136
 20
4.5930091253
 30
0.0
 10
5.5018452155
 20
4.595110906
 30
0.0
 10
5.4996638918
 20
4.59692024
 30
0.0
 10
5.4980948285
 20
4.5980876514
 30
0.0
 10
5.4965605607
 20
4.5991146065
 30
0.0
 10
5.4950668695
 20
4.6000195864
 30
0.0
 10
5.4936186549
 20
4.6008230235
 30
0.0
 10
5.4922152319
 20
4.6015413648
 30
0.0
 10
5.4908499837
 20
4.6021848025
 30
0.0
 10
5.4895158839
 20
4.6027655751
 30
0.0
 10
5.4882058688
 20
4.6032955466
 30
0.0
 10
5.486914018
 20
4.6037863484
 30
0.0
 10
5.4856334871
 20
4.6042430826
 30
0.0
 10
5.4839374351
 20
4.6048114647
 30
0.0
 10
5.4809329501
 20
4.6057302162
 30
0.0
 10
5.4774201017
 20
4.6066450379
 30
0.0
 10
5.473807585
 20
4.6074655589
 30
0.0
 10
5.4699543979
 20
4.6082695564
 30
0.0
 10
5.4648403838
 20
4.6092080582
 30
0.0
 10
5.458319214
 20
4.6102409626
 30
0.0
 10
5.4512756976
 20
4.611212202
 30
0.0
 10
5.4436984178
 20
4.6121296571
 30
0.0
 10
5.4355886561
 20
4.612995395
 30
0.0
 10
5.4269582734
 20
4.6138104706
 30
0.0
 10
5.4178254393
 20
4.6145739837
 30
0.0
 10
5.408214589
 20
4.6152848205
 30
0.0
 10
5.3945328272
 20
4.6161775765
 30
0.0
 10
5.3764740577
 20
4.6171375594
 30
0.0
 10
5.3538319851
 20
4.6180338499
 30
0.0
 10
5.3301325777
 20
4.618683376
 30
0.0
 10
5.3057170183
 20
4.6190767602
 30
0.0
 10
5.2892383589
 20
4.6191644498
 30
0.0
 10
5.280939441
 20
4.6191644498
 30
0.0
  0
SPLINE
  5
2B5
100
AcDbEntity
  8
ALL_ASSEMBLY_MEMBERS
100
AcDbSpline
 62
7
  6
CONTINUOUS
 70
0
 71
3
 72
45
 73
41
 74
0
 42
0.0000001
 43
0.0000001
 44
0.0000000001
 40
0.0
 40
0.0
 40
0.0
 40
0.0
 40
0.0085623629
 40
0.01684751
 40
0.0249041026
 40
0.0327668878
 40
0.0404184962
 40
0.0478012924
 40
0.0548438838
 40
0.0614878207
 40
0.0677537253
 40
0.0736725461
 40
0.0792643343
 40
0.0845431168
 40
0.0895442574
 40
0.0943120829
 40
0.1033104081
 40
0.1118247144
 40
0.1200596758
 40
0.128197026
 40
0.1363736845
 40
0.1446750475
 40
0.153180147
 40
0.1710095112
 40
0.1901544896
 40
0.2107848265
 40
0.2329941993
 40
0.2568224112
 40
0.282282746
 40
0.3093600731
 40
0.3380261197
 40
0.3682385232
 40
0.4330811795
 40
0.5033669297
 40
0.5784718428
 40
0.6576944252
 40
0.7402731081
 40
0.8254058593
 40
0.9122865563
 40
1.0
 40
1.0
 40
1.0
 40
1.0
 10
5.1069459095
 20
4.1909866957
 30
0.0
 10
5.1069974112
 20
4.1904661431
 30
0.0
 10
5.1071455714
 20
4.1894458411
 30
0.0
 10
5.1075027751
 20
4.1879648399
 30
0.0
 10
5.107978827
 20
4.1865627208
 30
0.0
 10
5.1085611859
 20
4.1852438033
 30
0.0
 10
5.1092299161
 20
4.1840135166
 30
0.0
 10
5.1099625516
 20
4.18287968
 30
0.0
 10
5.110737381
 20
4.1818504873
 30
0.0
 10
5.1115376419
 20
4.1809297554
 30
0.0
 10
5.1123489537
 20
4.1801132181
 30
0.0
 10
5.1131603401
 20
4.1793904589
 30
0.0
 10
5.1139622111
 20
4.1787502302
 30
0.0
 10
5.1147461817
 20
4.1781791407
 30
0.0
 10
5.1155115325
 20
4.1776693956
 30
0.0
 10
5.1164908037
 20
4.1770725677
 30
0.0
 10
5.1176909145
 20
4.176428214
 30
0.0
 10
5.1191146268
 20
4.1757580311
 30
0.0
 10
5.1205203668
 20
4.1751774994
 30
0.0
 10
5.121928203
 20
4.1746597094
 30
0.0
 10
5.1233552392
 20
4.1741846699
 30
0.0
 10
5.1248166581
 20
4.1737438647
 30
0.0
 10
5.1268565016
 20
4.1731807833
 30
0.0
 10
5.1295570193
 20
4.1725244623
 30
0.0
 10
5.1330017412
 20
4.1718022199
 30
0.0
 10
5.1367266481
 20
4.1711186101
 30
0.0
 10
5.1407472158
 20
4.1704663567
 30
0.0
 10
5.1450704694
 20
4.1698416562
 30
0.0
 10
5.149697364
 20
4.1692426382
 30
0.0
 10
5.1546250851
 20
4.1686686675
 30
0.0
 10
5.1598476516
 20
4.1681197702
 30
0.0
 10
5.1673722777
 20
4.1674049174
 30
0.0
 10
5.1774407058
 20
4.1665875387
 30
0.0
 10
5.1902565514
 20
4.1657375529
 30
0.0
 10
5.2039594183
 20
4.1650043874
 30
0.0
 10
5.2184199773
 20
4.1643946018
 30
0.0
 10
5.2334983229
 20
4.1639139823
 30
0.0
 10
5.2490482936
 20
4.1635672279
 30
0.0
 10
5.2649144176
 20
4.1633579142
 30
0.0
 10
5.2755808283
 20
4.163311234
 30
0.0
 10
5.280939441
 20
4.163311234
 30
0.0
  0
SPLINE
  5
2B6
100
AcDbEntity
  8
ALL_ASSEMBLY_MEMBERS
100
AcDbSpline
 62
7
  6
CONTINUOUS
 70
0
 71
3
 72
65
 73
61
 74
0
 42
0.0000001
 43
0.0000001
 44
0.0000000001
 40
0.0
 40
0.0
 40
0.0
 40
0.0
 40
0.0845768111
 40
0.1679351564
 40
0.2488501242
 40
0.3261829094
 40
0.3988532049
 40
0.4331340421
 40
0.4658995546
 40
0.4970521494
 40
0.5265157116
 40
0.5542270052
 40
0.5801518954
 40
0.6042848658
 40
0.6266692982
 40
0.6474232431
 40
0.6667781125
 40
0.6760540286
 40
0.685169638
 40
0.689701284
 40
0.6942347707
 40
0.7034004686
 40
0.7080864915
 40
0.7128779559
 40
0.7178094367
 40
0.722922917
 40
0.7282625904
 40
0.7338732895
 40
0.7397908102
 40
0.7460496494
 40
0.752689231
 40
0.7597248975
 40
0.7671411906
 40
0.7749294215
 40
0.7830626564
 40
0.7914908397
 40
0.8090492595
 40
0.8181046922
 40
0.8272887401
 40
0.8365662264
 40
0.8459051122
 40
0.8552780103
 40
0.864657822
 40
0.8740177826
 40
0.8833317064
 40
0.8925696566
 40
0.9016989594
 40
0.910684987
 40
0.9194853021
 40
0.9280503981
 40
0.936339078
 40
0.9443150776
 40
0.9519308821
 40
0.9591489332
 40
0.96598178
 40
0.9724437251
 40
0.9785412283
 40
0.9842983527
 40
0.9897634341
 40
1.0
 40
1.0
 40
1.0
 40
1.0
 10
5.280939441
 20
4.6191644498
 30
0.0
 10
5.2726392056
 20
4.6191644498
 30
0.0
 10
5.2561581736
 20
4.6190767424
 30
0.0
 10
5.2317391175
 20
4.6186832292
 30
0.0
 10
5.2080366228
 20
4.6180335289
 30
0.0
 10
5.1853918495
 20
4.61713697
 30
0.0
 10
5.1673312963
 20
4.6161767178
 30
0.0
 10
5.1536486915
 20
4.6152837409
 30
0.0
 10
5.1440377269
 20
4.6145727714
 30
0.0
 10
5.1349051174
 20
4.6138090655
 30
0.0
 10
5.1262750241
 20
4.6129939092
 30
0.0
 10
5.118165624
 20
4.6121279028
 30
0.0
 10
5.1105885287
 20
4.6112104303
 30
0.0
 10
5.1035455027
 20
4.6102386413
 30
0.0
 10
5.0970243082
 20
4.6092059727
 30
0.0
 10
5.0909915713
 20
4.6080976986
 30
0.0
 10
5.0862534571
 20
4.6070725878
 30
0.0
 10
5.0826588253
 20
4.6061764593
 30
0.0
 10
5.0804897541
 20
4.6055786439
 30
0.0
 10
5.0787803087
 20
4.6050672709
 30
0.0
 10
5.0770741017
 20
4.6045287057
 30
0.0
 10
5.0753677724
 20
4.6039405926
 30
0.0
 10
5.0736577317
 20
4.6032896778
 30
0.0
 10
5.0723474573
 20
4.6027575566
 30
0.0
 10
5.0710124765
 20
4.6021758753
 30
0.0
 10
5.0696465454
 20
4.6015320172
 30
0.0
 10
5.0682429047
 20
4.6008137007
 30
0.0
 10
5.066795257
 20
4.6000100838
 30
0.0
 10
5.0653029957
 20
4.5991033981
 30
0.0
 10
5.0637690973
 20
4.5980740907
 30
0.0
 10
5.0621987534
 20
4.5969060461
 30
0.0
 10
5.0606038916
 20
4.5955850001
 30
0.0
 10
5.0590054691
 20
4.5940967897
 30
0.0
 10
5.057429976
 20
4.5924322401
 30
0.0
 10
5.0559054494
 20
4.5905895013
 30
0.0
 10
5.0539544643
 20
4.5878655046
 30
0.0
 10
5.0522733339
 20
4.5848469276
 30
0.0
 10
5.0509304066
 20
4.5815974683
 30
0.0
 10
5.0501044142
 20
4.5790230918
 30
0.0
 10
5.0494831911
 20
4.576363402
 30
0.0
 10
5.0490818058
 20
4.5736427823
 30
0.0
 10
5.0489093878
 20
4.5708881242
 30
0.0
 10
5.0489653275
 20
4.5681265625
 30
0.0
 10
5.0492524698
 20
4.5653851542
 30
0.0
 10
5.0497641929
 20
4.5626910166
 30
0.0
 10
5.0504875559
 20
4.5600693496
 30
0.0
 10
5.0514129915
 20
4.557546315
 30
0.0
 10
5.0525189293
 20
4.5551445739
 30
0.0
 10
5.0537781978
 20
4.5528829366
 30
0.0
 10
5.0551675333
 20
4.5507804746
 30
0.0
 10
5.0566579684
 20
4.5488501045
 30
0.0
 10
5.058213789
 20
4.5470951994
 30
0.0
 10
5.05980341
 20
4.5455170475
 30
0.0
 10
5.0614012571
 20
4.5441122738
 30
0.0
 10
5.0629866744
 20
4.542870097
 30
0.0
 10
5.0645438427
 20
4.5417746842
 30
0.0
 10
5.0660592986
 20
4.5408069645
 30
0.0
 10
5.067527939
 20
4.5399503872
 30
0.0
 10
5.0693871315
 20
4.538960389
 30
0.0
 10
5.0707840576
 20
4.5383070695
 30
0.0
 10
5.0717046485
 20
4.5379049073
 30
0.0
  0
SPLINE
  5
2B7
100
AcDbEntity
  8
ALL_ASSEMBLY_MEMBERS
100
AcDbSpline
 62
7
  6
CONTINUOUS
 70
0
 71
3
 72
35
 73
31
 74
0
 42
0.0000001
 43
0.0000001
 44
0.0000000001
 40
0.0
 40
0.0
 40
0.0
 40
0.0
 40
0.0021331251
 40
0.004425125
 40
0.0070049484
 40
0.009963467
 40
0.013360708
 40
0.0172358466
 40
0.0216147224
 40
0.0265136781
 40
0.0319427117
 40
0.0379081474
 40
0.0514606554
 40
0.0671853496
 40
0.0850701995
 40
0.1050875829
 40
0.1272043434
 40
0.1513774177
 40
0.177552878
 40
0.2056746522
 40
0.2356814633
 40
0.3010624307
 40
0.3730938103
 40
0.4510953751
 40
0.5343321594
 40
0.6220159852
 40
0.7133026925
 40
0.8073275915
 40
0.9032246861
 40
1.0
 40
1.0
 40
1.0
 40
1.0
 10
5.140939441
 20
4.177190915
 30
0.0
 10
5.140939441
 20
4.177291718
 30
0.0
 10
5.1409702524
 20
4.1775018079
 30
0.0
 10
5.1411043311
 20
4.1778077853
 30
0.0
 10
5.1413226095
 20
4.178109255
 30
0.0
 10
5.1416233378
 20
4.1784076111
 30
0.0
 10
5.1420063116
 20
4.1787041793
 30
0.0
 10
5.1424717364
 20
4.1789994823
 30
0.0
 10
5.1430197665
 20
4.1792936382
 30
0.0
 10
5.1436503202
 20
4.1795866128
 30
0.0
 10
5.1443631281
 20
4.1798783271
 30
0.0
 10
5.1454707441
 20
4.1802827066
 30
0.0
 10
5.1470623312
 20
4.1807763428
 30
0.0
 10
5.1492193014
 20
4.1813391562
 30
0.0
 10
5.1516926476
 20
4.1818930908
 30
0.0
 10
5.1544765938
 20
4.1824367612
 30
0.0
 10
5.1575647909
 20
4.1829684478
 30
0.0
 10
5.160949931
 20
4.183486725
 30
0.0
 10
5.1646238965
 20
4.1839903591
 30
0.0
 10
5.1685779217
 20
4.1844779973
 30
0.0
 10
5.1743787819
 20
4.1851236567
 30
0.0
 10
5.1822552942
 20
4.1858731386
 30
0.0
 10
5.1924041825
 20
4.1866680075
 30
0.0
 10
5.203405278
 20
4.1873739351
 30
0.0
 10
5.2151527918
 20
4.1879837031
 30
0.0
 10
5.2275335
 20
4.188491035
 30
0.0
 10
5.2404281716
 20
4.1888910653
 30
0.0
 10
5.2537140264
 20
4.1891796679
 30
0.0
 10
5.2672612443
 20
4.1893538496
 30
0.0
 10
5.2763662245
 20
4.189392719
 30
0.0
 10
5.280939441
 20
4.189392719
 30
0.0
  0
SPLINE
  5
2B8
100
AcDbEntity
  8
ALL_ASSEMBLY_MEMBERS
100
AcDbSpline
 62
7
  6
CONTINUOUS
 70
0
 71
3
 72
35
 73
31
 74
0
 42
0.0000001
 43
0.0000001
 44
0.0000000001
 40
0.0
 40
0.0
 40
0.0
 40
0.0
 40
0.0967753139
 40
0.1926724085
 40
0.2866973075
 40
0.3779840148
 40
0.4656678406
 40
0.5489046249
 40
0.6269061897
 40
0.6989375693
 40
0.7643185367
 40
0.7943253478
 40
0.822447122
 40
0.8486225823
 40
0.8727956566
 40
0.8949124171
 40
0.9149298005
 40
0.9328146504
 40
0.9485393446
 40
0.9620918526
 40
0.9680572883
 40
0.9734863219
 40
0.9783852776
 40
0.9827641534
 40
0.986639292
 40
0.990036533
 40
0.9929950516
 40
0.995574875
 40
0.9978668749
 40
1.0
 40
1.0
 40
1.0
 40
1.0
 10
5.280939441
 20
4.164989111
 30
0.0
 10
5.2763662245
 20
4.164989111
 30
0.0
 10
5.2672612443
 20
4.1650279804
 30
0.0
 10
5.2537140264
 20
4.1652021621
 30
0.0
 10
5.2404281716
 20
4.1654907646
 30
0.0
 10
5.2275335
 20
4.165890795
 30
0.0
 10
5.2151527918
 20
4.1663981269
 30
0.0
 10
5.203405278
 20
4.1670078949
 30
0.0
 10
5.1924041825
 20
4.1677138225
 30
0.0
 10
5.1822552942
 20
4.1685086914
 30
0.0
 10
5.1743787819
 20
4.1692581733
 30
0.0
 10
5.1685779217
 20
4.1699038327
 30
0.0
 10
5.1646238965
 20
4.1703914709
 30
0.0
 10
5.160949931
 20
4.170895105
 30
0.0
 10
5.1575647909
 20
4.1714133822
 30
0.0
 10
5.1544765938
 20
4.1719450688
 30
0.0
 10
5.1516926476
 20
4.1724887392
 30
0.0
 10
5.1492193014
 20
4.1730426738
 30
0.0
 10
5.1470623312
 20
4.1736054872
 30
0.0
 10
5.1454707441
 20
4.1740991234
 30
0.0
 10
5.1443631281
 20
4.1745035029
 30
0.0
 10
5.1436503202
 20
4.1747952172
 30
0.0
 10
5.1430197665
 20
4.1750881917
 30
0.0
 10
5.1424717364
 20
4.1753823477
 30
0.0
 10
5.1420063116
 20
4.1756776507
 30
0.0
 10
5.1416233378
 20
4.1759742189
 30
0.0
 10
5.1413226095
 20
4.176272575
 30
0.0
 10
5.1411043311
 20
4.1765740447
 30
0.0
 10
5.1409702524
 20
4.1768800221
 30
0.0
 10
5.140939441
 20
4.177090112
 30
0.0
 10
5.140939441
 20
4.177190915
 30
0.0
  0
SPLINE
  5
2B9
100
AcDbEntity
  8
ALL_ASSEMBLY_MEMBERS
100
AcDbSpline
 62
7
  6
CONTINUOUS
 70
0
 71
3
 72
65
 73
61
 74
0
 42
0.0000001
 43
0.0000001
 44
0.0000000001
 40
0.0
 40
0.0
 40
0.0
 40
0.0
 40
0.049189523
 40
0.0979561248
 40
0.1458252727
 40
0.1923808897
 40
0.2372055599
 40
0.2798928543
 40
0.3200608189
 40
0.3573520239
 40
0.3914340205
 40
0.4071774626
 40
0.4220085427
 40
0.4358967763
 40
0.4488127059
 40
0.460728793
 40
0.4716230546
 40
0.481475732
 40
0.4902697651
 40
0.4979958268
 40
0.501457432
 40
0.5046514649
 40
0.5075788804
 40
0.5102420333
 40
0.5126450244
 40
0.5147938839
 40
0.516697532
 40
0.5183693607
 40
0.5198297797
 40
0.5211102443
 40
0.5222578805
 40
0.5233374184
 40
0.5244258058
 40
0.5255982497
 40
0.5269156399
 40
0.5284212723
 40
0.530143687
 40
0.5321014304
 40
0.5343067092
 40
0.5367676834
 40
0.5394898845
 40
0.54247704
 40
0.5457311113
 40
0.5492528645
 40
0.5570991122
 40
0.5660126428
 40
0.5759832173
 40
0.5869932318
 40
0.5990227713
 40
0.6120493337
 40
0.6260449183
 40
0.6568233738
 40
0.6910936787
 40
0.7285555219
 40
0.7688746863
 40
0.8116922366
 40
0.8566251379
 40
0.9032655189
 40
0.9511961622
 40
1.0
 40
1.0
 40
1.0
 40
1.0
 10
5.280939441
 20
4.1633702162
 30
0.0
 10
5.2859716082
 20
4.1633702162
 30
0.0
 10
5.2959927272
 20
4.1634117692
 30
0.0
 10
5.3109098924
 20
4.1635980629
 30
0.0
 10
5.325555535
 20
4.1639068192
 30
0.0
 10
5.3397947408
 20
4.1643350286
 30
0.0
 10
5.3534995233
 20
4.1648785677
 30
0.0
 10
5.3665452672
 20
4.1655324671
 30
0.0
 10
5.3788133694
 20
4.1662904719
 30
0.0
 10
5.3901925092
 20
4.1671452709
 30
0.0
 10
5.399068675
 20
4.1679511823
 30
0.0
 10
5.4056466922
 20
4.1686456096
 30
0.0
 10
5.4101648646
 20
4.1691718149
 30
0.0
 10
5.4143894496
 20
4.1697158477
 30
0.0
 10
5.4183108748
 20
4.1702764305
 30
0.0
 10
5.4219202633
 20
4.1708523357
 30
0.0
 10
5.425209543
 20
4.1714420072
 30
0.0
 10
5.4281714469
 20
4.1720438552
 30
0.0
 10
5.4307993413
 20
4.172656584
 30
0.0
 10
5.4327727418
 20
4.1731924143
 30
0.0
 10
5.4341774309
 20
4.1736305399
 30
0.0
 10
5.435104835
 20
4.1739488685
 30
0.0
 10
5.4359448112
 20
4.1742688968
 30
0.0
 10
5.4366969702
 20
4.174590464
 30
0.0
 10
5.4373610915
 20
4.1749133641
 30
0.0
 10
5.4379370605
 20
4.1752374717
 30
0.0
 10
5.4384248543
 20
4.1755627671
 30
0.0
 10
5.4388245396
 20
4.1758894626
 30
0.0
 10
5.4391361457
 20
4.1762182635
 30
0.0
 10
5.4393591597
 20
4.1765505601
 30
0.0
 10
5.4394915292
 20
4.1768878527
 30
0.0
 10
5.4395291294
 20
4.1772293388
 30
0.0
 10
5.4394698938
 20
4.1775701915
 30
0.0
 10
5.4393168544
 20
4.1779062891
 30
0.0
 10
5.4390738471
 20
4.1782376568
 30
0.0
 10
5.4387424431
 20
4.178565884
 30
0.0
 10
5.4383229798
 20
4.1788922282
 30
0.0
 10
5.4378153859
 20
4.1792172488
 30
0.0
 10
5.4372196142
 20
4.1795410924
 30
0.0
 10
5.436535708
 20
4.1798637062
 30
0.0
 10
5.4357638028
 20
4.1801849489
 30
0.0
 10
5.434904151
 20
4.1805046037
 30
0.0
 10
5.4339571795
 20
4.1808225261
 30
0.0
 10
5.4325264853
 20
4.1812597517
 30
0.0
 10
5.4305210706
 20
4.1817945303
 30
0.0
 10
5.4278553815
 20
4.182406124
 30
0.0
 10
5.424856373
 20
4.1830066729
 30
0.0
 10
5.4215307718
 20
4.1835948804
 30
0.0
 10
5.4178859268
 20
4.1841691329
 30
0.0
 10
5.4139300038
 20
4.1847279371
 30
0.0
 10
5.4080640897
 20
4.1854746131
 30
0.0
 10
5.400024374
 20
4.1863483682
 30
0.0
 10
5.3895790168
 20
4.1872870519
 30
0.0
 10
5.3781471086
 20
4.1881365337
 30
0.0
 10
5.3658323392
 20
4.1888888986
 30
0.0
 10
5.3527463777
 20
4.1895367609
 30
0.0
 10
5.3390082534
 20
4.1900739391
 30
0.0
 10
5.3247428023
 20
4.1904955427
 30
0.0
 10
5.3100782536
 20
4.1907974937
 30
0.0
 10
5.3001827361
 20
4.1909163967
 30
0.0
 10
5.2951901795
 20
4.1909556513
 30
0.0
  0
SPLINE
  5
2BA
100
AcDbEntity
  8
ALL_ASSEMBLY_MEMBERS
100
AcDbSpline
 62
7
  6
CONTINUOUS
 70
0
 71
3
 72
37
 73
33
 74
0
 42
0.0000001
 43
0.0000001
 44
0.0000000001
 40
0.0
 40
0.0
 40
0.0
 40
0.0
 40
0.0021243258
 40
0.0043558587
 40
0.0068381305
 40
0.009676222
 40
0.0129404568
 40
0.0166766723
 40
0.0209147848
 40
0.0256735658
 40
0.0309649012
 40
0.03679647
 40
0.0431731358
 40
0.0500978227
 40
0.0655926833
 40
0.0832707162
 40
0.1031084155
 40
0.1250729502
 40
0.1491181842
 40
0.1751939905
 40
0.2032441843
 40
0.2332028343
 40
0.2650020757
 40
0.29856853
 40
0.3706776278
 40
0.4488480808
 40
0.5323320557
 40
0.6203292235
 40
0.7119908097
 40
0.8064284007
 40
0.9027595989
 40
1.0
 40
1.0
 40
1.0
 40
1.0
 10
5.4549329628
 20
4.1909866957
 30
0.0
 10
5.4549452731
 20
4.191110947
 30
0.0
 10
5.4549337028
 20
4.1913708544
 30
0.0
 10
5.454803309
 20
4.1917556154
 30
0.0
 10
5.4545655771
 20
4.1921341879
 30
0.0
 10
5.4542238307
 20
4.1925080954
 30
0.0
 10
5.4537787492
 20
4.1928793304
 30
0.0
 10
5.4532301367
 20
4.1932488089
 30
0.0
 10
5.4525777723
 20
4.1936168146
 30
0.0
 10
5.4518217269
 20
4.1939834001
 30
0.0
 10
5.4509622576
 20
4.1943484322
 30
0.0
 10
5.4499997346
 20
4.1947116917
 30
0.0
 10
5.448934597
 20
4.1950729704
 30
0.0
 10
5.4473166439
 20
4.1955704822
 30
0.0
 10
5.4450387089
 20
4.1961781376
 30
0.0
 10
5.4420007411
 20
4.1968720932
 30
0.0
 10
5.4385713053
 20
4.1975531825
 30
0.0
 10
5.4347585515
 20
4.1982194495
 30
0.0
 10
5.4305715489
 20
4.1988692429
 30
0.0
 10
5.4260203825
 20
4.1995007361
 30
0.0
 10
5.4211160508
 20
4.2001122093
 30
0.0
 10
5.4158704507
 20
4.2007022464
 30
0.0
 10
5.410296327
 20
4.2012692649
 30
0.0
 10
5.4022500564
 20
4.2020104153
 30
0.0
 10
5.3914773154
 20
4.2028607523
 30
0.0
 10
5.3777658462
 20
4.2037469942
 30
0.0
 10
5.3631119496
 20
4.2045126096
 30
0.0
 10
5.347658301
 20
4.2051498831
 30
0.0
 10
5.3315555729
 20
4.2056523022
 30
0.0
 10
5.314959145
 20
4.2060148669
 30
0.0
 10
5.2980322973
 20
4.2062337579
 30
0.0
 10
5.2866548525
 20
4.2062825572
 30
0.0
 10
5.280939441
 20
4.2062825572
 30
0.0
  0
SPLINE
  5
2BB
100
AcDbEntity
  8
ALL_ASSEMBLY_MEMBERS
100
AcDbSpline
 62
7
  6
CONTINUOUS
 70
0
 71
3
 72
28
 73
24
 74
0
 42
0.0000001
 43
0.0000001
 44
0.0000000001
 40
0.0
 40
0.0
 40
0.0
 40
0.0
 40
0.0077438979
 40
0.0157905641
 40
0.0245837199
 40
0.034466951
 40
0.0456818058
 40
0.0583905168
 40
0.0727020967
 40
0.0886906014
 40
0.1064070877
 40
0.1258871599
 40
0.1471534992
 40
0.1702184598
 40
0.2217640241
 40
0.280541261
 40
0.3465142949
 40
0.4195966942
 40
0.4996834145
 40
0.5866508263
 40
0.680341159
 40
0.780586832
 40
1.0
 40
1.0
 40
1.0
 40
1.0
 10
5.4894315061
 20
4.5396817757
 30
0.0
 10
5.4894448144
 20
4.5398163926
 30
0.0
 10
5.4894364228
 20
4.5400957357
 30
0.0
 10
5.4893140529
 20
4.5405114959
 30
0.0
 10
5.489085828
 20
4.5409222569
 30
0.0
 10
5.4887546226
 20
4.5413285874
 30
0.0
 10
5.4883215117
 20
4.5417321018
 30
0.0
 10
5.4877866811
 20
4.5421337639
 30
0.0
 10
5.4871500712
 20
4.5425339891
 30
0.0
 10
5.4864116603
 20
4.5429328594
 30
0.0
 10
5.4855715099
 20
4.5433302977
 30
0.0
 10
5.4846297907
 20
4.5437261124
 30
0.0
 10
5.4835868529
 20
4.5441201434
 30
0.0
 10
5.4820022987
 20
4.5446631945
 30
0.0
 10
5.4797682224
 20
4.5453284045
 30
0.0
 10
5.4767838625
 20
4.546090557
 30
0.0
 10
5.4734101039
 20
4.5468412654
 30
0.0
 10
5.4696535085
 20
4.5475790925
 30
0.0
 10
5.4655212694
 20
4.5483022486
 30
0.0
 10
5.4610214715
 20
4.5490090321
 30
0.0
 10
5.4561630171
 20
4.5496981217
 30
0.0
 10
5.4490013321
 20
4.5506191983
 30
0.0
 10
5.4434508889
 20
4.5512344703
 30
0.0
 10
5.4396379986
 20
4.5516244721
 30
0.0
  0
LINE
  5
2BC
100
AcDbEntity
  8
ALL_ASSEMBLY_MEMBERS
100
AcDbLine
 62
7
  6
CONTINUOUS
 10
5.4271689232
 20
4.5527919111
 11
5.426683433
 21
4.5528334057
  0
LINE
  5
2BD
100
AcDbEntity
  8
ALL_ASSEMBLY_MEMBERS
100
AcDbLine
 62
7
  6
CONTINUOUS
 10
5.426683433
 20
4.5528334057
 11
5.4261039029
 21
4.5528825855
  0
SPLINE
  5
2BE
100
AcDbEntity
  8
ALL_ASSEMBLY_MEMBERS
100
AcDbSpline
 62
7
  6
CONTINUOUS
 70
0
 71
3
 72
15
 73
11
 74
0
 42
0.0000001
 43
0.0000001
 44
0.0000000001
 40
0.0
 40
0.0
 40
0.0
 40
0.0
 40
0.1039403328
 40
0.2160910445
 40
0.3354298917
 40
0.4608687446
 40
0.5912577488
 40
0.7253932654
 40
0.862081526
 40
1.0
 40
1.0
 40
1.0
 40
1.0
 10
5.4261039029
 20
4.5528825855
 30
0.0
 10
5.4210878477
 20
4.5533066072
 30
0.0
 10
5.410652063
 20
4.5541011488
 30
0.0
 10
5.3944381149
 20
4.555115242
 30
0.0
 10
5.3771734775
 20
4.5559904285
 30
0.0
 10
5.3590180157
 20
4.556718237
 30
0.0
 10
5.3401400884
 20
4.5572916202
 30
0.0
 10
5.3207130549
 20
4.5577051916
 30
0.0
 10
5.3009185609
 20
4.5579548054
 30
0.0
 10
5.2876189851
 20
4.5580104372
 30
0.0
 10
5.280939441
 20
4.5580104372
 30
0.0
  0
SPLINE
  5
2BF
100
AcDbEntity
  8
ALL_ASSEMBLY_MEMBERS
100
AcDbSpline
 62
7
  6
CONTINUOUS
 70
0
 71
3
 72
37
 73
33
 74
0
 42
0.0000001
 43
0.0000001
 44
0.0000000001
 40
0.0
 40
0.0
 40
0.0
 40
0.0
 40
0.0021243258
 40
0.0043558587
 40
0.0068381305
 40
0.009676222
 40
0.0129404568
 40
0.0166766723
 40
0.0209147848
 40
0.0256735658
 40
0.0309649012
 40
0.03679647
 40
0.0431731358
 40
0.0500978227
 40
0.0655926833
 40
0.0832707162
 40
0.1031084155
 40
0.1250729502
 40
0.1491181842
 40
0.1751939905
 40
0.2032441843
 40
0.2332028343
 40
0.2650020757
 40
0.29856853
 40
0.3706776278
 40
0.4488480808
 40
0.5323320557
 40
0.6203292235
 40
0.7119908097
 40
0.8064284007
 40
0.9027595989
 40
1.0
 40
1.0
 40
1.0
 40
1.0
 10
5.1069459192
 20
4.1909866957
 30
0.0
 10
5.1069336089
 20
4.191110947
 30
0.0
 10
5.1069451792
 20
4.1913708544
 30
0.0
 10
5.107075573
 20
4.1917556154
 30
0.0
 10
5.1073133049
 20
4.1921341879
 30
0.0
 10
5.1076550513
 20
4.1925080954
 30
0.0
 10
5.1081001328
 20
4.1928793304
 30
0.0
 10
5.1086487453
 20
4.1932488089
 30
0.0
 10
5.1093011096
 20
4.1936168146
 30
0.0
 10
5.1100571551
 20
4.1939834001
 30
0.0
 10
5.1109166244
 20
4.1943484322
 30
0.0
 10
5.1118791474
 20
4.1947116917
 30
0.0
 10
5.112944285
 20
4.1950729704
 30
0.0
 10
5.1145622381
 20
4.1955704822
 30
0.0
 10
5.1168401731
 20
4.1961781376
 30
0.0
 10
5.1198781409
 20
4.1968720932
 30
0.0
 10
5.1233075767
 20
4.1975531825
 30
0.0
 10
5.1271203305
 20
4.1982194495
 30
0.0
 10
5.1313073331
 20
4.1988692429
 30
0.0
 10
5.1358584995
 20
4.1995007361
 30
0.0
 10
5.1407628312
 20
4.2001122093
 30
0.0
 10
5.1460084312
 20
4.2007022464
 30
0.0
 10
5.151582555
 20
4.2012692649
 30
0.0
 10
5.1596288256
 20
4.2020104153
 30
0.0
 10
5.1704015666
 20
4.2028607523
 30
0.0
 10
5.1841130358
 20
4.2037469942
 30
0.0
 10
5.1987669323
 20
4.2045126096
 30
0.0
 10
5.214220581
 20
4.2051498831
 30
0.0
 10
5.230323309
 20
4.2056523022
 30
0.0
 10
5.246919737
 20
4.2060148669
 30
0.0
 10
5.2638465847
 20
4.2062337579
 30
0.0
 10
5.2752240295
 20
4.2062825572
 30
0.0
 10
5.280939441
 20
4.2062825572
 30
0.0
  0
SPLINE
  5
2C0
100
AcDbEntity
  8
ALL_ASSEMBLY_MEMBERS
100
AcDbSpline
 62
7
  6
CONTINUOUS
 70
0
 71
3
 72
28
 73
24
 74
0
 42
0.0000001
 43
0.0000001
 44
0.0000000001
 40
0.0
 40
0.0
 40
0.0
 40
0.0
 40
0.0077438979
 40
0.0157905641
 40
0.0245837199
 40
0.034466951
 40
0.0456818058
 40
0.0583905168
 40
0.0727020967
 40
0.0886906014
 40
0.1064070877
 40
0.1258871599
 40
0.1471534992
 40
0.1702184598
 40
0.2217640241
 40
0.280541261
 40
0.3465142949
 40
0.4195966942
 40
0.4996834145
 40
0.5866508263
 40
0.680341159
 40
0.780586832
 40
1.0
 40
1.0
 40
1.0
 40
1.0
 10
5.0724473759
 20
4.5396817757
 30
0.0
 10
5.0724340676
 20
4.5398163926
 30
0.0
 10
5.0724424592
 20
4.5400957357
 30
0.0
 10
5.0725648291
 20
4.5405114959
 30
0.0
 10
5.072793054
 20
4.5409222569
 30
0.0
 10
5.0731242594
 20
4.5413285874
 30
0.0
 10
5.0735573703
 20
4.5417321018
 30
0.0
 10
5.0740922009
 20
4.5421337639
 30
0.0
 10
5.0747288108
 20
4.5425339891
 30
0.0
 10
5.0754672217
 20
4.5429328594
 30
0.0
 10
5.0763073721
 20
4.5433302977
 30
0.0
 10
5.0772490913
 20
4.5437261124
 30
0.0
 10
5.0782920291
 20
4.5441201434
 30
0.0
 10
5.0798765833
 20
4.5446631945
 30
0.0
 10
5.0821106596
 20
4.5453284045
 30
0.0
 10
5.0850950195
 20
4.546090557
 30
0.0
 10
5.0884687781
 20
4.5468412654
 30
0.0
 10
5.0922253735
 20
4.5475790925
 30
0.0
 10
5.0963576126
 20
4.5483022486
 30
0.0
 10
5.1008574105
 20
4.5490090321
 30
0.0
 10
5.1057158649
 20
4.5496981217
 30
0.0
 10
5.1128775499
 20
4.5506191983
 30
0.0
 10
5.118427993
 20
4.5512344703
 30
0.0
 10
5.1222408834
 20
4.5516244721
 30
0.0
  0
LINE
  5
2C1
100
AcDbEntity
  8
ALL_ASSEMBLY_MEMBERS
100
AcDbLine
 62
7
  6
CONTINUOUS
 10
5.1273913077
 20
4.5521318175
 11
5.1285601424
 21
4.5522418017
  0
LINE
  5
2C2
100
AcDbEntity
  8
ALL_ASSEMBLY_MEMBERS
100
AcDbLine
 62
7
  6
CONTINUOUS
 10
5.1342381002
 20
4.5527513211
 11
5.135195449
 21
4.5528334057
  0
LINE
  5
2C3
100
AcDbEntity
  8
ALL_ASSEMBLY_MEMBERS
100
AcDbLine
 62
7
  6
CONTINUOUS
 10
5.135195449
 20
4.5528334057
 11
5.1366935815
 21
4.5529597639
  0
SPLINE
  5
2C4
100
AcDbEntity
  8
ALL_ASSEMBLY_MEMBERS
100
AcDbSpline
 62
7
  6
CONTINUOUS
 70
0
 71
3
 72
15
 73
11
 74
0
 42
0.0000001
 43
0.0000001
 44
0.0000000001
 40
0.0
 40
0.0
 40
0.0
 40
0.0
 40
0.1042890147
 40
0.2166558038
 40
0.3360924334
 40
0.4615268228
 40
0.591826795
 40
0.7258091037
 40
0.8623008902
 40
1.0
 40
1.0
 40
1.0
 40
1.0
 10
5.1366935815
 20
4.5529597639
 30
0.0
 10
5.1416949615
 20
4.5533774021
 30
0.0
 10
5.1520922951
 20
4.5541600604
 30
0.0
 10
5.168235828
 20
4.555159376
 30
0.0
 10
5.1854062072
 20
4.5560215071
 30
0.0
 10
5.2034469377
 20
4.5567382649
 30
0.0
 10
5.2221933668
 20
4.5573028291
 30
0.0
 10
5.2414761034
 20
4.5577099697
 30
0.0
 10
5.2611176489
 20
4.5579556759
 30
0.0
 10
5.2743128321
 20
4.5580104372
 30
0.0
 10
5.280939441
 20
4.5580104372
 30
0.0
  0
SPLINE
  5
2C5
100
AcDbEntity
  8
ALL_ASSEMBLY_MEMBERS
100
AcDbSpline
 62
7
  6
CONTINUOUS
 70
0
 71
3
 72
65
 73
61
 74
0
 42
0.0000001
 43
0.0000001
 44
0.0000000001
 40
0.0
 40
0.0
 40
0.0
 40
0.0
 40
0.049189523
 40
0.0979561248
 40
0.1458252727
 40
0.1923808897
 40
0.2372055599
 40
0.2798928543
 40
0.3200608189
 40
0.3573520239
 40
0.3914340205
 40
0.4071774626
 40
0.4220085427
 40
0.4358967763
 40
0.4488127059
 40
0.460728793
 40
0.4716230546
 40
0.481475732
 40
0.4902697651
 40
0.4979958268
 40
0.501457432
 40
0.5046514649
 40
0.5075788804
 40
0.5102420333
 40
0.5126450244
 40
0.5147938839
 40
0.516697532
 40
0.5183693607
 40
0.5198297797
 40
0.5211102443
 40
0.5222578805
 40
0.5233374184
 40
0.5244258058
 40
0.5255982497
 40
0.5269156399
 40
0.5284212723
 40
0.530143687
 40
0.5321014304
 40
0.5343067092
 40
0.5367676834
 40
0.5394898845
 40
0.54247704
 40
0.5457311113
 40
0.5492528645
 40
0.5570991122
 40
0.5660126428
 40
0.5759832173
 40
0.5869932318
 40
0.5990227713
 40
0.6120493337
 40
0.6260449183
 40
0.6568233738
 40
0.6910936787
 40
0.7285555219
 40
0.7688746863
 40
0.8116922366
 40
0.8566251379
 40
0.9032655189
 40
0.9511961622
 40
1.0
 40
1.0
 40
1.0
 40
1.0
 10
5.280939441
 20
4.1633702162
 30
0.0
 10
5.2759072738
 20
4.1633702162
 30
0.0
 10
5.2658861548
 20
4.1634117692
 30
0.0
 10
5.2509689896
 20
4.1635980629
 30
0.0
 10
5.236323347
 20
4.1639068192
 30
0.0
 10
5.2220841412
 20
4.1643350286
 30
0.0
 10
5.2083793587
 20
4.1648785677
 30
0.0
 10
5.1953336148
 20
4.1655324671
 30
0.0
 10
5.1830655126
 20
4.1662904719
 30
0.0
 10
5.1716863728
 20
4.1671452709
 30
0.0
 10
5.162810207
 20
4.1679511823
 30
0.0
 10
5.1562321898
 20
4.1686456096
 30
0.0
 10
5.1517140174
 20
4.1691718149
 30
0.0
 10
5.1474894324
 20
4.1697158477
 30
0.0
 10
5.1435680072
 20
4.1702764305
 30
0.0
 10
5.1399586187
 20
4.1708523357
 30
0.0
 10
5.136669339
 20
4.1714420072
 30
0.0
 10
5.1337074351
 20
4.1720438552
 30
0.0
 10
5.1310795407
 20
4.172656584
 30
0.0
 10
5.1291061402
 20
4.1731924143
 30
0.0
 10
5.1277014511
 20
4.1736305399
 30
0.0
 10
5.126774047
 20
4.1739488685
 30
0.0
 10
5.1259340708
 20
4.1742688968
 30
0.0
 10
5.1251819118
 20
4.174590464
 30
0.0
 10
5.1245177905
 20
4.1749133641
 30
0.0
 10
5.1239418215
 20
4.1752374717
 30
0.0
 10
5.1234540277
 20
4.1755627671
 30
0.0
 10
5.1230543424
 20
4.1758894626
 30
0.0
 10
5.1227427363
 20
4.1762182635
 30
0.0
 10
5.1225197223
 20
4.1765505601
 30
0.0
 10
5.1223873528
 20
4.1768878527
 30
0.0
 10
5.1223497526
 20
4.1772293388
 30
0.0
 10
5.1224089882
 20
4.1775701915
 30
0.0
 10
5.1225620276
 20
4.1779062891
 30
0.0
 10
5.1228050348
 20
4.1782376568
 30
0.0
 10
5.1231364389
 20
4.178565884
 30
0.0
 10
5.1235559022
 20
4.1788922282
 30
0.0
 10
5.1240634961
 20
4.1792172488
 30
0.0
 10
5.1246592678
 20
4.1795410924
 30
0.0
 10
5.125343174
 20
4.1798637062
 30
0.0
 10
5.1261150792
 20
4.1801849489
 30
0.0
 10
5.126974731
 20
4.1805046037
 30
0.0
 10
5.1279217025
 20
4.1808225261
 30
0.0
 10
5.1293523966
 20
4.1812597517
 30
0.0
 10
5.1313578114
 20
4.1817945303
 30
0.0
 10
5.1340235005
 20
4.182406124
 30
0.0
 10
5.137022509
 20
4.1830066729
 30
0.0
 10
5.1403481102
 20
4.1835948804
 30
0.0
 10
5.1439929552
 20
4.1841691329
 30
0.0
 10
5.1479488782
 20
4.1847279371
 30
0.0
 10
5.1538147923
 20
4.1854746131
 30
0.0
 10
5.161854508
 20
4.1863483682
 30
0.0
 10
5.1722998652
 20
4.1872870519
 30
0.0
 10
5.1837317734
 20
4.1881365337
 30
0.0
 10
5.1960465428
 20
4.1888888986
 30
0.0
 10
5.2091325043
 20
4.1895367609
 30
0.0
 10
5.2228706285
 20
4.1900739391
 30
0.0
 10
5.2371360797
 20
4.1904955427
 30
0.0
 10
5.2518006284
 20
4.1907974937
 30
0.0
 10
5.2616961459
 20
4.1909163967
 30
0.0
 10
5.2666887025
 20
4.1909556513
 30
0.0
  0
SPLINE
  5
2C6
100
AcDbEntity
  8
ALL_ASSEMBLY_MEMBERS
100
AcDbSpline
 62
7
  6
CONTINUOUS
 70
0
 71
3
 72
35
 73
31
 74
0
 42
0.0000001
 43
0.0000001
 44
0.0000000001
 40
0.0
 40
0.0
 40
0.0
 40
0.0
 40
0.0021331251
 40
0.004425125
 40
0.0070049484
 40
0.009963467
 40
0.013360708
 40
0.0172358466
 40
0.0216147224
 40
0.0265136781
 40
0.0319427117
 40
0.0379081474
 40
0.0514606554
 40
0.0671853496
 40
0.0850701995
 40
0.1050875829
 40
0.1272043434
 40
0.1513774177
 40
0.177552878
 40
0.2056746522
 40
0.2356814633
 40
0.3010624307
 40
0.3730938103
 40
0.4510953751
 40
0.5343321594
 40
0.6220159852
 40
0.7133026925
 40
0.8073275915
 40
0.9032246861
 40
1.0
 40
1.0
 40
1.0
 40
1.0
 10
5.420939441
 20
4.177190915
 30
0.0
 10
5.420939441
 20
4.177090112
 30
0.0
 10
5.4209086296
 20
4.1768800221
 30
0.0
 10
5.4207745509
 20
4.1765740447
 30
0.0
 10
5.4205562725
 20
4.176272575
 30
0.0
 10
5.4202555442
 20
4.1759742189
 30
0.0
 10
5.4198725704
 20
4.1756776507
 30
0.0
 10
5.4194071456
 20
4.1753823477
 30
0.0
 10
5.4188591155
 20
4.1750881917
 30
0.0
 10
5.4182285618
 20
4.1747952172
 30
0.0
 10
5.4175157539
 20
4.1745035029
 30
0.0
 10
5.4164081379
 20
4.1740991234
 30
0.0
 10
5.4148165508
 20
4.1736054872
 30
0.0
 10
5.4126595806
 20
4.1730426738
 30
0.0
 10
5.4101862344
 20
4.1724887392
 30
0.0
 10
5.4074022882
 20
4.1719450688
 30
0.0
 10
5.404314091
 20
4.1714133822
 30
0.0
 10
5.400928951
 20
4.170895105
 30
0.0
 10
5.3972549855
 20
4.1703914709
 30
0.0
 10
5.3933009603
 20
4.1699038327
 30
0.0
 10
5.3875001001
 20
4.1692581733
 30
0.0
 10
5.3796235878
 20
4.1685086914
 30
0.0
 10
5.3694746994
 20
4.1677138225
 30
0.0
 10
5.358473604
 20
4.1670078949
 30
0.0
 10
5.3467260902
 20
4.1663981269
 30
0.0
 10
5.334345382
 20
4.165890795
 30
0.0
 10
5.3214507104
 20
4.1654907646
 30
0.0
 10
5.3081648556
 20
4.1652021621
 30
0.0
 10
5.2946176377
 20
4.1650279804
 30
0.0
 10
5.2855126575
 20
4.164989111
 30
0.0
 10
5.280939441
 20
4.164989111
 30
0.0
  0
ENDSEC
  0
SECTION
  2
OBJECTS
  0
DICTIONARY
  5
C
100
AcDbDictionary
280
0
281
1
  3
ACAD_GROUP
350
D
  3
ACAD_MLINESTYLE
350
17
  3
ACAD_LAYOUT
350
1A
  3
ACAD_PLOTSETTINGS
350
19
  3
ACAD_PLOTSTYLENAME
350
E
  0
DICTIONARY
  5
D
102
{ACAD_REACTORS
330
C
102
}
100
AcDbDictionary
280
0
281
1
  0
ACDBDICTIONARYWDFLT
  5
E
102
{ACAD_REACTORS
330
C
102
}
100
AcDbDictionary
281
1
  3
Normal
350
F
100
AcDbDictionaryWithDefault
340
F
  0
DICTIONARY
  5
17
102
{ACAD_REACTORS
330
C
102
}
100
AcDbDictionary
280
0
281
1
  3
Standard
350
18
  0
DICTIONARY
  5
19
102
{ACAD_REACTORS
330
C
102
}
100
AcDbDictionary
281
1
  0
DICTIONARY
  5
1A
102
{ACAD_REACTORS
330
C
102
}
100
AcDbDictionary
281
1
  3
Model
350
2C7
  3
Layout1
350
2C8
  0
ACDBPLACEHOLDER
  5
F
102
{ACAD_REACTORS
330
E
102
}
  0
MLINESTYLE
  5
18
102
{ACAD_REACTORS
330
17
102
}
100
AcDbMlineStyle
  2
STANDARD
 70
0
  3

 62
256
 51
90.0
 52
90.0
 71
2
 49
0.5
 62
256
  6
BYLAYER
 49
-0.5
 62
256
  6
BYLAYER
  0
LAYOUT
  5
2C7
102
{ACAD_REACTORS
330
1A
102
}
100
AcDbPlotSettings
  1

  2
none_device
  4
ANSI_A_(11.00_x_8.50_Inches)
  6

 40
0.0
 41
0.0
 42
0.0
 43
0.0
 44
279.4
 45
215.9
 46
0.0
 47
0.0
 48
0.0
 49
0.0
140
0.0
141
0.0
142
1.0
143
1.0
 70
1024
 72
0
 73
0
 74
0
  7

 75
0
147
1.0
148
0.0
149
0.0
100
AcDbLayout
  1
Model
 70
0
 71
0
 10
0.0
 20
0.0
 11
11.0
 21
8.5
 12
0.0
 22
0.0
 32
0.0
 14
0.0
 24
0.0
 34
0.0
 15
0.0
 25
0.0
 35
0.0
146
0.0
 13
0.0
 23
0.0
 33
0.0
 16
1.0
 26
0.0
 36
0.0
 17
0.0
 27
1.0
 37
0.0
 76
0
330
21D
345
0
346
0
  0
LAYOUT
  5
2C8
102
{ACAD_REACTORS
330
1A
102
}
100
AcDbPlotSettings
  1

  2
none_device
  4
ANSI_A_(11.00_x_8.50_Inches)
  6

 40
0.0
 41
0.0
 42
0.0
 43
0.0
 44
279.4
 45
215.9
 46
0.0
 47
0.0
 48
0.0
 49
0.0
140
0.0
141
0.0
142
1.0
143
1.0
 70
0
 72
0
 73
0
 74
0
  7

 75
0
147
1.0
148
0.0
149
0.0
100
AcDbLayout
  1
Layout1
 70
0
 71
1
 10
0.0
 20
0.0
 11
11.0
 21
8.5
 12
0.0
 22
0.0
 32
0.0
 14
0.0
 24
0.0
 34
0.0
 15
0.0
 25
0.0
 35
0.0
146
0.0
 13
0.0
 23
0.0
 33
0.0
 16
1.0
 26
0.0
 36
0.0
 17
0.0
 27
1.0
 37
0.0
 76
0
330
21E
345
0
346
0
  0
ENDSEC
  0
EOF
