999
DXF file: 3-944_front.dxf
999
Pro/ENGINEER 2018400 by Parametric Technology Corporation
  0
SECTION
  2
HEADER
  9
$ACADVER
  1
AC1027
  9
$DWGCODEPAGE
  3
ANSI_1252
  9
$EXTMAX
 10
11.0
 20
8.5
 30
0.0
  9
$EXTMIN
 10
0.0
 20
0.0
 30
0.0
  9
$LIMMIN
 10
0.0
 20
0.0
  9
$LIMMAX
 10
11.0
 20
8.5
  9
$VIEWCTR
 10
5.5
 20
4.25
  9
$VIEWSIZE
 40
8.5
  9
$CLAYER
  8
0
  9
$LTSCALE
 40
0.605
  9
$CELTYPE
  6
BYLAYER
  9
$DIMSCALE
 40
1.0
  9
$DIMASZ
 40
0.1
  9
$DIMEXO
 40
0.0625
  9
$DIMDLI
 40
0.418
  9
$DIMEXE
 40
0.125
  9
$DIMCEN
 40
0.099
  9
$DIMLFAC
 40
1.0
  9
$DIMBLK
  1
_FILLED
  9
$DIMALT
 70
1
  9
$DIMALTD
 70
2
  9
$DIMALTTD
 70
2
  9
$DIMALTF
 40
25.4
  9
$DIMTXT
 40
0.08
  9
$DIMTOL
 70
1
  9
$DIMLIM
 70
0
  9
$DIMTFAC
 40
1.0
  9
$DIMTP
 40
0.001
  9
$DIMTM
 40
0.001
  9
$DIMGAP
 40
0.09
  9
$DIMDSEP
 70
46
  9
$AUNITS
 70
0
  9
$PDMODE
 70
3
  9
$PDSIZE
 40
0.3125
  9
$HANDSEED
  5
3B4
  9
$TILEMODE
 70
1
  9
$MEASUREMENT
 70
0
  9
$INSUNITS
 70
1
  0
ENDSEC
  0
SECTION
  2
CLASSES
  0
CLASS
  1
ACDBDICTIONARYWDFLT
  2
AcDbDictionaryWithDefault
  3
AutoCAD 2000
 90
0
 91
1
280
0
281
0
  0
CLASS
  1
ACDBPLACEHOLDER
  2
AcDbPlaceHolder
  3
AutoCAD 2000
 90
0
 91
1
280
0
281
0
  0
CLASS
  1
LAYOUT
  2
AcDbLayout
  3
AutoCAD 2000
 90
0
 91
0
280
0
281
0
  0
ENDSEC
  0
SECTION
  2
TABLES
  0
TABLE
  2
VPORT
  5
8
100
AcDbSymbolTable
 70
2
  0
VPORT
  5
1F4
100
AcDbSymbolTableRecord
100
AcDbViewportTableRecord
  2
*ACTIVE
 70
0
 10
0.0
 20
0.0
 11
1.0
 21
1.0
 12
5.5
 22
4.25
 13
0.0
 23
0.0
 14
1.0
 24
1.0
 15
0.0
 25
0.0
 16
0.0
 26
0.0
 36
1.0
 17
0.0
 27
0.0
 37
0.0
 40
8.5
 41
1.2941176471
 42
50.0
 43
0.0
 44
0.0
 50
0.0
 51
0.0
 71
0
 72
100
 73
1
 74
1
 75
0
 76
0
 77
0
 78
0
  0
ENDTAB
  0
TABLE
  2
LTYPE
  5
5
100
AcDbSymbolTable
 70
6
  0
LTYPE
  5
14
100
AcDbSymbolTableRecord
100
AcDbLinetypeTableRecord
  2
BYBLOCK
 70
0
  3

 72
65
 73
0
 40
0.0
  0
LTYPE
  5
15
100
AcDbSymbolTableRecord
100
AcDbLinetypeTableRecord
  2
BYLAYER
 70
0
  3

 72
65
 73
0
 40
0.0
  0
LTYPE
  5
16
100
AcDbSymbolTableRecord
100
AcDbLinetypeTableRecord
  2
CONTINUOUS
 70
64
  3
Solid line
 72
65
 73
0
 40
0.0
  0
LTYPE
  5
1F5
100
AcDbSymbolTableRecord
100
AcDbLinetypeTableRecord
  2
CENTER
 70
64
  3
____ _ ____ _ ____ _ ____ _ ____ _ ____ _ ____
 72
65
 73
4
 40
0.6
 49
0.375
 74
0
 49
-0.075
 74
0
 49
0.075
 74
0
 49
-0.075
 74
0
  0
LTYPE
  5
1F6
100
AcDbSymbolTableRecord
100
AcDbLinetypeTableRecord
  2
HIDDEN
 70
64
  3
- - - - - - - - - - - - - - - - - - - -
 72
65
 73
2
 40
0.2
 49
0.1
 74
0
 49
-0.1
 74
0
  0
LTYPE
  5
1F7
100
AcDbSymbolTableRecord
100
AcDbLinetypeTableRecord
  2
PHANTOM
 70
64
  3
_____ _ _ _____ _ _ _____ _ _ _____
 72
65
 73
6
 40
0.8
 49
0.45
 74
0
 49
-0.05
 74
0
 49
0.1
 74
0
 49
-0.05
 74
0
 49
0.1
 74
0
 49
-0.05
 74
0
  0
LTYPE
  5
1F8
100
AcDbSymbolTableRecord
100
AcDbLinetypeTableRecord
  2
DOT
 70
64
  3
. . . . . . . . . . . . . . . . . . . .
 72
65
 73
2
 40
0.2
 49
0.1
 74
0
 49
-0.1
 74
0
  0
LTYPE
  5
1F9
100
AcDbSymbolTableRecord
100
AcDbLinetypeTableRecord
  2
DASHED
 70
64
  3
- - - - - - - - - - - - - - - - - - - -
 72
65
 73
2
 40
0.2
 49
0.1
 74
0
 49
-0.1
 74
0
  0
ENDTAB
  0
TABLE
  2
LAYER
  5
2
100
AcDbSymbolTable
 70
36
  0
LAYER
  5
10
100
AcDbSymbolTableRecord
100
AcDbLayerTableRecord
  2
0
 70
0
 62
7
  6
CONTINUOUS
370
-3
390
F
  0
LAYER
  5
1FA
100
AcDbSymbolTableRecord
100
AcDbLayerTableRecord
  2
DEFAULT_1
 70
0
 62
7
  6
CENTER
370
-3
390
F
  0
LAYER
  5
1FB
100
AcDbSymbolTableRecord
100
AcDbLayerTableRecord
  2
DEFAULT_2
 70
0
 62
8
  6
HIDDEN
370
-3
390
F
  0
LAYER
  5
1FC
100
AcDbSymbolTableRecord
100
AcDbLayerTableRecord
  2
DEFAULT_3
 70
0
 62
7
  6
PHANTOM
370
-3
390
F
  0
LAYER
  5
1FD
100
AcDbSymbolTableRecord
100
AcDbLayerTableRecord
  2
2-141_ASSY_DATUMS
 70
0
 62
7
  6
CONTINUOUS
370
-3
390
F
  0
LAYER
  5
1FE
100
AcDbSymbolTableRecord
100
AcDbLayerTableRecord
  2
2-142_ASSY_DATUMS
 70
0
 62
7
  6
CONTINUOUS
370
-3
390
F
  0
LAYER
  5
1FF
100
AcDbSymbolTableRecord
100
AcDbLayerTableRecord
  2
2-213_ASSY_PLANES
 70
0
 62
7
  6
CONTINUOUS
370
-3
390
F
  0
LAYER
  5
200
100
AcDbSymbolTableRecord
100
AcDbLayerTableRecord
  2
2-259_ASSY_PLANES
 70
0
 62
7
  6
CONTINUOUS
370
-3
390
F
  0
LAYER
  5
201
100
AcDbSymbolTableRecord
100
AcDbLayerTableRecord
  2
3-163C
 70
0
 62
7
  6
CONTINUOUS
370
-3
390
F
  0
LAYER
  5
202
100
AcDbSymbolTableRecord
100
AcDbLayerTableRecord
  2
3-163H
 70
0
 62
7
  6
CONTINUOUS
370
-3
390
F
  0
LAYER
  5
203
100
AcDbSymbolTableRecord
100
AcDbLayerTableRecord
  2
3-944_ASSY_PLANES
 70
0
 62
7
  6
CONTINUOUS
370
-3
390
F
  0
LAYER
  5
204
100
AcDbSymbolTableRecord
100
AcDbLayerTableRecord
  2
ALL_ASSEMBLY_MEMBERS
 70
0
 62
7
  6
CONTINUOUS
370
-3
390
F
  0
LAYER
  5
205
100
AcDbSymbolTableRecord
100
AcDbLayerTableRecord
  2
ALL_FEATURES
 70
0
 62
7
  6
CONTINUOUS
370
-3
390
F
  0
LAYER
  5
206
100
AcDbSymbolTableRecord
100
AcDbLayerTableRecord
  2
AXES_FEATURES
 70
0
 62
7
  6
CONTINUOUS
370
-3
390
F
  0
LAYER
  5
207
100
AcDbSymbolTableRecord
100
AcDbLayerTableRecord
  2
CHAMFER_FEATURES
 70
0
 62
7
  6
CONTINUOUS
370
-3
390
F
  0
LAYER
  5
208
100
AcDbSymbolTableRecord
100
AcDbLayerTableRecord
  2
CUT_FEATURES
 70
0
 62
7
  6
CONTINUOUS
370
-3
390
F
  0
LAYER
  5
209
100
AcDbSymbolTableRecord
100
AcDbLayerTableRecord
  2
DATUM_CURVES
 70
0
 62
7
  6
CONTINUOUS
370
-3
390
F
  0
LAYER
  5
20A
100
AcDbSymbolTableRecord
100
AcDbLayerTableRecord
  2
DATUM_PLANES
 70
0
 62
7
  6
CONTINUOUS
370
-3
390
F
  0
LAYER
  5
20B
100
AcDbSymbolTableRecord
100
AcDbLayerTableRecord
  2
DATUM_SHAPER
 70
0
 62
7
  6
CONTINUOUS
370
-3
390
F
  0
LAYER
  5
20C
100
AcDbSymbolTableRecord
100
AcDbLayerTableRecord
  2
DEFAULT_COORDINATE_SYSTEM
 70
0
 62
7
  6
CONTINUOUS
370
-3
390
F
  0
LAYER
  5
20D
100
AcDbSymbolTableRecord
100
AcDbLayerTableRecord
  2
DEFAULT_DATUM_AXES
 70
0
 62
7
  6
CONTINUOUS
370
-3
390
F
  0
LAYER
  5
20E
100
AcDbSymbolTableRecord
100
AcDbLayerTableRecord
  2
DEFAULT_DATUM_CURVES
 70
0
 62
7
  6
CONTINUOUS
370
-3
390
F
  0
LAYER
  5
20F
100
AcDbSymbolTableRecord
100
AcDbLayerTableRecord
  2
DEFAULT_DATUM_PLANES
 70
0
 62
7
  6
CONTINUOUS
370
-3
390
F
  0
LAYER
  5
210
100
AcDbSymbolTableRecord
100
AcDbLayerTableRecord
  2
DEFAULT_SURFACES
 70
0
 62
7
  6
CONTINUOUS
370
-3
390
F
  0
LAYER
  5
211
100
AcDbSymbolTableRecord
100
AcDbLayerTableRecord
  2
DIMENSIONS
 70
0
 62
7
  6
CONTINUOUS
370
-3
390
F
  0
LAYER
  5
212
100
AcDbSymbolTableRecord
100
AcDbLayerTableRecord
  2
LAY0001
 70
0
 62
7
  6
CONTINUOUS
370
-3
390
F
  0
LAYER
  5
213
100
AcDbSymbolTableRecord
100
AcDbLayerTableRecord
  2
PART_REFERENCE_DIMENSIONS
 70
0
 62
7
  6
CONTINUOUS
370
-3
390
F
  0
LAYER
  5
214
100
AcDbSymbolTableRecord
100
AcDbLayerTableRecord
  2
PLATED_SURAFCE
 70
0
 62
7
  6
CONTINUOUS
370
-3
390
F
  0
LAYER
  5
215
100
AcDbSymbolTableRecord
100
AcDbLayerTableRecord
  2
PLATED_SURFACE_AREA
 70
0
 62
7
  6
CONTINUOUS
370
-3
390
F
  0
LAYER
  5
216
100
AcDbSymbolTableRecord
100
AcDbLayerTableRecord
  2
PROTRUSION_FEATURES
 70
0
 62
7
  6
CONTINUOUS
370
-3
390
F
  0
LAYER
  5
217
100
AcDbSymbolTableRecord
100
AcDbLayerTableRecord
  2
QUILT
 70
0
 62
7
  6
CONTINUOUS
370
-3
390
F
  0
LAYER
  5
218
100
AcDbSymbolTableRecord
100
AcDbLayerTableRecord
  2
QUILTS
 70
0
 62
7
  6
CONTINUOUS
370
-3
390
F
  0
LAYER
  5
219
100
AcDbSymbolTableRecord
100
AcDbLayerTableRecord
  2
REFERENCE_DIMENSIONS
 70
0
 62
7
  6
CONTINUOUS
370
-3
390
F
  0
LAYER
  5
21A
100
AcDbSymbolTableRecord
100
AcDbLayerTableRecord
  2
ROUND_FEATURES
 70
0
 62
7
  6
CONTINUOUS
370
-3
390
F
  0
LAYER
  5
21B
100
AcDbSymbolTableRecord
100
AcDbLayerTableRecord
  2
SHELL_FEATURES
 70
0
 62
7
  6
CONTINUOUS
370
-3
390
F
  0
LAYER
  5
21C
100
AcDbSymbolTableRecord
100
AcDbLayerTableRecord
  2
SIZE_REF
 70
0
 62
7
  6
CONTINUOUS
370
-3
390
F
  0
LAYER
  5
21D
100
AcDbSymbolTableRecord
100
AcDbLayerTableRecord
  2
WETTED_SURFACE_AREA
 70
0
 62
7
  6
CONTINUOUS
370
-3
390
F
  0
LAYER
  5
21E
100
AcDbSymbolTableRecord
100
AcDbLayerTableRecord
  2
XSEC_DATUMS
 70
0
 62
7
  6
CONTINUOUS
370
-3
390
F
  0
ENDTAB
  0
TABLE
  2
STYLE
  5
3
100
AcDbSymbolTable
 70
1
  0
STYLE
  5
11
100
AcDbSymbolTableRecord
100
AcDbTextStyleTableRecord
  2
STANDARD
 70
0
 40
0.0
 41
0.8
 50
0.0
 71
0
 42
0.2
  3
txt
  4

  0
STYLE
  5
21F
100
AcDbSymbolTableRecord
100
AcDbTextStyleTableRecord
  2
TEXTSTYLE_1
 70
0
 40
0.0
 41
0.8
 50
0.0
 71
0
 42
0.2
  3
gdt
  4

  0
ENDTAB
  0
TABLE
  2
VIEW
  5
6
100
AcDbSymbolTable
 70
0
  0
ENDTAB
  0
TABLE
  2
UCS
  5
7
100
AcDbSymbolTable
 70
0
  0
ENDTAB
  0
TABLE
  2
APPID
  5
9
100
AcDbSymbolTable
 70
1
  0
APPID
  5
220
100
AcDbSymbolTableRecord
100
AcDbRegAppTableRecord
  2
ACAD
 70
0
  0
ENDTAB
  0
TABLE
  2
BLOCK_RECORD
  5
1
100
AcDbSymbolTable
 70
0
  0
BLOCK_RECORD
  5
221
100
AcDbSymbolTableRecord
100
AcDbBlockTableRecord
  2
*Model_Space
  0
BLOCK_RECORD
  5
222
100
AcDbSymbolTableRecord
100
AcDbBlockTableRecord
  2
*Paper_Space
  0
BLOCK_RECORD
  5
223
100
AcDbSymbolTableRecord
100
AcDbBlockTableRecord
  2
_FILLED
  0
ENDTAB
  0
TABLE
  2
DIMSTYLE
  5
A
100
AcDbSymbolTable
 70
1
100
AcDbDimStyleTable
 71
0
  0
DIMSTYLE
105
224
100
AcDbSymbolTableRecord
100
AcDbDimStyleTableRecord
  2
STANDARD
 70
0
  3

  4

 40
1.0
 41
0.1
 42
0.0625
 43
0.38
 44
0.125
 45
0.0
 46
0.0
 47
0.001
 48
0.001
140
0.08
141
0.09
142
0.0
143
25.4
144
1.0
145
0.0
146
1.0
147
0.09
 71
1.0
 72
0.0
 73
1
 74
1
 75
0
 76
0
 77
0
 78
4
 79
1
170
1
171
2
172
0
173
0
174
0
175
0
176
0
177
0
178
0
270
2
179
3
271
3
272
3
273
2
274
2
275
0
280
0
281
0
282
0
283
1
284
4
285
0
286
0
287
3
288
0
340
11
278
46
341
223
342
223
343
223
344
223
  0
ENDTAB
  0
ENDSEC
  0
SECTION
  2
BLOCKS
  0
BLOCK
  5
20
100
AcDbEntity
  8
0
100
AcDbBlockBegin
  2
*Model_Space
 70
0
 10
0.0
 20
0.0
 30
0.0
  3
*Model_Space
  1

  0
ENDBLK
  5
21
100
AcDbEntity
  8
0
100
AcDbBlockEnd
  0
BLOCK
  5
1C
100
AcDbEntity
  8
0
100
AcDbBlockBegin
  2
*Paper_Space
 70
0
 10
0.0
 20
0.0
 30
0.0
  3
*Paper_Space
  1

  0
ENDBLK
  5
1D
100
AcDbEntity
  8
0
100
AcDbBlockEnd
  0
BLOCK
  5
225
100
AcDbEntity
  8
0
100
AcDbBlockBegin
  2
_FILLED
 70
64
 10
0.0
 20
0.0
  3
_FILLED
  1

  0
SOLID
  5
226
100
AcDbEntity
  8
0
  6
BYBLOCK
 62
0
100
AcDbTrace
 10
0.0
 20
0.0
 11
-1.0
 21
0.2
 12
-1.0
 22
-0.2
 13
-1.0
 23
-0.2
  0
ENDBLK
  5
227
100
AcDbEntity
  8
0
  6
BYBLOCK
 62
0
100
AcDbBlockEnd
  0
ENDSEC
  0
SECTION
  2
ENTITIES
  0
MTEXT
  5
228
100
AcDbEntity
  8
0
100
AcDbMText
 62
2
  6
CONTINUOUS
  7
STANDARD
 71
3
 72
1
 10
2.5161645963
 20
1.5250349379
 30
0.0
 11
1.0
 21
0.0
 31
0.0
 73
2
 44
0.9
  1
SCALE  .500
 40
0.08
 41
0.704
  0
LINE
  5
229
100
AcDbEntity
  8
0
100
AcDbLine
 62
7
  6
CONTINUOUS
 10
0.0
 20
0.0
 11
0.0
 21
8.5
  0
LINE
  5
22A
100
AcDbEntity
  8
0
100
AcDbLine
 62
7
  6
CONTINUOUS
 10
0.0
 20
0.0
 11
11.0
 21
0.0
  0
LINE
  5
22B
100
AcDbEntity
  8
0
100
AcDbLine
 62
7
  6
CONTINUOUS
 10
0.0
 20
8.5
 11
11.0
 21
8.5
  0
LINE
  5
22C
100
AcDbEntity
  8
0
100
AcDbLine
 62
7
  6
CONTINUOUS
 10
11.0
 20
0.0
 11
11.0
 21
8.5
  0
LINE
  5
22D
100
AcDbEntity
  8
ALL_ASSEMBLY_MEMBERS
100
AcDbLine
 62
7
  6
CONTINUOUS
 10
2.7216530799
 20
4.1731080535
 11
2.7216530799
 21
4.3983748657
  0
LINE
  5
22E
100
AcDbEntity
  8
ALL_ASSEMBLY_MEMBERS
100
AcDbLine
 62
7
  6
CONTINUOUS
 10
2.7626977084
 20
4.2018478118
 11
2.7626977084
 21
4.3696351074
  0
LINE
  5
22F
100
AcDbEntity
  8
ALL_ASSEMBLY_MEMBERS
100
AcDbLine
 62
7
  6
CONTINUOUS
 10
2.7752863199
 20
4.1911960148
 11
2.7752863199
 21
4.3802869045
  0
LINE
  5
230
100
AcDbEntity
  8
ALL_ASSEMBLY_MEMBERS
100
AcDbLine
 62
7
  6
CONTINUOUS
 10
2.7877178992
 20
4.190282813
 11
2.7877178992
 21
4.3812001062
  0
LINE
  5
231
100
AcDbEntity
  8
ALL_ASSEMBLY_MEMBERS
100
AcDbLine
 62
7
  6
CONTINUOUS
 10
2.9057863199
 20
4.0962262338
 11
2.9057863199
 21
4.2270781767
  0
LINE
  5
232
100
AcDbEntity
  8
ALL_ASSEMBLY_MEMBERS
100
AcDbLine
 62
7
  6
CONTINUOUS
 10
2.9057863199
 20
4.3444047426
 11
2.9057863199
 21
4.4752566855
  0
LINE
  5
233
100
AcDbEntity
  8
ALL_ASSEMBLY_MEMBERS
100
AcDbLine
 62
7
  6
CONTINUOUS
 10
2.968453315
 20
4.3790804276
 11
2.9684533113
 21
4.3701419812
  0
LINE
  5
234
100
AcDbEntity
  8
ALL_ASSEMBLY_MEMBERS
100
AcDbLine
 62
7
  6
CONTINUOUS
 10
2.9684533111
 20
4.2013409416
 11
2.968453315
 21
4.1924024917
  0
LINE
  5
235
100
AcDbEntity
  8
ALL_ASSEMBLY_MEMBERS
100
AcDbLine
 62
7
  6
CONTINUOUS
 10
3.1015363199
 20
4.2432414596
 11
3.1015363199
 21
4.2552414596
  0
LINE
  5
236
100
AcDbEntity
  8
ALL_ASSEMBLY_MEMBERS
100
AcDbLine
 62
7
  6
CONTINUOUS
 10
3.1015363199
 20
4.3187414596
 11
3.1015363199
 21
4.3277414596
  0
LINE
  5
237
100
AcDbEntity
  8
ALL_ASSEMBLY_MEMBERS
100
AcDbLine
 62
7
  6
CONTINUOUS
 10
3.1097863199
 20
4.2666404727
 11
3.1097863199
 21
4.3073424465
  0
LINE
  5
238
100
AcDbEntity
  8
ALL_ASSEMBLY_MEMBERS
100
AcDbLine
 62
7
  6
CONTINUOUS
 10
3.1297863199
 20
4.2807414596
 11
3.1297863199
 21
4.2666404727
  0
LINE
  5
239
100
AcDbEntity
  8
ALL_ASSEMBLY_MEMBERS
100
AcDbLine
 62
7
  6
CONTINUOUS
 10
3.1302863199
 20
4.3075192718
 11
3.1302863199
 21
4.2955192718
  0
LINE
  5
23A
100
AcDbEntity
  8
ALL_ASSEMBLY_MEMBERS
100
AcDbLine
 62
7
  6
CONTINUOUS
 10
3.1380363199
 20
4.3277414596
 11
3.1380363199
 21
4.3187414596
  0
LINE
  5
23B
100
AcDbEntity
  8
ALL_ASSEMBLY_MEMBERS
100
AcDbLine
 62
7
  6
CONTINUOUS
 10
3.1380363199
 20
4.2552414596
 11
3.1380363199
 21
4.2432414596
  0
LINE
  5
23C
100
AcDbEntity
  8
ALL_ASSEMBLY_MEMBERS
100
AcDbLine
 62
7
  6
CONTINUOUS
 10
3.1465363199
 20
4.2432414596
 11
3.1465363199
 21
4.2552414596
  0
LINE
  5
23D
100
AcDbEntity
  8
ALL_ASSEMBLY_MEMBERS
100
AcDbLine
 62
7
  6
CONTINUOUS
 10
3.1465363199
 20
4.3187414596
 11
3.1465363199
 21
4.3277414596
  0
LINE
  5
23E
100
AcDbEntity
  8
ALL_ASSEMBLY_MEMBERS
100
AcDbLine
 62
7
  6
CONTINUOUS
 10
3.1542863199
 20
4.2955192718
 11
3.1542863199
 21
4.3075192718
  0
LINE
  5
23F
100
AcDbEntity
  8
ALL_ASSEMBLY_MEMBERS
100
AcDbLine
 62
7
  6
CONTINUOUS
 10
3.1547863199
 20
4.2666404727
 11
3.1547863199
 21
4.2807414596
  0
LINE
  5
240
100
AcDbEntity
  8
ALL_ASSEMBLY_MEMBERS
100
AcDbLine
 62
7
  6
CONTINUOUS
 10
3.1747863199
 20
4.3073424465
 11
3.1747863199
 21
4.2666404727
  0
LINE
  5
241
100
AcDbEntity
  8
ALL_ASSEMBLY_MEMBERS
100
AcDbLine
 62
7
  6
CONTINUOUS
 10
3.1830363199
 20
4.3277414596
 11
3.1830363199
 21
4.3187414596
  0
LINE
  5
242
100
AcDbEntity
  8
ALL_ASSEMBLY_MEMBERS
100
AcDbLine
 62
7
  6
CONTINUOUS
 10
3.1830363199
 20
4.2552414596
 11
3.1830363199
 21
4.2432414596
  0
LINE
  5
243
100
AcDbEntity
  8
ALL_ASSEMBLY_MEMBERS
100
AcDbLine
 62
7
  6
CONTINUOUS
 10
3.3030363199
 20
4.2432414596
 11
3.3030363199
 21
4.2552414596
  0
LINE
  5
244
100
AcDbEntity
  8
ALL_ASSEMBLY_MEMBERS
100
AcDbLine
 62
7
  6
CONTINUOUS
 10
3.3122863199
 20
4.2709716058
 11
3.3122863199
 21
4.3172914596
  0
LINE
  5
245
100
AcDbEntity
  8
ALL_ASSEMBLY_MEMBERS
100
AcDbLine
 62
7
  6
CONTINUOUS
 10
3.3302863199
 20
4.3172914596
 11
3.3302863199
 21
4.2709716058
  0
LINE
  5
246
100
AcDbEntity
  8
ALL_ASSEMBLY_MEMBERS
100
AcDbLine
 62
7
  6
CONTINUOUS
 10
3.3395363199
 20
4.2552414596
 11
3.3395363199
 21
4.2432414596
  0
LINE
  5
247
100
AcDbEntity
  8
ALL_ASSEMBLY_MEMBERS
100
AcDbLine
 62
7
  6
CONTINUOUS
 10
3.4996193248
 20
4.1924024917
 11
3.4996193284
 21
4.201137295
  0
LINE
  5
248
100
AcDbEntity
  8
ALL_ASSEMBLY_MEMBERS
100
AcDbLine
 62
7
  6
CONTINUOUS
 10
3.4996193287
 20
4.3701419776
 11
3.4996193248
 21
4.3790804276
  0
LINE
  5
249
100
AcDbEntity
  8
ALL_ASSEMBLY_MEMBERS
100
AcDbLine
 62
7
  6
CONTINUOUS
 10
3.2790363199
 20
4.3169841003
 11
3.2835363199
 21
4.3277414596
  0
LINE
  5
24A
100
AcDbEntity
  8
ALL_ASSEMBLY_MEMBERS
100
AcDbLine
 62
7
  6
CONTINUOUS
 10
3.3179299677
 20
4.7570800711
 11
3.346669726
 21
4.7981246996
  0
LINE
  5
24B
100
AcDbEntity
  8
ALL_ASSEMBLY_MEMBERS
100
AcDbLine
 62
7
  6
CONTINUOUS
 10
3.3179299677
 20
3.8144028481
 11
3.346669726
 21
3.7733582196
  0
LINE
  5
24C
100
AcDbEntity
  8
ALL_ASSEMBLY_MEMBERS
100
AcDbLine
 62
7
  6
CONTINUOUS
 10
3.3590363199
 20
4.3277414596
 11
3.3635363199
 21
4.3169841003
  0
LINE
  5
24D
100
AcDbEntity
  8
ALL_ASSEMBLY_MEMBERS
100
AcDbLine
 62
7
  6
CONTINUOUS
 10
3.5622863199
 20
4.4752566855
 11
3.5622863199
 21
4.3444047426
  0
LINE
  5
24E
100
AcDbEntity
  8
ALL_ASSEMBLY_MEMBERS
100
AcDbLine
 62
7
  6
CONTINUOUS
 10
3.5622863199
 20
4.2270781767
 11
3.5622863199
 21
4.0962262338
  0
LINE
  5
24F
100
AcDbEntity
  8
ALL_ASSEMBLY_MEMBERS
100
AcDbLine
 62
7
  6
CONTINUOUS
 10
3.6803547406
 20
4.3812001062
 11
3.6803547406
 21
4.190282813
  0
LINE
  5
250
100
AcDbEntity
  8
ALL_ASSEMBLY_MEMBERS
100
AcDbLine
 62
7
  6
CONTINUOUS
 10
3.6927863199
 20
4.3802869045
 11
3.6927863199
 21
4.1911960148
  0
LINE
  5
251
100
AcDbEntity
  8
ALL_ASSEMBLY_MEMBERS
100
AcDbLine
 62
7
  6
CONTINUOUS
 10
3.7053749314
 20
4.3696351074
 11
3.7053749314
 21
4.2018478118
  0
LINE
  5
252
100
AcDbEntity
  8
ALL_ASSEMBLY_MEMBERS
100
AcDbLine
 62
7
  6
CONTINUOUS
 10
3.7464195599
 20
4.3983748657
 11
3.7464195599
 21
4.1731080535
  0
LINE
  5
253
100
AcDbEntity
  8
ALL_ASSEMBLY_MEMBERS
100
AcDbLine
 62
7
  6
CONTINUOUS
 10
3.1501426721
 20
3.8144028481
 11
3.1214029138
 21
3.7733582196
  0
LINE
  5
254
100
AcDbEntity
  8
ALL_ASSEMBLY_MEMBERS
100
AcDbLine
 62
7
  6
CONTINUOUS
 10
3.3635363199
 20
4.3169841003
 11
3.3592936792
 21
4.3127414596
  0
LINE
  5
255
100
AcDbEntity
  8
ALL_ASSEMBLY_MEMBERS
100
AcDbLine
 62
7
  6
CONTINUOUS
 10
2.7216530799
 20
4.1731080535
 11
2.7626977084
 21
4.2018478118
  0
LINE
  5
256
100
AcDbEntity
  8
ALL_ASSEMBLY_MEMBERS
100
AcDbLine
 62
7
  6
CONTINUOUS
 10
2.9057863199
 20
4.4752566855
 11
3.17796687
 21
4.6324001994
  0
LINE
  5
257
100
AcDbEntity
  8
ALL_ASSEMBLY_MEMBERS
100
AcDbLine
 62
7
  6
CONTINUOUS
 10
3.17796687
 20
3.9390827199
 11
2.9057863199
 21
4.0962262338
  0
LINE
  5
258
100
AcDbEntity
  8
ALL_ASSEMBLY_MEMBERS
100
AcDbLine
 62
7
  6
CONTINUOUS
 10
2.7216530799
 20
4.3983748657
 11
2.7626977084
 21
4.3696351074
  0
LINE
  5
259
100
AcDbEntity
  8
ALL_ASSEMBLY_MEMBERS
100
AcDbLine
 62
7
  6
CONTINUOUS
 10
3.2832789606
 20
4.3127414596
 11
3.2790363199
 21
4.3169841003
  0
LINE
  5
25A
100
AcDbEntity
  8
ALL_ASSEMBLY_MEMBERS
100
AcDbLine
 62
7
  6
CONTINUOUS
 10
3.1501426721
 20
4.7570800711
 11
3.1214029138
 21
4.7981246996
  0
LINE
  5
25B
100
AcDbEntity
  8
ALL_ASSEMBLY_MEMBERS
100
AcDbLine
 62
7
  6
CONTINUOUS
 10
3.7464195599
 20
4.3983748657
 11
3.7053749314
 21
4.3696351074
  0
LINE
  5
25C
100
AcDbEntity
  8
ALL_ASSEMBLY_MEMBERS
100
AcDbLine
 62
7
  6
CONTINUOUS
 10
3.7464195599
 20
4.1731080535
 11
3.7053749314
 21
4.2018478118
  0
LINE
  5
25D
100
AcDbEntity
  8
ALL_ASSEMBLY_MEMBERS
100
AcDbLine
 62
7
  6
CONTINUOUS
 10
3.5622863199
 20
4.0962262338
 11
3.2901057697
 21
3.9390827199
  0
LINE
  5
25E
100
AcDbEntity
  8
ALL_ASSEMBLY_MEMBERS
100
AcDbLine
 62
7
  6
CONTINUOUS
 10
3.2901057697
 20
4.6324001994
 11
3.5622863199
 21
4.4752566855
  0
LINE
  5
25F
100
AcDbEntity
  8
ALL_ASSEMBLY_MEMBERS
100
AcDbLine
 62
7
  6
CONTINUOUS
 10
3.1214029138
 20
3.7733582196
 11
3.346669726
 21
3.7733582196
  0
LINE
  5
260
100
AcDbEntity
  8
ALL_ASSEMBLY_MEMBERS
100
AcDbLine
 62
7
  6
CONTINUOUS
 10
7.0584079138
 20
3.7733582196
 11
7.283674726
 21
3.7733582196
  0
LINE
  5
261
100
AcDbEntity
  8
ALL_ASSEMBLY_MEMBERS
100
AcDbLine
 62
7
  6
CONTINUOUS
 10
3.1501426721
 20
3.8144028481
 11
3.3179299677
 21
3.8144028481
  0
LINE
  5
262
100
AcDbEntity
  8
ALL_ASSEMBLY_MEMBERS
100
AcDbLine
 62
7
  6
CONTINUOUS
 10
7.0871476721
 20
3.8144028481
 11
7.2549349677
 21
3.8144028481
  0
LINE
  5
263
100
AcDbEntity
  8
ALL_ASSEMBLY_MEMBERS
100
AcDbLine
 62
7
  6
CONTINUOUS
 10
3.139490875
 20
3.8269914596
 11
3.3285817647
 21
3.8269914596
  0
LINE
  5
264
100
AcDbEntity
  8
ALL_ASSEMBLY_MEMBERS
100
AcDbLine
 62
7
  6
CONTINUOUS
 10
7.076495875
 20
3.8269914596
 11
7.2655867647
 21
3.8269914596
  0
LINE
  5
265
100
AcDbEntity
  8
ALL_ASSEMBLY_MEMBERS
100
AcDbLine
 62
7
  6
CONTINUOUS
 10
3.1385776733
 20
3.8394230389
 11
3.3294949665
 21
3.8394230389
  0
LINE
  5
266
100
AcDbEntity
  8
ALL_ASSEMBLY_MEMBERS
100
AcDbLine
 62
7
  6
CONTINUOUS
 10
7.0755826733
 20
3.8394230389
 11
7.2664999665
 21
3.8394230389
  0
LINE
  5
267
100
AcDbEntity
  8
ALL_ASSEMBLY_MEMBERS
100
AcDbLine
 62
7
  6
CONTINUOUS
 10
4.9940440709
 20
4.0432049647
 11
5.0285427883
 21
3.6945098848
  0
LINE
  5
268
100
AcDbEntity
  8
ALL_ASSEMBLY_MEMBERS
100
AcDbLine
 62
7
  6
CONTINUOUS
 10
3.1406973524
 20
4.0201584542
 11
3.1496357987
 21
4.0201584506
  0
LINE
  5
269
100
AcDbEntity
  8
ALL_ASSEMBLY_MEMBERS
100
AcDbLine
 62
7
  6
CONTINUOUS
 10
7.2556454746
 20
4.0201584541
 11
7.2643802873
 21
4.0201584542
  0
LINE
  5
26A
100
AcDbEntity
  8
ALL_ASSEMBLY_MEMBERS
100
AcDbLine
 62
7
  6
CONTINUOUS
 10
3.3186404746
 20
4.0201584541
 11
3.3273752873
 21
4.0201584542
  0
LINE
  5
26B
100
AcDbEntity
  8
ALL_ASSEMBLY_MEMBERS
100
AcDbLine
 62
7
  6
CONTINUOUS
 10
7.0777023524
 20
4.0201584542
 11
7.0866407987
 21
4.0201584506
  0
LINE
  5
26C
100
AcDbEntity
  8
ALL_ASSEMBLY_MEMBERS
100
AcDbLine
 62
7
  6
CONTINUOUS
 10
5.0462863199
 20
4.7850276258
 11
5.0462863199
 21
4.1163333876
  0
LINE
  5
26D
100
AcDbEntity
  8
ALL_ASSEMBLY_MEMBERS
100
AcDbLine
 62
7
  6
CONTINUOUS
 10
7.3082913199
 20
4.2432414596
 11
7.2660413199
 21
4.2432414596
  0
LINE
  5
26E
100
AcDbEntity
  8
ALL_ASSEMBLY_MEMBERS
100
AcDbLine
 62
7
  6
CONTINUOUS
 10
7.2507804914
 20
4.2432414596
 11
7.1760413199
 21
4.2432414596
  0
LINE
  5
26F
100
AcDbEntity
  8
ALL_ASSEMBLY_MEMBERS
100
AcDbLine
 62
7
  6
CONTINUOUS
 10
3.3395363199
 20
4.2432414596
 11
3.3030363199
 21
4.2432414596
  0
LINE
  5
270
100
AcDbEntity
  8
ALL_ASSEMBLY_MEMBERS
100
AcDbLine
 62
7
  6
CONTINUOUS
 10
3.1830363199
 20
4.2432414596
 11
3.1465363199
 21
4.2432414596
  0
LINE
  5
271
100
AcDbEntity
  8
ALL_ASSEMBLY_MEMBERS
100
AcDbLine
 62
7
  6
CONTINUOUS
 10
3.1380363199
 20
4.2432414596
 11
3.1015363199
 21
4.2432414596
  0
LINE
  5
272
100
AcDbEntity
  8
ALL_ASSEMBLY_MEMBERS
100
AcDbLine
 62
7
  6
CONTINUOUS
 10
7.2197913199
 20
4.254626782
 11
7.2317913199
 21
4.254626782
  0
LINE
  5
273
100
AcDbEntity
  8
ALL_ASSEMBLY_MEMBERS
100
AcDbLine
 62
7
  6
CONTINUOUS
 10
7.29218226
 20
4.2552414596
 11
7.3061137139
 21
4.2552414596
  0
LINE
  5
274
100
AcDbEntity
  8
ALL_ASSEMBLY_MEMBERS
100
AcDbLine
 62
7
  6
CONTINUOUS
 10
3.1517863199
 20
4.2837414596
 11
3.1327863199
 21
4.2837414596
  0
LINE
  5
275
100
AcDbEntity
  8
ALL_ASSEMBLY_MEMBERS
100
AcDbLine
 62
7
  6
CONTINUOUS
 10
3.1332863199
 20
4.2925192718
 11
3.1512863199
 21
4.2925192718
  0
LINE
  5
276
100
AcDbEntity
  8
ALL_ASSEMBLY_MEMBERS
100
AcDbLine
 62
7
  6
CONTINUOUS
 10
5.3587863199
 20
4.7850276258
 11
5.3587863199
 21
4.1163329797
  0
LINE
  5
277
100
AcDbEntity
  8
ALL_ASSEMBLY_MEMBERS
100
AcDbLine
 62
7
  6
CONTINUOUS
 10
7.3061137139
 20
4.3187414596
 11
7.29218226
 21
4.3187414596
  0
LINE
  5
278
100
AcDbEntity
  8
ALL_ASSEMBLY_MEMBERS
100
AcDbLine
 62
7
  6
CONTINUOUS
 10
3.3446876871
 20
4.3187914596
 11
3.3317863199
 21
4.3187914596
  0
LINE
  5
279
100
AcDbEntity
  8
ALL_ASSEMBLY_MEMBERS
100
AcDbLine
 62
7
  6
CONTINUOUS
 10
3.3107863199
 20
4.3187914596
 11
3.2978849526
 21
4.3187914596
  0
LINE
  5
27A
100
AcDbEntity
  8
ALL_ASSEMBLY_MEMBERS
100
AcDbLine
 62
7
  6
CONTINUOUS
 10
3.1015363199
 20
4.3277414596
 11
3.1380363199
 21
4.3277414596
  0
LINE
  5
27B
100
AcDbEntity
  8
ALL_ASSEMBLY_MEMBERS
100
AcDbLine
 62
7
  6
CONTINUOUS
 10
3.1465363199
 20
4.3277414596
 11
3.1830363199
 21
4.3277414596
  0
LINE
  5
27C
100
AcDbEntity
  8
ALL_ASSEMBLY_MEMBERS
100
AcDbLine
 62
7
  6
CONTINUOUS
 10
3.2835363199
 20
4.3277414596
 11
3.3590363199
 21
4.3277414596
  0
LINE
  5
27D
100
AcDbEntity
  8
ALL_ASSEMBLY_MEMBERS
100
AcDbLine
 62
7
  6
CONTINUOUS
 10
7.0635413199
 20
4.3277414596
 11
7.0725413199
 21
4.3277414596
  0
LINE
  5
27E
100
AcDbEntity
  8
ALL_ASSEMBLY_MEMBERS
100
AcDbLine
 62
7
  6
CONTINUOUS
 10
7.1760413199
 20
4.3277414596
 11
7.2155413199
 21
4.3277414596
  0
LINE
  5
27F
100
AcDbEntity
  8
ALL_ASSEMBLY_MEMBERS
100
AcDbLine
 62
7
  6
CONTINUOUS
 10
7.2660413199
 20
4.3277414596
 11
7.3082913199
 21
4.3277414596
  0
LINE
  5
280
100
AcDbEntity
  8
ALL_ASSEMBLY_MEMBERS
100
AcDbLine
 62
7
  6
CONTINUOUS
 10
7.2691416195
 20
3.9196261574
 11
7.2268246699
 21
3.9309649498
  0
LINE
  5
281
100
AcDbEntity
  8
ALL_ASSEMBLY_MEMBERS
100
AcDbLine
 62
7
  6
CONTINUOUS
 10
7.1113404269
 20
3.9619088595
 11
6.9030263172
 21
4.0177264569
  0
LINE
  5
282
100
AcDbEntity
  8
ALL_ASSEMBLY_MEMBERS
100
AcDbLine
 62
7
  6
CONTINUOUS
 10
5.4110285689
 20
4.0432049647
 11
5.3765298514
 21
3.6945098848
  0
LINE
  5
283
100
AcDbEntity
  8
ALL_ASSEMBLY_MEMBERS
100
AcDbLine
 62
7
  6
CONTINUOUS
 10
3.3273752873
 20
4.5513244651
 11
3.3184368412
 21
4.5513244686
  0
LINE
  5
284
100
AcDbEntity
  8
ALL_ASSEMBLY_MEMBERS
100
AcDbLine
 62
7
  6
CONTINUOUS
 10
7.0866407917
 20
4.5513244652
 11
7.0777023524
 21
4.5513244651
  0
LINE
  5
285
100
AcDbEntity
  8
ALL_ASSEMBLY_MEMBERS
100
AcDbLine
 62
7
  6
CONTINUOUS
 10
3.1496357917
 20
4.5513244652
 11
3.1406973524
 21
4.5513244651
  0
LINE
  5
286
100
AcDbEntity
  8
ALL_ASSEMBLY_MEMBERS
100
AcDbLine
 62
7
  6
CONTINUOUS
 10
7.2643802873
 20
4.5513244651
 11
7.2554418412
 21
4.5513244686
  0
LINE
  5
287
100
AcDbEntity
  8
ALL_ASSEMBLY_MEMBERS
100
AcDbLine
 62
7
  6
CONTINUOUS
 10
7.0805413199
 20
4.2997115068
 11
7.0718869067
 21
4.2972414596
  0
LINE
  5
288
100
AcDbEntity
  8
ALL_ASSEMBLY_MEMBERS
100
AcDbLine
 62
7
  6
CONTINUOUS
 10
3.1385776733
 20
4.7320598803
 11
3.3294949665
 21
4.7320598803
  0
LINE
  5
289
100
AcDbEntity
  8
ALL_ASSEMBLY_MEMBERS
100
AcDbLine
 62
7
  6
CONTINUOUS
 10
7.0755826733
 20
4.7320598803
 11
7.2664999665
 21
4.7320598803
  0
LINE
  5
28A
100
AcDbEntity
  8
ALL_ASSEMBLY_MEMBERS
100
AcDbLine
 62
7
  6
CONTINUOUS
 10
3.139490875
 20
4.7444914596
 11
3.3285817647
 21
4.7444914596
  0
LINE
  5
28B
100
AcDbEntity
  8
ALL_ASSEMBLY_MEMBERS
100
AcDbLine
 62
7
  6
CONTINUOUS
 10
7.076495875
 20
4.7444914596
 11
7.2655867647
 21
4.7444914596
  0
LINE
  5
28C
100
AcDbEntity
  8
ALL_ASSEMBLY_MEMBERS
100
AcDbLine
 62
7
  6
CONTINUOUS
 10
3.1501426721
 20
4.7570800711
 11
3.3179299677
 21
4.7570800711
  0
LINE
  5
28D
100
AcDbEntity
  8
ALL_ASSEMBLY_MEMBERS
100
AcDbLine
 62
7
  6
CONTINUOUS
 10
7.0871476721
 20
4.7570800711
 11
7.2549349677
 21
4.7570800711
  0
LINE
  5
28E
100
AcDbEntity
  8
ALL_ASSEMBLY_MEMBERS
100
AcDbLine
 62
7
  6
CONTINUOUS
 10
3.1214029138
 20
4.7981246996
 11
3.346669726
 21
4.7981246996
  0
LINE
  5
28F
100
AcDbEntity
  8
ALL_ASSEMBLY_MEMBERS
100
AcDbLine
 62
7
  6
CONTINUOUS
 10
7.0584079138
 20
4.7981246996
 11
7.283674726
 21
4.7981246996
  0
LINE
  5
290
100
AcDbEntity
  8
ALL_ASSEMBLY_MEMBERS
100
AcDbLine
 62
7
  6
CONTINUOUS
 10
7.0722662641
 20
4.2737414596
 11
7.0805413199
 21
4.2702026107
  0
LINE
  5
291
100
AcDbEntity
  8
ALL_ASSEMBLY_MEMBERS
100
AcDbLine
 62
7
  6
CONTINUOUS
 10
6.6586580799
 20
4.1731080535
 11
6.6997027084
 21
4.2018478118
  0
LINE
  5
292
100
AcDbEntity
  8
ALL_ASSEMBLY_MEMBERS
100
AcDbLine
 62
7
  6
CONTINUOUS
 10
7.0729410203
 20
4.6518567619
 11
7.1152579699
 21
4.6405179694
  0
LINE
  5
293
100
AcDbEntity
  8
ALL_ASSEMBLY_MEMBERS
100
AcDbLine
 62
7
  6
CONTINUOUS
 10
7.2307422129
 20
4.6095740598
 11
7.4390563226
 21
4.5537564623
  0
LINE
  5
294
100
AcDbEntity
  8
ALL_ASSEMBLY_MEMBERS
100
AcDbLine
 62
7
  6
CONTINUOUS
 10
6.6586580799
 20
4.3983748657
 11
6.6997027084
 21
4.3696351074
  0
LINE
  5
295
100
AcDbEntity
  8
ALL_ASSEMBLY_MEMBERS
100
AcDbLine
 62
7
  6
CONTINUOUS
 10
6.8049260176
 20
4.3838417592
 11
7.0729410203
 21
4.6518567619
  0
LINE
  5
296
100
AcDbEntity
  8
ALL_ASSEMBLY_MEMBERS
100
AcDbLine
 62
7
  6
CONTINUOUS
 10
7.2512637882
 20
4.2728304214
 11
7.2555413199
 21
4.2702414596
  0
LINE
  5
297
100
AcDbEntity
  8
ALL_ASSEMBLY_MEMBERS
100
AcDbLine
 62
7
  6
CONTINUOUS
 10
6.6586580799
 20
4.1731080535
 11
6.6586580799
 21
4.3983748657
  0
LINE
  5
298
100
AcDbEntity
  8
ALL_ASSEMBLY_MEMBERS
100
AcDbLine
 62
7
  6
CONTINUOUS
 10
6.6997027084
 20
4.2018478118
 11
6.6997027084
 21
4.3696351074
  0
LINE
  5
299
100
AcDbEntity
  8
ALL_ASSEMBLY_MEMBERS
100
AcDbLine
 62
7
  6
CONTINUOUS
 10
6.7122913199
 20
4.1911960148
 11
6.7122913199
 21
4.3802869045
  0
LINE
  5
29A
100
AcDbEntity
  8
ALL_ASSEMBLY_MEMBERS
100
AcDbLine
 62
7
  6
CONTINUOUS
 10
7.2549349677
 20
4.7570800711
 11
7.283674726
 21
4.7981246996
  0
LINE
  5
29B
100
AcDbEntity
  8
ALL_ASSEMBLY_MEMBERS
100
AcDbLine
 62
7
  6
CONTINUOUS
 10
7.6834245599
 20
4.3983748657
 11
7.6423799314
 21
4.3696351074
  0
LINE
  5
29C
100
AcDbEntity
  8
ALL_ASSEMBLY_MEMBERS
100
AcDbLine
 62
7
  6
CONTINUOUS
 10
7.6834245599
 20
4.1731080535
 11
7.6423799314
 21
4.2018478118
  0
LINE
  5
29D
100
AcDbEntity
  8
ALL_ASSEMBLY_MEMBERS
100
AcDbLine
 62
7
  6
CONTINUOUS
 10
7.2549349677
 20
3.8144028481
 11
7.283674726
 21
3.7733582196
  0
LINE
  5
29E
100
AcDbEntity
  8
ALL_ASSEMBLY_MEMBERS
100
AcDbLine
 62
7
  6
CONTINUOUS
 10
6.7247228992
 20
4.190282813
 11
6.7247228992
 21
4.3812001062
  0
LINE
  5
29F
100
AcDbEntity
  8
ALL_ASSEMBLY_MEMBERS
100
AcDbLine
 62
7
  6
CONTINUOUS
 10
6.9030263172
 20
4.0177264569
 11
6.8472087197
 21
4.2260405666
  0
LINE
  5
2A0
100
AcDbEntity
  8
ALL_ASSEMBLY_MEMBERS
100
AcDbLine
 62
7
  6
CONTINUOUS
 10
6.8162648101
 20
4.3415248096
 11
6.8049260176
 21
4.3838417592
  0
LINE
  5
2A1
100
AcDbEntity
  8
ALL_ASSEMBLY_MEMBERS
100
AcDbLine
 62
7
  6
CONTINUOUS
 10
6.9054583111
 20
4.2013409416
 11
6.905458315
 21
4.1924024917
  0
LINE
  5
2A2
100
AcDbEntity
  8
ALL_ASSEMBLY_MEMBERS
100
AcDbLine
 62
7
  6
CONTINUOUS
 10
6.905458315
 20
4.3790804276
 11
6.9054583113
 21
4.3701419812
  0
LINE
  5
2A3
100
AcDbEntity
  8
ALL_ASSEMBLY_MEMBERS
100
AcDbLine
 62
7
  6
CONTINUOUS
 10
7.2446239148
 20
4.2618598968
 11
7.2512637882
 21
4.2728304214
  0
LINE
  5
2A4
100
AcDbEntity
  8
ALL_ASSEMBLY_MEMBERS
100
AcDbLine
 62
7
  6
CONTINUOUS
 10
7.0871476721
 20
3.8144028481
 11
7.0584079138
 21
3.7733582196
  0
LINE
  5
2A5
100
AcDbEntity
  8
ALL_ASSEMBLY_MEMBERS
100
AcDbLine
 62
7
  6
CONTINUOUS
 10
7.5371566221
 20
4.18764116
 11
7.2691416195
 21
3.9196261574
  0
LINE
  5
2A6
100
AcDbEntity
  8
ALL_ASSEMBLY_MEMBERS
100
AcDbLine
 62
7
  6
CONTINUOUS
 10
7.0871476721
 20
4.7570800711
 11
7.0584079138
 21
4.7981246996
  0
LINE
  5
2A7
100
AcDbEntity
  8
ALL_ASSEMBLY_MEMBERS
100
AcDbLine
 62
7
  6
CONTINUOUS
 10
7.0725413199
 20
4.3277414596
 11
7.0805413199
 21
4.2997115068
  0
LINE
  5
2A8
100
AcDbEntity
  8
ALL_ASSEMBLY_MEMBERS
100
AcDbLine
 62
7
  6
CONTINUOUS
 10
7.1760413199
 20
4.2432414596
 11
7.1760413199
 21
4.2552414596
  0
LINE
  5
2A9
100
AcDbEntity
  8
ALL_ASSEMBLY_MEMBERS
100
AcDbLine
 62
7
  6
CONTINUOUS
 10
7.1760413199
 20
4.3187414596
 11
7.1760413199
 21
4.3277414596
  0
LINE
  5
2AA
100
AcDbEntity
  8
ALL_ASSEMBLY_MEMBERS
100
AcDbLine
 62
7
  6
CONTINUOUS
 10
7.1867913199
 20
4.269626782
 11
7.1867913199
 21
4.3043561372
  0
LINE
  5
2AB
100
AcDbEntity
  8
ALL_ASSEMBLY_MEMBERS
100
AcDbLine
 62
7
  6
CONTINUOUS
 10
7.2047913199
 20
4.3043561372
 11
7.2047913199
 21
4.269626782
  0
LINE
  5
2AC
100
AcDbEntity
  8
ALL_ASSEMBLY_MEMBERS
100
AcDbLine
 62
7
  6
CONTINUOUS
 10
7.2155413199
 20
4.3277414596
 11
7.2155413199
 21
4.3187414596
  0
LINE
  5
2AD
100
AcDbEntity
  8
ALL_ASSEMBLY_MEMBERS
100
AcDbLine
 62
7
  6
CONTINUOUS
 10
7.2660413199
 20
4.2432414596
 11
7.2660413199
 21
4.2552414596
  0
LINE
  5
2AE
100
AcDbEntity
  8
ALL_ASSEMBLY_MEMBERS
100
AcDbLine
 62
7
  6
CONTINUOUS
 10
7.2660413199
 20
4.3187414596
 11
7.2660413199
 21
4.3277414596
  0
LINE
  5
2AF
100
AcDbEntity
  8
ALL_ASSEMBLY_MEMBERS
100
AcDbLine
 62
7
  6
CONTINUOUS
 10
7.2710413199
 20
4.2633037174
 11
7.2710413199
 21
4.3106792019
  0
LINE
  5
2B0
100
AcDbEntity
  8
ALL_ASSEMBLY_MEMBERS
100
AcDbLine
 62
7
  6
CONTINUOUS
 10
7.2555413199
 20
4.2702414596
 11
7.2507804914
 21
4.2432414596
  0
LINE
  5
2B1
100
AcDbEntity
  8
ALL_ASSEMBLY_MEMBERS
100
AcDbLine
 62
7
  6
CONTINUOUS
 10
7.28918226
 20
4.2582414596
 11
7.28918226
 21
4.3157414596
  0
LINE
  5
2B2
100
AcDbEntity
  8
ALL_ASSEMBLY_MEMBERS
100
AcDbLine
 62
7
  6
CONTINUOUS
 10
7.4366243248
 20
4.1924024917
 11
7.4366243284
 21
4.201137295
  0
LINE
  5
2B3
100
AcDbEntity
  8
ALL_ASSEMBLY_MEMBERS
100
AcDbLine
 62
7
  6
CONTINUOUS
 10
7.4366243287
 20
4.3701419776
 11
7.4366243248
 21
4.3790804276
  0
LINE
  5
2B4
100
AcDbEntity
  8
ALL_ASSEMBLY_MEMBERS
100
AcDbLine
 62
7
  6
CONTINUOUS
 10
7.4390563226
 20
4.5537564623
 11
7.49487392
 21
4.3454423526
  0
LINE
  5
2B5
100
AcDbEntity
  8
ALL_ASSEMBLY_MEMBERS
100
AcDbLine
 62
7
  6
CONTINUOUS
 10
7.5258178297
 20
4.2299581096
 11
7.5371566221
 21
4.18764116
  0
LINE
  5
2B6
100
AcDbEntity
  8
ALL_ASSEMBLY_MEMBERS
100
AcDbLine
 62
7
  6
CONTINUOUS
 10
7.6173597406
 20
4.3812001062
 11
7.6173597406
 21
4.190282813
  0
LINE
  5
2B7
100
AcDbEntity
  8
ALL_ASSEMBLY_MEMBERS
100
AcDbLine
 62
7
  6
CONTINUOUS
 10
7.6297913199
 20
4.3802869045
 11
7.6297913199
 21
4.1911960148
  0
LINE
  5
2B8
100
AcDbEntity
  8
ALL_ASSEMBLY_MEMBERS
100
AcDbLine
 62
7
  6
CONTINUOUS
 10
7.6423799314
 20
4.3696351074
 11
7.6423799314
 21
4.2018478118
  0
LINE
  5
2B9
100
AcDbEntity
  8
ALL_ASSEMBLY_MEMBERS
100
AcDbLine
 62
7
  6
CONTINUOUS
 10
7.6834245599
 20
4.3983748657
 11
7.6834245599
 21
4.1731080535
  0
ARC
  5
2BA
100
AcDbEntity
  8
ALL_ASSEMBLY_MEMBERS
100
AcDbCircle
 62
7
  6
CONTINUOUS
 10
5.2025289657
 20
1.8819168207
 40
1.8126179821
100
AcDbArc
 50
89.9997675382
 51
90.4502295648
  0
ARC
  5
2BB
100
AcDbEntity
  8
ALL_ASSEMBLY_MEMBERS
100
AcDbCircle
 62
7
  6
CONTINUOUS
 10
5.1260111927
 20
3.242506461
 40
0.8167884007
100
AcDbArc
 50
94.8613708225
 51
95.3286696083
  0
ARC
  5
2BC
100
AcDbEntity
  8
ALL_ASSEMBLY_MEMBERS
100
AcDbCircle
 62
7
  6
CONTINUOUS
 10
5.1190739568
 20
3.3170365602
 40
0.7419361416
100
AcDbArc
 50
95.3297713278
 51
95.5468235485
  0
ARC
  5
2BD
100
AcDbEntity
  8
ALL_ASSEMBLY_MEMBERS
100
AcDbCircle
 62
7
  6
CONTINUOUS
 10
5.1137994891
 20
3.3710341544
 40
0.6876815639
100
AcDbArc
 50
95.544290131
 51
95.8391253564
  0
ARC
  5
2BE
100
AcDbEntity
  8
ALL_ASSEMBLY_MEMBERS
100
AcDbCircle
 62
7
  6
CONTINUOUS
 10
3.2340363199
 20
3.6944914596
 40
0.1375
100
AcDbArc
 50
145.0
 51
35.0
  0
ARC
  5
2BF
100
AcDbEntity
  8
ALL_ASSEMBLY_MEMBERS
100
AcDbCircle
 62
7
  6
CONTINUOUS
 10
2.8790983404
 20
4.1049914596
 40
0.125
100
AcDbArc
 50
44.3699285546
 51
136.9739483152
  0
ARC
  5
2C0
100
AcDbEntity
  8
ALL_ASSEMBLY_MEMBERS
100
AcDbCircle
 62
7
  6
CONTINUOUS
 10
3.5889742994
 20
4.1049914596
 40
0.125
100
AcDbArc
 50
43.0260516848
 51
135.6300714454
  0
ARC
  5
2C1
100
AcDbEntity
  8
ALL_ASSEMBLY_MEMBERS
100
AcDbCircle
 62
7
  6
CONTINUOUS
 10
3.0532863199
 20
3.9308034801
 40
0.125
100
AcDbArc
 50
313.0260516848
 51
45.6300714454
  0
ARC
  5
2C2
100
AcDbEntity
  8
ALL_ASSEMBLY_MEMBERS
100
AcDbCircle
 62
7
  6
CONTINUOUS
 10
3.4147863199
 20
3.9308034801
 40
0.125
100
AcDbArc
 50
134.3699285546
 51
226.9739483152
  0
ARC
  5
2C3
100
AcDbEntity
  8
ALL_ASSEMBLY_MEMBERS
100
AcDbCircle
 62
7
  6
CONTINUOUS
 10
3.3482863199
 20
4.2709716058
 40
0.018
100
AcDbArc
 50
180.0
 51
240.9147049393
  0
ARC
  5
2C4
100
AcDbEntity
  8
ALL_ASSEMBLY_MEMBERS
100
AcDbCircle
 62
7
  6
CONTINUOUS
 10
3.2942863199
 20
4.2709716058
 40
0.018
100
AcDbArc
 50
299.0852950607
 51
360.0
  0
ARC
  5
2C5
100
AcDbEntity
  8
ALL_ASSEMBLY_MEMBERS
100
AcDbCircle
 62
7
  6
CONTINUOUS
 10
2.9795333318
 20
4.2032414596
 40
0.0155
100
AcDbArc
 50
224.3699285546
 51
243.1436647045
  0
ARC
  5
2C6
100
AcDbEntity
  8
ALL_ASSEMBLY_MEMBERS
100
AcDbCircle
 62
7
  6
CONTINUOUS
 10
3.4885393079
 20
4.2032414596
 40
0.0155
100
AcDbArc
 50
297.1688835585
 51
315.6300714454
  0
ARC
  5
2C7
100
AcDbEntity
  8
ALL_ASSEMBLY_MEMBERS
100
AcDbCircle
 62
7
  6
CONTINUOUS
 10
3.1515363199
 20
4.0312384716
 40
0.0155
100
AcDbArc
 50
206.8563505138
 51
225.6300714454
  0
ARC
  5
2C8
100
AcDbEntity
  8
ALL_ASSEMBLY_MEMBERS
100
AcDbCircle
 62
7
  6
CONTINUOUS
 10
3.3165363199
 20
4.0312384716
 40
0.0155
100
AcDbArc
 50
314.3699285546
 51
332.8311494163
  0
ARC
  5
2C9
100
AcDbEntity
  8
ALL_ASSEMBLY_MEMBERS
100
AcDbCircle
 62
7
  6
CONTINUOUS
 10
3.1867863199
 20
4.2666404727
 40
0.012
100
AcDbArc
 50
180.0
 51
251.7900431357
  0
ARC
  5
2CA
100
AcDbEntity
  8
ALL_ASSEMBLY_MEMBERS
100
AcDbCircle
 62
7
  6
CONTINUOUS
 10
3.1427863199
 20
4.2666404727
 40
0.012
100
AcDbArc
 50
288.2099568643
 51
360.0
  0
ARC
  5
2CB
100
AcDbEntity
  8
ALL_ASSEMBLY_MEMBERS
100
AcDbCircle
 62
7
  6
CONTINUOUS
 10
3.1417863199
 20
4.2666404727
 40
0.012
100
AcDbArc
 50
180.0
 51
251.7900431357
  0
ARC
  5
2CC
100
AcDbEntity
  8
ALL_ASSEMBLY_MEMBERS
100
AcDbCircle
 62
7
  6
CONTINUOUS
 10
3.0977863199
 20
4.2666404727
 40
0.012
100
AcDbArc
 50
288.2099568643
 51
360.0
  0
ARC
  5
2CD
100
AcDbEntity
  8
ALL_ASSEMBLY_MEMBERS
100
AcDbCircle
 62
7
  6
CONTINUOUS
 10
2.7818695509
 20
4.1957414596
 40
0.008
100
AcDbArc
 50
214.6234510997
 51
316.9739483152
  0
ARC
  5
2CE
100
AcDbEntity
  8
ALL_ASSEMBLY_MEMBERS
100
AcDbCircle
 62
7
  6
CONTINUOUS
 10
2.7672863199
 20
4.1952945955
 40
0.008
100
AcDbArc
 50
0.0
 51
125.0
  0
ARC
  5
2CF
100
AcDbEntity
  8
ALL_ASSEMBLY_MEMBERS
100
AcDbCircle
 62
7
  6
CONTINUOUS
 10
3.6862030888
 20
4.1957414596
 40
0.008
100
AcDbArc
 50
223.0260516848
 51
325.3765489003
  0
ARC
  5
2D0
100
AcDbEntity
  8
ALL_ASSEMBLY_MEMBERS
100
AcDbCircle
 62
7
  6
CONTINUOUS
 10
3.7007863199
 20
4.1952945955
 40
0.008
100
AcDbArc
 50
55.0
 51
180.0
  0
ARC
  5
2D1
100
AcDbEntity
  8
ALL_ASSEMBLY_MEMBERS
100
AcDbCircle
 62
7
  6
CONTINUOUS
 10
3.1440363199
 20
3.8335746907
 40
0.008
100
AcDbArc
 50
133.0260516848
 51
235.3765489003
  0
ARC
  5
2D2
100
AcDbEntity
  8
ALL_ASSEMBLY_MEMBERS
100
AcDbCircle
 62
7
  6
CONTINUOUS
 10
3.3240363199
 20
3.8335746907
 40
0.008
100
AcDbArc
 50
304.6234510997
 51
46.9739483152
  0
ARC
  5
2D3
100
AcDbEntity
  8
ALL_ASSEMBLY_MEMBERS
100
AcDbCircle
 62
7
  6
CONTINUOUS
 10
3.1435894557
 20
3.8189914596
 40
0.008
100
AcDbArc
 50
325.0
 51
90.0
  0
ARC
  5
2D4
100
AcDbEntity
  8
ALL_ASSEMBLY_MEMBERS
100
AcDbCircle
 62
7
  6
CONTINUOUS
 10
3.324483184
 20
3.8189914596
 40
0.008
100
AcDbArc
 50
90.0
 51
215.0
  0
ARC
  5
2D5
100
AcDbEntity
  8
ALL_ASSEMBLY_MEMBERS
100
AcDbCircle
 62
7
  6
CONTINUOUS
 10
3.1517863199
 20
4.2807414596
 40
0.003
100
AcDbArc
 50
0.0
 51
90.0
  0
ARC
  5
2D6
100
AcDbEntity
  8
ALL_ASSEMBLY_MEMBERS
100
AcDbCircle
 62
7
  6
CONTINUOUS
 10
3.1327863199
 20
4.2807414596
 40
0.003
100
AcDbArc
 50
90.0
 51
180.0
  0
ARC
  5
2D7
100
AcDbEntity
  8
ALL_ASSEMBLY_MEMBERS
100
AcDbCircle
 62
7
  6
CONTINUOUS
 10
2.6427863199
 20
4.2857414596
 40
0.1375
100
AcDbArc
 50
55.0
 51
305.0
  0
ARC
  5
2D8
100
AcDbEntity
  8
ALL_ASSEMBLY_MEMBERS
100
AcDbCircle
 62
7
  6
CONTINUOUS
 10
2.8790983404
 20
4.4664914596
 40
0.125
100
AcDbArc
 50
223.0260516848
 51
315.6300714454
  0
ARC
  5
2D9
100
AcDbEntity
  8
ALL_ASSEMBLY_MEMBERS
100
AcDbCircle
 62
7
  6
CONTINUOUS
 10
2.9795333318
 20
4.3682414596
 40
0.0155
100
AcDbArc
 50
116.8563471109
 51
135.6300714454
  0
ARC
  5
2DA
100
AcDbEntity
  8
ALL_ASSEMBLY_MEMBERS
100
AcDbCircle
 62
7
  6
CONTINUOUS
 10
3.1515363199
 20
4.5402444477
 40
0.0155
100
AcDbArc
 50
134.3699285546
 51
153.1436644189
  0
ARC
  5
2DB
100
AcDbEntity
  8
ALL_ASSEMBLY_MEMBERS
100
AcDbCircle
 62
7
  6
CONTINUOUS
 10
3.0977863199
 20
4.3073424465
 40
0.012
100
AcDbArc
 50
0.0
 51
71.7900431357
  0
ARC
  5
2DC
100
AcDbEntity
  8
ALL_ASSEMBLY_MEMBERS
100
AcDbCircle
 62
7
  6
CONTINUOUS
 10
3.1422863199
 20
4.3075192718
 40
0.012
100
AcDbArc
 50
110.7423799545
 51
180.0
  0
ARC
  5
2DD
100
AcDbEntity
  8
ALL_ASSEMBLY_MEMBERS
100
AcDbCircle
 62
7
  6
CONTINUOUS
 10
3.1422863199
 20
4.3075192718
 40
0.012
100
AcDbArc
 50
0.0
 51
69.2576200455
  0
ARC
  5
2DE
100
AcDbEntity
  8
ALL_ASSEMBLY_MEMBERS
100
AcDbCircle
 62
7
  6
CONTINUOUS
 10
3.1867863199
 20
4.3073424465
 40
0.012
100
AcDbArc
 50
108.2099568643
 51
180.0
  0
ARC
  5
2DF
100
AcDbEntity
  8
ALL_ASSEMBLY_MEMBERS
100
AcDbCircle
 62
7
  6
CONTINUOUS
 10
2.7818695509
 20
4.3757414596
 40
0.008
100
AcDbArc
 50
43.0260516848
 51
145.3765489003
  0
ARC
  5
2E0
100
AcDbEntity
  8
ALL_ASSEMBLY_MEMBERS
100
AcDbCircle
 62
7
  6
CONTINUOUS
 10
2.7672863199
 20
4.3761883238
 40
0.008
100
AcDbArc
 50
235.0
 51
360.0
  0
ARC
  5
2E1
100
AcDbEntity
  8
ALL_ASSEMBLY_MEMBERS
100
AcDbCircle
 62
7
  6
CONTINUOUS
 10
3.1332863199
 20
4.2955192718
 40
0.003
100
AcDbArc
 50
180.0
 51
270.0
  0
ARC
  5
2E2
100
AcDbEntity
  8
ALL_ASSEMBLY_MEMBERS
100
AcDbCircle
 62
7
  6
CONTINUOUS
 10
3.1512863199
 20
4.2955192718
 40
0.003
100
AcDbArc
 50
270.0
 51
360.0
  0
ARC
  5
2E3
100
AcDbEntity
  8
ALL_ASSEMBLY_MEMBERS
100
AcDbCircle
 62
7
  6
CONTINUOUS
 10
3.0532863199
 20
4.6406794391
 40
0.125
100
AcDbArc
 50
314.3699285546
 51
46.9739483152
  0
ARC
  5
2E4
100
AcDbEntity
  8
ALL_ASSEMBLY_MEMBERS
100
AcDbCircle
 62
7
  6
CONTINUOUS
 10
3.1440363199
 20
4.7379082286
 40
0.008
100
AcDbArc
 50
124.6234510997
 51
226.9739483152
  0
ARC
  5
2E5
100
AcDbEntity
  8
ALL_ASSEMBLY_MEMBERS
100
AcDbCircle
 62
7
  6
CONTINUOUS
 10
3.1435894557
 20
4.7524914596
 40
0.008
100
AcDbArc
 50
270.0
 51
35.0
  0
ARC
  5
2E6
100
AcDbEntity
  8
ALL_ASSEMBLY_MEMBERS
100
AcDbCircle
 62
7
  6
CONTINUOUS
 10
3.2340363199
 20
4.2857414596
 40
0.59
100
AcDbArc
 50
193.3645021647
 51
256.6348277137
  0
ARC
  5
2E7
100
AcDbEntity
  8
ALL_ASSEMBLY_MEMBERS
100
AcDbCircle
 62
7
  6
CONTINUOUS
 10
3.2340363199
 20
4.2857414596
 40
0.59
100
AcDbArc
 50
103.3651722863
 51
166.6354978353
  0
ARC
  5
2E8
100
AcDbEntity
  8
ALL_ASSEMBLY_MEMBERS
100
AcDbCircle
 62
7
  6
CONTINUOUS
 10
3.2340363199
 20
4.2857414596
 40
0.59
100
AcDbArc
 50
283.3651722863
 51
346.6354978353
  0
ARC
  5
2E9
100
AcDbEntity
  8
ALL_ASSEMBLY_MEMBERS
100
AcDbCircle
 62
7
  6
CONTINUOUS
 10
3.2340363199
 20
4.2857414596
 40
0.59
100
AcDbArc
 50
13.3645021647
 51
76.6348277137
  0
ARC
  5
2EA
100
AcDbEntity
  8
ALL_ASSEMBLY_MEMBERS
100
AcDbCircle
 62
7
  6
CONTINUOUS
 10
3.2340363199
 20
4.2857414596
 40
0.5000013369
100
AcDbArc
 50
11.2155259073
 51
78.7844740927
  0
ARC
  5
2EB
100
AcDbEntity
  8
ALL_ASSEMBLY_MEMBERS
100
AcDbCircle
 62
7
  6
CONTINUOUS
 10
3.2340363199
 20
4.2857414596
 40
0.5000013369
100
AcDbArc
 50
281.2155259073
 51
348.7844740927
  0
ARC
  5
2EC
100
AcDbEntity
  8
ALL_ASSEMBLY_MEMBERS
100
AcDbCircle
 62
7
  6
CONTINUOUS
 10
3.2340363199
 20
4.2857414596
 40
0.5000013369
100
AcDbArc
 50
191.2155259073
 51
258.7844740927
  0
ARC
  5
2ED
100
AcDbEntity
  8
ALL_ASSEMBLY_MEMBERS
100
AcDbCircle
 62
7
  6
CONTINUOUS
 10
3.2340363199
 20
4.2857414596
 40
0.5000013369
100
AcDbArc
 50
101.2155259073
 51
168.7844740927
  0
ARC
  5
2EE
100
AcDbEntity
  8
ALL_ASSEMBLY_MEMBERS
100
AcDbCircle
 62
7
  6
CONTINUOUS
 10
3.2340363199
 20
4.2857414596
 40
0.4065013369
100
AcDbArc
 50
279.1563815576
 51
350.8420549967
  0
ARC
  5
2EF
100
AcDbEntity
  8
ALL_ASSEMBLY_MEMBERS
100
AcDbCircle
 62
7
  6
CONTINUOUS
 10
3.2340363199
 20
4.2857414596
 40
0.4065013369
100
AcDbArc
 50
9.1579450033
 51
80.8436184424
  0
ARC
  5
2F0
100
AcDbEntity
  8
ALL_ASSEMBLY_MEMBERS
100
AcDbCircle
 62
7
  6
CONTINUOUS
 10
3.2340363199
 20
4.2857414596
 40
0.4065013369
100
AcDbArc
 50
189.1579450033
 51
260.8436184424
  0
ARC
  5
2F1
100
AcDbEntity
  8
ALL_ASSEMBLY_MEMBERS
100
AcDbCircle
 62
7
  6
CONTINUOUS
 10
3.2340363199
 20
4.2857414596
 40
0.4065013369
100
AcDbArc
 50
99.1563815576
 51
170.8420549967
  0
ARC
  5
2F2
100
AcDbEntity
  8
ALL_ASSEMBLY_MEMBERS
100
AcDbCircle
 62
7
  6
CONTINUOUS
 10
3.2340363199
 20
4.2857414596
 40
0.3705
100
AcDbArc
 50
278.7408227595
 51
327.6237776714
  0
ARC
  5
2F3
100
AcDbEntity
  8
ALL_ASSEMBLY_MEMBERS
100
AcDbCircle
 62
7
  6
CONTINUOUS
 10
3.2340363199
 20
4.2857414596
 40
0.3705
100
AcDbArc
 50
332.3762223286
 51
351.2576807926
  0
ARC
  5
2F4
100
AcDbEntity
  8
ALL_ASSEMBLY_MEMBERS
100
AcDbCircle
 62
7
  6
CONTINUOUS
 10
3.2340363199
 20
4.2857414596
 40
0.3705
100
AcDbArc
 50
8.7423192074
 51
27.6237776714
  0
ARC
  5
2F5
100
AcDbEntity
  8
ALL_ASSEMBLY_MEMBERS
100
AcDbCircle
 62
7
  6
CONTINUOUS
 10
3.2340363199
 20
4.2857414596
 40
0.3705
100
AcDbArc
 50
32.3762223286
 51
81.2591772405
  0
ARC
  5
2F6
100
AcDbEntity
  8
ALL_ASSEMBLY_MEMBERS
100
AcDbCircle
 62
7
  6
CONTINUOUS
 10
3.2340363199
 20
4.2857414596
 40
0.3705
100
AcDbArc
 50
212.3762223286
 51
261.2591772405
  0
ARC
  5
2F7
100
AcDbEntity
  8
ALL_ASSEMBLY_MEMBERS
100
AcDbCircle
 62
7
  6
CONTINUOUS
 10
3.2340363199
 20
4.2857414596
 40
0.3705
100
AcDbArc
 50
188.7423192074
 51
207.6237776714
  0
ARC
  5
2F8
100
AcDbEntity
  8
ALL_ASSEMBLY_MEMBERS
100
AcDbCircle
 62
7
  6
CONTINUOUS
 10
3.2340363199
 20
4.2857414596
 40
0.3705
100
AcDbArc
 50
152.3762223286
 51
171.2576807926
  0
ARC
  5
2F9
100
AcDbEntity
  8
ALL_ASSEMBLY_MEMBERS
100
AcDbCircle
 62
7
  6
CONTINUOUS
 10
3.2340363199
 20
4.2857414596
 40
0.3705
100
AcDbArc
 50
98.7408227595
 51
147.6237776714
  0
ARC
  5
2FA
100
AcDbEntity
  8
ALL_ASSEMBLY_MEMBERS
100
AcDbCircle
 62
7
  6
CONTINUOUS
 10
3.2340363199
 20
4.2857414596
 40
0.32575
100
AcDbArc
 50
10.7534680923
 51
79.2465319077
  0
ARC
  5
2FB
100
AcDbEntity
  8
ALL_ASSEMBLY_MEMBERS
100
AcDbCircle
 62
7
  6
CONTINUOUS
 10
3.2340363199
 20
4.2857414596
 40
0.32575
100
AcDbArc
 50
280.7534680923
 51
349.2465319077
  0
ARC
  5
2FC
100
AcDbEntity
  8
ALL_ASSEMBLY_MEMBERS
100
AcDbCircle
 62
7
  6
CONTINUOUS
 10
3.2340363199
 20
4.2857414596
 40
0.32575
100
AcDbArc
 50
190.7534680923
 51
259.2465319077
  0
ARC
  5
2FD
100
AcDbEntity
  8
ALL_ASSEMBLY_MEMBERS
100
AcDbCircle
 62
7
  6
CONTINUOUS
 10
3.2340363199
 20
4.2857414596
 40
0.32575
100
AcDbArc
 50
100.7534680923
 51
169.2465319077
  0
ARC
  5
2FE
100
AcDbEntity
  8
ALL_ASSEMBLY_MEMBERS
100
AcDbCircle
 62
7
  6
CONTINUOUS
 10
3.2340363199
 20
4.2857414596
 40
0.3073169971
100
AcDbArc
 50
282.9347710886
 51
347.0652289121
  0
ARC
  5
2FF
100
AcDbEntity
  8
ALL_ASSEMBLY_MEMBERS
100
AcDbCircle
 62
7
  6
CONTINUOUS
 10
3.2340363199
 20
4.2857414596
 40
0.3073169971
100
AcDbArc
 50
12.9347710879
 51
77.0652289114
  0
ARC
  5
300
100
AcDbEntity
  8
ALL_ASSEMBLY_MEMBERS
100
AcDbCircle
 62
7
  6
CONTINUOUS
 10
3.2340363199
 20
4.2857414596
 40
0.3073169971
100
AcDbArc
 50
192.9347710879
 51
257.0652289114
  0
ARC
  5
301
100
AcDbEntity
  8
ALL_ASSEMBLY_MEMBERS
100
AcDbCircle
 62
7
  6
CONTINUOUS
 10
3.2340363199
 20
4.2857414596
 40
0.3073169971
100
AcDbArc
 50
102.9347710886
 51
167.0652289121
  0
CIRCLE
  5
302
100
AcDbEntity
  8
ALL_ASSEMBLY_MEMBERS
100
AcDbCircle
 62
7
  6
CONTINUOUS
 10
3.2340363199
 20
4.2857414596
 40
0.27875
  0
CIRCLE
  5
303
100
AcDbEntity
  8
ALL_ASSEMBLY_MEMBERS
100
AcDbCircle
 62
7
  6
CONTINUOUS
 10
3.2340363199
 20
4.2857414596
 40
0.26375
  0
CIRCLE
  5
304
100
AcDbEntity
  8
ALL_ASSEMBLY_MEMBERS
100
AcDbCircle
 62
7
  6
CONTINUOUS
 10
3.2340363199
 20
4.2857414596
 40
0.2566170761
  0
CIRCLE
  5
305
100
AcDbEntity
  8
ALL_ASSEMBLY_MEMBERS
100
AcDbCircle
 62
7
  6
CONTINUOUS
 10
3.2340363199
 20
4.2857414596
 40
0.2272549781
  0
CIRCLE
  5
306
100
AcDbEntity
  8
ALL_ASSEMBLY_MEMBERS
100
AcDbCircle
 62
7
  6
CONTINUOUS
 10
3.2340363199
 20
4.2857414596
 40
0.21375
  0
CIRCLE
  5
307
100
AcDbEntity
  8
ALL_ASSEMBLY_MEMBERS
100
AcDbCircle
 62
7
  6
CONTINUOUS
 10
3.2340363199
 20
4.2857414596
 40
0.20875
  0
CIRCLE
  5
308
100
AcDbEntity
  8
ALL_ASSEMBLY_MEMBERS
100
AcDbCircle
 62
7
  6
CONTINUOUS
 10
3.2340363199
 20
4.2857414596
 40
0.1975723198
  0
ARC
  5
309
100
AcDbEntity
  8
ALL_ASSEMBLY_MEMBERS
100
AcDbCircle
 62
7
  6
CONTINUOUS
 10
3.2978849526
 20
4.2981354676
 40
0.0206559921
100
AcDbArc
 50
90.0
 51
135.0
  0
ARC
  5
30A
100
AcDbEntity
  8
ALL_ASSEMBLY_MEMBERS
100
AcDbCircle
 62
7
  6
CONTINUOUS
 10
3.3446876871
 20
4.2981354676
 40
0.0206559921
100
AcDbArc
 50
45.0
 51
90.0
  0
ARC
  5
30B
100
AcDbEntity
  8
ALL_ASSEMBLY_MEMBERS
100
AcDbCircle
 62
7
  6
CONTINUOUS
 10
3.3107863199
 20
4.3172914596
 40
0.0015
100
AcDbArc
 50
0.0
 51
90.0
  0
ARC
  5
30C
100
AcDbEntity
  8
ALL_ASSEMBLY_MEMBERS
100
AcDbCircle
 62
7
  6
CONTINUOUS
 10
3.3317863199
 20
4.3172914596
 40
0.0015
100
AcDbArc
 50
90.0
 51
180.0
  0
ARC
  5
30D
100
AcDbEntity
  8
ALL_ASSEMBLY_MEMBERS
100
AcDbCircle
 62
7
  6
CONTINUOUS
 10
3.4885393079
 20
4.3682414596
 40
0.0155
100
AcDbArc
 50
44.3699285546
 51
63.1436650029
  0
ARC
  5
30E
100
AcDbEntity
  8
ALL_ASSEMBLY_MEMBERS
100
AcDbCircle
 62
7
  6
CONTINUOUS
 10
3.3165363199
 20
4.5402444477
 40
0.0155
100
AcDbArc
 50
26.8563510653
 51
45.6300714454
  0
ARC
  5
30F
100
AcDbEntity
  8
ALL_ASSEMBLY_MEMBERS
100
AcDbCircle
 62
7
  6
CONTINUOUS
 10
3.8252863199
 20
4.2857414596
 40
0.1375
100
AcDbArc
 50
235.0
 51
125.0
  0
ARC
  5
310
100
AcDbEntity
  8
ALL_ASSEMBLY_MEMBERS
100
AcDbCircle
 62
7
  6
CONTINUOUS
 10
3.6862030888
 20
4.3757414596
 40
0.008
100
AcDbArc
 50
34.6234510997
 51
136.9739483152
  0
ARC
  5
311
100
AcDbEntity
  8
ALL_ASSEMBLY_MEMBERS
100
AcDbCircle
 62
7
  6
CONTINUOUS
 10
3.7007863199
 20
4.3761883238
 40
0.008
100
AcDbArc
 50
180.0
 51
305.0
  0
ARC
  5
312
100
AcDbEntity
  8
ALL_ASSEMBLY_MEMBERS
100
AcDbCircle
 62
7
  6
CONTINUOUS
 10
3.5889742994
 20
4.4664914596
 40
0.125
100
AcDbArc
 50
224.3699285546
 51
316.9739483152
  0
ARC
  5
313
100
AcDbEntity
  8
ALL_ASSEMBLY_MEMBERS
100
AcDbCircle
 62
7
  6
CONTINUOUS
 10
3.2340363199
 20
4.8769914596
 40
0.1375
100
AcDbArc
 50
325.0
 51
215.0
  0
ARC
  5
314
100
AcDbEntity
  8
ALL_ASSEMBLY_MEMBERS
100
AcDbCircle
 62
7
  6
CONTINUOUS
 10
3.4147863199
 20
4.6406794391
 40
0.125
100
AcDbArc
 50
133.0260516848
 51
225.6300714454
  0
ARC
  5
315
100
AcDbEntity
  8
ALL_ASSEMBLY_MEMBERS
100
AcDbCircle
 62
7
  6
CONTINUOUS
 10
3.3240363199
 20
4.7379082286
 40
0.008
100
AcDbArc
 50
313.0260516848
 51
55.3765489003
  0
ARC
  5
316
100
AcDbEntity
  8
ALL_ASSEMBLY_MEMBERS
100
AcDbCircle
 62
7
  6
CONTINUOUS
 10
3.324483184
 20
4.7524914596
 40
0.008
100
AcDbArc
 50
145.0
 51
270.0
  0
ARC
  5
317
100
AcDbEntity
  8
ALL_ASSEMBLY_MEMBERS
100
AcDbCircle
 62
7
  6
CONTINUOUS
 10
5.0164001429
 20
4.0943030729
 40
0.0577001662
100
AcDbArc
 50
246.4017232061
 51
247.4391923504
  0
ARC
  5
318
100
AcDbEntity
  8
ALL_ASSEMBLY_MEMBERS
100
AcDbCircle
 62
7
  6
CONTINUOUS
 10
5.2025363199
 20
4.2857414596
 40
0.59
100
AcDbArc
 50
103.4965141444
 51
252.5595011403
  0
ARC
  5
319
100
AcDbEntity
  8
ALL_ASSEMBLY_MEMBERS
100
AcDbCircle
 62
7
  6
CONTINUOUS
 10
5.2025363199
 20
4.2857414596
 40
0.59
100
AcDbArc
 50
287.4404988597
 51
76.5034858556
  0
ARC
  5
31A
100
AcDbEntity
  8
ALL_ASSEMBLY_MEMBERS
100
AcDbCircle
 62
7
  6
CONTINUOUS
 10
5.2025363199
 20
4.2857414596
 40
0.575
100
AcDbArc
 50
104.689586229
 51
251.923836012
  0
ARC
  5
31B
100
AcDbEntity
  8
ALL_ASSEMBLY_MEMBERS
100
AcDbCircle
 62
7
  6
CONTINUOUS
 10
5.2025363199
 20
4.2857414596
 40
0.575
100
AcDbArc
 50
288.076163988
 51
75.310413771
  0
ARC
  5
31C
100
AcDbEntity
  8
ALL_ASSEMBLY_MEMBERS
100
AcDbCircle
 62
7
  6
CONTINUOUS
 10
5.2025363199
 20
4.2857414596
 40
0.5655
100
AcDbArc
 50
105.3281748292
 51
251.4980788508
  0
ARC
  5
31D
100
AcDbEntity
  8
ALL_ASSEMBLY_MEMBERS
100
AcDbCircle
 62
7
  6
CONTINUOUS
 10
5.2025363199
 20
4.2857414596
 40
0.5655
100
AcDbArc
 50
288.5019211492
 51
74.6718251708
  0
ARC
  5
31E
100
AcDbEntity
  8
ALL_ASSEMBLY_MEMBERS
100
AcDbCircle
 62
7
  6
CONTINUOUS
 10
5.2025363199
 20
4.2857414596
 40
0.441
100
AcDbArc
 50
110.7533507781
 51
244.0030835639
  0
ARC
  5
31F
100
AcDbEntity
  8
ALL_ASSEMBLY_MEMBERS
100
AcDbCircle
 62
7
  6
CONTINUOUS
 10
5.2025363199
 20
4.2857414596
 40
0.441
100
AcDbArc
 50
295.9969164361
 51
69.2466492219
  0
ARC
  5
320
100
AcDbEntity
  8
ALL_ASSEMBLY_MEMBERS
100
AcDbCircle
 62
7
  6
CONTINUOUS
 10
5.2025363199
 20
4.2857414596
 40
0.4165
100
AcDbArc
 50
112.0373642028
 51
241.9023309409
  0
ARC
  5
321
100
AcDbEntity
  8
ALL_ASSEMBLY_MEMBERS
100
AcDbCircle
 62
7
  6
CONTINUOUS
 10
5.2025363199
 20
4.2857414596
 40
0.4165
100
AcDbArc
 50
298.0976690591
 51
67.9626357972
  0
ARC
  5
322
100
AcDbEntity
  8
ALL_ASSEMBLY_MEMBERS
100
AcDbCircle
 62
7
  6
CONTINUOUS
 10
5.2025363199
 20
4.2857414596
 40
0.2655
100
AcDbArc
 50
126.0600226735
 51
221.5701264442
  0
ARC
  5
323
100
AcDbEntity
  8
ALL_ASSEMBLY_MEMBERS
100
AcDbCircle
 62
7
  6
CONTINUOUS
 10
5.2025363199
 20
4.2857414596
 40
0.2655
100
AcDbArc
 50
318.4301197394
 51
53.9399773265
  0
ARC
  5
324
100
AcDbEntity
  8
ALL_ASSEMBLY_MEMBERS
100
AcDbCircle
 62
7
  6
CONTINUOUS
 10
5.2025363199
 20
4.2857414596
 40
0.23425
100
AcDbArc
 50
131.8508806577
 51
226.5102302274
  0
ARC
  5
325
100
AcDbEntity
  8
ALL_ASSEMBLY_MEMBERS
100
AcDbCircle
 62
7
  6
CONTINUOUS
 10
5.2025363199
 20
4.2857414596
 40
0.23425
100
AcDbArc
 50
313.4893267464
 51
48.1491193423
  0
ARC
  5
326
100
AcDbEntity
  8
ALL_ASSEMBLY_MEMBERS
100
AcDbCircle
 62
7
  6
CONTINUOUS
 10
5.2025363199
 20
4.2857414596
 40
0.20275
100
AcDbArc
 50
140.4309317992
 51
219.5690682008
  0
ARC
  5
327
100
AcDbEntity
  8
ALL_ASSEMBLY_MEMBERS
100
AcDbCircle
 62
7
  6
CONTINUOUS
 10
5.2025363199
 20
4.2857414596
 40
0.20275
100
AcDbArc
 50
320.4309317992
 51
39.5690682008
  0
ARC
  5
328
100
AcDbEntity
  8
ALL_ASSEMBLY_MEMBERS
100
AcDbCircle
 62
7
  6
CONTINUOUS
 10
5.2025363199
 20
4.2857414596
 40
0.17
100
AcDbArc
 50
336.8359686455
 51
23.1640313545
  0
ARC
  5
329
100
AcDbEntity
  8
ALL_ASSEMBLY_MEMBERS
100
AcDbCircle
 62
7
  6
CONTINUOUS
 10
5.2025363199
 20
4.2857414596
 40
0.17
100
AcDbArc
 50
156.8359686455
 51
203.1640313545
  0
ARC
  5
32A
100
AcDbEntity
  8
ALL_ASSEMBLY_MEMBERS
100
AcDbCircle
 62
7
  6
CONTINUOUS
 10
5.2025363199
 20
4.2857414596
 40
0.1625
100
AcDbArc
 50
344.1338342343
 51
15.8661657657
  0
ARC
  5
32B
100
AcDbEntity
  8
ALL_ASSEMBLY_MEMBERS
100
AcDbCircle
 62
7
  6
CONTINUOUS
 10
5.2025363199
 20
4.2857414596
 40
0.1625
100
AcDbArc
 50
164.1338342343
 51
195.8661657657
  0
ARC
  5
32C
100
AcDbEntity
  8
ALL_ASSEMBLY_MEMBERS
100
AcDbCircle
 62
7
  6
CONTINUOUS
 10
5.2025363199
 20
4.2857414596
 40
0.16
100
AcDbArc
 50
167.6659018965
 51
192.3340981035
  0
ARC
  5
32D
100
AcDbEntity
  8
ALL_ASSEMBLY_MEMBERS
100
AcDbCircle
 62
7
  6
CONTINUOUS
 10
5.2025363199
 20
4.2857414596
 40
0.16
100
AcDbArc
 50
347.6659018965
 51
12.3340981035
  0
ARC
  5
32E
100
AcDbEntity
  8
ALL_ASSEMBLY_MEMBERS
100
AcDbCircle
 62
7
  6
CONTINUOUS
 10
5.2025363199
 20
4.2857414596
 40
0.1585249984
100
AcDbArc
 50
170.3031386663
 51
189.6177246807
  0
ARC
  5
32F
100
AcDbEntity
  8
ALL_ASSEMBLY_MEMBERS
100
AcDbCircle
 62
7
  6
CONTINUOUS
 10
5.2025363199
 20
4.7857414596
 40
0.15625
100
AcDbArc
 50
0.0
 51
180.0
  0
ARC
  5
330
100
AcDbEntity
  8
ALL_ASSEMBLY_MEMBERS
100
AcDbCircle
 62
7
  6
CONTINUOUS
 10
5.2025436741
 20
1.8819168207
 40
1.8126179821
100
AcDbArc
 50
89.5497704352
 51
90.0002324618
  0
ARC
  5
331
100
AcDbEntity
  8
ALL_ASSEMBLY_MEMBERS
100
AcDbCircle
 62
7
  6
CONTINUOUS
 10
5.279061447
 20
3.242506461
 40
0.8167884007
100
AcDbArc
 50
84.6713303917
 51
85.1386291775
  0
ARC
  5
332
100
AcDbEntity
  8
ALL_ASSEMBLY_MEMBERS
100
AcDbCircle
 62
7
  6
CONTINUOUS
 10
5.2893667735
 20
3.352125958
 40
0.7066856016
100
AcDbArc
 50
84.1630760137
 51
84.6778617415
  0
ARC
  5
333
100
AcDbEntity
  8
ALL_ASSEMBLY_MEMBERS
100
AcDbCircle
 62
7
  6
CONTINUOUS
 10
5.3884055418
 20
4.0950811329
 40
0.0585206852
100
AcDbArc
 50
292.5113521646
 51
293.5556787811
  0
ARC
  5
334
100
AcDbEntity
  8
ALL_ASSEMBLY_MEMBERS
100
AcDbCircle
 62
7
  6
CONTINUOUS
 10
7.1710413199
 20
3.6944914596
 40
0.1375
100
AcDbArc
 50
145.0
 51
35.0
  0
ARC
  5
335
100
AcDbEntity
  8
ALL_ASSEMBLY_MEMBERS
100
AcDbCircle
 62
7
  6
CONTINUOUS
 10
6.8161033404
 20
4.1049914596
 40
0.125
100
AcDbArc
 50
44.3699285546
 51
136.9739483152
  0
ARC
  5
336
100
AcDbEntity
  8
ALL_ASSEMBLY_MEMBERS
100
AcDbCircle
 62
7
  6
CONTINUOUS
 10
7.5259792994
 20
4.1049914596
 40
0.125
100
AcDbArc
 50
43.0260516848
 51
135.6300714454
  0
ARC
  5
337
100
AcDbEntity
  8
ALL_ASSEMBLY_MEMBERS
100
AcDbCircle
 62
7
  6
CONTINUOUS
 10
6.9902913199
 20
3.9308034801
 40
0.125
100
AcDbArc
 50
313.0260516848
 51
45.6300714454
  0
ARC
  5
338
100
AcDbEntity
  8
ALL_ASSEMBLY_MEMBERS
100
AcDbCircle
 62
7
  6
CONTINUOUS
 10
7.3517913199
 20
3.9308034801
 40
0.125
100
AcDbArc
 50
134.3699285546
 51
226.9739483152
  0
ARC
  5
339
100
AcDbEntity
  8
ALL_ASSEMBLY_MEMBERS
100
AcDbCircle
 62
7
  6
CONTINUOUS
 10
7.0412540184
 20
4.2672414596
 40
0.0605
100
AcDbArc
 50
72.3178031512
 51
100.863388708
  0
ARC
  5
33A
100
AcDbEntity
  8
ALL_ASSEMBLY_MEMBERS
100
AcDbCircle
 62
7
  6
CONTINUOUS
 10
7.1480148542
 20
4.2856932934
 40
0.0569735547
100
AcDbArc
 50
179.9515613656
 51
187.0787597455
  0
ARC
  5
33B
100
AcDbEntity
  8
ALL_ASSEMBLY_MEMBERS
100
AcDbCircle
 62
7
  6
CONTINUOUS
 10
7.3082913199
 20
4.2854914596
 40
0.04225
100
AcDbArc
 50
270.0
 51
90.0
  0
ARC
  5
33C
100
AcDbEntity
  8
ALL_ASSEMBLY_MEMBERS
100
AcDbCircle
 62
7
  6
CONTINUOUS
 10
7.042340459
 20
4.2792414596
 40
0.024
100
AcDbArc
 50
201.6000344342
 51
256.3709027892
  0
ARC
  5
33D
100
AcDbEntity
  8
ALL_ASSEMBLY_MEMBERS
100
AcDbCircle
 62
7
  6
CONTINUOUS
 10
7.3061137139
 20
4.2792414596
 40
0.024
100
AcDbArc
 50
270.0
 51
341.5590861804
  0
ARC
  5
33E
100
AcDbEntity
  8
ALL_ASSEMBLY_MEMBERS
100
AcDbCircle
 62
7
  6
CONTINUOUS
 10
6.9165383318
 20
4.2032414596
 40
0.0155
100
AcDbArc
 50
224.3699285546
 51
243.1436647045
  0
ARC
  5
33F
100
AcDbEntity
  8
ALL_ASSEMBLY_MEMBERS
100
AcDbCircle
 62
7
  6
CONTINUOUS
 10
7.4255443079
 20
4.2032414596
 40
0.0155
100
AcDbArc
 50
297.1688835585
 51
315.6300714454
  0
ARC
  5
340
100
AcDbEntity
  8
ALL_ASSEMBLY_MEMBERS
100
AcDbCircle
 62
7
  6
CONTINUOUS
 10
7.0885413199
 20
4.0312384716
 40
0.0155
100
AcDbArc
 50
206.8563505138
 51
225.6300714454
  0
ARC
  5
341
100
AcDbEntity
  8
ALL_ASSEMBLY_MEMBERS
100
AcDbCircle
 62
7
  6
CONTINUOUS
 10
7.2535413199
 20
4.0312384716
 40
0.0155
100
AcDbArc
 50
314.3699285546
 51
332.8311494163
  0
ARC
  5
342
100
AcDbEntity
  8
ALL_ASSEMBLY_MEMBERS
100
AcDbCircle
 62
7
  6
CONTINUOUS
 10
7.1717913199
 20
4.269626782
 40
0.015
100
AcDbArc
 50
286.4592496283
 51
360.0
  0
ARC
  5
343
100
AcDbEntity
  8
ALL_ASSEMBLY_MEMBERS
100
AcDbCircle
 62
7
  6
CONTINUOUS
 10
7.2317913199
 20
4.269626782
 40
0.015
100
AcDbArc
 50
270.0
 51
328.815717175
  0
ARC
  5
344
100
AcDbEntity
  8
ALL_ASSEMBLY_MEMBERS
100
AcDbCircle
 62
7
  6
CONTINUOUS
 10
7.2197913199
 20
4.269626782
 40
0.015
100
AcDbArc
 50
180.0
 51
270.0
  0
ARC
  5
345
100
AcDbEntity
  8
ALL_ASSEMBLY_MEMBERS
100
AcDbCircle
 62
7
  6
CONTINUOUS
 10
7.2620413199
 20
4.2633037174
 40
0.009
100
AcDbArc
 50
296.3877999612
 51
360.0
  0
ARC
  5
346
100
AcDbEntity
  8
ALL_ASSEMBLY_MEMBERS
100
AcDbCircle
 62
7
  6
CONTINUOUS
 10
6.7188745509
 20
4.1957414596
 40
0.008
100
AcDbArc
 50
214.6234510997
 51
316.9739483152
  0
ARC
  5
347
100
AcDbEntity
  8
ALL_ASSEMBLY_MEMBERS
100
AcDbCircle
 62
7
  6
CONTINUOUS
 10
6.7042913199
 20
4.1952945955
 40
0.008
100
AcDbArc
 50
0.0
 51
125.0
  0
ARC
  5
348
100
AcDbEntity
  8
ALL_ASSEMBLY_MEMBERS
100
AcDbCircle
 62
7
  6
CONTINUOUS
 10
7.6232080888
 20
4.1957414596
 40
0.008
100
AcDbArc
 50
223.0260516848
 51
325.3765489003
  0
ARC
  5
349
100
AcDbEntity
  8
ALL_ASSEMBLY_MEMBERS
100
AcDbCircle
 62
7
  6
CONTINUOUS
 10
7.6377913199
 20
4.1952945955
 40
0.008
100
AcDbArc
 50
55.0
 51
180.0
  0
ARC
  5
34A
100
AcDbEntity
  8
ALL_ASSEMBLY_MEMBERS
100
AcDbCircle
 62
7
  6
CONTINUOUS
 10
7.0810413199
 20
3.8335746907
 40
0.008
100
AcDbArc
 50
133.0260516849
 51
235.3765489003
  0
ARC
  5
34B
100
AcDbEntity
  8
ALL_ASSEMBLY_MEMBERS
100
AcDbCircle
 62
7
  6
CONTINUOUS
 10
7.2610413199
 20
3.8335746907
 40
0.008
100
AcDbArc
 50
304.6234510997
 51
46.9739483151
  0
ARC
  5
34C
100
AcDbEntity
  8
ALL_ASSEMBLY_MEMBERS
100
AcDbCircle
 62
7
  6
CONTINUOUS
 10
7.0805944557
 20
3.8189914596
 40
0.008
100
AcDbArc
 50
325.0
 51
90.0
  0
ARC
  5
34D
100
AcDbEntity
  8
ALL_ASSEMBLY_MEMBERS
100
AcDbCircle
 62
7
  6
CONTINUOUS
 10
7.261488184
 20
3.8189914596
 40
0.008
100
AcDbArc
 50
90.0
 51
215.0
  0
ARC
  5
34E
100
AcDbEntity
  8
ALL_ASSEMBLY_MEMBERS
100
AcDbCircle
 62
7
  6
CONTINUOUS
 10
7.29218226
 20
4.2582414596
 40
0.003
100
AcDbArc
 50
180.0
 51
270.0
  0
ARC
  5
34F
100
AcDbEntity
  8
ALL_ASSEMBLY_MEMBERS
100
AcDbCircle
 62
7
  6
CONTINUOUS
 10
6.5797913199
 20
4.2857414596
 40
0.1375
100
AcDbArc
 50
55.0
 51
305.0
  0
ARC
  5
350
100
AcDbEntity
  8
ALL_ASSEMBLY_MEMBERS
100
AcDbCircle
 62
7
  6
CONTINUOUS
 10
6.8161033404
 20
4.4664914596
 40
0.125
100
AcDbArc
 50
223.0260516848
 51
315.6300714454
  0
ARC
  5
351
100
AcDbEntity
  8
ALL_ASSEMBLY_MEMBERS
100
AcDbCircle
 62
7
  6
CONTINUOUS
 10
7.1130287882
 20
4.2857434884
 40
0.0565125317
100
AcDbArc
 50
359.9979430712
 51
2.4505484091
  0
ARC
  5
352
100
AcDbEntity
  8
ALL_ASSEMBLY_MEMBERS
100
AcDbCircle
 62
7
  6
CONTINUOUS
 10
7.0396882056
 20
4.2876735502
 40
0.0444320906
100
AcDbArc
 50
224.2338173193
 51
336.8459014309
  0
ARC
  5
353
100
AcDbEntity
  8
ALL_ASSEMBLY_MEMBERS
100
AcDbCircle
 62
7
  6
CONTINUOUS
 10
7.0595413199
 20
4.2860517742
 40
0.0425
100
AcDbArc
 50
158.3999655658
 51
201.6000344342
  0
ARC
  5
354
100
AcDbEntity
  8
ALL_ASSEMBLY_MEMBERS
100
AcDbCircle
 62
7
  6
CONTINUOUS
 10
7.037703738
 20
4.2857414596
 40
0.0416624181
100
AcDbArc
 50
100.863388708
 51
224.2338173193
  0
ARC
  5
355
100
AcDbEntity
  8
ALL_ASSEMBLY_MEMBERS
100
AcDbCircle
 62
7
  6
CONTINUOUS
 10
7.0383634006
 20
4.2876735502
 40
0.0348621622
100
AcDbArc
 50
15.9292215989
 51
31.2636680057
  0
ARC
  5
356
100
AcDbEntity
  8
ALL_ASSEMBLY_MEMBERS
100
AcDbCircle
 62
7
  6
CONTINUOUS
 10
7.0439436798
 20
4.2858536857
 40
0.0308038115
100
AcDbArc
 50
256.3709027892
 51
336.8459014309
  0
ARC
  5
357
100
AcDbEntity
  8
ALL_ASSEMBLY_MEMBERS
100
AcDbCircle
 62
7
  6
CONTINUOUS
 10
7.045105871
 20
4.2917671827
 40
0.0269742769
100
AcDbArc
 50
31.2636680057
 51
158.3999655658
  0
ARC
  5
358
100
AcDbEntity
  8
ALL_ASSEMBLY_MEMBERS
100
AcDbCircle
 62
7
  6
CONTINUOUS
 10
6.9165383318
 20
4.3682414596
 40
0.0155
100
AcDbArc
 50
116.8563471109
 51
135.6300714454
  0
ARC
  5
359
100
AcDbEntity
  8
ALL_ASSEMBLY_MEMBERS
100
AcDbCircle
 62
7
  6
CONTINUOUS
 10
7.0885413199
 20
4.5402444477
 40
0.0155
100
AcDbArc
 50
134.3699285546
 51
153.1436644189
  0
ARC
  5
35A
100
AcDbEntity
  8
ALL_ASSEMBLY_MEMBERS
100
AcDbCircle
 62
7
  6
CONTINUOUS
 10
6.7188745509
 20
4.3757414596
 40
0.008
100
AcDbArc
 50
43.0260516848
 51
145.3765489003
  0
ARC
  5
35B
100
AcDbEntity
  8
ALL_ASSEMBLY_MEMBERS
100
AcDbCircle
 62
7
  6
CONTINUOUS
 10
6.7042913199
 20
4.3761883238
 40
0.008
100
AcDbArc
 50
235.0
 51
360.0
  0
ARC
  5
35C
100
AcDbEntity
  8
ALL_ASSEMBLY_MEMBERS
100
AcDbCircle
 62
7
  6
CONTINUOUS
 10
7.0605413199
 20
4.3277414596
 40
0.003
100
AcDbArc
 50
252.3178031512
 51
360.0
  0
ARC
  5
35D
100
AcDbEntity
  8
ALL_ASSEMBLY_MEMBERS
100
AcDbCircle
 62
7
  6
CONTINUOUS
 10
6.9902913199
 20
4.6406794391
 40
0.125
100
AcDbArc
 50
314.3699285546
 51
46.9739483152
  0
ARC
  5
35E
100
AcDbEntity
  8
ALL_ASSEMBLY_MEMBERS
100
AcDbCircle
 62
7
  6
CONTINUOUS
 10
7.0810413199
 20
4.7379082286
 40
0.008
100
AcDbArc
 50
124.6234510997
 51
226.9739483151
  0
ARC
  5
35F
100
AcDbEntity
  8
ALL_ASSEMBLY_MEMBERS
100
AcDbCircle
 62
7
  6
CONTINUOUS
 10
7.0805944557
 20
4.7524914596
 40
0.008
100
AcDbArc
 50
270.0
 51
35.0
  0
ARC
  5
360
100
AcDbEntity
  8
ALL_ASSEMBLY_MEMBERS
100
AcDbCircle
 62
7
  6
CONTINUOUS
 10
7.1710413199
 20
4.2857414596
 40
0.59
100
AcDbArc
 50
283.3644905284
 51
346.6360911685
  0
ARC
  5
361
100
AcDbEntity
  8
ALL_ASSEMBLY_MEMBERS
100
AcDbCircle
 62
7
  6
CONTINUOUS
 10
7.1710413199
 20
4.2857414596
 40
0.59
100
AcDbArc
 50
13.3639088315
 51
76.6355094716
  0
ARC
  5
362
100
AcDbEntity
  8
ALL_ASSEMBLY_MEMBERS
100
AcDbCircle
 62
7
  6
CONTINUOUS
 10
7.1710413199
 20
4.2857414596
 40
0.59
100
AcDbArc
 50
103.3644905284
 51
166.6360911685
  0
ARC
  5
363
100
AcDbEntity
  8
ALL_ASSEMBLY_MEMBERS
100
AcDbCircle
 62
7
  6
CONTINUOUS
 10
7.1710413199
 20
4.2857414596
 40
0.59
100
AcDbArc
 50
193.3639088315
 51
256.6355094716
  0
ARC
  5
364
100
AcDbEntity
  8
ALL_ASSEMBLY_MEMBERS
100
AcDbCircle
 62
7
  6
CONTINUOUS
 10
7.1710413199
 20
4.2857414596
 40
0.5000013369
100
AcDbArc
 50
101.2114437584
 51
168.7885562416
  0
ARC
  5
365
100
AcDbEntity
  8
ALL_ASSEMBLY_MEMBERS
100
AcDbCircle
 62
7
  6
CONTINUOUS
 10
7.1710413199
 20
4.2857414596
 40
0.5000013369
100
AcDbArc
 50
11.2114437584
 51
78.7885562416
  0
ARC
  5
366
100
AcDbEntity
  8
ALL_ASSEMBLY_MEMBERS
100
AcDbCircle
 62
7
  6
CONTINUOUS
 10
7.1710413199
 20
4.2857414596
 40
0.5000013369
100
AcDbArc
 50
281.2114437584
 51
348.7885562416
  0
ARC
  5
367
100
AcDbEntity
  8
ALL_ASSEMBLY_MEMBERS
100
AcDbCircle
 62
7
  6
CONTINUOUS
 10
7.1710413199
 20
4.2857414596
 40
0.5000013369
100
AcDbArc
 50
191.2114437584
 51
258.7885562416
  0
ARC
  5
368
100
AcDbEntity
  8
ALL_ASSEMBLY_MEMBERS
100
AcDbCircle
 62
7
  6
CONTINUOUS
 10
7.1710413199
 20
4.2857414596
 40
0.4065013369
100
AcDbArc
 50
99.157544143
 51
170.8424558568
  0
ARC
  5
369
100
AcDbEntity
  8
ALL_ASSEMBLY_MEMBERS
100
AcDbCircle
 62
7
  6
CONTINUOUS
 10
7.1710413199
 20
4.2857414596
 40
0.4065013369
100
AcDbArc
 50
9.156000814
 51
80.8439991862
  0
ARC
  5
36A
100
AcDbEntity
  8
ALL_ASSEMBLY_MEMBERS
100
AcDbCircle
 62
7
  6
CONTINUOUS
 10
7.1710413199
 20
4.2857414596
 40
0.4065013369
100
AcDbArc
 50
279.157544143
 51
350.8424558568
  0
ARC
  5
36B
100
AcDbEntity
  8
ALL_ASSEMBLY_MEMBERS
100
AcDbCircle
 62
7
  6
CONTINUOUS
 10
7.1710413199
 20
4.2857414596
 40
0.4065013369
100
AcDbArc
 50
189.156000814
 51
260.8439991862
  0
ARC
  5
36C
100
AcDbEntity
  8
ALL_ASSEMBLY_MEMBERS
100
AcDbCircle
 62
7
  6
CONTINUOUS
 10
7.1710413199
 20
4.2857414596
 40
0.3705
100
AcDbArc
 50
47.3764232079
 51
81.2585687621
  0
ARC
  5
36D
100
AcDbEntity
  8
ALL_ASSEMBLY_MEMBERS
100
AcDbCircle
 62
7
  6
CONTINUOUS
 10
7.1710413199
 20
4.2857414596
 40
0.3705
100
AcDbArc
 50
98.7407483892
 51
102.6237776714
  0
ARC
  5
36E
100
AcDbEntity
  8
ALL_ASSEMBLY_MEMBERS
100
AcDbCircle
 62
7
  6
CONTINUOUS
 10
7.1710413199
 20
4.2857414596
 40
0.3705
100
AcDbArc
 50
107.3762223286
 51
162.6237776714
  0
ARC
  5
36F
100
AcDbEntity
  8
ALL_ASSEMBLY_MEMBERS
100
AcDbCircle
 62
7
  6
CONTINUOUS
 10
7.1710413199
 20
4.2857414596
 40
0.3705
100
AcDbArc
 50
167.3762223286
 51
171.2592516109
  0
ARC
  5
370
100
AcDbEntity
  8
ALL_ASSEMBLY_MEMBERS
100
AcDbCircle
 62
7
  6
CONTINUOUS
 10
7.1710413199
 20
4.2857414596
 40
0.3705
100
AcDbArc
 50
188.7414312379
 51
222.6235767921
  0
ARC
  5
371
100
AcDbEntity
  8
ALL_ASSEMBLY_MEMBERS
100
AcDbCircle
 62
7
  6
CONTINUOUS
 10
7.1710413199
 20
4.2857414596
 40
0.3705
100
AcDbArc
 50
8.7414312379
 51
42.6235767921
  0
ARC
  5
372
100
AcDbEntity
  8
ALL_ASSEMBLY_MEMBERS
100
AcDbCircle
 62
7
  6
CONTINUOUS
 10
7.1710413199
 20
4.2857414596
 40
0.3705
100
AcDbArc
 50
347.3762223286
 51
351.2592516109
  0
ARC
  5
373
100
AcDbEntity
  8
ALL_ASSEMBLY_MEMBERS
100
AcDbCircle
 62
7
  6
CONTINUOUS
 10
7.1710413199
 20
4.2857414596
 40
0.3705
100
AcDbArc
 50
287.3762223286
 51
342.6237776714
  0
ARC
  5
374
100
AcDbEntity
  8
ALL_ASSEMBLY_MEMBERS
100
AcDbCircle
 62
7
  6
CONTINUOUS
 10
7.1710413199
 20
4.2857414596
 40
0.3705
100
AcDbArc
 50
278.7407483892
 51
282.6237776714
  0
ARC
  5
375
100
AcDbEntity
  8
ALL_ASSEMBLY_MEMBERS
100
AcDbCircle
 62
7
  6
CONTINUOUS
 10
7.1710413199
 20
4.2857414596
 40
0.3705
100
AcDbArc
 50
227.3764232079
 51
261.2585687621
  0
ARC
  5
376
100
AcDbEntity
  8
ALL_ASSEMBLY_MEMBERS
100
AcDbCircle
 62
7
  6
CONTINUOUS
 10
7.1710413199
 20
4.2857414596
 40
0.32575
100
AcDbArc
 50
100.7599529256
 51
169.2400470744
  0
ARC
  5
377
100
AcDbEntity
  8
ALL_ASSEMBLY_MEMBERS
100
AcDbCircle
 62
7
  6
CONTINUOUS
 10
7.1710413199
 20
4.2857414596
 40
0.32575
100
AcDbArc
 50
10.7599529256
 51
79.2400470744
  0
ARC
  5
378
100
AcDbEntity
  8
ALL_ASSEMBLY_MEMBERS
100
AcDbCircle
 62
7
  6
CONTINUOUS
 10
7.1710413199
 20
4.2857414596
 40
0.32575
100
AcDbArc
 50
280.7599529256
 51
349.2400470744
  0
ARC
  5
379
100
AcDbEntity
  8
ALL_ASSEMBLY_MEMBERS
100
AcDbCircle
 62
7
  6
CONTINUOUS
 10
7.1710413199
 20
4.2857414596
 40
0.32575
100
AcDbArc
 50
190.7599529256
 51
259.2400470744
  0
ARC
  5
37A
100
AcDbEntity
  8
ALL_ASSEMBLY_MEMBERS
100
AcDbCircle
 62
7
  6
CONTINUOUS
 10
7.1710413199
 20
4.2857414596
 40
0.3073169971
100
AcDbArc
 50
102.9345878278
 51
167.0654121729
  0
ARC
  5
37B
100
AcDbEntity
  8
ALL_ASSEMBLY_MEMBERS
100
AcDbCircle
 62
7
  6
CONTINUOUS
 10
7.1710413199
 20
4.2857414596
 40
0.3073169971
100
AcDbArc
 50
12.9345878271
 51
77.0654121722
  0
ARC
  5
37C
100
AcDbEntity
  8
ALL_ASSEMBLY_MEMBERS
100
AcDbCircle
 62
7
  6
CONTINUOUS
 10
7.1710413199
 20
4.2857414596
 40
0.3073169971
100
AcDbArc
 50
282.9345878278
 51
347.0654121729
  0
ARC
  5
37D
100
AcDbEntity
  8
ALL_ASSEMBLY_MEMBERS
100
AcDbCircle
 62
7
  6
CONTINUOUS
 10
7.1710413199
 20
4.2857414596
 40
0.3073169971
100
AcDbArc
 50
192.9345878271
 51
257.0654121722
  0
CIRCLE
  5
37E
100
AcDbEntity
  8
ALL_ASSEMBLY_MEMBERS
100
AcDbCircle
 62
7
  6
CONTINUOUS
 10
7.1710413199
 20
4.2857414596
 40
0.27875
  0
CIRCLE
  5
37F
100
AcDbEntity
  8
ALL_ASSEMBLY_MEMBERS
100
AcDbCircle
 62
7
  6
CONTINUOUS
 10
7.1710413199
 20
4.2857414596
 40
0.26375
  0
CIRCLE
  5
380
100
AcDbEntity
  8
ALL_ASSEMBLY_MEMBERS
100
AcDbCircle
 62
7
  6
CONTINUOUS
 10
7.1710413199
 20
4.2857414596
 40
0.2566170761
  0
CIRCLE
  5
381
100
AcDbEntity
  8
ALL_ASSEMBLY_MEMBERS
100
AcDbCircle
 62
7
  6
CONTINUOUS
 10
7.1710413199
 20
4.2857414596
 40
0.2272549781
  0
CIRCLE
  5
382
100
AcDbEntity
  8
ALL_ASSEMBLY_MEMBERS
100
AcDbCircle
 62
7
  6
CONTINUOUS
 10
7.1710413199
 20
4.2857414596
 40
0.21375
  0
CIRCLE
  5
383
100
AcDbEntity
  8
ALL_ASSEMBLY_MEMBERS
100
AcDbCircle
 62
7
  6
CONTINUOUS
 10
7.1710413199
 20
4.2857414596
 40
0.20875
  0
CIRCLE
  5
384
100
AcDbEntity
  8
ALL_ASSEMBLY_MEMBERS
100
AcDbCircle
 62
7
  6
CONTINUOUS
 10
7.1710413199
 20
4.2857414596
 40
0.1975723283
  0
ARC
  5
385
100
AcDbEntity
  8
ALL_ASSEMBLY_MEMBERS
100
AcDbCircle
 62
7
  6
CONTINUOUS
 10
7.2197913199
 20
4.3043561372
 40
0.015
100
AcDbArc
 50
106.4592496283
 51
180.0
  0
ARC
  5
386
100
AcDbEntity
  8
ALL_ASSEMBLY_MEMBERS
100
AcDbCircle
 62
7
  6
CONTINUOUS
 10
7.1717913199
 20
4.3043561372
 40
0.015
100
AcDbArc
 50
0.0
 51
73.5407503717
  0
ARC
  5
387
100
AcDbEntity
  8
ALL_ASSEMBLY_MEMBERS
100
AcDbCircle
 62
7
  6
CONTINUOUS
 10
7.2828717799
 20
4.2869914596
 40
0.0485
100
AcDbArc
 50
341.5590861804
 51
18.4409138196
  0
ARC
  5
388
100
AcDbEntity
  8
ALL_ASSEMBLY_MEMBERS
100
AcDbCircle
 62
7
  6
CONTINUOUS
 10
7.2620413199
 20
4.3106792019
 40
0.009
100
AcDbArc
 50
0.0
 51
63.6122000388
  0
ARC
  5
389
100
AcDbEntity
  8
ALL_ASSEMBLY_MEMBERS
100
AcDbCircle
 62
7
  6
CONTINUOUS
 10
7.29218226
 20
4.3157414596
 40
0.003
100
AcDbArc
 50
90.0
 51
180.0
  0
ARC
  5
38A
100
AcDbEntity
  8
ALL_ASSEMBLY_MEMBERS
100
AcDbCircle
 62
7
  6
CONTINUOUS
 10
7.3061137139
 20
4.2947414596
 40
0.024
100
AcDbArc
 50
18.4409138196
 51
90.0
  0
ARC
  5
38B
100
AcDbEntity
  8
ALL_ASSEMBLY_MEMBERS
100
AcDbCircle
 62
7
  6
CONTINUOUS
 10
7.4255443079
 20
4.3682414596
 40
0.0155
100
AcDbArc
 50
44.3699285546
 51
63.1436650029
  0
ARC
  5
38C
100
AcDbEntity
  8
ALL_ASSEMBLY_MEMBERS
100
AcDbCircle
 62
7
  6
CONTINUOUS
 10
7.2535413199
 20
4.5402444477
 40
0.0155
100
AcDbArc
 50
26.8563510653
 51
45.6300714454
  0
ARC
  5
38D
100
AcDbEntity
  8
ALL_ASSEMBLY_MEMBERS
100
AcDbCircle
 62
7
  6
CONTINUOUS
 10
7.7622913199
 20
4.2857414596
 40
0.1375
100
AcDbArc
 50
235.0
 51
125.0
  0
ARC
  5
38E
100
AcDbEntity
  8
ALL_ASSEMBLY_MEMBERS
100
AcDbCircle
 62
7
  6
CONTINUOUS
 10
7.6232080888
 20
4.3757414596
 40
0.008
100
AcDbArc
 50
34.6234510997
 51
136.9739483152
  0
ARC
  5
38F
100
AcDbEntity
  8
ALL_ASSEMBLY_MEMBERS
100
AcDbCircle
 62
7
  6
CONTINUOUS
 10
7.6377913199
 20
4.3761883238
 40
0.008
100
AcDbArc
 50
180.0
 51
305.0
  0
ARC
  5
390
100
AcDbEntity
  8
ALL_ASSEMBLY_MEMBERS
100
AcDbCircle
 62
7
  6
CONTINUOUS
 10
7.5259792994
 20
4.4664914596
 40
0.125
100
AcDbArc
 50
224.3699285546
 51
316.9739483152
  0
ARC
  5
391
100
AcDbEntity
  8
ALL_ASSEMBLY_MEMBERS
100
AcDbCircle
 62
7
  6
CONTINUOUS
 10
7.1710413199
 20
4.8769914596
 40
0.1375
100
AcDbArc
 50
325.0
 51
215.0
  0
ARC
  5
392
100
AcDbEntity
  8
ALL_ASSEMBLY_MEMBERS
100
AcDbCircle
 62
7
  6
CONTINUOUS
 10
7.3517913199
 20
4.6406794391
 40
0.125
100
AcDbArc
 50
133.0260516848
 51
225.6300714454
  0
ARC
  5
393
100
AcDbEntity
  8
ALL_ASSEMBLY_MEMBERS
100
AcDbCircle
 62
7
  6
CONTINUOUS
 10
7.2610413199
 20
4.7379082286
 40
0.008
100
AcDbArc
 50
313.0260516849
 51
55.3765489003
  0
ARC
  5
394
100
AcDbEntity
  8
ALL_ASSEMBLY_MEMBERS
100
AcDbCircle
 62
7
  6
CONTINUOUS
 10
7.261488184
 20
4.7524914596
 40
0.008
100
AcDbArc
 50
145.0
 51
270.0
  0
SPLINE
  5
395
100
AcDbEntity
  8
ALL_ASSEMBLY_MEMBERS
100
AcDbSpline
 62
7
  6
CONTINUOUS
 70
0
 71
3
 72
21
 73
17
 74
0
 42
0.0000001
 43
0.0000001
 44
0.0000000001
 40
0.0
 40
0.0
 40
0.0
 40
0.0
 40
0.1566166934
 40
0.3100202103
 40
0.4570674709
 40
0.5272604941
 40
0.5947501362
 40
0.6591920546
 40
0.7202584129
 40
0.7776398407
 40
0.8310474137
 40
0.8802146987
 40
0.9249000136
 40
0.9648891305
 40
0.9830645811
 40
1.0
 40
1.0
 40
1.0
 40
1.0
 10
5.2025363199
 20
3.6802330545
 30
0.0
 10
5.2088101843
 20
3.6802330545
 30
0.0
 10
5.2212293485
 20
3.6803102578
 30
0.0
 10
5.2395360826
 20
3.6806564395
 30
0.0
 10
5.254376383
 20
3.68113714
 30
0.0
 10
5.265771443
 20
3.6816370177
 30
0.0
 10
5.2738574618
 20
3.6820576397
 30
0.0
 10
5.2815745315
 20
3.6825274894
 30
0.0
 10
5.2888827532
 20
3.6830440829
 30
0.0
 10
5.2957443566
 20
3.6836046349
 30
0.0
 10
5.302123898
 20
3.6842061127
 30
0.0
 10
5.3079884898
 20
3.6848451755
 30
0.0
 10
5.313307886
 20
3.685518328
 30
0.0
 10
5.3173839262
 20
3.686121969
 30
0.0
 10
5.3203501064
 20
3.6866248157
 30
0.0
 10
5.3217330543
 20
3.6868815563
 30
0.0
 10
5.3223988787
 20
3.6870116321
 30
0.0
  0
SPLINE
  5
396
100
AcDbEntity
  8
ALL_ASSEMBLY_MEMBERS
100
AcDbSpline
 62
7
  6
CONTINUOUS
 70
0
 71
3
 72
21
 73
17
 74
0
 42
0.0000001
 43
0.0000001
 44
0.0000000001
 40
0.0
 40
0.0
 40
0.0
 40
0.0
 40
0.1566166934
 40
0.3100202103
 40
0.4570674709
 40
0.5272604941
 40
0.5947501362
 40
0.6591920546
 40
0.7202584129
 40
0.7776398407
 40
0.8310474137
 40
0.8802146987
 40
0.9249000136
 40
0.9648891305
 40
0.9830645811
 40
1.0
 40
1.0
 40
1.0
 40
1.0
 10
5.2025363199
 20
3.6802330545
 30
0.0
 10
5.1962624554
 20
3.6802330545
 30
0.0
 10
5.1838432912
 20
3.6803102578
 30
0.0
 10
5.1655365572
 20
3.6806564395
 30
0.0
 10
5.1506962568
 20
3.68113714
 30
0.0
 10
5.1393011967
 20
3.6816370177
 30
0.0
 10
5.1312151779
 20
3.6820576397
 30
0.0
 10
5.1234981083
 20
3.6825274894
 30
0.0
 10
5.1161898866
 20
3.6830440829
 30
0.0
 10
5.1093282831
 20
3.6836046349
 30
0.0
 10
5.1029487417
 20
3.6842061127
 30
0.0
 10
5.0970841499
 20
3.6848451755
 30
0.0
 10
5.0917647537
 20
3.685518328
 30
0.0
 10
5.0876887136
 20
3.686121969
 30
0.0
 10
5.0847225333
 20
3.6866248157
 30
0.0
 10
5.0833395854
 20
3.6868815563
 30
0.0
 10
5.0826737611
 20
3.6870116321
 30
0.0
  0
SPLINE
  5
397
100
AcDbEntity
  8
ALL_ASSEMBLY_MEMBERS
100
AcDbSpline
 62
7
  6
CONTINUOUS
 70
0
 71
3
 72
39
 73
35
 74
0
 42
0.0000001
 43
0.0000001
 44
0.0000000001
 40
0.0
 40
0.0
 40
0.0
 40
0.0
 40
0.0077443318
 40
0.0161629964
 40
0.0252479308
 40
0.0349880673
 40
0.0563834056
 40
0.0802424716
 40
0.0930562505
 40
0.1064368363
 40
0.1348264083
 40
0.1652540049
 40
0.1975534576
 40
0.2315440085
 40
0.2670379121
 40
0.3417327959
 40
0.4199703667
 40
0.5
 40
0.5800296333
 40
0.6582672041
 40
0.7329620879
 40
0.7684559915
 40
0.8024465424
 40
0.8347459951
 40
0.8651735917
 40
0.8935631637
 40
0.9069437495
 40
0.9197575284
 40
0.9436165944
 40
0.9650119327
 40
0.9747520692
 40
0.9838370036
 40
0.9922556682
 40
1.0
 40
1.0
 40
1.0
 40
1.0
 10
5.3160325193
 20
3.6878596622
 30
0.0
 10
5.3154592527
 20
3.6877300323
 30
0.0
 10
5.3142594071
 20
3.6874743927
 30
0.0
 10
5.3123776145
 20
3.6871126943
 30
0.0
 10
5.3103406936
 20
3.6867572641
 30
0.0
 10
5.3073261386
 20
3.6862772283
 30
0.0
 10
5.3031917297
 20
3.6857028557
 30
0.0
 10
5.2988150758
 20
3.6851848603
 30
0.0
 10
5.2950375032
 20
3.6847844607
 30
0.0
 10
5.2909147683
 20
3.6843795306
 30
0.0
 10
5.2854560805
 20
3.6839026958
 30
0.0
 10
5.2785603021
 20
3.6833841282
 30
0.0
 10
5.2712352024
 20
3.6829118386
 30
0.0
 10
5.263522031
 20
3.6824883323
 30
0.0
 10
5.252591362
 20
3.6819837476
 30
0.0
 10
5.2382987586
 20
3.6814985123
 30
0.0
 10
5.2206215092
 20
3.681149054
 30
0.0
 10
5.2025363199
 20
3.6810316647
 30
0.0
 10
5.1844511305
 20
3.681149054
 30
0.0
 10
5.1667738811
 20
3.6814985123
 30
0.0
 10
5.1524812778
 20
3.6819837476
 30
0.0
 10
5.1415506087
 20
3.6824883323
 30
0.0
 10
5.1338374373
 20
3.6829118386
 30
0.0
 10
5.1265123376
 20
3.6833841282
 30
0.0
 10
5.1196165593
 20
3.6839026958
 30
0.0
 10
5.1141578715
 20
3.6843795306
 30
0.0
 10
5.1100351366
 20
3.6847844607
 30
0.0
 10
5.106257564
 20
3.6851848603
 30
0.0
 10
5.1018809101
 20
3.6857028557
 30
0.0
 10
5.0977465011
 20
3.6862772283
 30
0.0
 10
5.0947319461
 20
3.6867572641
 30
0.0
 10
5.0926950253
 20
3.6871126943
 30
0.0
 10
5.0908132327
 20
3.6874743927
 30
0.0
 10
5.0896133871
 20
3.6877300323
 30
0.0
 10
5.0890401204
 20
3.6878596622
 30
0.0
  0
SPLINE
  5
398
100
AcDbEntity
  8
ALL_ASSEMBLY_MEMBERS
100
AcDbSpline
 62
7
  6
CONTINUOUS
 70
0
 71
3
 72
19
 73
15
 74
0
 42
0.0000001
 43
0.0000001
 44
0.0000000001
 40
0.0
 40
0.0
 40
0.0
 40
0.0
 40
0.0559048042
 40
0.1144044532
 40
0.1751606724
 40
0.2378166359
 40
0.367357246
 40
0.5
 40
0.632642754
 40
0.7621833641
 40
0.8248393276
 40
0.8855955468
 40
0.9440951958
 40
1.0
 40
1.0
 40
1.0
 40
1.0
 10
5.136850843
 20
3.6914839697
 30
0.0
 10
5.1392955981
 20
3.69133356
 30
0.0
 10
5.1443001787
 20
3.6910512983
 30
0.0
 10
5.151966047
 20
3.690688117
 30
0.0
 10
5.1599302355
 20
3.6903770926
 30
0.0
 10
5.1710076168
 20
3.6900304585
 30
0.0
 10
5.1852375401
 20
3.689743081
 30
0.0
 10
5.2025363199
 20
3.6896282934
 30
0.0
 10
5.2198350997
 20
3.689743081
 30
0.0
 10
5.2340650229
 20
3.6900304585
 30
0.0
 10
5.2451424043
 20
3.6903770926
 30
0.0
 10
5.2531065928
 20
3.690688117
 30
0.0
 10
5.260772461
 20
3.6910512983
 30
0.0
 10
5.2657770417
 20
3.69133356
 30
0.0
 10
5.2682217968
 20
3.6914839697
 30
0.0
  0
SPLINE
  5
399
100
AcDbEntity
  8
ALL_ASSEMBLY_MEMBERS
100
AcDbSpline
 62
7
  6
CONTINUOUS
 70
0
 71
3
 72
11
 73
7
 74
0
 42
0.0000001
 43
0.0000001
 44
0.0000000001
 40
0.0
 40
0.0
 40
0.0
 40
0.0
 40
0.2730385444
 40
0.4996896654
 40
0.7263920674
 40
1.0
 40
1.0
 40
1.0
 40
1.0
 10
3.1940363199
 20
4.2857414596
 30
0.0
 10
3.1940359512
 20
4.2976368336
 30
0.0
 10
3.2005821195
 20
4.3194066265
 30
0.0
 10
3.2332080567
 20
4.3318888729
 30
0.0
 10
3.2657348914
 20
4.3193825795
 30
0.0
 10
3.2725359188
 20
4.2976347886
 30
0.0
 10
3.2725363199
 20
4.2857414596
 30
0.0
  0
SPLINE
  5
39A
100
AcDbEntity
  8
ALL_ASSEMBLY_MEMBERS
100
AcDbSpline
 62
7
  6
CONTINUOUS
 70
0
 71
3
 72
11
 73
7
 74
0
 42
0.0000001
 43
0.0000001
 44
0.0000000001
 40
0.0
 40
0.0
 40
0.0
 40
0.0
 40
0.2911005069
 40
0.5007865867
 40
0.7104726666
 40
1.0
 40
1.0
 40
1.0
 40
1.0
 10
3.2546863199
 20
4.2857414596
 30
0.0
 10
3.2546863199
 20
4.2940973762
 30
0.0
 10
3.2527456996
 20
4.3084722429
 30
0.0
 10
3.2332234091
 20
4.319134539
 30
0.0
 10
3.2134935661
 20
4.3085211965
 30
0.0
 10
3.2121863199
 20
4.2941033409
 30
0.0
 10
3.2121863199
 20
4.2857414596
 30
0.0
  0
SPLINE
  5
39B
100
AcDbEntity
  8
ALL_ASSEMBLY_MEMBERS
100
AcDbSpline
 62
7
  6
CONTINUOUS
 70
0
 71
3
 72
11
 73
7
 74
0
 42
0.0000001
 43
0.0000001
 44
0.0000000001
 40
0.0
 40
0.0
 40
0.0
 40
0.0
 40
0.2736088651
 40
0.5002793729
 40
0.726960525
 40
1.0
 40
1.0
 40
1.0
 40
1.0
 10
3.2725363199
 20
4.2857414596
 30
0.0
 10
3.272536721
 20
4.2738481307
 30
0.0
 10
3.2657376043
 20
4.2521018527
 30
0.0
 10
3.2332028411
 20
4.2395940125
 30
0.0
 10
3.2005846164
 20
4.252074997
 30
0.0
 10
3.1940366886
 20
4.2738460857
 30
0.0
 10
3.1940363199
 20
4.2857414596
 30
0.0
  0
SPLINE
  5
39C
100
AcDbEntity
  8
ALL_ASSEMBLY_MEMBERS
100
AcDbSpline
 62
7
  6
CONTINUOUS
 70
0
 71
3
 72
11
 73
7
 74
0
 42
0.0000001
 43
0.0000001
 44
0.0000000001
 40
0.0
 40
0.0
 40
0.0
 40
0.0
 40
0.2895273334
 40
0.4992134133
 40
0.7088994931
 40
1.0
 40
1.0
 40
1.0
 40
1.0
 10
3.2121863199
 20
4.2857414596
 30
0.0
 10
3.2121863199
 20
4.2773795783
 30
0.0
 10
3.2134935661
 20
4.2629617227
 30
0.0
 10
3.2332234091
 20
4.2523483803
 30
0.0
 10
3.2527456996
 20
4.2630106764
 30
0.0
 10
3.2546863199
 20
4.277385543
 30
0.0
 10
3.2546863199
 20
4.2857414596
 30
0.0
  0
SPLINE
  5
39D
100
AcDbEntity
  8
ALL_ASSEMBLY_MEMBERS
100
AcDbSpline
 62
7
  6
CONTINUOUS
 70
0
 71
3
 72
11
 73
7
 74
0
 42
0.0000001
 43
0.0000001
 44
0.0000000001
 40
0.0
 40
0.0
 40
0.0
 40
0.0
 40
0.2893264667
 40
0.529018178
 40
0.7687211451
 40
1.0
 40
1.0
 40
1.0
 40
1.0
 10
7.1695413199
 20
4.2857414596
 30
0.0
 10
7.169541721
 20
4.2738481307
 30
0.0
 10
7.1627426043
 20
4.2521018527
 30
0.0
 10
7.1302078411
 20
4.2395940125
 30
0.0
 10
7.1000290438
 20
4.2511415785
 30
0.0
 10
7.0926531514
 20
4.2692684181
 30
0.0
 10
7.0914755696
 20
4.2786722372
 30
0.0
  0
SPLINE
  5
39E
100
AcDbEntity
  8
ALL_ASSEMBLY_MEMBERS
100
AcDbSpline
 62
7
  6
CONTINUOUS
 70
0
 71
3
 72
11
 73
7
 74
0
 42
0.0000001
 43
0.0000001
 44
0.0000000001
 40
0.0
 40
0.0
 40
0.0
 40
0.0
 40
0.2895273334
 40
0.4992134133
 40
0.7088994931
 40
1.0
 40
1.0
 40
1.0
 40
1.0
 10
7.1091913199
 20
4.2857414596
 30
0.0
 10
7.1091913199
 20
4.2773795783
 30
0.0
 10
7.1104985661
 20
4.2629617227
 30
0.0
 10
7.1302284091
 20
4.2523483803
 30
0.0
 10
7.1497506996
 20
4.2630106764
 30
0.0
 10
7.1516913199
 20
4.277385543
 30
0.0
 10
7.1516913199
 20
4.2857414596
 30
0.0
  0
SPLINE
  5
39F
100
AcDbEntity
  8
ALL_ASSEMBLY_MEMBERS
100
AcDbSpline
 62
7
  6
CONTINUOUS
 70
0
 71
3
 72
11
 73
7
 74
0
 42
0.0000001
 43
0.0000001
 44
0.0000000001
 40
0.0
 40
0.0
 40
0.0
 40
0.0
 40
0.2911005069
 40
0.5007865867
 40
0.7104726666
 40
1.0
 40
1.0
 40
1.0
 40
1.0
 10
7.1516913199
 20
4.2857414596
 30
0.0
 10
7.1516913199
 20
4.2940973762
 30
0.0
 10
7.1497506996
 20
4.3084722429
 30
0.0
 10
7.1302284091
 20
4.319134539
 30
0.0
 10
7.1104985661
 20
4.3085211965
 30
0.0
 10
7.1091913199
 20
4.2941033409
 30
0.0
 10
7.1091913199
 20
4.2857414596
 30
0.0
  0
SPLINE
  5
3A0
100
AcDbEntity
  8
ALL_ASSEMBLY_MEMBERS
100
AcDbSpline
 62
7
  6
CONTINUOUS
 70
0
 71
3
 72
11
 73
7
 74
0
 42
0.0000001
 43
0.0000001
 44
0.0000000001
 40
0.0
 40
0.0
 40
0.0
 40
0.0
 40
0.2782003197
 40
0.5091362648
 40
0.7401244605
 40
1.0
 40
1.0
 40
1.0
 40
1.0
 10
7.0910413199
 20
4.2857414596
 30
0.0
 10
7.0910409512
 20
4.2976368336
 30
0.0
 10
7.0975871195
 20
4.3194066265
 30
0.0
 10
7.1302130567
 20
4.3318888729
 30
0.0
 10
7.1619097121
 20
4.3197017764
 30
0.0
 10
7.1690150484
 20
4.2992297633
 30
0.0
 10
7.169489639
 20
4.2881598004
 30
0.0
  0
SPLINE
  5
3A1
100
AcDbEntity
  8
ALL_ASSEMBLY_MEMBERS
100
AcDbSpline
 62
7
  6
CONTINUOUS
 70
0
 71
3
 72
35
 73
31
 74
0
 42
0.0000001
 43
0.0000001
 44
0.0000000001
 40
0.0
 40
0.0
 40
0.0
 40
0.0
 40
0.0967753139
 40
0.1926724085
 40
0.2866973075
 40
0.3779840148
 40
0.4656678406
 40
0.5489046249
 40
0.6269061897
 40
0.6989375693
 40
0.7643185367
 40
0.7943253478
 40
0.822447122
 40
0.8486225823
 40
0.8727956566
 40
0.8949124171
 40
0.9149298005
 40
0.9328146504
 40
0.9485393446
 40
0.9620918526
 40
0.9680572883
 40
0.9734863219
 40
0.9783852776
 40
0.9827641534
 40
0.986639292
 40
0.990036533
 40
0.9929950516
 40
0.995574875
 40
0.9978668749
 40
1.0
 40
1.0
 40
1.0
 40
1.0
 10
5.2025363199
 20
3.6929159081
 30
0.0
 10
5.2071095364
 20
3.6929159081
 30
0.0
 10
5.2162145166
 20
3.6928770387
 30
0.0
 10
5.2297617345
 20
3.692702857
 30
0.0
 10
5.2430475893
 20
3.6924142544
 30
0.0
 10
5.2559422609
 20
3.6920142241
 30
0.0
 10
5.2683229691
 20
3.6915068922
 30
0.0
 10
5.2800704829
 20
3.6908971242
 30
0.0
 10
5.2910715783
 20
3.6901911966
 30
0.0
 10
5.3012204667
 20
3.6893963277
 30
0.0
 10
5.309096979
 20
3.6886468458
 30
0.0
 10
5.3148978392
 20
3.6880011864
 30
0.0
 10
5.3188518644
 20
3.6875135482
 30
0.0
 10
5.3225258298
 20
3.6870099141
 30
0.0
 10
5.3259109699
 20
3.6864916369
 30
0.0
 10
5.3289991671
 20
3.6859599503
 30
0.0
 10
5.3317831133
 20
3.6854162799
 30
0.0
 10
5.3342564595
 20
3.6848623453
 30
0.0
 10
5.3364134297
 20
3.6842995319
 30
0.0
 10
5.3380050168
 20
3.6838058957
 30
0.0
 10
5.3391126328
 20
3.6834015162
 30
0.0
 10
5.3398254407
 20
3.6831098019
 30
0.0
 10
5.3404559944
 20
3.6828168273
 30
0.0
 10
5.3410040245
 20
3.6825226714
 30
0.0
 10
5.3414694493
 20
3.6822273684
 30
0.0
 10
5.3418524231
 20
3.6819308002
 30
0.0
 10
5.3421531514
 20
3.6816324441
 30
0.0
 10
5.3423714298
 20
3.6813309744
 30
0.0
 10
5.3425055085
 20
3.681024997
 30
0.0
 10
5.3425363199
 20
3.6808149071
 30
0.0
 10
5.3425363199
 20
3.6807141041
 30
0.0
  0
SPLINE
  5
3A2
100
AcDbEntity
  8
ALL_ASSEMBLY_MEMBERS
100
AcDbSpline
 62
7
  6
CONTINUOUS
 70
0
 71
3
 72
44
 73
40
 74
0
 42
0.0000001
 43
0.0000001
 44
0.0000000001
 40
0.0
 40
0.0
 40
0.0
 40
0.0
 40
0.0877192247
 40
0.1746045078
 40
0.2597420461
 40
0.3423253278
 40
0.4215520501
 40
0.4966596069
 40
0.5669441303
 40
0.6317841841
 40
0.6619962606
 40
0.6906613747
 40
0.7177390956
 40
0.7431981328
 40
0.7670273686
 40
0.7892350972
 40
0.8098671564
 40
0.8290111857
 40
0.8380768386
 40
0.846839882
 40
0.8636506279
 40
0.8718214047
 40
0.8799642307
 40
0.8840635242
 40
0.8882031697
 40
0.8967073424
 40
0.9057163693
 40
0.9104915424
 40
0.9154930082
 40
0.9263342565
 40
0.9385317353
 40
0.9451695145
 40
0.9521855787
 40
0.9595620347
 40
0.9672279278
 40
0.975120164
 40
0.9832035298
 40
0.9914884176
 40
1.0
 40
1.0
 40
1.0
 40
1.0
 10
5.2025363199
 20
3.6668344231
 30
0.0
 10
5.2078952372
 20
3.6668344231
 30
0.0
 10
5.2185621847
 20
3.6668811054
 30
0.0
 10
5.2344290905
 20
3.6670904444
 30
0.0
 10
5.2499797734
 20
3.6674372341
 30
0.0
 10
5.2650588077
 20
3.6679178939
 30
0.0
 10
5.2795199287
 20
3.6685277498
 30
0.0
 10
5.2932230081
 20
3.6692609694
 30
0.0
 10
5.306038663
 20
3.6701109802
 30
0.0
 10
5.3161067413
 20
3.6709283995
 30
0.0
 10
5.3236310614
 20
3.6716432537
 30
0.0
 10
5.3288535259
 20
3.6721921644
 30
0.0
 10
5.3337810828
 20
3.6727661803
 30
0.0
 10
5.3384079479
 20
3.6733651664
 30
0.0
 10
5.3427310208
 20
3.6739899955
 30
0.0
 10
5.3467516463
 20
3.6746421494
 30
0.0
 10
5.3504763913
 20
3.6753259762
 30
0.0
 10
5.3533971779
 20
3.6759382619
 30
0.0
 10
5.3555960051
 20
3.6764555053
 30
0.0
 10
5.3576470979
 20
3.6769765492
 30
0.0
 10
5.3596294754
 20
3.6775456515
 30
0.0
 10
5.3615504248
 20
3.678182867
 30
0.0
 10
5.3627206167
 20
3.678614806
 30
0.0
 10
5.3636491179
 20
3.6789884178
 30
0.0
 10
5.3645903139
 20
3.6793890637
 30
0.0
 10
5.3657887655
 20
3.6799505291
 30
0.0
 10
5.3669863844
 20
3.6806004047
 30
0.0
 10
5.3679678749
 20
3.681195612
 30
0.0
 10
5.369018256
 20
3.6818914057
 30
0.0
 10
5.3703790103
 20
3.6829362192
 30
0.0
 10
5.3717003554
 20
3.6841840297
 30
0.0
 10
5.3727405052
 20
3.6853739249
 30
0.0
 10
5.3735157999
 20
3.686399878
 30
0.0
 10
5.3742470183
 20
3.68753333
 30
0.0
 10
5.3749150975
 20
3.6887665564
 30
0.0
 10
5.3754976955
 20
3.690090054
 30
0.0
 10
5.375973732
 20
3.6914957568
 30
0.0
 10
5.3763304936
 20
3.6929752865
 30
0.0
 10
5.3764786556
 20
3.6939924241
 30
0.0
 10
5.3765298514
 20
3.6945098848
 30
0.0
  0
SPLINE
  5
3A3
100
AcDbEntity
  8
ALL_ASSEMBLY_MEMBERS
100
AcDbSpline
 62
7
  6
CONTINUOUS
 70
0
 71
3
 72
66
 73
62
 74
0
 42
0.0000001
 43
0.0000001
 44
0.0000000001
 40
0.0
 40
0.0
 40
0.0
 40
0.0
 40
0.0050182834
 40
0.0102409348
 40
0.0157130114
 40
0.0214802678
 40
0.0275744036
 40
0.0340223361
 40
0.0408573134
 40
0.0480936331
 40
0.0557049707
 40
0.0636699447
 40
0.0719593762
 40
0.0805228134
 40
0.0893168147
 40
0.0982985492
 40
0.1074245822
 40
0.1166585929
 40
0.1259692894
 40
0.1353273348
 40
0.1447066494
 40
0.1540805438
 40
0.1634209597
 40
0.1727004701
 40
0.1818882954
 40
0.190948238
 40
0.1998424338
 40
0.2085310921
 40
0.2169646794
 40
0.2250893507
 40
0.2402979212
 40
0.2473320567
 40
0.2539602401
 40
0.2602178426
 40
0.2661391081
 40
0.2717521586
 40
0.2770913073
 40
0.2822022604
 40
0.2871297839
 40
0.2919167583
 40
0.2966016125
 40
0.3012113931
 40
0.305770189
 40
0.3148287935
 40
0.3332225762
 40
0.342744399
 40
0.3525784884
 40
0.373331811
 40
0.3957209739
 40
0.4198555049
 40
0.4457833544
 40
0.4734977275
 40
0.5029646527
 40
0.5341201169
 40
0.5668883179
 40
0.6011694983
 40
0.6738382289
 40
0.7511673806
 40
0.832076777
 40
0.915430448
 40
1.0
 40
1.0
 40
1.0
 40
1.0
 10
5.4117927519
 20
4.0414368509
 30
0.0
 10
5.412244109
 20
4.0416337883
 30
0.0
 10
5.4131597762
 20
4.0420482959
 30
0.0
 10
5.4145442166
 20
4.0427278133
 30
0.0
 10
5.4159692583
 20
4.0434893623
 30
0.0
 10
5.4174401382
 20
4.044344427
 30
0.0
 10
5.4189554962
 20
4.0453108664
 30
0.0
 10
5.4205091584
 20
4.0464084934
 30
0.0
 10
5.4220926108
 20
4.0476538686
 30
0.0
 10
5.4236914255
 20
4.049059575
 30
0.0
 10
5.4252822646
 20
4.0506366785
 30
0.0
 10
5.4268357199
 20
4.0523916681
 30
0.0
 10
5.4283212543
 20
4.0543240575
 30
0.0
 10
5.42971014
 20
4.0564256268
 30
0.0
 10
5.4309682282
 20
4.0586864447
 30
0.0
 10
5.4320698404
 20
4.06108846
 30
0.0
 10
5.4329938578
 20
4.0636105177
 30
0.0
 10
5.4337162268
 20
4.0662312382
 30
0.0
 10
5.4342254716
 20
4.0689247309
 30
0.0
 10
5.434511631
 20
4.0716654613
 30
0.0
 10
5.434565871
 20
4.0744267525
 30
0.0
 10
5.4343916131
 20
4.0771812485
 30
0.0
 10
5.4339903296
 20
4.0799021214
 30
0.0
 10
5.4333667645
 20
4.0825619251
 30
0.0
 10
5.4325384496
 20
4.0851361193
 30
0.0
 10
5.4315209059
 20
4.0876007058
 30
0.0
 10
5.4303309255
 20
4.0899317273
 30
0.0
 10
5.4289999703
 20
4.0921130476
 30
0.0
 10
5.4275581885
 20
4.094130607
 30
0.0
 10
5.4255675925
 20
4.0965323144
 30
0.0
 10
5.4234420944
 20
4.0986340951
 30
0.0
 10
5.4212607707
 20
4.1004434291
 30
0.0
 10
5.4196917074
 20
4.1016108405
 30
0.0
 10
5.4181574396
 20
4.1026377956
 30
0.0
 10
5.4166637484
 20
4.1035427755
 30
0.0
 10
5.4152155338
 20
4.1043462126
 30
0.0
 10
5.4138121108
 20
4.1050645539
 30
0.0
 10
5.4124468625
 20
4.1057079916
 30
0.0
 10
5.4111127628
 20
4.1062887642
 30
0.0
 10
5.4098027477
 20
4.1068187357
 30
0.0
 10
5.4085108969
 20
4.1073095375
 30
0.0
 10
5.407230366
 20
4.1077662717
 30
0.0
 10
5.405534314
 20
4.1083346538
 30
0.0
 10
5.402529829
 20
4.1092534053
 30
0.0
 10
5.3990169806
 20
4.1101682269
 30
0.0
 10
5.3954044639
 20
4.110988748
 30
0.0
 10
5.3915512768
 20
4.1117927455
 30
0.0
 10
5.3864372627
 20
4.1127312473
 30
0.0
 10
5.3799160929
 20
4.1137641517
 30
0.0
 10
5.3728725765
 20
4.1147353911
 30
0.0
 10
5.3652952967
 20
4.1156528462
 30
0.0
 10
5.357185535
 20
4.1165185841
 30
0.0
 10
5.3485551523
 20
4.1173336597
 30
0.0
 10
5.3394223182
 20
4.1180971728
 30
0.0
 10
5.3298114679
 20
4.1188080096
 30
0.0
 10
5.3161297061
 20
4.1197007656
 30
0.0
 10
5.2980709365
 20
4.1206607485
 30
0.0
 10
5.275428864
 20
4.1215570389
 30
0.0
 10
5.2517294566
 20
4.1222065651
 30
0.0
 10
5.2273138972
 20
4.1225999493
 30
0.0
 10
5.2108352378
 20
4.1226876389
 30
0.0
 10
5.2025363199
 20
4.1226876389
 30
0.0
  0
SPLINE
  5
3A4
100
AcDbEntity
  8
ALL_ASSEMBLY_MEMBERS
100
AcDbSpline
 62
7
  6
CONTINUOUS
 70
0
 71
3
 72
45
 73
41
 74
0
 42
0.0000001
 43
0.0000001
 44
0.0000000001
 40
0.0
 40
0.0
 40
0.0
 40
0.0
 40
0.0085623629
 40
0.01684751
 40
0.0249041026
 40
0.0327668878
 40
0.0404184962
 40
0.0478012924
 40
0.0548438838
 40
0.0614878207
 40
0.0677537253
 40
0.0736725461
 40
0.0792643343
 40
0.0845431168
 40
0.0895442574
 40
0.0943120829
 40
0.1033104081
 40
0.1118247144
 40
0.1200596758
 40
0.128197026
 40
0.1363736845
 40
0.1446750475
 40
0.153180147
 40
0.1710095112
 40
0.1901544896
 40
0.2107848265
 40
0.2329941993
 40
0.2568224112
 40
0.282282746
 40
0.3093600731
 40
0.3380261197
 40
0.3682385232
 40
0.4330811795
 40
0.5033669297
 40
0.5784718428
 40
0.6576944252
 40
0.7402731081
 40
0.8254058593
 40
0.9122865563
 40
1.0
 40
1.0
 40
1.0
 40
1.0
 10
5.0285427883
 20
3.6945098848
 30
0.0
 10
5.0285942901
 20
3.6939893322
 30
0.0
 10
5.0287424503
 20
3.6929690302
 30
0.0
 10
5.0290996539
 20
3.691488029
 30
0.0
 10
5.0295757059
 20
3.6900859099
 30
0.0
 10
5.0301580648
 20
3.6887669924
 30
0.0
 10
5.0308267949
 20
3.6875367057
 30
0.0
 10
5.0315594305
 20
3.6864028691
 30
0.0
 10
5.0323342598
 20
3.6853736764
 30
0.0
 10
5.0331345208
 20
3.6844529445
 30
0.0
 10
5.0339458326
 20
3.6836364072
 30
0.0
 10
5.0347572189
 20
3.6829136479
 30
0.0
 10
5.03555909
 20
3.6822734193
 30
0.0
 10
5.0363430606
 20
3.6817023298
 30
0.0
 10
5.0371084114
 20
3.6811925847
 30
0.0
 10
5.0380876826
 20
3.6805957568
 30
0.0
 10
5.0392877934
 20
3.6799514031
 30
0.0
 10
5.0407115057
 20
3.6792812202
 30
0.0
 10
5.0421172457
 20
3.6787006885
 30
0.0
 10
5.0435250819
 20
3.6781828985
 30
0.0
 10
5.0449521181
 20
3.677707859
 30
0.0
 10
5.046413537
 20
3.6772670538
 30
0.0
 10
5.0484533805
 20
3.6767039724
 30
0.0
 10
5.0511538982
 20
3.6760476514
 30
0.0
 10
5.0545986201
 20
3.675325409
 30
0.0
 10
5.058323527
 20
3.6746417992
 30
0.0
 10
5.0623440946
 20
3.6739895458
 30
0.0
 10
5.0666673483
 20
3.6733648453
 30
0.0
 10
5.0712942429
 20
3.6727658273
 30
0.0
 10
5.0762219639
 20
3.6721918566
 30
0.0
 10
5.0814445305
 20
3.6716429593
 30
0.0
 10
5.0889691566
 20
3.6709281065
 30
0.0
 10
5.0990375847
 20
3.6701107278
 30
0.0
 10
5.1118534303
 20
3.669260742
 30
0.0
 10
5.1255562972
 20
3.6685275765
 30
0.0
 10
5.1400168562
 20
3.6679177909
 30
0.0
 10
5.1550952018
 20
3.6674371714
 30
0.0
 10
5.1706451725
 20
3.667090417
 30
0.0
 10
5.1865112964
 20
3.6668811033
 30
0.0
 10
5.1971777072
 20
3.6668344231
 30
0.0
 10
5.2025363199
 20
3.6668344231
 30
0.0
  0
SPLINE
  5
3A5
100
AcDbEntity
  8
ALL_ASSEMBLY_MEMBERS
100
AcDbSpline
 62
7
  6
CONTINUOUS
 70
0
 71
3
 72
65
 73
61
 74
0
 42
0.0000001
 43
0.0000001
 44
0.0000000001
 40
0.0
 40
0.0
 40
0.0
 40
0.0
 40
0.0845768111
 40
0.1679351564
 40
0.2488501242
 40
0.3261829094
 40
0.3988532049
 40
0.4331340421
 40
0.4658995546
 40
0.4970521494
 40
0.5265157116
 40
0.5542270052
 40
0.5801518954
 40
0.6042848658
 40
0.6266692982
 40
0.6474232431
 40
0.6667781125
 40
0.6760540286
 40
0.685169638
 40
0.689701284
 40
0.6942347707
 40
0.7034004686
 40
0.7080864915
 40
0.7128779559
 40
0.7178094367
 40
0.722922917
 40
0.7282625904
 40
0.7338732895
 40
0.7397908102
 40
0.7460496494
 40
0.752689231
 40
0.7597248975
 40
0.7671411906
 40
0.7749294215
 40
0.7830626564
 40
0.7914908397
 40
0.8090492595
 40
0.8181046922
 40
0.8272887401
 40
0.8365662264
 40
0.8459051122
 40
0.8552780103
 40
0.864657822
 40
0.8740177826
 40
0.8833317064
 40
0.8925696566
 40
0.9016989594
 40
0.910684987
 40
0.9194853021
 40
0.9280503981
 40
0.936339078
 40
0.9443150776
 40
0.9519308821
 40
0.9591489332
 40
0.96598178
 40
0.9724437251
 40
0.9785412283
 40
0.9842983527
 40
0.9897634341
 40
1.0
 40
1.0
 40
1.0
 40
1.0
 10
5.2025363199
 20
4.1226876389
 30
0.0
 10
5.1942360845
 20
4.1226876389
 30
0.0
 10
5.1777550525
 20
4.1225999315
 30
0.0
 10
5.1533359963
 20
4.1222064183
 30
0.0
 10
5.1296335017
 20
4.121556718
 30
0.0
 10
5.1069887283
 20
4.1206601591
 30
0.0
 10
5.0889281752
 20
4.1196999069
 30
0.0
 10
5.0752455704
 20
4.11880693
 30
0.0
 10
5.0656346058
 20
4.1180959605
 30
0.0
 10
5.0565019963
 20
4.1173322546
 30
0.0
 10
5.047871903
 20
4.1165170983
 30
0.0
 10
5.0397625028
 20
4.1156510919
 30
0.0
 10
5.0321854076
 20
4.1147336194
 30
0.0
 10
5.0251423816
 20
4.1137618304
 30
0.0
 10
5.018621187
 20
4.1127291618
 30
0.0
 10
5.0125884502
 20
4.1116208877
 30
0.0
 10
5.007850336
 20
4.1105957769
 30
0.0
 10
5.0042557042
 20
4.1096996484
 30
0.0
 10
5.002086633
 20
4.109101833
 30
0.0
 10
5.0003771876
 20
4.10859046
 30
0.0
 10
4.9986709805
 20
4.1080518948
 30
0.0
 10
4.9969646512
 20
4.1074637817
 30
0.0
 10
4.9952546106
 20
4.1068128669
 30
0.0
 10
4.9939443362
 20
4.1062807457
 30
0.0
 10
4.9926093554
 20
4.1056990644
 30
0.0
 10
4.9912434243
 20
4.1050552063
 30
0.0
 10
4.9898397836
 20
4.1043368898
 30
0.0
 10
4.9883921359
 20
4.1035332729
 30
0.0
 10
4.9868998746
 20
4.1026265872
 30
0.0
 10
4.9853659762
 20
4.1015972798
 30
0.0
 10
4.9837956323
 20
4.1004292352
 30
0.0
 10
4.9822007704
 20
4.0991081892
 30
0.0
 10
4.980602348
 20
4.0976199788
 30
0.0
 10
4.9790268549
 20
4.0959554292
 30
0.0
 10
4.9775023283
 20
4.0941126904
 30
0.0
 10
4.9755513432
 20
4.0913886937
 30
0.0
 10
4.9738702128
 20
4.0883701167
 30
0.0
 10
4.9725272855
 20
4.0851206574
 30
0.0
 10
4.9717012931
 20
4.0825462809
 30
0.0
 10
4.97108007
 20
4.0798865911
 30
0.0
 10
4.9706786847
 20
4.0771659714
 30
0.0
 10
4.9705062667
 20
4.0744113133
 30
0.0
 10
4.9705622064
 20
4.0716497516
 30
0.0
 10
4.9708493487
 20
4.0689083433
 30
0.0
 10
4.9713610717
 20
4.0662142057
 30
0.0
 10
4.9720844348
 20
4.0635925387
 30
0.0
 10
4.9730098704
 20
4.061069504
 30
0.0
 10
4.9741158082
 20
4.058667763
 30
0.0
 10
4.9753750767
 20
4.0564061257
 30
0.0
 10
4.9767644122
 20
4.0543036637
 30
0.0
 10
4.9782548473
 20
4.0523732936
 30
0.0
 10
4.9798106679
 20
4.0506183885
 30
0.0
 10
4.9814002889
 20
4.0490402366
 30
0.0
 10
4.982998136
 20
4.0476354629
 30
0.0
 10
4.9845835533
 20
4.0463932861
 30
0.0
 10
4.9861407216
 20
4.0452978733
 30
0.0
 10
4.9876561775
 20
4.0443301536
 30
0.0
 10
4.9891248179
 20
4.0434735763
 30
0.0
 10
4.9909840104
 20
4.0424835781
 30
0.0
 10
4.9923809365
 20
4.0418302586
 30
0.0
 10
4.9933015274
 20
4.0414280964
 30
0.0
  0
SPLINE
  5
3A6
100
AcDbEntity
  8
ALL_ASSEMBLY_MEMBERS
100
AcDbSpline
 62
7
  6
CONTINUOUS
 70
0
 71
3
 72
35
 73
31
 74
0
 42
0.0000001
 43
0.0000001
 44
0.0000000001
 40
0.0
 40
0.0
 40
0.0
 40
0.0
 40
0.0021331251
 40
0.004425125
 40
0.0070049484
 40
0.009963467
 40
0.013360708
 40
0.0172358466
 40
0.0216147224
 40
0.0265136781
 40
0.0319427117
 40
0.0379081474
 40
0.0514606554
 40
0.0671853496
 40
0.0850701995
 40
0.1050875829
 40
0.1272043434
 40
0.1513774177
 40
0.177552878
 40
0.2056746522
 40
0.2356814633
 40
0.3010624307
 40
0.3730938103
 40
0.4510953751
 40
0.5343321594
 40
0.6220159852
 40
0.7133026925
 40
0.8073275915
 40
0.9032246861
 40
1.0
 40
1.0
 40
1.0
 40
1.0
 10
5.0625363199
 20
3.6807141041
 30
0.0
 10
5.0625363199
 20
3.6808149071
 30
0.0
 10
5.0625671313
 20
3.681024997
 30
0.0
 10
5.06270121
 20
3.6813309744
 30
0.0
 10
5.0629194884
 20
3.6816324441
 30
0.0
 10
5.0632202167
 20
3.6819308002
 30
0.0
 10
5.0636031905
 20
3.6822273684
 30
0.0
 10
5.0640686153
 20
3.6825226714
 30
0.0
 10
5.0646166454
 20
3.6828168273
 30
0.0
 10
5.0652471991
 20
3.6831098019
 30
0.0
 10
5.065960007
 20
3.6834015162
 30
0.0
 10
5.067067623
 20
3.6838058957
 30
0.0
 10
5.0686592101
 20
3.6842995319
 30
0.0
 10
5.0708161803
 20
3.6848623453
 30
0.0
 10
5.0732895265
 20
3.6854162799
 30
0.0
 10
5.0760734727
 20
3.6859599503
 30
0.0
 10
5.0791616698
 20
3.6864916369
 30
0.0
 10
5.0825468099
 20
3.6870099141
 30
0.0
 10
5.0862207754
 20
3.6875135482
 30
0.0
 10
5.0901748006
 20
3.6880011864
 30
0.0
 10
5.0959756608
 20
3.6886468458
 30
0.0
 10
5.1038521731
 20
3.6893963277
 30
0.0
 10
5.1140010614
 20
3.6901911966
 30
0.0
 10
5.1250021569
 20
3.6908971242
 30
0.0
 10
5.1367496706
 20
3.6915068922
 30
0.0
 10
5.1491303789
 20
3.6920142241
 30
0.0
 10
5.1620250504
 20
3.6924142544
 30
0.0
 10
5.1753109052
 20
3.692702857
 30
0.0
 10
5.1888581231
 20
3.6928770387
 30
0.0
 10
5.1979631034
 20
3.6929159081
 30
0.0
 10
5.2025363199
 20
3.6929159081
 30
0.0
  0
SPLINE
  5
3A7
100
AcDbEntity
  8
ALL_ASSEMBLY_MEMBERS
100
AcDbSpline
 62
7
  6
CONTINUOUS
 70
0
 71
3
 72
35
 73
31
 74
0
 42
0.0000001
 43
0.0000001
 44
0.0000000001
 40
0.0
 40
0.0
 40
0.0
 40
0.0
 40
0.0967753139
 40
0.1926724085
 40
0.2866973075
 40
0.3779840148
 40
0.4656678406
 40
0.5489046249
 40
0.6269061897
 40
0.6989375693
 40
0.7643185367
 40
0.7943253478
 40
0.822447122
 40
0.8486225823
 40
0.8727956566
 40
0.8949124171
 40
0.9149298005
 40
0.9328146504
 40
0.9485393446
 40
0.9620918526
 40
0.9680572883
 40
0.9734863219
 40
0.9783852776
 40
0.9827641534
 40
0.986639292
 40
0.990036533
 40
0.9929950516
 40
0.995574875
 40
0.9978668749
 40
1.0
 40
1.0
 40
1.0
 40
1.0
 10
5.2025363199
 20
3.6685123001
 30
0.0
 10
5.1979631034
 20
3.6685123001
 30
0.0
 10
5.1888581231
 20
3.6685511695
 30
0.0
 10
5.1753109052
 20
3.6687253512
 30
0.0
 10
5.1620250504
 20
3.6690139537
 30
0.0
 10
5.1491303789
 20
3.6694139841
 30
0.0
 10
5.1367496706
 20
3.669921316
 30
0.0
 10
5.1250021569
 20
3.670531084
 30
0.0
 10
5.1140010614
 20
3.6712370116
 30
0.0
 10
5.1038521731
 20
3.6720318805
 30
0.0
 10
5.0959756608
 20
3.6727813624
 30
0.0
 10
5.0901748006
 20
3.6734270218
 30
0.0
 10
5.0862207754
 20
3.67391466
 30
0.0
 10
5.0825468099
 20
3.6744182941
 30
0.0
 10
5.0791616698
 20
3.6749365713
 30
0.0
 10
5.0760734727
 20
3.6754682579
 30
0.0
 10
5.0732895265
 20
3.6760119283
 30
0.0
 10
5.0708161803
 20
3.6765658629
 30
0.0
 10
5.0686592101
 20
3.6771286763
 30
0.0
 10
5.067067623
 20
3.6776223125
 30
0.0
 10
5.065960007
 20
3.678026692
 30
0.0
 10
5.0652471991
 20
3.6783184063
 30
0.0
 10
5.0646166454
 20
3.6786113808
 30
0.0
 10
5.0640686153
 20
3.6789055368
 30
0.0
 10
5.0636031905
 20
3.6792008398
 30
0.0
 10
5.0632202167
 20
3.679497408
 30
0.0
 10
5.0629194884
 20
3.6797957641
 30
0.0
 10
5.06270121
 20
3.6800972338
 30
0.0
 10
5.0625671313
 20
3.6804032112
 30
0.0
 10
5.0625363199
 20
3.6806133011
 30
0.0
 10
5.0625363199
 20
3.6807141041
 30
0.0
  0
SPLINE
  5
3A8
100
AcDbEntity
  8
ALL_ASSEMBLY_MEMBERS
100
AcDbSpline
 62
7
  6
CONTINUOUS
 70
0
 71
3
 72
65
 73
61
 74
0
 42
0.0000001
 43
0.0000001
 44
0.0000000001
 40
0.0
 40
0.0
 40
0.0
 40
0.0
 40
0.049189523
 40
0.0979561248
 40
0.1458252727
 40
0.1923808897
 40
0.2372055599
 40
0.2798928543
 40
0.3200608189
 40
0.3573520239
 40
0.3914340205
 40
0.4071774626
 40
0.4220085427
 40
0.4358967763
 40
0.4488127059
 40
0.460728793
 40
0.4716230546
 40
0.481475732
 40
0.4902697651
 40
0.4979958268
 40
0.501457432
 40
0.5046514649
 40
0.5075788804
 40
0.5102420333
 40
0.5126450244
 40
0.5147938839
 40
0.516697532
 40
0.5183693607
 40
0.5198297797
 40
0.5211102443
 40
0.5222578805
 40
0.5233374184
 40
0.5244258058
 40
0.5255982497
 40
0.5269156399
 40
0.5284212723
 40
0.530143687
 40
0.5321014304
 40
0.5343067092
 40
0.5367676834
 40
0.5394898845
 40
0.54247704
 40
0.5457311113
 40
0.5492528645
 40
0.5570991122
 40
0.5660126428
 40
0.5759832173
 40
0.5869932318
 40
0.5990227713
 40
0.6120493337
 40
0.6260449183
 40
0.6568233738
 40
0.6910936787
 40
0.7285555219
 40
0.7688746863
 40
0.8116922366
 40
0.8566251379
 40
0.9032655189
 40
0.9511961622
 40
1.0
 40
1.0
 40
1.0
 40
1.0
 10
5.2025363199
 20
3.6668934053
 30
0.0
 10
5.2075684871
 20
3.6668934053
 30
0.0
 10
5.2175896061
 20
3.6669349583
 30
0.0
 10
5.2325067713
 20
3.667121252
 30
0.0
 10
5.2471524138
 20
3.6674300083
 30
0.0
 10
5.2613916197
 20
3.6678582177
 30
0.0
 10
5.2750964022
 20
3.6684017568
 30
0.0
 10
5.2881421461
 20
3.6690556562
 30
0.0
 10
5.3004102483
 20
3.669813661
 30
0.0
 10
5.3117893881
 20
3.67066846
 30
0.0
 10
5.3206655538
 20
3.6714743714
 30
0.0
 10
5.3272435711
 20
3.6721687987
 30
0.0
 10
5.3317617435
 20
3.672695004
 30
0.0
 10
5.3359863285
 20
3.6732390368
 30
0.0
 10
5.3399077537
 20
3.6737996196
 30
0.0
 10
5.3435171422
 20
3.6743755248
 30
0.0
 10
5.3468064219
 20
3.6749651963
 30
0.0
 10
5.3497683258
 20
3.6755670443
 30
0.0
 10
5.3523962202
 20
3.6761797731
 30
0.0
 10
5.3543696207
 20
3.6767156034
 30
0.0
 10
5.3557743098
 20
3.677153729
 30
0.0
 10
5.3567017139
 20
3.6774720576
 30
0.0
 10
5.3575416901
 20
3.6777920859
 30
0.0
 10
5.3582938491
 20
3.6781136531
 30
0.0
 10
5.3589579704
 20
3.6784365532
 30
0.0
 10
5.3595339394
 20
3.6787606608
 30
0.0
 10
5.3600217332
 20
3.6790859562
 30
0.0
 10
5.3604214185
 20
3.6794126517
 30
0.0
 10
5.3607330246
 20
3.6797414526
 30
0.0
 10
5.3609560386
 20
3.6800737492
 30
0.0
 10
5.3610884081
 20
3.6804110418
 30
0.0
 10
5.3611260083
 20
3.6807525279
 30
0.0
 10
5.3610667727
 20
3.6810933806
 30
0.0
 10
5.3609137333
 20
3.6814294782
 30
0.0
 10
5.360670726
 20
3.6817608459
 30
0.0
 10
5.360339322
 20
3.6820890731
 30
0.0
 10
5.3599198587
 20
3.6824154173
 30
0.0
 10
5.3594122648
 20
3.6827404379
 30
0.0
 10
5.358816493
 20
3.6830642815
 30
0.0
 10
5.3581325868
 20
3.6833868953
 30
0.0
 10
5.3573606817
 20
3.683708138
 30
0.0
 10
5.3565010298
 20
3.6840277928
 30
0.0
 10
5.3555540583
 20
3.6843457152
 30
0.0
 10
5.3541233642
 20
3.6847829408
 30
0.0
 10
5.3521179495
 20
3.6853177194
 30
0.0
 10
5.3494522604
 20
3.6859293131
 30
0.0
 10
5.3464532519
 20
3.686529862
 30
0.0
 10
5.3431276507
 20
3.6871180695
 30
0.0
 10
5.3394828057
 20
3.687692322
 30
0.0
 10
5.3355268827
 20
3.6882511262
 30
0.0
 10
5.3296609686
 20
3.6889978022
 30
0.0
 10
5.3216212529
 20
3.6898715573
 30
0.0
 10
5.3111758957
 20
3.690810241
 30
0.0
 10
5.2997439875
 20
3.6916597228
 30
0.0
 10
5.287429218
 20
3.6924120877
 30
0.0
 10
5.2743432566
 20
3.69305995
 30
0.0
 10
5.2606051323
 20
3.6935971282
 30
0.0
 10
5.2463396812
 20
3.6940187318
 30
0.0
 10
5.2316751325
 20
3.6943206828
 30
0.0
 10
5.221779615
 20
3.6944395858
 30
0.0
 10
5.2167870584
 20
3.6944788404
 30
0.0
  0
SPLINE
  5
3A9
100
AcDbEntity
  8
ALL_ASSEMBLY_MEMBERS
100
AcDbSpline
 62
7
  6
CONTINUOUS
 70
0
 71
3
 72
37
 73
33
 74
0
 42
0.0000001
 43
0.0000001
 44
0.0000000001
 40
0.0
 40
0.0
 40
0.0
 40
0.0
 40
0.0021243258
 40
0.0043558587
 40
0.0068381305
 40
0.009676222
 40
0.0129404568
 40
0.0166766723
 40
0.0209147848
 40
0.0256735658
 40
0.0309649012
 40
0.03679647
 40
0.0431731358
 40
0.0500978227
 40
0.0655926833
 40
0.0832707162
 40
0.1031084155
 40
0.1250729502
 40
0.1491181842
 40
0.1751939905
 40
0.2032441843
 40
0.2332028343
 40
0.2650020757
 40
0.29856853
 40
0.3706776278
 40
0.4488480808
 40
0.5323320557
 40
0.6203292235
 40
0.7119908097
 40
0.8064284007
 40
0.9027595989
 40
1.0
 40
1.0
 40
1.0
 40
1.0
 10
5.3765298417
 20
3.6945098848
 30
0.0
 10
5.376542152
 20
3.6946341361
 30
0.0
 10
5.3765305817
 20
3.6948940435
 30
0.0
 10
5.3764001879
 20
3.6952788045
 30
0.0
 10
5.376162456
 20
3.695657377
 30
0.0
 10
5.3758207096
 20
3.6960312845
 30
0.0
 10
5.375375628
 20
3.6964025195
 30
0.0
 10
5.3748270156
 20
3.696771998
 30
0.0
 10
5.3741746512
 20
3.6971400037
 30
0.0
 10
5.3734186058
 20
3.6975065892
 30
0.0
 10
5.3725591365
 20
3.6978716213
 30
0.0
 10
5.3715966135
 20
3.6982348808
 30
0.0
 10
5.3705314759
 20
3.6985961595
 30
0.0
 10
5.3689135228
 20
3.6990936713
 30
0.0
 10
5.3666355878
 20
3.6997013267
 30
0.0
 10
5.36359762
 20
3.7003952823
 30
0.0
 10
5.3601681842
 20
3.7010763716
 30
0.0
 10
5.3563554304
 20
3.7017426386
 30
0.0
 10
5.3521684278
 20
3.702392432
 30
0.0
 10
5.3476172614
 20
3.7030239252
 30
0.0
 10
5.3427129297
 20
3.7036353984
 30
0.0
 10
5.3374673296
 20
3.7042254355
 30
0.0
 10
5.3318932059
 20
3.704792454
 30
0.0
 10
5.3238469353
 20
3.7055336044
 30
0.0
 10
5.3130741943
 20
3.7063839414
 30
0.0
 10
5.2993627251
 20
3.7072701833
 30
0.0
 10
5.2847088285
 20
3.7080357987
 30
0.0
 10
5.2692551799
 20
3.7086730722
 30
0.0
 10
5.2531524518
 20
3.7091754913
 30
0.0
 10
5.2365560239
 20
3.709538056
 30
0.0
 10
5.2196291762
 20
3.709756947
 30
0.0
 10
5.2082517314
 20
3.7098057463
 30
0.0
 10
5.2025363199
 20
3.7098057463
 30
0.0
  0
SPLINE
  5
3AA
100
AcDbEntity
  8
ALL_ASSEMBLY_MEMBERS
100
AcDbSpline
 62
7
  6
CONTINUOUS
 70
0
 71
3
 72
28
 73
24
 74
0
 42
0.0000001
 43
0.0000001
 44
0.0000000001
 40
0.0
 40
0.0
 40
0.0
 40
0.0
 40
0.0077438979
 40
0.0157905641
 40
0.0245837199
 40
0.034466951
 40
0.0456818058
 40
0.0583905168
 40
0.0727020967
 40
0.0886906014
 40
0.1064070877
 40
0.1258871599
 40
0.1471534992
 40
0.1702184598
 40
0.2217640241
 40
0.280541261
 40
0.3465142949
 40
0.4195966942
 40
0.4996834145
 40
0.5866508263
 40
0.680341159
 40
0.780586832
 40
1.0
 40
1.0
 40
1.0
 40
1.0
 10
5.411028385
 20
4.0432049648
 30
0.0
 10
5.4110416933
 20
4.0433395817
 30
0.0
 10
5.4110333017
 20
4.0436189248
 30
0.0
 10
5.4109109318
 20
4.044034685
 30
0.0
 10
5.4106827069
 20
4.044445446
 30
0.0
 10
5.4103515015
 20
4.0448517765
 30
0.0
 10
5.4099183905
 20
4.0452552909
 30
0.0
 10
5.4093835599
 20
4.045656953
 30
0.0
 10
5.4087469501
 20
4.0460571782
 30
0.0
 10
5.4080085392
 20
4.0464560485
 30
0.0
 10
5.4071683888
 20
4.0468534868
 30
0.0
 10
5.4062266696
 20
4.0472493015
 30
0.0
 10
5.4051837318
 20
4.0476433325
 30
0.0
 10
5.4035991775
 20
4.0481863836
 30
0.0
 10
5.4013651013
 20
4.0488515936
 30
0.0
 10
5.3983807414
 20
4.0496137461
 30
0.0
 10
5.3950069828
 20
4.0503644545
 30
0.0
 10
5.3912503874
 20
4.0511022816
 30
0.0
 10
5.3871181483
 20
4.0518254377
 30
0.0
 10
5.3826183504
 20
4.0525322212
 30
0.0
 10
5.377759896
 20
4.0532213108
 30
0.0
 10
5.370598211
 20
4.0541423874
 30
0.0
 10
5.3650477678
 20
4.0547576594
 30
0.0
 10
5.3612348774
 20
4.0551476612
 30
0.0
  0
LINE
  5
3AB
100
AcDbEntity
  8
ALL_ASSEMBLY_MEMBERS
100
AcDbLine
 62
7
  6
CONTINUOUS
 10
5.3482803119
 20
4.0563565948
 11
5.3474613298
 21
4.0564259838
  0
SPLINE
  5
3AC
100
AcDbEntity
  8
ALL_ASSEMBLY_MEMBERS
100
AcDbSpline
 62
7
  6
CONTINUOUS
 70
0
 71
3
 72
15
 73
11
 74
0
 42
0.0000001
 43
0.0000001
 44
0.0000000001
 40
0.0
 40
0.0
 40
0.0
 40
0.0
 40
0.1040317362
 40
0.2162391073
 40
0.3356036014
 40
0.4610412922
 40
0.5914069596
 40
0.7255023049
 40
0.8621390474
 40
1.0
 40
1.0
 40
1.0
 40
1.0
 10
5.3474613298
 20
4.0564259838
 30
0.0
 10
5.3424490535
 20
4.0568483337
 30
0.0
 10
5.3320232161
 20
4.0576397641
 30
0.0
 10
5.3158275344
 20
4.0586499892
 30
0.0
 10
5.2985874248
 20
4.0595217577
 30
0.0
 10
5.2804618685
 20
4.0602466723
 30
0.0
 10
5.2616182514
 20
4.0608177456
 30
0.0
 10
5.2422288908
 20
4.0612296324
 30
0.0
 10
5.222474343
 20
4.0614782225
 30
0.0
 10
5.2092020356
 20
4.0615336263
 30
0.0
 10
5.2025363199
 20
4.0615336263
 30
0.0
  0
SPLINE
  5
3AD
100
AcDbEntity
  8
ALL_ASSEMBLY_MEMBERS
100
AcDbSpline
 62
7
  6
CONTINUOUS
 70
0
 71
3
 72
37
 73
33
 74
0
 42
0.0000001
 43
0.0000001
 44
0.0000000001
 40
0.0
 40
0.0
 40
0.0
 40
0.0
 40
0.0021243258
 40
0.0043558587
 40
0.0068381305
 40
0.009676222
 40
0.0129404568
 40
0.0166766723
 40
0.0209147848
 40
0.0256735658
 40
0.0309649012
 40
0.03679647
 40
0.0431731358
 40
0.0500978227
 40
0.0655926833
 40
0.0832707162
 40
0.1031084155
 40
0.1250729502
 40
0.1491181842
 40
0.1751939905
 40
0.2032441843
 40
0.2332028343
 40
0.2650020757
 40
0.29856853
 40
0.3706776278
 40
0.4488480808
 40
0.5323320557
 40
0.6203292235
 40
0.7119908097
 40
0.8064284007
 40
0.9027595989
 40
1.0
 40
1.0
 40
1.0
 40
1.0
 10
5.0285427981
 20
3.6945098848
 30
0.0
 10
5.0285304878
 20
3.6946341361
 30
0.0
 10
5.028542058
 20
3.6948940435
 30
0.0
 10
5.0286724519
 20
3.6952788045
 30
0.0
 10
5.0289101838
 20
3.695657377
 30
0.0
 10
5.0292519302
 20
3.6960312845
 30
0.0
 10
5.0296970117
 20
3.6964025195
 30
0.0
 10
5.0302456241
 20
3.696771998
 30
0.0
 10
5.0308979885
 20
3.6971400037
 30
0.0
 10
5.031654034
 20
3.6975065892
 30
0.0
 10
5.0325135033
 20
3.6978716213
 30
0.0
 10
5.0334760263
 20
3.6982348808
 30
0.0
 10
5.0345411638
 20
3.6985961595
 30
0.0
 10
5.036159117
 20
3.6990936713
 30
0.0
 10
5.038437052
 20
3.6997013267
 30
0.0
 10
5.0414750198
 20
3.7003952823
 30
0.0
 10
5.0449044556
 20
3.7010763716
 30
0.0
 10
5.0487172094
 20
3.7017426386
 30
0.0
 10
5.052904212
 20
3.702392432
 30
0.0
 10
5.0574553784
 20
3.7030239252
 30
0.0
 10
5.0623597101
 20
3.7036353984
 30
0.0
 10
5.0676053101
 20
3.7042254355
 30
0.0
 10
5.0731794339
 20
3.704792454
 30
0.0
 10
5.0812257044
 20
3.7055336044
 30
0.0
 10
5.0919984455
 20
3.7063839414
 30
0.0
 10
5.1057099147
 20
3.7072701833
 30
0.0
 10
5.1203638112
 20
3.7080357987
 30
0.0
 10
5.1358174599
 20
3.7086730722
 30
0.0
 10
5.1519201879
 20
3.7091754913
 30
0.0
 10
5.1685166159
 20
3.709538056
 30
0.0
 10
5.1854434635
 20
3.709756947
 30
0.0
 10
5.1968209084
 20
3.7098057463
 30
0.0
 10
5.2025363199
 20
3.7098057463
 30
0.0
  0
SPLINE
  5
3AE
100
AcDbEntity
  8
ALL_ASSEMBLY_MEMBERS
100
AcDbSpline
 62
7
  6
CONTINUOUS
 70
0
 71
3
 72
28
 73
24
 74
0
 42
0.0000001
 43
0.0000001
 44
0.0000000001
 40
0.0
 40
0.0
 40
0.0
 40
0.0
 40
0.0077438979
 40
0.0157905641
 40
0.0245837199
 40
0.034466951
 40
0.0456818058
 40
0.0583905168
 40
0.0727020967
 40
0.0886906014
 40
0.1064070877
 40
0.1258871599
 40
0.1471534992
 40
0.1702184598
 40
0.2217640241
 40
0.280541261
 40
0.3465142949
 40
0.4195966942
 40
0.4996834145
 40
0.5866508263
 40
0.680341159
 40
0.780586832
 40
1.0
 40
1.0
 40
1.0
 40
1.0
 10
4.9940442547
 20
4.0432049648
 30
0.0
 10
4.9940309465
 20
4.0433395817
 30
0.0
 10
4.9940393381
 20
4.0436189248
 30
0.0
 10
4.994161708
 20
4.044034685
 30
0.0
 10
4.9943899328
 20
4.044445446
 30
0.0
 10
4.9947211383
 20
4.0448517765
 30
0.0
 10
4.9951542492
 20
4.0452552909
 30
0.0
 10
4.9956890798
 20
4.045656953
 30
0.0
 10
4.9963256897
 20
4.0460571782
 30
0.0
 10
4.9970641005
 20
4.0464560485
 30
0.0
 10
4.9979042509
 20
4.0468534868
 30
0.0
 10
4.9988459702
 20
4.0472493015
 30
0.0
 10
4.999888908
 20
4.0476433325
 30
0.0
 10
5.0014734622
 20
4.0481863836
 30
0.0
 10
5.0037075385
 20
4.0488515936
 30
0.0
 10
5.0066918984
 20
4.0496137461
 30
0.0
 10
5.010065657
 20
4.0503644545
 30
0.0
 10
5.0138222523
 20
4.0511022816
 30
0.0
 10
5.0179544915
 20
4.0518254377
 30
0.0
 10
5.0224542894
 20
4.0525322212
 30
0.0
 10
5.0273127438
 20
4.0532213108
 30
0.0
 10
5.0344744288
 20
4.0541423874
 30
0.0
 10
5.0400248719
 20
4.0547576594
 30
0.0
 10
5.0438377623
 20
4.0551476612
 30
0.0
  0
SPLINE
  5
3AF
100
AcDbEntity
  8
ALL_ASSEMBLY_MEMBERS
100
AcDbSpline
 62
7
  6
CONTINUOUS
 70
0
 71
3
 72
15
 73
11
 74
0
 42
0.0000001
 43
0.0000001
 44
0.0000000001
 40
0.0
 40
0.0
 40
0.0
 40
0.0
 40
0.1037176009
 40
0.2157301929
 40
0.3350065019
 40
0.4604481635
 40
0.5908940284
 40
0.7251274625
 40
0.8619413062
 40
1.0
 40
1.0
 40
1.0
 40
1.0
 10
5.0567923278
 20
4.0563565948
 30
0.0
 10
5.0618173914
 20
4.0567846861
 30
0.0
 10
5.0722770269
 20
4.0575867976
 30
0.0
 10
5.0885349214
 20
4.0586102994
 30
0.0
 10
5.1058587964
 20
4.0594938025
 30
0.0
 10
5.124086632
 20
4.0602286539
 30
0.0
 10
5.1430476949
 20
4.0608076601
 30
0.0
 10
5.16256608
 20
4.0612253328
 30
0.0
 10
5.1824574812
 20
4.0614774392
 30
0.0
 10
5.1958232198
 20
4.0615336263
 30
0.0
 10
5.2025363199
 20
4.0615336263
 30
0.0
  0
SPLINE
  5
3B0
100
AcDbEntity
  8
ALL_ASSEMBLY_MEMBERS
100
AcDbSpline
 62
7
  6
CONTINUOUS
 70
0
 71
3
 72
65
 73
61
 74
0
 42
0.0000001
 43
0.0000001
 44
0.0000000001
 40
0.0
 40
0.0
 40
0.0
 40
0.0
 40
0.049189523
 40
0.0979561248
 40
0.1458252727
 40
0.1923808897
 40
0.2372055599
 40
0.2798928543
 40
0.3200608189
 40
0.3573520239
 40
0.3914340205
 40
0.4071774626
 40
0.4220085427
 40
0.4358967763
 40
0.4488127059
 40
0.460728793
 40
0.4716230546
 40
0.481475732
 40
0.4902697651
 40
0.4979958268
 40
0.501457432
 40
0.5046514649
 40
0.5075788804
 40
0.5102420333
 40
0.5126450244
 40
0.5147938839
 40
0.516697532
 40
0.5183693607
 40
0.5198297797
 40
0.5211102443
 40
0.5222578805
 40
0.5233374184
 40
0.5244258058
 40
0.5255982497
 40
0.5269156399
 40
0.5284212723
 40
0.530143687
 40
0.5321014304
 40
0.5343067092
 40
0.5367676834
 40
0.5394898845
 40
0.54247704
 40
0.5457311113
 40
0.5492528645
 40
0.5570991122
 40
0.5660126428
 40
0.5759832173
 40
0.5869932318
 40
0.5990227713
 40
0.6120493337
 40
0.6260449183
 40
0.6568233738
 40
0.6910936787
 40
0.7285555219
 40
0.7688746863
 40
0.8116922366
 40
0.8566251379
 40
0.9032655189
 40
0.9511961622
 40
1.0
 40
1.0
 40
1.0
 40
1.0
 10
5.2025363199
 20
3.6668934053
 30
0.0
 10
5.1975041527
 20
3.6668934053
 30
0.0
 10
5.1874830337
 20
3.6669349583
 30
0.0
 10
5.1725658685
 20
3.667121252
 30
0.0
 10
5.1579202259
 20
3.6674300083
 30
0.0
 10
5.1436810201
 20
3.6678582177
 30
0.0
 10
5.1299762376
 20
3.6684017568
 30
0.0
 10
5.1169304937
 20
3.6690556562
 30
0.0
 10
5.1046623915
 20
3.669813661
 30
0.0
 10
5.0932832517
 20
3.67066846
 30
0.0
 10
5.0844070859
 20
3.6714743714
 30
0.0
 10
5.0778290686
 20
3.6721687987
 30
0.0
 10
5.0733108963
 20
3.672695004
 30
0.0
 10
5.0690863112
 20
3.6732390368
 30
0.0
 10
5.0651648861
 20
3.6737996196
 30
0.0
 10
5.0615554976
 20
3.6743755248
 30
0.0
 10
5.0582662179
 20
3.6749651963
 30
0.0
 10
5.055304314
 20
3.6755670443
 30
0.0
 10
5.0526764196
 20
3.6761797731
 30
0.0
 10
5.050703019
 20
3.6767156034
 30
0.0
 10
5.04929833
 20
3.677153729
 30
0.0
 10
5.0483709259
 20
3.6774720576
 30
0.0
 10
5.0475309497
 20
3.6777920859
 30
0.0
 10
5.0467787906
 20
3.6781136531
 30
0.0
 10
5.0461146693
 20
3.6784365532
 30
0.0
 10
5.0455387004
 20
3.6787606608
 30
0.0
 10
5.0450509065
 20
3.6790859562
 30
0.0
 10
5.0446512213
 20
3.6794126517
 30
0.0
 10
5.0443396151
 20
3.6797414526
 30
0.0
 10
5.0441166012
 20
3.6800737492
 30
0.0
 10
5.0439842317
 20
3.6804110418
 30
0.0
 10
5.0439466315
 20
3.6807525279
 30
0.0
 10
5.044005867
 20
3.6810933806
 30
0.0
 10
5.0441589064
 20
3.6814294782
 30
0.0
 10
5.0444019137
 20
3.6817608459
 30
0.0
 10
5.0447333178
 20
3.6820890731
 30
0.0
 10
5.045152781
 20
3.6824154173
 30
0.0
 10
5.045660375
 20
3.6827404379
 30
0.0
 10
5.0462561467
 20
3.6830642815
 30
0.0
 10
5.0469400529
 20
3.6833868953
 30
0.0
 10
5.0477119581
 20
3.683708138
 30
0.0
 10
5.0485716099
 20
3.6840277928
 30
0.0
 10
5.0495185814
 20
3.6843457152
 30
0.0
 10
5.0509492755
 20
3.6847829408
 30
0.0
 10
5.0529546903
 20
3.6853177194
 30
0.0
 10
5.0556203794
 20
3.6859293131
 30
0.0
 10
5.0586193878
 20
3.686529862
 30
0.0
 10
5.061944989
 20
3.6871180695
 30
0.0
 10
5.0655898341
 20
3.687692322
 30
0.0
 10
5.0695457571
 20
3.6882511262
 30
0.0
 10
5.0754116712
 20
3.6889978022
 30
0.0
 10
5.0834513869
 20
3.6898715573
 30
0.0
 10
5.093896744
 20
3.690810241
 30
0.0
 10
5.1053286523
 20
3.6916597228
 30
0.0
 10
5.1176434217
 20
3.6924120877
 30
0.0
 10
5.1307293831
 20
3.69305995
 30
0.0
 10
5.1444675074
 20
3.6935971282
 30
0.0
 10
5.1587329586
 20
3.6940187318
 30
0.0
 10
5.1733975073
 20
3.6943206828
 30
0.0
 10
5.1832930247
 20
3.6944395858
 30
0.0
 10
5.1882855814
 20
3.6944788404
 30
0.0
  0
SPLINE
  5
3B1
100
AcDbEntity
  8
ALL_ASSEMBLY_MEMBERS
100
AcDbSpline
 62
7
  6
CONTINUOUS
 70
0
 71
3
 72
35
 73
31
 74
0
 42
0.0000001
 43
0.0000001
 44
0.0000000001
 40
0.0
 40
0.0
 40
0.0
 40
0.0
 40
0.0021331251
 40
0.004425125
 40
0.0070049484
 40
0.009963467
 40
0.013360708
 40
0.0172358466
 40
0.0216147224
 40
0.0265136781
 40
0.0319427117
 40
0.0379081474
 40
0.0514606554
 40
0.0671853496
 40
0.0850701995
 40
0.1050875829
 40
0.1272043434
 40
0.1513774177
 40
0.177552878
 40
0.2056746522
 40
0.2356814633
 40
0.3010624307
 40
0.3730938103
 40
0.4510953751
 40
0.5343321594
 40
0.6220159852
 40
0.7133026925
 40
0.8073275915
 40
0.9032246861
 40
1.0
 40
1.0
 40
1.0
 40
1.0
 10
5.3425363199
 20
3.6807141041
 30
0.0
 10
5.3425363199
 20
3.6806133011
 30
0.0
 10
5.3425055085
 20
3.6804032112
 30
0.0
 10
5.3423714298
 20
3.6800972338
 30
0.0
 10
5.3421531514
 20
3.6797957641
 30
0.0
 10
5.3418524231
 20
3.679497408
 30
0.0
 10
5.3414694493
 20
3.6792008398
 30
0.0
 10
5.3410040245
 20
3.6789055368
 30
0.0
 10
5.3404559944
 20
3.6786113808
 30
0.0
 10
5.3398254407
 20
3.6783184063
 30
0.0
 10
5.3391126328
 20
3.678026692
 30
0.0
 10
5.3380050168
 20
3.6776223125
 30
0.0
 10
5.3364134297
 20
3.6771286763
 30
0.0
 10
5.3342564595
 20
3.6765658629
 30
0.0
 10
5.3317831133
 20
3.6760119283
 30
0.0
 10
5.3289991671
 20
3.6754682579
 30
0.0
 10
5.3259109699
 20
3.6749365713
 30
0.0
 10
5.3225258298
 20
3.6744182941
 30
0.0
 10
5.3188518644
 20
3.67391466
 30
0.0
 10
5.3148978392
 20
3.6734270218
 30
0.0
 10
5.309096979
 20
3.6727813624
 30
0.0
 10
5.3012204667
 20
3.6720318805
 30
0.0
 10
5.2910715783
 20
3.6712370116
 30
0.0
 10
5.2800704829
 20
3.670531084
 30
0.0
 10
5.2683229691
 20
3.669921316
 30
0.0
 10
5.2559422609
 20
3.6694139841
 30
0.0
 10
5.2430475893
 20
3.6690139537
 30
0.0
 10
5.2297617345
 20
3.6687253512
 30
0.0
 10
5.2162145166
 20
3.6685511695
 30
0.0
 10
5.2071095364
 20
3.6685123001
 30
0.0
 10
5.2025363199
 20
3.6685123001
 30
0.0
  0
ENDSEC
  0
SECTION
  2
OBJECTS
  0
DICTIONARY
  5
C
100
AcDbDictionary
280
0
281
1
  3
ACAD_GROUP
350
D
  3
ACAD_MLINESTYLE
350
17
  3
ACAD_LAYOUT
350
1A
  3
ACAD_PLOTSETTINGS
350
19
  3
ACAD_PLOTSTYLENAME
350
E
  0
DICTIONARY
  5
D
102
{ACAD_REACTORS
330
C
102
}
100
AcDbDictionary
280
0
281
1
  0
ACDBDICTIONARYWDFLT
  5
E
102
{ACAD_REACTORS
330
C
102
}
100
AcDbDictionary
281
1
  3
Normal
350
F
100
AcDbDictionaryWithDefault
340
F
  0
DICTIONARY
  5
17
102
{ACAD_REACTORS
330
C
102
}
100
AcDbDictionary
280
0
281
1
  3
Standard
350
18
  0
DICTIONARY
  5
19
102
{ACAD_REACTORS
330
C
102
}
100
AcDbDictionary
281
1
  0
DICTIONARY
  5
1A
102
{ACAD_REACTORS
330
C
102
}
100
AcDbDictionary
281
1
  3
Model
350
3B2
  3
Layout1
350
3B3
  0
ACDBPLACEHOLDER
  5
F
102
{ACAD_REACTORS
330
E
102
}
  0
MLINESTYLE
  5
18
102
{ACAD_REACTORS
330
17
102
}
100
AcDbMlineStyle
  2
STANDARD
 70
0
  3

 62
256
 51
90.0
 52
90.0
 71
2
 49
0.5
 62
256
  6
BYLAYER
 49
-0.5
 62
256
  6
BYLAYER
  0
LAYOUT
  5
3B2
102
{ACAD_REACTORS
330
1A
102
}
100
AcDbPlotSettings
  1

  2
none_device
  4
ANSI_A_(11.00_x_8.50_Inches)
  6

 40
0.0
 41
0.0
 42
0.0
 43
0.0
 44
279.4
 45
215.9
 46
0.0
 47
0.0
 48
0.0
 49
0.0
140
0.0
141
0.0
142
1.0
143
1.0
 70
1024
 72
0
 73
0
 74
0
  7

 75
0
147
1.0
148
0.0
149
0.0
100
AcDbLayout
  1
Model
 70
0
 71
0
 10
0.0
 20
0.0
 11
11.0
 21
8.5
 12
0.0
 22
0.0
 32
0.0
 14
0.0
 24
0.0
 34
0.0
 15
0.0
 25
0.0
 35
0.0
146
0.0
 13
0.0
 23
0.0
 33
0.0
 16
1.0
 26
0.0
 36
0.0
 17
0.0
 27
1.0
 37
0.0
 76
0
330
221
345
0
346
0
  0
LAYOUT
  5
3B3
102
{ACAD_REACTORS
330
1A
102
}
100
AcDbPlotSettings
  1

  2
none_device
  4
ANSI_A_(11.00_x_8.50_Inches)
  6

 40
0.0
 41
0.0
 42
0.0
 43
0.0
 44
279.4
 45
215.9
 46
0.0
 47
0.0
 48
0.0
 49
0.0
140
0.0
141
0.0
142
1.0
143
1.0
 70
0
 72
0
 73
0
 74
0
  7

 75
0
147
1.0
148
0.0
149
0.0
100
AcDbLayout
  1
Layout1
 70
0
 71
1
 10
0.0
 20
0.0
 11
11.0
 21
8.5
 12
0.0
 22
0.0
 32
0.0
 14
0.0
 24
0.0
 34
0.0
 15
0.0
 25
0.0
 35
0.0
146
0.0
 13
0.0
 23
0.0
 33
0.0
 16
1.0
 26
0.0
 36
0.0
 17
0.0
 27
1.0
 37
0.0
 76
0
330
222
345
0
346
0
  0
ENDSEC
  0
EOF
