999
DXF file: E:\BT Custom\CADOUTPUT\_TOP.dxf
999
Pro/ENGINEER 2018400 by Parametric Technology Corporation
  0
SECTION
  2
HEADER
  9
$ACADVER
  1
AC1018
  9
$DWGCODEPAGE
  3
ANSI_1252
  9
$EXTMAX
 10
22.0
 20
17.0
 30
0.0
  9
$EXTMIN
 10
0.0
 20
0.0
 30
0.0
  9
$LIMMIN
 10
0.0
 20
0.0
  9
$LIMMAX
 10
22.0
 20
17.0
  9
$VIEWCTR
 10
11.0
 20
8.5
  9
$VIEWSIZE
 40
17.0
  9
$CLAYER
  8
0
  9
$LTSCALE
 40
1.21
  9
$CELTYPE
  6
BYLAYER
  9
$DIMSCALE
 40
1.0
  9
$DIMASZ
 40
0.1
  9
$DIMEXO
 40
0.0625
  9
$DIMDLI
 40
0.836
  9
$DIMEXE
 40
0.125
  9
$DIMCEN
 40
0.198
  9
$DIMLFAC
 40
1.0
  9
$DIMBLK
  1
_FILLED
  9
$DIMALT
 70
1
  9
$DIMALTD
 70
2
  9
$DIMALTTD
 70
2
  9
$DIMALTF
 40
25.4
  9
$DIMTXT
 40
0.08
  9
$DIMTOL
 70
1
  9
$DIMLIM
 70
0
  9
$DIMTFAC
 40
1.0
  9
$DIMTP
 40
0.001
  9
$DIMTM
 40
0.001
  9
$DIMGAP
 40
0.09
  9
$DIMDSEP
 70
46
  9
$AUNITS
 70
0
  9
$PDMODE
 70
3
  9
$PDSIZE
 40
0.06
  9
$HANDSEED
  5
49A
  9
$TILEMODE
 70
1
  9
$MEASUREMENT
 70
0
  9
$INSUNITS
 70
1
  0
ENDSEC
  0
SECTION
  2
CLASSES
  0
CLASS
  1
ACDBDICTIONARYWDFLT
  2
AcDbDictionaryWithDefault
  3
AutoCAD 2000
 90
0
 91
1
280
0
281
0
  0
CLASS
  1
ACDBPLACEHOLDER
  2
AcDbPlaceHolder
  3
AutoCAD 2000
 90
0
 91
1
280
0
281
0
  0
CLASS
  1
LAYOUT
  2
AcDbLayout
  3
AutoCAD 2000
 90
0
 91
0
280
0
281
0
  0
ENDSEC
  0
SECTION
  2
TABLES
  0
TABLE
  2
VPORT
  5
8
100
AcDbSymbolTable
 70
2
  0
VPORT
  5
1F4
100
AcDbSymbolTableRecord
100
AcDbViewportTableRecord
  2
*ACTIVE
 70
0
 10
0.0
 20
0.0
 11
1.0
 21
1.0
 12
11.0
 22
8.5
 13
0.0
 23
0.0
 14
1.0
 24
1.0
 15
0.0
 25
0.0
 16
0.0
 26
0.0
 36
1.0
 17
0.0
 27
0.0
 37
0.0
 40
17.0
 41
1.2941176471
 42
50.0
 43
0.0
 44
0.0
 50
0.0
 51
0.0
 71
0
 72
100
 73
1
 74
1
 75
0
 76
0
 77
0
 78
0
  0
ENDTAB
  0
TABLE
  2
LTYPE
  5
5
100
AcDbSymbolTable
 70
6
  0
LTYPE
  5
14
100
AcDbSymbolTableRecord
100
AcDbLinetypeTableRecord
  2
BYBLOCK
 70
0
  3

 72
65
 73
0
 40
0.0
  0
LTYPE
  5
15
100
AcDbSymbolTableRecord
100
AcDbLinetypeTableRecord
  2
BYLAYER
 70
0
  3

 72
65
 73
0
 40
0.0
  0
LTYPE
  5
16
100
AcDbSymbolTableRecord
100
AcDbLinetypeTableRecord
  2
CONTINUOUS
 70
64
  3
Solid line
 72
65
 73
0
 40
0.0
  0
LTYPE
  5
1F5
100
AcDbSymbolTableRecord
100
AcDbLinetypeTableRecord
  2
CENTER
 70
64
  3
____ _ ____ _ ____ _ ____ _ ____ _ ____ _ ____
 72
65
 73
4
 40
0.6
 49
0.375
 74
0
 49
-0.075
 74
0
 49
0.075
 74
0
 49
-0.075
 74
0
  0
LTYPE
  5
1F6
100
AcDbSymbolTableRecord
100
AcDbLinetypeTableRecord
  2
HIDDEN
 70
64
  3
- - - - - - - - - - - - - - - - - - - -
 72
65
 73
2
 40
0.2
 49
0.1
 74
0
 49
-0.1
 74
0
  0
LTYPE
  5
1F7
100
AcDbSymbolTableRecord
100
AcDbLinetypeTableRecord
  2
PHANTOM
 70
64
  3
_____ _ _ _____ _ _ _____ _ _ _____
 72
65
 73
6
 40
0.8
 49
0.45
 74
0
 49
-0.05
 74
0
 49
0.1
 74
0
 49
-0.05
 74
0
 49
0.1
 74
0
 49
-0.05
 74
0
  0
LTYPE
  5
1F8
100
AcDbSymbolTableRecord
100
AcDbLinetypeTableRecord
  2
DOT
 70
64
  3
. . . . . . . . . . . . . . . . . . . .
 72
65
 73
2
 40
0.2
 49
0.1
 74
0
 49
-0.1
 74
0
  0
LTYPE
  5
1F9
100
AcDbSymbolTableRecord
100
AcDbLinetypeTableRecord
  2
DASHED
 70
64
  3
- - - - - - - - - - - - - - - - - - - -
 72
65
 73
2
 40
0.2
 49
0.1
 74
0
 49
-0.1
 74
0
  0
ENDTAB
  0
TABLE
  2
LAYER
  5
2
100
AcDbSymbolTable
 70
36
  0
LAYER
  5
10
100
AcDbSymbolTableRecord
100
AcDbLayerTableRecord
  2
0
 70
0
 62
7
  6
CONTINUOUS
370
-3
390
F
  0
LAYER
  5
1FA
100
AcDbSymbolTableRecord
100
AcDbLayerTableRecord
  2
DEFAULT_1
 70
0
 62
7
  6
CENTER
370
-3
390
F
  0
LAYER
  5
1FB
100
AcDbSymbolTableRecord
100
AcDbLayerTableRecord
  2
DEFAULT_2
 70
0
 62
8
  6
HIDDEN
370
-3
390
F
  0
LAYER
  5
1FC
100
AcDbSymbolTableRecord
100
AcDbLayerTableRecord
  2
DEFAULT_3
 70
0
 62
7
  6
PHANTOM
370
-3
390
F
  0
LAYER
  5
1FD
100
AcDbSymbolTableRecord
100
AcDbLayerTableRecord
  2
ALL_FEATURES
 70
0
 62
7
  6
CONTINUOUS
370
-3
390
F
  0
LAYER
  5
1FE
100
AcDbSymbolTableRecord
100
AcDbLayerTableRecord
  2
AXES_FEATURES
 70
0
 62
7
  6
CONTINUOUS
370
-3
390
F
  0
LAYER
  5
1FF
100
AcDbSymbolTableRecord
100
AcDbLayerTableRecord
  2
DEFAULT_COORDINATE_SYSTEM
 70
0
 62
7
  6
CONTINUOUS
370
-3
390
F
  0
LAYER
  5
200
100
AcDbSymbolTableRecord
100
AcDbLayerTableRecord
  2
DEFAULT_DATUM_AXES
 70
0
 62
7
  6
CONTINUOUS
370
-3
390
F
  0
LAYER
  5
201
100
AcDbSymbolTableRecord
100
AcDbLayerTableRecord
  2
DEFAULT_DATUM_PLANES
 70
0
 62
7
  6
CONTINUOUS
370
-3
390
F
  0
LAYER
  5
202
100
AcDbSymbolTableRecord
100
AcDbLayerTableRecord
  2
DIMENSIONS
 70
0
 62
7
  6
CONTINUOUS
370
-3
390
F
  0
ENDTAB
  0
TABLE
  2
STYLE
  5
3
100
AcDbSymbolTable
 70
1
  0
STYLE
  5
11
100
AcDbSymbolTableRecord
100
AcDbTextStyleTableRecord
  2
STANDARD
 70
0
 40
0.0
 41
0.8
 50
0.0
 71
0
 42
0.2
  3
txt
  4

  0
STYLE
  5
203
100
AcDbSymbolTableRecord
100
AcDbTextStyleTableRecord
  2
TEXTSTYLE_1
 70
0
 40
0.0
 41
0.8
 50
0.0
 71
0
 42
0.2
  3
gdt
  4

  0
ENDTAB
  0
TABLE
  2
VIEW
  5
6
100
AcDbSymbolTable
 70
0
  0
ENDTAB
  0
TABLE
  2
UCS
  5
7
100
AcDbSymbolTable
 70
0
  0
ENDTAB
  0
TABLE
  2
APPID
  5
9
100
AcDbSymbolTable
 70
1
  0
APPID
  5
204
100
AcDbSymbolTableRecord
100
AcDbRegAppTableRecord
  2
ACAD
 70
0
  0
ENDTAB
  0
TABLE
  2
BLOCK_RECORD
  5
1
100
AcDbSymbolTable
 70
0
  0
BLOCK_RECORD
  5
205
100
AcDbSymbolTableRecord
100
AcDbBlockTableRecord
  2
*Model_Space
  0
BLOCK_RECORD
  5
206
100
AcDbSymbolTableRecord
100
AcDbBlockTableRecord
  2
*Paper_Space
  0
BLOCK_RECORD
  5
207
100
AcDbSymbolTableRecord
100
AcDbBlockTableRecord
  2
_FILLED
  0
ENDTAB
  0
TABLE
  2
DIMSTYLE
  5
A
100
AcDbSymbolTable
 70
1
100
AcDbDimStyleTable
 71
0
  0
DIMSTYLE
105
208
100
AcDbSymbolTableRecord
100
AcDbDimStyleTableRecord
  2
STANDARD
 70
0
  3

  4

 40
1.0
 41
0.1
 42
0.0625
 43
0.38
 44
0.125
 45
0.0
 46
0.0
 47
0.001
 48
0.001
140
0.08
141
0.09
142
0.0
143
25.4
144
1.0
145
0.0
146
1.0
147
0.09
 71
1.0
 72
0.0
 73
1
 74
1
 75
0
 76
0
 77
0
 78
4
 79
1
170
1
171
2
172
0
173
0
174
0
175
0
176
0
177
0
178
0
270
2
179
3
271
3
272
3
273
2
274
2
275
0
280
0
281
0
282
0
283
1
284
4
285
0
286
0
287
3
288
0
340
11
278
46
341
207
342
207
343
207
344
207
  0
ENDTAB
  0
ENDSEC
  0
SECTION
  2
BLOCKS
  0
BLOCK
  5
20
100
AcDbEntity
  8
0
100
AcDbBlockBegin
  2
*Model_Space
 70
0
 10
0.0
 20
0.0
 30
0.0
  3
*Model_Space
  1

  0
ENDBLK
  5
21
100
AcDbEntity
  8
0
100
AcDbBlockEnd
  0
BLOCK
  5
1C
100
AcDbEntity
  8
0
100
AcDbBlockBegin
  2
*Paper_Space
 70
0
 10
0.0
 20
0.0
 30
0.0
  3
*Paper_Space
  1

  0
ENDBLK
  5
1D
100
AcDbEntity
  8
0
100
AcDbBlockEnd
  0
BLOCK
  5
209
100
AcDbEntity
  8
0
100
AcDbBlockBegin
  2
_FILLED
 70
64
 10
0.0
 20
0.0
  3
_FILLED
  1

  0
SOLID
  5
20A
100
AcDbEntity
  8
0
  6
BYBLOCK
 62
0
100
AcDbTrace
 10
0.0
 20
0.0
 11
-1.0
 21
0.2
 12
-1.0
 22
-0.2
 13
-1.0
 23
-0.2
  0
ENDBLK
  5
20B
100
AcDbEntity
  8
0
  6
BYBLOCK
 62
0
100
AcDbBlockEnd
  0
ENDSEC
  0
SECTION
  2
ENTITIES
  0
LINE
  5
20C
100
AcDbEntity
  8
0
100
AcDbLine
 62
7
  6
CONTINUOUS
 10
9.7514181353
 20
10.6647796043
 11
9.7416168784
 21
10.6524978072
  0
LINE
  5
20D
100
AcDbEntity
  8
0
100
AcDbLine
 62
7
  6
CONTINUOUS
 10
9.7019821618
 20
10.6647820038
 11
9.6918596565
 21
10.6525009403
  0
LINE
  5
20E
100
AcDbEntity
  8
0
100
AcDbLine
 62
7
  6
CONTINUOUS
 10
9.7317659367
 20
10.6646884641
 11
9.7216111212
 21
10.6523682005
  0
LINE
  5
20F
100
AcDbEntity
  8
0
100
AcDbLine
 62
7
  6
CONTINUOUS
 10
9.6698969922
 20
10.664752885
 11
9.659603997
 21
10.6524619176
  0
LINE
  5
210
100
AcDbEntity
  8
0
100
AcDbLine
 62
7
  6
CONTINUOUS
 10
9.6716162542
 20
10.6646884641
 11
9.6612987251
 21
10.6523682005
  0
LINE
  5
211
100
AcDbEntity
  8
0
100
AcDbLine
 62
7
  6
CONTINUOUS
 10
9.6760229712
 20
10.6647796043
 11
9.6657376556
 21
10.6524978072
  0
LINE
  5
212
100
AcDbEntity
  8
0
100
AcDbLine
 62
7
  6
CONTINUOUS
 10
9.6935782655
 20
10.6646738851
 11
9.6832538173
 21
10.6523453593
  0
LINE
  5
213
100
AcDbEntity
  8
0
100
AcDbLine
 62
9
  6
CONTINUOUS
 10
9.7496376743
 20
10.5846110798
 11
9.7479904714
 21
10.5826441386
  0
LINE
  5
214
100
AcDbEntity
  8
0
100
AcDbLine
 62
9
  6
CONTINUOUS
 10
9.7487811473
 20
10.5772045043
 11
9.7485130834
 21
10.5768844066
  0
LINE
  5
215
100
AcDbEntity
  8
0
100
AcDbLine
 62
7
  6
CONTINUOUS
 10
10.0108212351
 20
10.6647820038
 11
10.0028810685
 21
10.6525009403
  0
LINE
  5
216
100
AcDbEntity
  8
0
100
AcDbLine
 62
7
  6
CONTINUOUS
 10
9.9082394752
 20
10.6647796043
 11
9.8995381259
 21
10.6524978072
  0
LINE
  5
217
100
AcDbEntity
  8
0
100
AcDbLine
 62
7
  6
CONTINUOUS
 10
9.98342948
 20
10.6646738851
 11
9.9746950246
 21
10.6523453593
  0
LINE
  5
218
100
AcDbEntity
  8
0
100
AcDbLine
 62
9
  6
CONTINUOUS
 10
10.0032798392
 20
10.5945956038
 11
9.9948125219
 21
10.5826441386
  0
LINE
  5
219
100
AcDbEntity
  8
0
100
AcDbLine
 62
7
  6
CONTINUOUS
 10
10.0109871365
 20
10.5814507849
 11
10.0017411539
 21
10.5684002477
  0
LINE
  5
21A
100
AcDbEntity
  8
0
100
AcDbLine
 62
7
  6
CONTINUOUS
 10
9.8177732794
 20
10.6647820038
 11
9.8084490042
 21
10.6525009403
  0
LINE
  5
21B
100
AcDbEntity
  8
0
100
AcDbLine
 62
7
  6
CONTINUOUS
 10
9.8745766148
 20
10.6646884641
 11
9.8652225773
 21
10.6523682005
  0
LINE
  5
21C
100
AcDbEntity
  8
0
100
AcDbLine
 62
9
  6
CONTINUOUS
 10
9.9141230371
 20
10.5891082687
 11
9.9048421915
 21
10.5768844066
  0
LINE
  5
21D
100
AcDbEntity
  8
0
100
AcDbLine
 62
7
  6
CONTINUOUS
 10
9.9262335924
 20
10.5796980968
 11
9.916301219
 21
10.5666161033
  0
LINE
  5
21E
100
AcDbEntity
  8
0
100
AcDbLine
 62
7
  6
CONTINUOUS
 10
9.7992949222
 20
10.6646738851
 11
9.7894563743
 21
10.6523453593
  0
LINE
  5
21F
100
AcDbEntity
  8
0
100
AcDbLine
 62
9
  6
CONTINUOUS
 10
9.8385905035
 20
10.5893241963
 11
9.8332596092
 21
10.5826441386
  0
LINE
  5
220
100
AcDbEntity
  8
0
100
AcDbLine
 62
7
  6
CONTINUOUS
 10
9.86044846
 20
10.5721617105
 11
9.8557090956
 21
10.5662228893
  0
LINE
  5
221
100
AcDbEntity
  8
0
100
AcDbLine
 62
9
  6
CONTINUOUS
 10
9.7914637413
 20
10.5821967735
 11
9.7870850926
 21
10.5768844066
  0
LINE
  5
222
100
AcDbEntity
  8
0
100
AcDbLine
 62
7
  6
CONTINUOUS
 10
9.8157791669
 20
10.569461289
 11
9.8126391434
 21
10.565651676
  0
LINE
  5
223
100
AcDbEntity
  8
0
100
AcDbLine
 62
7
  6
CONTINUOUS
 10
9.7926354604
 20
10.5666592735
 11
9.7916555277
 21
10.5654891261
  0
LINE
  5
224
100
AcDbEntity
  8
0
100
AcDbLine
 62
7
  6
CONTINUOUS
 10
10.1273398807
 20
10.5654489345
 11
10.1293062935
 21
10.5672732129
  0
LINE
  5
225
100
AcDbEntity
  8
0
100
AcDbLine
 62
7
  6
CONTINUOUS
 10
10.1366333293
 20
10.6647796043
 11
10.1295786254
 21
10.6524978072
  0
LINE
  5
226
100
AcDbEntity
  8
0
100
AcDbLine
 62
7
  6
CONTINUOUS
 10
10.1296928414
 20
10.5695452915
 11
10.1273398807
 21
10.5654489345
  0
LINE
  5
227
100
AcDbEntity
  8
0
100
AcDbLine
 62
7
  6
CONTINUOUS
 10
10.2344120875
 20
10.6646738851
 11
10.2273305425
 21
10.6523453593
  0
LINE
  5
228
100
AcDbEntity
  8
0
100
AcDbLine
 62
9
  6
CONTINUOUS
 10
10.2293632061
 20
10.5945956038
 11
10.222498246
 21
10.5826441386
  0
LINE
  5
229
100
AcDbEntity
  8
0
100
AcDbLine
 62
7
  6
CONTINUOUS
 10
10.2287369677
 20
10.5857691199
 11
10.2215659894
 21
10.5732848963
  0
LINE
  5
22A
100
AcDbEntity
  8
0
100
AcDbLine
 62
7
  6
CONTINUOUS
 10
10.0910749685
 20
10.6646884641
 11
10.0831094576
 21
10.6523682005
  0
LINE
  5
22B
100
AcDbEntity
  8
0
100
AcDbLine
 62
9
  6
CONTINUOUS
 10
10.1022884521
 20
10.5891082687
 11
10.0943852684
 21
10.5768844066
  0
LINE
  5
22C
100
AcDbEntity
  8
0
100
AcDbLine
 62
7
  6
CONTINUOUS
 10
10.1049897199
 20
10.5818563618
 11
10.0965999987
 21
10.5688799717
  0
LINE
  5
22D
100
AcDbEntity
  8
0
100
AcDbLine
 62
7
  6
CONTINUOUS
 10
9.1423183383
 20
5.3277726261
 11
9.1423183383
 21
5.1983375589
  0
LINE
  5
22E
100
AcDbEntity
  8
0
100
AcDbLine
 62
7
  6
CONTINUOUS
 10
10.2689961157
 20
10.6647820038
 11
10.2629389676
 21
10.6525009403
  0
LINE
  5
22F
100
AcDbEntity
  8
0
100
AcDbLine
 62
7
  6
CONTINUOUS
 10
10.2444225216
 20
10.5791393714
 11
10.237669462
 21
10.5654473248
  0
LINE
  5
230
100
AcDbEntity
  8
0
100
AcDbLine
 62
7
  6
CONTINUOUS
 10
10.3676576099
 20
10.6646884641
 11
10.3615811279
 21
10.6523682005
  0
LINE
  5
231
100
AcDbEntity
  8
0
100
AcDbLine
 62
9
  6
CONTINUOUS
 10
10.3498335704
 20
10.5891082687
 11
10.3438046347
 21
10.5768844066
  0
LINE
  5
232
100
AcDbEntity
  8
0
100
AcDbLine
 62
7
  6
CONTINUOUS
 10
10.3490846515
 20
10.5859635438
 11
10.3429368239
 21
10.5734986247
  0
LINE
  5
233
100
AcDbEntity
  8
0
100
AcDbLine
 62
7
  6
CONTINUOUS
 10
9.4273183383
 20
5.4851550294
 11
9.4273183383
 21
5.4611215783
  0
LINE
  5
234
100
AcDbEntity
  8
0
100
AcDbLine
 62
7
  6
CONTINUOUS
 10
9.6596039525
 20
10.6524619904
 11
9.6596037021
 21
10.6524596221
  0
LINE
  5
235
100
AcDbEntity
  8
0
100
AcDbLine
 62
7
  6
CONTINUOUS
 10
10.375259949
 20
10.5791401222
 11
10.3697254325
 21
10.5654489345
  0
LINE
  5
236
100
AcDbEntity
  8
0
100
AcDbLine
 62
9
  6
CONTINUOUS
 10
10.389587227
 20
10.5879289345
 11
10.384614283
 21
10.5756269549
  0
LINE
  5
237
100
AcDbEntity
  8
0
100
AcDbLine
 62
7
  6
CONTINUOUS
 10
10.4222488717
 20
10.6647796043
 11
10.4172840863
 21
10.6524978072
  0
LINE
  5
238
100
AcDbEntity
  8
0
100
AcDbLine
 62
7
  6
CONTINUOUS
 10
10.5364725844
 20
10.6646738851
 11
10.5314889093
 21
10.6523453593
  0
LINE
  5
239
100
AcDbEntity
  8
0
100
AcDbLine
 62
7
  6
CONTINUOUS
 10
9.8573183383
 20
11.6072409815
 11
9.8573183383
 21
11.3750677343
  0
LINE
  5
23A
100
AcDbEntity
  8
0
100
AcDbLine
 62
7
  6
CONTINUOUS
 10
9.8723183383
 20
10.5632409815
 11
9.8723183383
 21
10.5498924954
  0
LINE
  5
23B
100
AcDbEntity
  8
0
100
AcDbLine
 62
7
  6
CONTINUOUS
 10
10.2449161604
 20
10.570791792
 11
10.2460042908
 21
10.5757084573
  0
LINE
  5
23C
100
AcDbEntity
  8
0
100
AcDbLine
 62
7
  6
CONTINUOUS
 10
10.3490873234
 20
10.5859689614
 11
10.3498335704
 21
10.5891082687
  0
LINE
  5
23D
100
AcDbEntity
  8
0
100
AcDbLine
 62
7
  6
CONTINUOUS
 10
10.3438046347
 20
10.5768844066
 11
10.3429390286
 21
10.573503095
  0
LINE
  5
23E
100
AcDbEntity
  8
0
100
AcDbLine
 62
7
  6
CONTINUOUS
 10
10.5068672547
 20
10.5791393714
 11
10.502637875
 21
10.5654473248
  0
LINE
  5
23F
100
AcDbEntity
  8
0
100
AcDbLine
 62
9
  6
CONTINUOUS
 10
10.5282523986
 20
10.5880053196
 11
10.5244539817
 21
10.5757084573
  0
LINE
  5
240
100
AcDbEntity
  8
0
100
AcDbLine
 62
7
  6
CONTINUOUS
 10
10.576075844
 20
10.6647820038
 11
10.5722823073
 21
10.6525009403
  0
LWPOLYLINE
  5
241
100
AcDbEntity
  8
0
100
AcDbPolyline
 62
7
  6
CONTINUOUS
 90
9
 70
0
 10
10.6410683383
 20
8.1068707207
 10
10.638822982
 20
8.1058459665
 10
10.632250193
 20
8.1018102211
 10
10.6262198196
 20
8.0970015503
 10
10.6208222606
 20
8.0914920487
 10
10.6161383973
 20
8.0853642884
 10
10.612238419
 20
8.0787101009
 10
10.6091807724
 20
8.0716292035
 10
10.6076895525
 20
8.0669292186
  0
LINE
  5
242
100
AcDbEntity
  8
0
100
AcDbLine
 62
7
  6
CONTINUOUS
 10
11.047226152
 20
6.534242162
 11
11.0474157084
 21
6.5342421628
  0
LINE
  5
243
100
AcDbEntity
  8
0
100
AcDbLine
 62
7
  6
CONTINUOUS
 10
10.6389284394
 20
8.4583042496
 11
10.6410683383
 21
8.4129330077
  0
LINE
  5
244
100
AcDbEntity
  8
0
100
AcDbLine
 62
7
  6
CONTINUOUS
 10
10.4723183383
 20
6.6208627351
 11
10.4723183383
 21
5.9561823608
  0
LINE
  5
245
100
AcDbEntity
  8
0
100
AcDbLine
 62
7
  6
CONTINUOUS
 10
10.5948183383
 20
7.1370506854
 11
10.5948183383
 21
6.909271898
  0
LINE
  5
246
100
AcDbEntity
  8
0
100
AcDbLine
 62
7
  6
CONTINUOUS
 10
10.6410683383
 20
11.1903838792
 11
10.6410683383
 21
7.3425012461
  0
LINE
  5
247
100
AcDbEntity
  8
0
100
AcDbLine
 62
7
  6
CONTINUOUS
 10
10.6410683383
 20
7.2603898439
 11
10.6410683383
 21
7.2429926138
  0
LINE
  5
248
100
AcDbEntity
  8
0
100
AcDbLine
 62
7
  6
CONTINUOUS
 10
10.6410683383
 20
7.2091612713
 11
10.6410683383
 21
7.1932751954
  0
LINE
  5
249
100
AcDbEntity
  8
0
100
AcDbLine
 62
7
  6
CONTINUOUS
 10
10.6410683383
 20
7.1578614209
 11
10.6410683383
 21
7.1435459954
  0
LINE
  5
24A
100
AcDbEntity
  8
0
100
AcDbLine
 62
7
  6
CONTINUOUS
 10
10.6410685839
 20
7.3119853632
 11
10.6410683383
 21
7.2927813287
  0
LWPOLYLINE
  5
24B
100
AcDbEntity
  8
0
100
AcDbPolyline
 62
7
  6
CONTINUOUS
 90
6
 70
0
 10
10.6410683383
 20
7.5208310868
 10
10.637195901
 20
7.4804251086
 10
10.6283122725
 20
7.4014865736
 10
10.6186223026
 20
7.3249157354
 10
10.6084098123
 20
7.2511329744
 10
10.5978929797
 20
7.1803093166
  0
LWPOLYLINE
  5
24C
100
AcDbEntity
  8
0
100
AcDbPolyline
 62
7
  6
CONTINUOUS
 90
6
 70
0
 10
10.5978929797
 20
7.1803093166
 10
10.5872401455
 20
7.1124884259
 10
10.5765840766
 20
7.0476561068
 10
10.5660081708
 20
6.9856455345
 10
10.5555749892
 20
6.9263167418
 10
10.5453242236
 20
6.8695062856
  0
LINE
  5
24D
100
AcDbEntity
  8
0
100
AcDbLine
 62
7
  6
CONTINUOUS
 10
10.5453242236
 20
6.8695062856
 11
10.5328604321
 21
6.8021428209
  0
LWPOLYLINE
  5
24E
100
AcDbEntity
  8
0
100
AcDbPolyline
 62
7
  6
CONTINUOUS
 90
9
 70
0
 10
10.607691677
 20
7.6695518694
 10
10.609191386
 20
7.6648285126
 10
10.6122626952
 20
7.657727484
 10
10.616180789
 20
7.6510570612
 10
10.6208869287
 20
7.6449170232
 10
10.6263108379
 20
7.6393993968
 10
10.6323716584
 20
7.6345871758
 10
10.6389771835
 20
7.6305541171
 10
10.6410683383
 20
7.629607044
  0
LWPOLYLINE
  5
24F
100
AcDbEntity
  8
0
100
AcDbPolyline
 62
7
  6
CONTINUOUS
 90
14
 70
0
 10
10.5940281038
 20
9.1169138283
 10
10.5964757031
 20
9.0889368219
 10
10.6015083751
 20
9.029213429
 10
10.6062369952
 20
8.970815881
 10
10.6106686501
 20
8.9137162571
 10
10.6148095332
 20
8.8579040196
 10
10.6186671915
 20
8.8033991273
 10
10.622255974
 20
8.7502042563
 10
10.6255899266
 20
8.6983274974
 10
10.6286826433
 20
8.6477763347
 10
10.6315473746
 20
8.598555798
 10
10.6341993293
 20
8.5506253595
 10
10.6366550182
 20
8.50389982
 10
10.6389284394
 20
8.4583042496
  0
LINE
  5
250
100
AcDbEntity
  8
0
100
AcDbLine
 62
7
  6
CONTINUOUS
 10
11.4650188416
 20
9.0792066419
 11
11.4685613168
 21
9.094501138
  0
LINE
  5
251
100
AcDbEntity
  8
0
100
AcDbLine
 62
7
  6
CONTINUOUS
 10
12.4247398397
 20
10.6647516815
 11
12.4298183383
 21
10.6743222229
  0
LWPOLYLINE
  5
252
100
AcDbEntity
  8
0
100
AcDbPolyline
 62
7
  6
CONTINUOUS
 90
10
 70
0
 10
11.5086850578
 20
7.9957409819
 10
11.5099156911
 20
7.9967978467
 10
11.5129525929
 20
7.999988622
 10
11.5154895119
 20
8.0035897139
 10
11.5174717526
 20
8.0075234836
 10
11.5188565782
 20
8.0117051196
 10
11.5196141321
 20
8.0160444668
 10
11.5197280816
 20
8.0204479697
 10
11.51919597
 20
8.0248206896
 10
11.5189021658
 20
8.0261514614
  0
LINE
  5
253
100
AcDbEntity
  8
0
100
AcDbLine
 62
9
  6
CONTINUOUS
 10
10.6410685839
 20
7.3119853632
 11
10.6434889297
 21
7.312971584
  0
LINE
  5
254
100
AcDbEntity
  8
0
100
AcDbLine
 62
7
  6
CONTINUOUS
 10
10.629617835
 20
9.0792066419
 11
10.6260753598
 21
9.094501138
  0
LINE
  5
255
100
AcDbEntity
  8
0
100
AcDbLine
 62
7
  6
CONTINUOUS
 10
11.1568904109
 20
6.7382189364
 11
11.1568904109
 21
6.5988284967
  0
LINE
  5
256
100
AcDbEntity
  8
0
100
AcDbLine
 62
7
  6
CONTINUOUS
 10
11.1770814628
 20
6.2247651893
 11
11.1770814628
 21
5.9772778159
  0
LINE
  5
257
100
AcDbEntity
  8
0
100
AcDbLine
 62
7
  6
CONTINUOUS
 10
11.3727462656
 20
6.82634172
 11
11.3727462656
 21
6.6869512803
  0
LINE
  5
258
100
AcDbEntity
  8
0
100
AcDbLine
 62
7
  6
CONTINUOUS
 10
11.4535683383
 20
7.2860343074
 11
11.4535683383
 21
7.2678936138
  0
LINE
  5
259
100
AcDbEntity
  8
0
100
AcDbLine
 62
7
  6
CONTINUOUS
 10
11.4535683383
 20
7.2347689064
 11
11.4535683383
 21
7.2182144969
  0
LINE
  5
25A
100
AcDbEntity
  8
0
100
AcDbLine
 62
7
  6
CONTINUOUS
 10
11.4535683383
 20
7.1834307389
 11
11.4535683383
 21
7.1684124525
  0
LINE
  5
25B
100
AcDbEntity
  8
0
100
AcDbLine
 62
7
  6
CONTINUOUS
 10
11.4675552138
 20
6.3433506016
 11
11.4675552138
 21
6.0958632282
  0
LINE
  5
25C
100
AcDbEntity
  8
0
100
AcDbLine
 62
9
  6
CONTINUOUS
 10
11.4743021438
 20
7.9957409815
 11
11.4743021438
 21
7.988431082
  0
LINE
  5
25D
100
AcDbEntity
  8
0
100
AcDbLine
 62
9
  6
CONTINUOUS
 10
11.4743021438
 20
7.7535814089
 11
11.4743021438
 21
7.7407409815
  0
LINE
  5
25E
100
AcDbEntity
  8
0
100
AcDbLine
 62
7
  6
CONTINUOUS
 10
11.4535683383
 20
11.1903838792
 11
11.4535680927
 21
7.3421853913
  0
LWPOLYLINE
  5
25F
100
AcDbEntity
  8
0
100
AcDbPolyline
 62
7
  6
CONTINUOUS
 90
11
 70
0
 10
11.4535683383
 20
8.4126994308
 10
11.4563973954
 20
8.4724200096
 10
11.4598314813
 20
8.5394174107
 10
11.4636351009
 20
8.6082245635
 10
11.4678289849
 20
8.6787873207
 10
11.4724338155
 20
8.7510502733
 10
11.4774701926
 20
8.8249569985
 10
11.4829586542
 20
8.9004585475
 10
11.4889125439
 20
8.9775219627
 10
11.495338935
 20
9.0561263932
 10
11.5005749417
 20
9.1168848645
  0
LINE
  5
260
100
AcDbEntity
  8
0
100
AcDbLine
 62
7
  6
CONTINUOUS
 10
11.4535683383
 20
7.7407409491
 11
11.5086850578
 21
7.7407409651
  0
LINE
  5
261
100
AcDbEntity
  8
0
100
AcDbLine
 62
7
  6
CONTINUOUS
 10
9.6698968369
 20
10.6647516815
 11
9.6648183383
 21
10.6743222229
  0
LWPOLYLINE
  5
262
100
AcDbEntity
  8
0
100
AcDbPolyline
 62
7
  6
CONTINUOUS
 90
6
 70
0
 10
11.5527718141
 20
6.8141341624
 10
11.5487589602
 20
6.8343106189
 10
11.5349190869
 20
6.9065144883
 10
11.5210420491
 20
6.98231763
 10
11.5073412183
 20
7.0614539511
 10
11.4998183383
 20
7.1080224332
  0
LWPOLYLINE
  5
263
100
AcDbEntity
  8
0
100
AcDbPolyline
 62
7
  6
CONTINUOUS
 90
5
 70
0
 10
11.4818751463
 20
7.2260019115
 10
11.4814222378
 20
7.2290623936
 10
11.469696214
 20
7.3176695762
 10
11.4591532462
 20
7.4098333279
 10
11.4535683383
 20
7.4693536071
  0
LINE
  5
264
100
AcDbEntity
  8
0
100
AcDbLine
 62
7
  6
CONTINUOUS
 10
11.4998183383
 20
7.1370506854
 11
11.4998183383
 21
6.909271898
  0
LINE
  5
265
100
AcDbEntity
  8
0
100
AcDbLine
 62
7
  6
CONTINUOUS
 10
11.5086850578
 20
7.7407409803
 11
11.5086850578
 21
7.7440284886
  0
LINE
  5
266
100
AcDbEntity
  8
0
100
AcDbLine
 62
7
  6
CONTINUOUS
 10
11.5086850578
 20
7.9914026512
 11
11.5086850578
 21
7.9957409819
  0
LINE
  5
267
100
AcDbEntity
  8
0
100
AcDbLine
 62
7
  6
CONTINUOUS
 10
11.6223183383
 20
6.6208627351
 11
11.6223183383
 21
5.9561823608
  0
LINE
  5
268
100
AcDbEntity
  8
0
100
AcDbLine
 62
7
  6
CONTINUOUS
 10
11.4535683383
 20
7.995740987
 11
11.5086850578
 21
7.9957409886
  0
LINE
  5
269
100
AcDbEntity
  8
0
100
AcDbLine
 62
7
  6
CONTINUOUS
 10
12.2223183383
 20
10.5632409815
 11
12.2223183383
 21
10.5498924954
  0
LINE
  5
26A
100
AcDbEntity
  8
0
100
AcDbLine
 62
7
  6
CONTINUOUS
 10
11.5505606983
 20
10.6646738851
 11
11.5531333607
 21
10.6523453593
  0
LINE
  5
26B
100
AcDbEntity
  8
0
100
AcDbLine
 62
7
  6
CONTINUOUS
 10
12.2373183383
 20
11.6072409815
 11
12.2373183383
 21
11.3750677343
  0
LINE
  5
26C
100
AcDbEntity
  8
0
100
AcDbLine
 62
7
  6
CONTINUOUS
 10
11.4675552138
 20
6.3433506016
 11
11.1770814628
 21
6.2247651893
  0
LINE
  5
26D
100
AcDbEntity
  8
0
100
AcDbLine
 62
7
  6
CONTINUOUS
 10
11.4675552138
 20
6.0958632282
 11
11.1770814628
 21
5.9772778159
  0
LINE
  5
26E
100
AcDbEntity
  8
0
100
AcDbLine
 62
9
  6
CONTINUOUS
 10
11.4743104298
 20
10.5871590622
 11
11.4778474436
 21
10.5757084573
  0
LINE
  5
26F
100
AcDbEntity
  8
0
100
AcDbLine
 62
7
  6
CONTINUOUS
 10
11.5898214086
 20
10.6647820038
 11
11.5936149453
 21
10.6525009403
  0
LINE
  5
270
100
AcDbEntity
  8
0
100
AcDbLine
 62
7
  6
CONTINUOUS
 10
11.6946595628
 20
10.6646884641
 11
11.6984652082
 21
10.6523682005
  0
LINE
  5
271
100
AcDbEntity
  8
0
100
AcDbLine
 62
7
  6
CONTINUOUS
 10
12.6673183383
 20
5.4851550294
 11
12.6673183383
 21
5.4611215783
  0
LINE
  5
272
100
AcDbEntity
  8
0
100
AcDbLine
 62
7
  6
CONTINUOUS
 10
12.9523183383
 20
5.3277726261
 11
12.9523183383
 21
5.1983375589
  0
LINE
  5
273
100
AcDbEntity
  8
0
100
AcDbLine
 62
9
  6
CONTINUOUS
 10
10.629617835
 20
9.0792066419
 11
10.6410683383
 21
9.0792066419
  0
LINE
  5
274
100
AcDbEntity
  8
0
100
AcDbLine
 62
9
  6
CONTINUOUS
 10
11.4535683383
 20
9.0792066419
 11
11.4650188416
 21
9.0792066419
  0
LINE
  5
275
100
AcDbEntity
  8
0
100
AcDbLine
 62
9
  6
CONTINUOUS
 10
11.5923183383
 20
9.3018764739
 11
11.4535683383
 21
9.3018764739
  0
LINE
  5
276
100
AcDbEntity
  8
0
100
AcDbLine
 62
9
  6
CONTINUOUS
 10
10.6410683383
 20
9.3018764739
 11
10.5023183383
 21
9.3018764739
  0
LINE
  5
277
100
AcDbEntity
  8
0
100
AcDbLine
 62
9
  6
CONTINUOUS
 10
11.4535683383
 20
9.3572409815
 11
10.6410683383
 21
9.3572409815
  0
LINE
  5
278
100
AcDbEntity
  8
0
100
AcDbLine
 62
7
  6
CONTINUOUS
 10
11.5767463727
 20
10.5721231056
 11
11.5794443352
 21
10.5654489345
  0
LINE
  5
279
100
AcDbEntity
  8
0
100
AcDbLine
 62
9
  6
CONTINUOUS
 10
11.6273016568
 20
10.5879289345
 11
11.6322746009
 21
10.5756269549
  0
LINE
  5
27A
100
AcDbEntity
  8
0
100
AcDbLine
 62
7
  6
CONTINUOUS
 10
11.7487557676
 20
10.6647796043
 11
11.753720553
 21
10.6524978072
  0
LINE
  5
27B
100
AcDbEntity
  8
0
100
AcDbLine
 62
7
  6
CONTINUOUS
 10
12.4350326758
 20
10.6524619116
 11
12.4350329521
 21
10.6524595855
  0
LINE
  5
27C
100
AcDbEntity
  8
0
100
AcDbLine
 62
7
  6
CONTINUOUS
 10
9.7354612454
 20
10.5827903249
 11
9.7485130834
 21
10.5768844066
  0
LINE
  5
27D
100
AcDbEntity
  8
0
100
AcDbLine
 62
7
  6
CONTINUOUS
 10
11.843474704
 20
10.5703467128
 11
11.8462880037
 21
10.5654489345
  0
LINE
  5
27E
100
AcDbEntity
  8
0
100
AcDbLine
 62
9
  6
CONTINUOUS
 10
11.8944494575
 20
10.587746516
 11
11.9014109724
 21
10.5756269549
  0
LINE
  5
27F
100
AcDbEntity
  8
0
100
AcDbLine
 62
7
  6
CONTINUOUS
 10
11.7113067508
 20
10.5691980352
 11
11.7131566401
 21
10.5654473248
  0
LINE
  5
280
100
AcDbEntity
  8
0
100
AcDbLine
 62
9
  6
CONTINUOUS
 10
11.7643594276
 20
10.5836771079
 11
11.7682896489
 21
10.5757084573
  0
LINE
  5
281
100
AcDbEntity
  8
0
100
AcDbLine
 62
7
  6
CONTINUOUS
 10
11.887645804
 20
10.6647820038
 11
11.8937029521
 21
10.6525009403
  0
LINE
  5
282
100
AcDbEntity
  8
0
100
AcDbLine
 62
7
  6
CONTINUOUS
 10
11.9766762525
 20
10.6646884641
 11
11.9827527344
 21
10.6523682005
  0
LINE
  5
283
100
AcDbEntity
  8
0
100
AcDbLine
 62
7
  6
CONTINUOUS
 10
11.853608725
 20
10.6646738851
 11
11.8585924
 21
10.6523453593
  0
LINE
  5
284
100
AcDbEntity
  8
0
100
AcDbLine
 62
7
  6
CONTINUOUS
 10
12.0603430803
 20
10.5690995764
 11
12.0629294697
 21
10.5654489345
  0
LINE
  5
285
100
AcDbEntity
  8
0
100
AcDbLine
 62
9
  6
CONTINUOUS
 10
12.1109080261
 20
10.5840584937
 11
12.1168815627
 21
10.5756269549
  0
LINE
  5
286
100
AcDbEntity
  8
0
100
AcDbLine
 62
7
  6
CONTINUOUS
 10
11.9558546815
 20
10.5683852319
 11
11.9577541483
 21
10.5654473248
  0
LINE
  5
287
100
AcDbEntity
  8
0
100
AcDbLine
 62
9
  6
CONTINUOUS
 10
12.0097645223
 20
10.5813787451
 11
12.0134305753
 21
10.5757084573
  0
LINE
  5
288
100
AcDbEntity
  8
0
100
AcDbLine
 62
7
  6
CONTINUOUS
 10
12.1326693342
 20
10.6647820038
 11
12.1406095008
 21
10.6525009403
  0
LINE
  5
289
100
AcDbEntity
  8
0
100
AcDbLine
 62
7
  6
CONTINUOUS
 10
12.0215311627
 20
10.6647796043
 11
12.0285858665
 21
10.6524978072
  0
LINE
  5
28A
100
AcDbEntity
  8
0
100
AcDbLine
 62
7
  6
CONTINUOUS
 10
12.1059945613
 20
10.6646738851
 11
12.1130761063
 21
10.6523453593
  0
LINE
  5
28B
100
AcDbEntity
  8
0
100
AcDbLine
 62
7
  6
CONTINUOUS
 10
12.3055468081
 20
10.5654473248
 11
12.3125781289
 21
10.5667055145
  0
LINE
  5
28C
100
AcDbEntity
  8
0
100
AcDbLine
 62
9
  6
CONTINUOUS
 10
12.0800827759
 20
10.3182409815
 11
11.4535683383
 21
10.3182409815
  0
LINE
  5
28D
100
AcDbEntity
  8
0
100
AcDbLine
 62
9
  6
CONTINUOUS
 10
10.6410683383
 20
10.3182409815
 11
10.0145539007
 21
10.3182409815
  0
LINE
  5
28E
100
AcDbEntity
  8
0
100
AcDbLine
 62
7
  6
CONTINUOUS
 10
12.1623183383
 20
10.4582409815
 11
11.4535683383
 21
10.4582409815
  0
LINE
  5
28F
100
AcDbEntity
  8
0
100
AcDbLine
 62
7
  6
CONTINUOUS
 10
10.6410683383
 20
10.4582409815
 11
9.9323183383
 21
10.4582409815
  0
LINE
  5
290
100
AcDbEntity
  8
0
100
AcDbLine
 62
9
  6
CONTINUOUS
 10
12.2223183383
 20
10.5498924954
 11
11.4535683383
 21
10.5498924954
  0
LINE
  5
291
100
AcDbEntity
  8
0
100
AcDbLine
 62
9
  6
CONTINUOUS
 10
10.6410683383
 20
10.5498924954
 11
9.8723183383
 21
10.5498924954
  0
LINE
  5
292
100
AcDbEntity
  8
0
100
AcDbLine
 62
7
  6
CONTINUOUS
 10
9.7890346206
 20
10.5654499953
 11
9.7890474713
 21
10.5654489345
  0
LINE
  5
293
100
AcDbEntity
  8
0
100
AcDbLine
 62
7
  6
CONTINUOUS
 10
9.7863001265
 20
10.5659177535
 11
9.7890347127
 21
10.5654499803
  0
LINE
  5
294
100
AcDbEntity
  8
0
100
AcDbLine
 62
7
  6
CONTINUOUS
 10
12.294254335
 20
10.5665375375
 11
12.295165979
 21
10.5654489345
  0
LINE
  5
295
100
AcDbEntity
  8
0
100
AcDbLine
 62
7
  6
CONTINUOUS
 10
12.3053491029
 20
10.5656834067
 11
12.3055468081
 21
10.5654473248
  0
LINE
  5
296
100
AcDbEntity
  8
0
100
AcDbLine
 62
9
  6
CONTINUOUS
 10
12.3355444054
 20
10.5772371726
 11
12.3368928723
 21
10.5756269549
  0
LINE
  5
297
100
AcDbEntity
  8
0
100
AcDbLine
 62
7
  6
CONTINUOUS
 10
12.2623981577
 20
10.5668527706
 11
12.2635565779
 21
10.5654473248
  0
LINE
  5
298
100
AcDbEntity
  8
0
100
AcDbLine
 62
9
  6
CONTINUOUS
 10
12.3084469672
 20
10.577605339
 11
12.310010447
 21
10.5757084573
  0
LINE
  5
299
100
AcDbEntity
  8
0
100
AcDbLine
 62
7
  6
CONTINUOUS
 10
12.2138278717
 20
10.5678654835
 11
12.2157563532
 21
10.5654489345
  0
LINE
  5
29A
100
AcDbEntity
  8
0
100
AcDbLine
 62
9
  6
CONTINUOUS
 10
12.261070094
 20
10.5807363643
 11
12.265147562
 21
10.5756269549
  0
LINE
  5
29B
100
AcDbEntity
  8
0
100
AcDbLine
 62
7
  6
CONTINUOUS
 10
12.3701486091
 20
10.6647796043
 11
12.379949866
 21
10.6524978072
  0
LINE
  5
29C
100
AcDbEntity
  8
0
100
AcDbLine
 62
7
  6
CONTINUOUS
 10
12.3995260708
 20
10.6646738851
 11
12.4093646187
 21
10.6523453593
  0
LINE
  5
29D
100
AcDbEntity
  8
0
100
AcDbLine
 62
7
  6
CONTINUOUS
 10
12.1434273533
 20
10.5677104731
 11
12.1451456261
 21
10.5654473248
  0
LINE
  5
29E
100
AcDbEntity
  8
0
100
AcDbLine
 62
9
  6
CONTINUOUS
 10
12.19498412
 20
10.579505671
 11
12.1978671167
 21
10.5757084573
  0
LINE
  5
29F
100
AcDbEntity
  8
0
100
AcDbLine
 62
7
  6
CONTINUOUS
 10
12.3094962697
 20
10.6647820038
 11
12.3188205449
 21
10.6525009403
  0
LINE
  5
2A0
100
AcDbEntity
  8
0
100
AcDbLine
 62
7
  6
CONTINUOUS
 10
12.3514737299
 20
10.6646884641
 11
12.3608277674
 21
10.6523682005
  0
LINE
  5
2A1
100
AcDbEntity
  8
0
100
AcDbLine
 62
7
  6
CONTINUOUS
 10
12.2330931831
 20
10.6647796043
 11
12.2417945324
 21
10.6524978072
  0
LINE
  5
2A2
100
AcDbEntity
  8
0
100
AcDbLine
 62
7
  6
CONTINUOUS
 10
12.291859877
 20
10.6646738851
 11
12.3005943325
 21
10.6523453593
  0
LINE
  5
2A3
100
AcDbEntity
  8
0
100
AcDbLine
 62
7
  6
CONTINUOUS
 10
12.2002979664
 20
10.6646884641
 11
12.2082634773
 21
10.6523682005
  0
LINE
  5
2A4
100
AcDbEntity
  8
0
100
AcDbLine
 62
7
  6
CONTINUOUS
 10
9.7916544866
 20
10.565487883
 11
9.7914504972
 21
10.5654609895
  0
LINE
  5
2A5
100
AcDbEntity
  8
0
100
AcDbLine
 62
7
  6
CONTINUOUS
 10
10.6410683383
 20
10.5632409815
 11
9.8298183383
 21
10.5632409815
  0
LINE
  5
2A6
100
AcDbEntity
  8
0
100
AcDbLine
 62
7
  6
CONTINUOUS
 10
11.4535683383
 20
10.5632409815
 11
12.2648183383
 21
10.5632409815
  0
LINE
  5
2A7
100
AcDbEntity
  8
0
100
AcDbLine
 62
9
  6
CONTINUOUS
 10
10.6410683383
 20
10.5782409815
 11
10.6384338492
 21
10.5782409815
  0
LINE
  5
2A8
100
AcDbEntity
  8
0
100
AcDbLine
 62
9
  6
CONTINUOUS
 10
10.5065897482
 20
10.5782409815
 11
10.4992422489
 21
10.5782409815
  0
LINE
  5
2A9
100
AcDbEntity
  8
0
100
AcDbLine
 62
9
  6
CONTINUOUS
 10
10.375259949
 20
10.5782409815
 11
10.3452758035
 21
10.5782409815
  0
LINE
  5
2AA
100
AcDbEntity
  8
0
100
AcDbLine
 62
9
  6
CONTINUOUS
 10
10.2444225216
 20
10.5782409815
 11
10.2244127807
 21
10.5782409815
  0
LINE
  5
2AB
100
AcDbEntity
  8
0
100
AcDbLine
 62
9
  6
CONTINUOUS
 10
10.1278183879
 20
10.5782409815
 11
10.1026522414
 21
10.5782409815
  0
LINE
  5
2AC
100
AcDbEntity
  8
0
100
AcDbLine
 62
9
  6
CONTINUOUS
 10
10.0163669993
 20
10.5782409815
 11
10.0087130702
 21
10.5782409815
  0
LINE
  5
2AD
100
AcDbEntity
  8
0
100
AcDbLine
 62
9
  6
CONTINUOUS
 10
9.9276587413
 20
10.5782409815
 11
9.9264644417
 21
10.5782409815
  0
LINE
  5
2AE
100
AcDbEntity
  8
0
100
AcDbLine
 62
9
  6
CONTINUOUS
 10
10.6410683383
 20
10.6743222229
 11
9.6648183383
 21
10.6743222229
  0
LINE
  5
2AF
100
AcDbEntity
  8
0
100
AcDbLine
 62
9
  6
CONTINUOUS
 10
11.4535683383
 20
10.6743222229
 11
12.4298183383
 21
10.6743222229
  0
LINE
  5
2B0
100
AcDbEntity
  8
0
100
AcDbLine
 62
7
  6
CONTINUOUS
 10
10.6410683383
 20
10.6882409815
 11
9.6506737913
 21
10.6882409815
  0
LINE
  5
2B1
100
AcDbEntity
  8
0
100
AcDbLine
 62
7
  6
CONTINUOUS
 10
11.4535683383
 20
10.6882409815
 11
12.4439628852
 21
10.6882409815
  0
LINE
  5
2B2
100
AcDbEntity
  8
0
100
AcDbLine
 62
7
  6
CONTINUOUS
 10
13.800896524
 20
10.8532409815
 11
11.4535683383
 21
10.8532409815
  0
LINE
  5
2B3
100
AcDbEntity
  8
0
100
AcDbLine
 62
7
  6
CONTINUOUS
 10
10.6410683383
 20
10.8532409815
 11
8.2937401526
 21
10.8532409815
  0
LINE
  5
2B4
100
AcDbEntity
  8
0
100
AcDbLine
 62
7
  6
CONTINUOUS
 10
12.4247396807
 20
10.6647528786
 11
12.4240857441
 21
10.6647796043
  0
LINE
  5
2B5
100
AcDbEntity
  8
0
100
AcDbLine
 62
7
  6
CONTINUOUS
 10
12.4343710596
 20
10.6524978072
 11
12.4350326758
 21
10.6524619116
  0
LINE
  5
2B6
100
AcDbEntity
  8
0
100
AcDbLine
 62
7
  6
CONTINUOUS
 10
12.4240857441
 20
10.6647796043
 11
12.4343710596
 21
10.6524978072
  0
LINE
  5
2B7
100
AcDbEntity
  8
0
100
AcDbLine
 62
7
  6
CONTINUOUS
 10
12.4350326795
 20
10.6524619176
 11
12.4247396844
 21
10.664752885
  0
LINE
  5
2B8
100
AcDbEntity
  8
0
100
AcDbLine
 62
7
  6
CONTINUOUS
 10
12.4070159238
 20
10.6647820038
 11
12.4171384291
 21
10.6525009403
  0
LINE
  5
2B9
100
AcDbEntity
  8
0
100
AcDbLine
 62
7
  6
CONTINUOUS
 10
12.4207046139
 20
10.6646884641
 11
12.4308594294
 21
10.6523682005
  0
LINE
  5
2BA
100
AcDbEntity
  8
0
100
AcDbLine
 62
7
  6
CONTINUOUS
 10
11.4945333056
 20
11.1903838792
 11
11.4978849088
 21
11.1905716878
  0
LINE
  5
2BB
100
AcDbEntity
  8
0
100
AcDbLine
 62
9
  6
CONTINUOUS
 10
14.0191074311
 20
10.9812409815
 11
11.4535683383
 21
10.9812409815
  0
LINE
  5
2BC
100
AcDbEntity
  8
0
100
AcDbLine
 62
9
  6
CONTINUOUS
 10
10.6410683383
 20
10.9812409815
 11
8.0755292454
 21
10.9812409815
  0
LINE
  5
2BD
100
AcDbEntity
  8
0
100
AcDbLine
 62
7
  6
CONTINUOUS
 10
7.8541822079
 20
11.1092311463
 11
10.6410683383
 21
11.1092311463
  0
LINE
  5
2BE
100
AcDbEntity
  8
0
100
AcDbLine
 62
7
  6
CONTINUOUS
 10
11.4535683383
 20
11.1092311463
 11
14.2404544687
 21
11.1092311463
  0
LINE
  5
2BF
100
AcDbEntity
  8
0
100
AcDbLine
 62
7
  6
CONTINUOUS
 10
10.600103371
 20
11.1903838792
 11
11.4945333056
 21
11.1903838792
  0
LINE
  5
2C0
100
AcDbEntity
  8
0
100
AcDbLine
 62
9
  6
CONTINUOUS
 10
11.4978849088
 20
11.1905716878
 11
10.5967517678
 21
11.1905716878
  0
LINE
  5
2C1
100
AcDbEntity
  8
0
100
AcDbLine
 62
9
  6
CONTINUOUS
 10
14.4563911441
 20
11.2332387863
 11
11.7857136707
 21
11.2332387863
  0
LINE
  5
2C2
100
AcDbEntity
  8
0
100
AcDbLine
 62
9
  6
CONTINUOUS
 10
10.3089230059
 20
11.2332387863
 11
7.6382455324
 21
11.2332387863
  0
LINE
  5
2C3
100
AcDbEntity
  8
0
100
AcDbLine
 62
7
  6
CONTINUOUS
 10
10.600103371
 20
11.1903838792
 11
10.5967517678
 21
11.1905716878
  0
LINE
  5
2C4
100
AcDbEntity
  8
0
100
AcDbLine
 62
9
  6
CONTINUOUS
 10
12.2007135508
 20
11.3268954572
 11
9.8939231258
 21
11.3268954572
  0
LINE
  5
2C5
100
AcDbEntity
  8
0
100
AcDbLine
 62
7
  6
CONTINUOUS
 10
14.6723183383
 20
11.3572409815
 11
12.2339625829
 21
11.3572409815
  0
LINE
  5
2C6
100
AcDbEntity
  8
0
100
AcDbLine
 62
7
  6
CONTINUOUS
 10
9.8606740936
 20
11.3572409815
 11
7.4223183383
 21
11.3572409815
  0
LINE
  5
2C7
100
AcDbEntity
  8
0
100
AcDbLine
 62
9
  6
CONTINUOUS
 10
12.2373183383
 20
11.3750677343
 11
9.8573183383
 21
11.3750677343
  0
LINE
  5
2C8
100
AcDbEntity
  8
0
100
AcDbLine
 62
7
  6
CONTINUOUS
 10
14.9223183383
 20
11.6072409815
 11
7.1723183383
 21
11.6072409815
  0
ARC
  5
2C9
100
AcDbEntity
  8
0
100
AcDbCircle
 62
7
  6
CONTINUOUS
 10
9.6527384329
 20
-1.4501024487
 40
12.1026666178
100
AcDbArc
 50
89.6739449425
 51
89.8147941298
  0
ARC
  5
2CA
100
AcDbEntity
  8
0
100
AcDbCircle
 62
9
  6
CONTINUOUS
 10
0.5085958103
 20
8.6396200947
 40
10.2012607806
100
AcDbArc
 50
349.7244525581
 51
351.3945108241
  0
ARC
  5
2CB
100
AcDbEntity
  8
0
100
AcDbCircle
 62
7
  6
CONTINUOUS
 10
9.1030836233
 20
9.255592435
 40
1.4
100
AcDbArc
 50
1.8945452827
 51
49.3791708116
  0
ARC
  5
2CC
100
AcDbEntity
  8
0
100
AcDbCircle
 62
7
  6
CONTINUOUS
 10
7.8541822079
 20
11.3592421237
 40
0.2500109774
100
AcDbArc
 50
210.2644101313
 51
270.0
  0
ARC
  5
2CD
100
AcDbEntity
  8
0
100
AcDbCircle
 62
7
  6
CONTINUOUS
 10
7.4223183383
 20
11.6072409815
 40
0.25
100
AcDbArc
 50
180.0
 51
270.0
  0
ARC
  5
2CE
100
AcDbEntity
  8
0
100
AcDbCircle
 62
7
  6
CONTINUOUS
 10
7.4223183383
 20
11.1072409815
 40
0.25
100
AcDbArc
 50
30.2644101313
 51
90.0
  0
ARC
  5
2CF
100
AcDbEntity
  8
0
100
AcDbCircle
 62
7
  6
CONTINUOUS
 10
8.2937401526
 20
11.1032409815
 40
0.25
100
AcDbArc
 50
209.2092119338
 51
270.0
  0
ARC
  5
2D0
100
AcDbEntity
  8
0
100
AcDbCircle
 62
7
  6
CONTINUOUS
 10
7.8573183383
 20
10.8592409815
 40
0.25
100
AcDbArc
 50
29.2092119338
 51
89.9454355169
  0
ARC
  5
2D1
100
AcDbEntity
  8
0
100
AcDbCircle
 62
7
  6
CONTINUOUS
 10
9.6378884115
 20
10.6611018204
 40
0.03
100
AcDbArc
 50
26.1472811424
 51
64.7746660919
  0
ARC
  5
2D2
100
AcDbEntity
  8
0
100
AcDbCircle
 62
7
  6
CONTINUOUS
 10
12.1085346137
 20
-22.9360100186
 40
33.5885262737
100
AcDbArc
 50
89.8298808548
 51
89.9452861992
  0
ARC
  5
2D3
100
AcDbEntity
  8
0
100
AcDbCircle
 62
7
  6
CONTINUOUS
 10
12.2131339627
 20
-11.7417497528
 40
22.3942659001
100
AcDbArc
 50
89.7762318791
 51
89.9266718483
  0
ARC
  5
2D4
100
AcDbEntity
  8
0
100
AcDbCircle
 62
7
  6
CONTINUOUS
 10
12.3015922105
 20
-1.4465565635
 40
12.0990697699
100
AcDbArc
 50
89.7194857927
 51
89.9184142916
  0
ARC
  5
2D5
100
AcDbEntity
  8
0
100
AcDbCircle
 62
7
  6
CONTINUOUS
 10
12.3554603915
 20
2.5013979669
 40
8.1633948515
100
AcDbArc
 50
89.6907181694
 51
89.8969089035
  0
ARC
  5
2D6
100
AcDbEntity
  8
0
100
AcDbCircle
 62
7
  6
CONTINUOUS
 10
12.369276744
 20
5.7552654564
 40
4.8972439813
100
AcDbArc
 50
89.5309827949
 51
89.8751286778
  0
ARC
  5
2D7
100
AcDbEntity
  8
0
100
AcDbCircle
 62
9
  6
CONTINUOUS
 10
11.0608560809
 20
6.5755631888
 40
2.5140347246
100
AcDbArc
 50
278.9565933111
 51
280.9089998439
  0
ARC
  5
2D8
100
AcDbEntity
  8
0
100
AcDbCircle
 62
9
  6
CONTINUOUS
 10
11.047312392
 20
6.5970454778
 40
2.302747599
100
AcDbArc
 50
264.6668363612
 51
275.331818497
  0
ARC
  5
2D9
100
AcDbEntity
  8
0
100
AcDbCircle
 62
7
  6
CONTINUOUS
 10
10.9477088517
 20
4.7493494509
 40
1.8730610606
100
AcDbArc
 50
112.076629339
 51
112.2076300516
  0
ARC
  5
2DA
100
AcDbEntity
  8
0
100
AcDbCircle
 62
9
  6
CONTINUOUS
 10
11.170932841
 20
6.1806332192
 40
1.7971288462
100
AcDbArc
 50
292.1832698665
 51
295.6405128626
  0
ARC
  5
2DB
100
AcDbEntity
  8
0
100
AcDbCircle
 62
9
  6
CONTINUOUS
 10
11.2103729742
 20
6.0989721976
 40
1.7064425084
100
AcDbArc
 50
295.6440000163
 51
298.3235915794
  0
ARC
  5
2DC
100
AcDbEntity
  8
0
100
AcDbCircle
 62
7
  6
CONTINUOUS
 10
12.1192889397
 20
4.8977699507
 40
1.0779635015
100
AcDbArc
 50
351.6440761936
 51
3.2064438678
  0
ARC
  5
2DD
100
AcDbEntity
  8
0
100
AcDbCircle
 62
7
  6
CONTINUOUS
 10
9.9753410426
 20
4.8977695186
 40
1.0779568071
100
AcDbArc
 50
176.7935132363
 51
188.3558832414
  0
ARC
  5
2DE
100
AcDbEntity
  8
0
100
AcDbCircle
 62
9
  6
CONTINUOUS
 10
10.2376234771
 20
5.4851581035
 40
0.8103051033
100
AcDbArc
 50
180.0002173653
 51
181.6989182277
  0
ARC
  5
2DF
100
AcDbEntity
  8
0
100
AcDbCircle
 62
7
  6
CONTINUOUS
 10
11.0761469534
 20
6.8457363004
 40
0.5620319909
100
AcDbArc
 50
291.1910050319
 51
292.2069121102
  0
ARC
  5
2E0
100
AcDbEntity
  8
0
100
AcDbCircle
 62
7
  6
CONTINUOUS
 10
11.078328902
 20
6.8140360161
 40
0.5298330263
100
AcDbArc
 50
292.205478931
 51
293.2841416694
  0
ARC
  5
2E1
100
AcDbEntity
  8
0
100
AcDbCircle
 62
7
  6
CONTINUOUS
 10
11.0472788636
 20
6.4539611048
 40
0.4890463565
100
AcDbArc
 50
28.6909618198
 51
34.907880314
  0
ARC
  5
2E2
100
AcDbEntity
  8
0
100
AcDbCircle
 62
7
  6
CONTINUOUS
 10
11.0473543554
 20
6.4539631808
 40
0.4890423268
100
AcDbArc
 50
145.0930674069
 51
151.3090570666
  0
ARC
  5
2E3
100
AcDbEntity
  8
0
100
AcDbCircle
 62
7
  6
CONTINUOUS
 10
11.2758854505
 20
6.5711511057
 40
0.2339420702
100
AcDbArc
 50
4.7147071094
 51
8.6559144208
  0
ARC
  5
2E4
100
AcDbEntity
  8
0
100
AcDbCircle
 62
7
  6
CONTINUOUS
 10
10.8179869408
 20
6.5712406489
 40
0.2331729405
100
AcDbArc
 50
171.5377781628
 51
175.9470952328
  0
ARC
  5
2E5
100
AcDbEntity
  8
0
100
AcDbCircle
 62
9
  6
CONTINUOUS
 10
9.9869349841
 20
8.0654948746
 40
1.5388179234
100
AcDbArc
 50
345.0899160091
 51
346.655626843
  0
ARC
  5
2E6
100
AcDbEntity
  8
0
100
AcDbCircle
 62
9
  6
CONTINUOUS
 10
9.9872444271
 20
7.6710649714
 40
1.5384988596
100
AcDbArc
 50
13.3442107933
 51
14.9102463546
  0
ARC
  5
2E7
100
AcDbEntity
  8
0
100
AcDbCircle
 62
7
  6
CONTINUOUS
 10
10.0618980096
 20
7.6695870868
 40
1.4999997678
100
AcDbArc
 50
13.751399722
 51
15.3607073015
  0
ARC
  5
2E8
100
AcDbEntity
  8
0
100
AcDbCircle
 62
7
  6
CONTINUOUS
 10
10.0618980095
 20
8.0668948761
 40
1.4999997109
100
AcDbArc
 50
344.6392921391
 51
346.2486010386
  0
ARC
  5
2E9
100
AcDbEntity
  8
0
100
AcDbCircle
 62
7
  6
CONTINUOUS
 10
10.813084787
 20
7.8682409815
 40
0.2431769795
100
AcDbArc
 50
170.9061458751
 51
189.0938681978
  0
ARC
  5
2EA
100
AcDbEntity
  8
0
100
AcDbCircle
 62
7
  6
CONTINUOUS
 10
10.8452288073
 20
7.3425360769
 40
0.2041604717
100
AcDbArc
 50
180.0097749445
 51
188.574382824
  0
ARC
  5
2EB
100
AcDbEntity
  8
0
100
AcDbCircle
 62
7
  6
CONTINUOUS
 10
10.8345518815
 20
7.1933292774
 40
0.1934835059
100
AcDbArc
 50
180.0160151508
 51
190.3371798509
  0
ARC
  5
2EC
100
AcDbEntity
  8
0
100
AcDbCircle
 62
7
  6
CONTINUOUS
 10
10.834444519
 20
7.2430409592
 40
0.1933761868
100
AcDbArc
 50
180.0143243372
 51
189.9226967747
  0
ARC
  5
2ED
100
AcDbEntity
  8
0
100
AcDbCircle
 62
7
  6
CONTINUOUS
 10
10.8343359412
 20
7.2928238984
 40
0.1932676056
100
AcDbArc
 50
180.0126201499
 51
189.5123586564
  0
ARC
  5
2EE
100
AcDbEntity
  8
0
100
AcDbCircle
 62
7
  6
CONTINUOUS
 10
10.8333147071
 20
7.2604036434
 40
0.1922463694
100
AcDbArc
 50
180.0041127014
 51
185.1807563841
  0
ARC
  5
2EF
100
AcDbEntity
  8
0
100
AcDbCircle
 62
7
  6
CONTINUOUS
 10
10.8332672619
 20
7.1578504186
 40
0.1921988788
100
AcDbArc
 50
174.6798681583
 51
179.9967201441
  0
ARC
  5
2F0
100
AcDbEntity
  8
0
100
AcDbCircle
 62
7
  6
CONTINUOUS
 10
10.8332330373
 20
7.2091722077
 40
0.1921646993
100
AcDbArc
 50
180.0032608046
 51
184.7316604427
  0
ARC
  5
2F1
100
AcDbEntity
  8
0
100
AcDbCircle
 62
7
  6
CONTINUOUS
 10
10.8330750148
 20
7.2091576878
 40
0.1920066766
100
AcDbArc
 50
174.9429811784
 51
179.9989306825
  0
ARC
  5
2F2
100
AcDbEntity
  8
0
100
AcDbCircle
 62
7
  6
CONTINUOUS
 10
10.8330431592
 20
7.2603868491
 40
0.1919748209
100
AcDbArc
 50
175.2984191347
 51
179.9991061982
  0
ARC
  5
2F3
100
AcDbEntity
  8
0
100
AcDbCircle
 62
7
  6
CONTINUOUS
 10
10.8330283854
 20
7.3116747098
 40
0.1919600529
100
AcDbArc
 50
175.4983186473
 51
179.9072768826
  0
ARC
  5
2F4
100
AcDbEntity
  8
0
100
AcDbCircle
 62
7
  6
CONTINUOUS
 10
10.8329849496
 20
7.157862281
 40
0.1919165661
100
AcDbArc
 50
180.0002567823
 51
184.2557354504
  0
ARC
  5
2F5
100
AcDbEntity
  8
0
100
AcDbCircle
 62
7
  6
CONTINUOUS
 10
10.6598183383
 20
9.0862016114
 40
0.031
100
AcDbArc
 50
193.0407610339
 51
232.6680407019
  0
ARC
  5
2F6
100
AcDbEntity
  8
0
100
AcDbCircle
 62
7
  6
CONTINUOUS
 10
10.3502330343
 20
10.8823874868
 40
0.726
100
AcDbArc
 50
182.3008549133
 51
195.5107653603
  0
ARC
  5
2F7
100
AcDbEntity
  8
0
100
AcDbCircle
 62
7
  6
CONTINUOUS
 10
10.1773164502
 20
10.5079996505
 40
0.25
100
AcDbArc
 50
191.4805151999
 51
229.3791708116
  0
ARC
  5
2F8
100
AcDbEntity
  8
0
100
AcDbCircle
 62
7
  6
CONTINUOUS
 10
10.7521816803
 20
9.3101414809
 40
0.25
100
AcDbArc
 50
181.8945452827
 51
243.579473232
  0
ARC
  5
2F9
100
AcDbEntity
  8
0
100
AcDbCircle
 62
7
  6
CONTINUOUS
 10
9.8192165853
 20
10.7501191971
 40
0.1871193873
100
AcDbArc
 50
211.4605179007
 51
243.4100701252
  0
ARC
  5
2FA
100
AcDbEntity
  8
0
100
AcDbCircle
 62
7
  6
CONTINUOUS
 10
9.8173053711
 20
10.7461493193
 40
0.1827101243
100
AcDbArc
 50
247.8822957204
 51
249.1313363122
  0
ARC
  5
2FB
100
AcDbEntity
  8
0
100
AcDbCircle
 62
7
  6
CONTINUOUS
 10
9.8170984724
 20
10.7455737342
 40
0.1820985954
100
AcDbArc
 50
249.1276509282
 51
253.2289778489
  0
ARC
  5
2FC
100
AcDbEntity
  8
0
100
AcDbCircle
 62
7
  6
CONTINUOUS
 10
9.8167001501
 20
10.7443188633
 40
0.1807821653
100
AcDbArc
 50
253.3029268812
 51
253.910115032
  0
ARC
  5
2FD
100
AcDbEntity
  8
0
100
AcDbCircle
 62
7
  6
CONTINUOUS
 10
9.8350961236
 20
10.7392619646
 40
0.179210876
100
AcDbArc
 50
240.9186361909
 51
243.1814302642
  0
ARC
  5
2FE
100
AcDbEntity
  8
0
100
AcDbCircle
 62
7
  6
CONTINUOUS
 10
9.817637769
 20
10.7407533575
 40
0.1776298918
100
AcDbArc
 50
248.3739965315
 51
252.5948619924
  0
ARC
  5
2FF
100
AcDbEntity
  8
0
100
AcDbCircle
 62
7
  6
CONTINUOUS
 10
9.8173865948
 20
10.7399954467
 40
0.1768315507
100
AcDbArc
 50
252.5990620686
 51
259.8749713394
  0
ARC
  5
300
100
AcDbEntity
  8
0
100
AcDbCircle
 62
7
  6
CONTINUOUS
 10
9.8129363665
 20
10.7399629101
 40
0.1751194091
100
AcDbArc
 50
210.0132256559
 51
210.7887154009
  0
ARC
  5
301
100
AcDbEntity
  8
0
100
AcDbCircle
 62
7
  6
CONTINUOUS
 10
9.8161702029
 20
10.7370758921
 40
0.1736704195
100
AcDbArc
 50
246.1415876356
 51
248.3769479832
  0
ARC
  5
302
100
AcDbEntity
  8
0
100
AcDbCircle
 62
7
  6
CONTINUOUS
 10
9.8321119777
 20
10.7333340896
 40
0.1725742581
100
AcDbArc
 50
243.1776817782
 51
247.2791250708
  0
ARC
  5
303
100
AcDbEntity
  8
0
100
AcDbCircle
 62
7
  6
CONTINUOUS
 10
9.8155015893
 20
10.7355633737
 40
0.1720167099
100
AcDbArc
 50
242.3383858365
 51
246.1414873157
  0
ARC
  5
304
100
AcDbEntity
  8
0
100
AcDbCircle
 62
7
  6
CONTINUOUS
 10
9.8148600939
 20
10.734302064
 40
0.1706017491
100
AcDbArc
 50
241.7118715471
 51
242.332546878
  0
ARC
  5
305
100
AcDbEntity
  8
0
100
AcDbCircle
 62
7
  6
CONTINUOUS
 10
9.8301133156
 20
10.7287270448
 40
0.1675527766
100
AcDbArc
 50
247.3010534101
 51
247.9635066911
  0
ARC
  5
306
100
AcDbEntity
  8
0
100
AcDbCircle
 62
7
  6
CONTINUOUS
 10
9.8128264679
 20
10.7309919439
 40
0.1667195449
100
AcDbArc
 50
208.0866689747
 51
241.7881898206
  0
ARC
  5
307
100
AcDbEntity
  8
0
100
AcDbCircle
 62
7
  6
CONTINUOUS
 10
9.8141350446
 20
10.7413067746
 40
0.1618084371
100
AcDbArc
 50
208.2626814375
 51
209.5057424511
  0
ARC
  5
308
100
AcDbEntity
  8
0
100
AcDbCircle
 62
7
  6
CONTINUOUS
 10
9.8345343945
 20
10.7263197654
 40
0.1538468228
100
AcDbArc
 50
203.621726016
 51
206.2407971646
  0
ARC
  5
309
100
AcDbEntity
  8
0
100
AcDbCircle
 62
7
  6
CONTINUOUS
 10
9.8262974621
 20
10.7065886086
 40
0.143997227
100
AcDbArc
 50
254.8453661105
 51
256.2811505421
  0
ARC
  5
30A
100
AcDbEntity
  8
0
100
AcDbCircle
 62
7
  6
CONTINUOUS
 10
9.8234395562
 20
10.7041507859
 40
0.1406936996
100
AcDbArc
 50
238.1022788598
 51
245.9122811013
  0
ARC
  5
30B
100
AcDbEntity
  8
0
100
AcDbCircle
 62
7
  6
CONTINUOUS
 10
9.8254514078
 20
10.7030263419
 40
0.1403359411
100
AcDbArc
 50
256.2718002723
 51
258.6242736624
  0
ARC
  5
30C
100
AcDbEntity
  8
0
100
AcDbCircle
 62
7
  6
CONTINUOUS
 10
9.8231886103
 20
10.7037245625
 40
0.1401992386
100
AcDbArc
 50
237.0316505853
 51
238.0973064742
  0
ARC
  5
30D
100
AcDbEntity
  8
0
100
AcDbCircle
 62
7
  6
CONTINUOUS
 10
9.9723183383
 20
10.5498924954
 40
0.1
100
AcDbArc
 50
180.0
 51
246.4218215218
  0
ARC
  5
30E
100
AcDbEntity
  8
0
100
AcDbCircle
 62
7
  6
CONTINUOUS
 10
9.9073183383
 20
11.3750677343
 40
0.05
100
AcDbArc
 50
180.0
 51
254.4604045097
  0
ARC
  5
30F
100
AcDbEntity
  8
0
100
AcDbCircle
 62
7
  6
CONTINUOUS
 10
9.8120679494
 20
10.5602537263
 40
0.018
100
AcDbArc
 50
9.552927071
 51
16.824319462
  0
ARC
  5
310
100
AcDbEntity
  8
0
100
AcDbCircle
 62
7
  6
CONTINUOUS
 10
11.9772356162
 20
7.8707533842
 40
0.5005130575
100
AcDbArc
 50
167.2650537064
 51
168.3654342942
  0
ARC
  5
311
100
AcDbEntity
  8
0
100
AcDbCircle
 62
7
  6
CONTINUOUS
 10
11.8241156527
 20
7.8134442594
 40
0.4035087137
100
AcDbArc
 50
155.5099606391
 51
156.6793505379
  0
ARC
  5
312
100
AcDbEntity
  8
0
100
AcDbCircle
 62
7
  6
CONTINUOUS
 10
11.2909803014
 20
7.8666038995
 40
0.2557164086
100
AcDbArc
 50
17.3049078528
 51
17.9092999523
  0
ARC
  5
313
100
AcDbEntity
  8
0
100
AcDbCircle
 62
7
  6
CONTINUOUS
 10
11.2378963436
 20
7.2860095852
 40
0.2156719961
100
AcDbArc
 50
0.0065677211
 51
7.6304875235
  0
ARC
  5
314
100
AcDbEntity
  8
0
100
AcDbCircle
 62
7
  6
CONTINUOUS
 10
11.2379590424
 20
7.2182556787
 40
0.2156092998
100
AcDbArc
 50
350.8398368536
 51
359.9890563791
  0
ARC
  5
315
100
AcDbEntity
  8
0
100
AcDbCircle
 62
7
  6
CONTINUOUS
 10
11.2379979835
 20
7.2679294268
 40
0.2155703577
100
AcDbArc
 50
351.2740984855
 51
359.9904813734
  0
ARC
  5
316
100
AcDbEntity
  8
0
100
AcDbCircle
 62
7
  6
CONTINUOUS
 10
11.2382446437
 20
7.1834194978
 40
0.2153236949
100
AcDbArc
 50
0.0029911642
 51
4.6386633341
  0
ARC
  5
317
100
AcDbEntity
  8
0
100
AcDbCircle
 62
7
  6
CONTINUOUS
 10
11.2383531531
 20
7.2347589669
 40
0.2152151855
100
AcDbArc
 50
0.0026461598
 51
4.4241470917
  0
ARC
  5
318
100
AcDbEntity
  8
0
100
AcDbCircle
 62
7
  6
CONTINUOUS
 10
11.2384717787
 20
7.2860377982
 40
0.2150965596
100
AcDbArc
 50
355.1736689434
 51
359.9990701478
  0
ARC
  5
319
100
AcDbEntity
  8
0
100
AcDbCircle
 62
7
  6
CONTINUOUS
 10
11.2385136013
 20
7.1834329364
 40
0.215054737
100
AcDbArc
 50
356.004675814
 51
359.9994145358
  0
ARC
  5
31A
100
AcDbEntity
  8
0
100
AcDbCircle
 62
7
  6
CONTINUOUS
 10
11.2385399175
 20
7.2347717045
 40
0.2150284208
100
AcDbArc
 50
355.5949062613
 51
359.9992544325
  0
ARC
  5
31B
100
AcDbEntity
  8
0
100
AcDbCircle
 62
7
  6
CONTINUOUS
 10
11.405200497
 20
7.7939279787
 40
0.0630072235
100
AcDbArc
 50
320.2164399437
 51
328.0008503554
  0
ARC
  5
31C
100
AcDbEntity
  8
0
100
AcDbCircle
 62
7
  6
CONTINUOUS
 10
11.4565087859
 20
7.9425577028
 40
0.0630008506
100
AcDbArc
 50
17.3880431225
 51
51.8419566543
  0
ARC
  5
31D
100
AcDbEntity
  8
0
100
AcDbCircle
 62
7
  6
CONTINUOUS
 10
11.4689587825
 20
7.9425577101
 40
0.0630008021
100
AcDbArc
 50
20.3368263955
 51
52.3241444363
  0
ARC
  5
31E
100
AcDbEntity
  8
0
100
AcDbCircle
 62
7
  6
CONTINUOUS
 10
11.4702213109
 20
7.793924117
 40
0.0630005676
100
AcDbArc
 50
307.6278202528
 51
338.3803656175
  0
ARC
  5
31F
100
AcDbEntity
  8
0
100
AcDbCircle
 62
7
  6
CONTINUOUS
 10
11.4311698052
 20
7.9425579707
 40
0.0630003645
100
AcDbArc
 50
12.1817491994
 51
50.4788485069
  0
ARC
  5
320
100
AcDbEntity
  8
0
100
AcDbCircle
 62
7
  6
CONTINUOUS
 10
11.4475642376
 20
8.0502409815
 40
0.063
100
AcDbArc
 50
15.3607050932
 51
84.5258607746
  0
ARC
  5
321
100
AcDbEntity
  8
0
100
AcDbCircle
 62
7
  6
CONTINUOUS
 10
11.4475641986
 20
7.6862409815
 40
0.063
100
AcDbArc
 50
275.4741747463
 51
344.6392909421
  0
ARC
  5
322
100
AcDbEntity
  8
0
100
AcDbCircle
 62
7
  6
CONTINUOUS
 10
11.4635343222
 20
7.7939237365
 40
0.0629999875
100
AcDbArc
 50
307.88392977
 51
335.4826792155
  0
ARC
  5
323
100
AcDbEntity
  8
0
100
AcDbCircle
 62
7
  6
CONTINUOUS
 10
11.4435950013
 20
7.7939232609
 40
0.0629991278
100
AcDbArc
 50
308.6732144547
 51
332.6800808377
  0
ARC
  5
324
100
AcDbEntity
  8
0
100
AcDbCircle
 62
7
  6
CONTINUOUS
 10
11.4348183383
 20
9.0862016114
 40
0.031
100
AcDbArc
 50
307.3319592981
 51
346.9592389661
  0
ARC
  5
325
100
AcDbEntity
  8
0
100
AcDbCircle
 62
7
  6
CONTINUOUS
 10
11.4897620367
 20
7.717461821
 40
0.0299999999
100
AcDbArc
 50
346.2485997869
 51
50.8932391299
  0
ARC
  5
326
100
AcDbEntity
  8
0
100
AcDbCircle
 62
9
  6
CONTINUOUS
 10
11.5156387255
 20
7.9598518365
 40
0.0132202238
100
AcDbArc
 50
20.3670355381
 51
24.1763632043
  0
ARC
  5
327
100
AcDbEntity
  8
0
100
AcDbCircle
 62
9
  6
CONTINUOUS
 10
11.481692733
 20
7.9534614618
 40
0.0113142567
100
AcDbArc
 50
12.1971573854
 51
15.0543442425
  0
ARC
  5
328
100
AcDbEntity
  8
0
100
AcDbCircle
 62
7
  6
CONTINUOUS
 10
11.7444036422
 20
10.8823874868
 40
0.726
100
AcDbArc
 50
344.4892346397
 51
357.6991450867
  0
ARC
  5
329
100
AcDbEntity
  8
0
100
AcDbCircle
 62
7
  6
CONTINUOUS
 10
11.9173202263
 20
10.5079996505
 40
0.25
100
AcDbArc
 50
310.6208291884
 51
348.5194848001
  0
ARC
  5
32A
100
AcDbEntity
  8
0
100
AcDbCircle
 62
7
  6
CONTINUOUS
 10
11.3424549963
 20
9.3101414809
 40
0.25
100
AcDbArc
 50
296.420526768
 51
358.1054547173
  0
ARC
  5
32B
100
AcDbEntity
  8
0
100
AcDbCircle
 62
7
  6
CONTINUOUS
 10
11.3596985535
 20
10.7915919698
 40
0.2345937664
100
AcDbArc
 50
297.0412575294
 51
299.2974202023
  0
ARC
  5
32C
100
AcDbEntity
  8
0
100
AcDbCircle
 62
7
  6
CONTINUOUS
 10
11.0994922504
 20
15.6624003973
 40
4.5
100
AcDbArc
 50
254.4604045096
 51
263.5855182739
  0
ARC
  5
32D
100
AcDbEntity
  8
0
100
AcDbCircle
 62
7
  6
CONTINUOUS
 10
10.9951444261
 20
15.6624003973
 40
4.5
100
AcDbArc
 50
276.4144817261
 51
285.5395954904
  0
ARC
  5
32E
100
AcDbEntity
  8
0
100
AcDbCircle
 62
7
  6
CONTINUOUS
 10
12.0540859297
 20
7.6695870868
 40
1.499981822
100
AcDbArc
 50
164.6391023119
 51
170.9056086043
  0
ARC
  5
32F
100
AcDbEntity
  8
0
100
AcDbCircle
 62
7
  6
CONTINUOUS
 10
12.0540859325
 20
8.0668948761
 40
1.4999773814
100
AcDbArc
 50
189.094393733
 51
195.3609513526
  0
ARC
  5
330
100
AcDbEntity
  8
0
100
AcDbCircle
 62
7
  6
CONTINUOUS
 10
12.9915530533
 20
9.255592435
 40
1.4
100
AcDbArc
 50
130.6208291884
 51
178.1054547173
  0
ARC
  5
331
100
AcDbEntity
  8
0
100
AcDbCircle
 62
7
  6
CONTINUOUS
 10
12.1134311922
 20
10.8485941702
 40
0.2856502016
100
AcDbArc
 50
287.1930417945
 51
288.7477527445
  0
ARC
  5
332
100
AcDbEntity
  8
0
100
AcDbCircle
 62
7
  6
CONTINUOUS
 10
14.2404544687
 20
11.3592421237
 40
0.2500109774
100
AcDbArc
 50
270.0
 51
329.7355898687
  0
ARC
  5
333
100
AcDbEntity
  8
0
100
AcDbCircle
 62
7
  6
CONTINUOUS
 10
13.800896524
 20
11.1032409815
 40
0.25
100
AcDbArc
 50
270.0
 51
330.7907880662
  0
ARC
  5
334
100
AcDbEntity
  8
0
100
AcDbCircle
 62
7
  6
CONTINUOUS
 10
14.2373183383
 20
10.8592409815
 40
0.25
100
AcDbArc
 50
90.0545644831
 51
150.7907880662
  0
ARC
  5
335
100
AcDbEntity
  8
0
100
AcDbCircle
 62
7
  6
CONTINUOUS
 10
12.2341186456
 20
10.80113946
 40
0.2378627808
100
AcDbArc
 50
288.6059099367
 51
291.7420958521
  0
ARC
  5
336
100
AcDbEntity
  8
0
100
AcDbCircle
 62
7
  6
CONTINUOUS
 10
12.1458120113
 20
10.8006138989
 40
0.212703644
100
AcDbArc
 50
316.3359476195
 51
320.3127241422
  0
ARC
  5
337
100
AcDbEntity
  8
0
100
AcDbCircle
 62
7
  6
CONTINUOUS
 10
12.2598497237
 20
10.7751411329
 40
0.2119359378
100
AcDbArc
 50
290.6980738739
 51
291.0878452652
  0
ARC
  5
338
100
AcDbEntity
  8
0
100
AcDbCircle
 62
7
  6
CONTINUOUS
 10
12.2666274334
 20
10.770172846
 40
0.2068461642
100
AcDbArc
 50
289.8585376758
 51
290.9910750885
  0
ARC
  5
339
100
AcDbEntity
  8
0
100
AcDbCircle
 62
7
  6
CONTINUOUS
 10
12.2425672596
 20
10.7628241671
 40
0.1965974384
100
AcDbArc
 50
289.4876350024
 51
289.7932537183
  0
ARC
  5
33A
100
AcDbEntity
  8
0
100
AcDbCircle
 62
7
  6
CONTINUOUS
 10
12.2143102626
 20
10.7833745816
 40
0.1958324766
100
AcDbArc
 50
318.2580859221
 51
322.7284005463
  0
ARC
  5
33B
100
AcDbEntity
  8
0
100
AcDbCircle
 62
7
  6
CONTINUOUS
 10
12.2712612363
 20
10.7573442301
 40
0.1932063139
100
AcDbArc
 50
289.3533475219
 51
289.8584244485
  0
ARC
  5
33C
100
AcDbEntity
  8
0
100
AcDbCircle
 62
7
  6
CONTINUOUS
 10
12.2446607543
 20
10.7572607707
 40
0.1906538291
100
AcDbArc
 50
289.7674401946
 51
293.6685391074
  0
ARC
  5
33D
100
AcDbEntity
  8
0
100
AcDbCircle
 62
7
  6
CONTINUOUS
 10
12.2754200912
 20
10.7501191971
 40
0.1871193873
100
AcDbArc
 50
290.6946286835
 51
328.5394820993
  0
ARC
  5
33E
100
AcDbEntity
  8
0
100
AcDbCircle
 62
7
  6
CONTINUOUS
 10
12.281595537
 20
10.7496299808
 40
0.1810387237
100
AcDbArc
 50
326.8697893671
 51
327.5524679636
  0
ARC
  5
33F
100
AcDbEntity
  8
0
100
AcDbCircle
 62
7
  6
CONTINUOUS
 10
12.2587318981
 20
10.7665619612
 40
0.1798535849
100
AcDbArc
 50
323.5938322593
 51
325.5348733211
  0
ARC
  5
340
100
AcDbEntity
  8
0
100
AcDbCircle
 62
7
  6
CONTINUOUS
 10
12.2782258305
 20
10.7426900536
 40
0.1791780632
100
AcDbArc
 50
289.3523729044
 51
290.6948209978
  0
ARC
  5
341
100
AcDbEntity
  8
0
100
AcDbCircle
 62
7
  6
CONTINUOUS
 10
12.2784823332
 20
10.7419687248
 40
0.1784124916
100
AcDbArc
 50
289.1525854644
 51
289.3514165018
  0
ARC
  5
342
100
AcDbEntity
  8
0
100
AcDbCircle
 62
7
  6
CONTINUOUS
 10
12.278513532
 20
10.7418791162
 40
0.1783176071
100
AcDbArc
 50
288.7748504303
 51
289.1525621256
  0
ARC
  5
343
100
AcDbEntity
  8
0
100
AcDbCircle
 62
7
  6
CONTINUOUS
 10
12.2772352049
 20
10.7411785717
 40
0.1779962994
100
AcDbArc
 50
281.4493453244
 51
283.5617684485
  0
ARC
  5
344
100
AcDbEntity
  8
0
100
AcDbCircle
 62
7
  6
CONTINUOUS
 10
12.2795298272
 20
10.7385560655
 40
0.174844312
100
AcDbArc
 50
280.9965399519
 51
288.8100140447
  0
ARC
  5
345
100
AcDbEntity
  8
0
100
AcDbCircle
 62
7
  6
CONTINUOUS
 10
12.2807002178
 20
10.7500822979
 40
0.1668411279
100
AcDbArc
 50
328.2936530523
 51
328.5697812692
  0
ARC
  5
346
100
AcDbEntity
  8
0
100
AcDbCircle
 62
7
  6
CONTINUOUS
 10
12.280846359
 20
10.7499932151
 40
0.166669976
100
AcDbArc
 50
328.5697143803
 51
329.2514382326
  0
ARC
  5
347
100
AcDbEntity
  8
0
100
AcDbCircle
 62
7
  6
CONTINUOUS
 10
12.2821467906
 20
10.7260431947
 40
0.162062111
100
AcDbArc
 50
280.7966154475
 51
280.9321648562
  0
ARC
  5
348
100
AcDbEntity
  8
0
100
AcDbCircle
 62
7
  6
CONTINUOUS
 10
12.2845183521
 20
10.7134070717
 40
0.1492054247
100
AcDbArc
 50
279.0626750586
 51
280.8110000122
  0
ARC
  5
349
100
AcDbEntity
  8
0
100
AcDbCircle
 62
7
  6
CONTINUOUS
 10
12.1223183383
 20
10.5498924954
 40
0.1
100
AcDbArc
 50
293.5781784782
 51
360.0
  0
ARC
  5
34A
100
AcDbEntity
  8
0
100
AcDbCircle
 62
7
  6
CONTINUOUS
 10
12.1873183383
 20
11.3750677343
 40
0.05
100
AcDbArc
 50
285.5395954903
 51
360.0
  0
ARC
  5
34B
100
AcDbEntity
  8
0
100
AcDbCircle
 62
7
  6
CONTINUOUS
 10
12.4567482651
 20
10.6611018204
 40
0.03
100
AcDbArc
 50
115.2253339081
 51
153.8527188576
  0
ARC
  5
34C
100
AcDbEntity
  8
0
100
AcDbCircle
 62
7
  6
CONTINUOUS
 10
12.2825687272
 20
10.5602537263
 40
0.018
100
AcDbArc
 50
163.1799867695
 51
170.447072929
  0
ARC
  5
34D
100
AcDbEntity
  8
0
100
AcDbCircle
 62
9
  6
CONTINUOUS
 10
18.9823652482
 20
8.214524973
 40
7.5717587012
100
AcDbArc
 50
188.7957179031
 51
190.5182511491
  0
ARC
  5
34E
100
AcDbEntity
  8
0
100
AcDbCircle
 62
9
  6
CONTINUOUS
 10
16.8110736628
 20
7.8976908152
 40
5.3772205158
100
AcDbArc
 50
184.8965519044
 51
187.0048358216
  0
ARC
  5
34F
100
AcDbEntity
  8
0
100
AcDbCircle
 62
7
  6
CONTINUOUS
 10
14.6723183383
 20
11.6072409815
 40
0.25
100
AcDbArc
 50
270.0
 51
360.0
  0
ARC
  5
350
100
AcDbEntity
  8
0
100
AcDbCircle
 62
7
  6
CONTINUOUS
 10
14.6723183383
 20
11.1072409815
 40
0.25
100
AcDbArc
 50
90.0
 51
149.7355898687
  0
SPLINE
  5
351
100
AcDbEntity
  8
0
100
AcDbSpline
 62
7
  6
CONTINUOUS
 70
0
 71
3
 72
26
 73
22
 74
0
 42
0.0000001
 43
0.0000001
 44
0.0000000001
 40
0.0
 40
0.0
 40
0.0
 40
0.0
 40
0.0253240261
 40
0.0507140945
 40
0.0762351387
 40
0.1019498671
 40
0.1279177722
 40
0.1541942792
 40
0.1808299924
 40
0.207870308
 40
0.2632922911
 40
0.3207319364
 40
0.3803374238
 40
0.4421643583
 40
0.5061838979
 40
0.5722920436
 40
0.6403202036
 40
0.7100451171
 40
0.7811990511
 40
0.8534796701
 40
1.0
 40
1.0
 40
1.0
 40
1.0
 10
10.6410683402
 20
7.1435459954
 30
0.0
 10
10.6410683264
 20
7.1389742183
 30
0.0
 10
10.6413957902
 20
7.1298153939
 30
0.0
 10
10.6428669082
 20
7.1161203481
 30
0.0
 10
10.6453148452
 20
7.1024935598
 30
0.0
 10
10.648733211
 20
7.0889701332
 30
0.0
 10
10.6531133418
 20
7.0755835905
 30
0.0
 10
10.6584444389
 20
7.0623676323
 30
0.0
 10
10.6647132007
 20
7.0493545357
 30
0.0
 10
10.6743780101
 20
7.0321805104
 30
0.0
 10
10.6888003466
 20
7.0113656644
 30
0.0
 10
10.7094028106
 20
6.9879383309
 30
0.0
 10
10.7332433432
 20
6.9660715453
 30
0.0
 10
10.760088048
 20
6.9459789302
 30
0.0
 10
10.7896786423
 20
6.9278537474
 30
0.0
 10
10.8217313892
 20
6.911872727
 30
0.0
 10
10.8559402626
 20
6.8981928892
 30
0.0
 10
10.8919774821
 20
6.8869504512
 30
0.0
 10
10.9295031826
 20
6.878258347
 30
0.0
 10
10.9812492967
 20
6.8701558495
 30
0.0
 10
11.0208718642
 20
6.868203791
 30
0.0
 10
11.0473183383
 20
6.8687190447
 30
0.0
  0
SPLINE
  5
352
100
AcDbEntity
  8
0
100
AcDbSpline
 62
7
  6
CONTINUOUS
 70
0
 71
3
 72
14
 73
10
 74
0
 42
0.0000001
 43
0.0000001
 44
0.0000000001
 40
0.0
 40
0.0
 40
0.0
 40
0.0
 40
0.1195389983
 40
0.2401514873
 40
0.3621132418
 40
0.4856782711
 40
0.6110721655
 40
0.738498474
 40
1.0
 40
1.0
 40
1.0
 40
1.0
 10
10.6442088443
 20
7.158610475
 30
0.0
 10
10.6450487756
 20
7.1539936627
 30
0.0
 10
10.6470688365
 20
7.144775747
 30
0.0
 10
10.6510818477
 20
7.1311275985
 30
0.0
 10
10.6560791447
 20
7.1176391849
 30
0.0
 10
10.6620477192
 20
7.1043464485
 30
0.0
 10
10.6689725753
 20
7.0912820873
 30
0.0
 10
10.6795444032
 20
7.0740697367
 30
0.0
 10
10.6887353389
 20
7.0618187823
 30
0.0
 10
10.6953467171
 20
7.0539658238
 30
0.0
  0
SPLINE
  5
353
100
AcDbEntity
  8
0
100
AcDbSpline
 62
7
  6
CONTINUOUS
 70
0
 71
3
 72
25
 73
21
 74
0
 42
0.0000001
 43
0.0000001
 44
0.0000000001
 40
0.0
 40
0.0
 40
0.0
 40
0.0
 40
0.0251998926
 40
0.0505956774
 40
0.0762362948
 40
0.1021674729
 40
0.155041947
 40
0.2095270265
 40
0.2658323848
 40
0.3240927296
 40
0.3539860675
 40
0.3843855454
 40
0.4466744328
 40
0.51090881
 40
0.5769690912
 40
0.6446896989
 40
0.713866226
 40
0.7842625383
 40
0.8556179183
 40
1.0
 40
1.0
 40
1.0
 40
1.0
 10
10.6439610192
 20
7.2097185059
 30
0.0
 10
10.6446948928
 20
7.2055133236
 30
0.0
 10
10.6464441069
 20
7.1971158283
 30
0.0
 10
10.6498853188
 20
7.1846602027
 30
0.0
 10
10.6541451491
 20
7.1723283914
 30
0.0
 10
10.6609466291
 20
7.155985114
 30
0.0
 10
10.6715089775
 20
7.1359643391
 30
0.0
 10
10.6871882989
 20
7.1130331133
 30
0.0
 10
10.7058211355
 20
7.0912207284
 30
0.0
 10
10.7235285248
 20
7.0742715954
 30
0.0
 10
10.7389729804
 20
7.0614264454
 30
0.0
 10
10.7555287635
 20
7.0488827339
 30
0.0
 10
10.7777643522
 20
7.0342520107
 30
0.0
 10
10.8064316503
 20
7.0186111936
 30
0.0
 10
10.8370678833
 20
7.0048735805
 30
0.0
 10
10.8694216209
 20
6.9931565114
 30
0.0
 10
10.9032282839
 20
6.983560206
 30
0.0
 10
10.9382151664
 20
6.9761678203
 30
0.0
 10
10.98622192
 20
6.9693133798
 30
0.0
 10
11.0228653768
 20
6.9676979388
 30
0.0
 10
11.0473183383
 20
6.9681751956
 30
0.0
  0
LINE
  5
354
100
AcDbEntity
  8
0
100
AcDbLine
 62
7
  6
CONTINUOUS
 10
12.3080204132
 20
10.5660642339
 11
12.3047968825
 21
10.5656046811
  0
LINE
  5
355
100
AcDbEntity
  8
0
100
AcDbLine
 62
7
  6
CONTINUOUS
 10
12.3047968825
 20
10.5656046811
 11
12.3031861794
 21
10.5654609895
  0
SPLINE
  5
356
100
AcDbEntity
  8
0
100
AcDbSpline
 62
7
  6
CONTINUOUS
 70
0
 71
3
 72
22
 73
18
 74
0
 42
0.0000001
 43
0.0000001
 44
0.0000000001
 40
0.0
 40
0.0
 40
0.0
 40
0.0
 40
0.0615560036
 40
0.1231198216
 40
0.1847032936
 40
0.246319119
 40
0.3079875169
 40
0.3697332204
 40
0.4315886628
 40
0.4935920461
 40
0.5557861967
 40
0.6182178267
 40
0.6809332797
 40
0.7439765634
 40
0.8073871825
 40
0.8711928483
 40
1.0
 40
1.0
 40
1.0
 40
1.0
 10
11.4998183383
 20
6.909271898
 30
0.0
 10
11.4998183383
 20
6.9001591113
 30
0.0
 10
11.499039148
 20
6.8819228174
 30
0.0
 10
11.4955458653
 20
6.8547716884
 30
0.0
 10
11.4897668665
 20
6.8280031273
 30
0.0
 10
11.4817640835
 20
6.8017984975
 30
0.0
 10
11.471619882
 20
6.7763212476
 30
0.0
 10
11.4594326803
 20
6.7517174677
 30
0.0
 10
11.4453124666
 20
6.7281135212
 30
0.0
 10
11.4293766784
 20
6.7056156215
 30
0.0
 10
11.411745813
 20
6.6843109669
 30
0.0
 10
11.3925407562
 20
6.6642694871
 30
0.0
 10
11.3718800333
 20
6.6455464435
 30
0.0
 10
11.3498796755
 20
6.6281854232
 30
0.0
 10
11.3266496424
 20
6.6122202545
 30
0.0
 10
11.2940939777
 20
6.592777125
 30
0.0
 10
11.268279832
 20
6.5804524959
 30
0.0
 10
11.2506256592
 20
6.57324521
 30
0.0
  0
LINE
  5
357
100
AcDbEntity
  8
0
100
AcDbLine
 62
7
  6
CONTINUOUS
 10
11.047226152
 20
6.5342421727
 11
11.0466661175
 21
6.5342425426
  0
SPLINE
  5
358
100
AcDbEntity
  8
0
100
AcDbSpline
 62
7
  6
CONTINUOUS
 70
0
 71
3
 72
28
 73
24
 74
0
 42
0.0000001
 43
0.0000001
 44
0.0000000001
 40
0.0
 40
0.0
 40
0.0
 40
0.0
 40
0.0654540445
 40
0.1307412994
 40
0.1957105981
 40
0.260236007
 40
0.3242261269
 40
0.3876298419
 40
0.4504399767
 40
0.5126882971
 40
0.5744396264
 40
0.6357815184
 40
0.6968071508
 40
0.7272427284
 40
0.7576334518
 40
0.7879884065
 40
0.8183157356
 40
0.8486218552
 40
0.8789123681
 40
0.9091923739
 40
0.939465717
 40
0.9697322704
 40
1.0
 40
1.0
 40
1.0
 40
1.0
 10
11.0466661175
 20
6.5342425426
 30
0.0
 10
11.0324468135
 20
6.534259019
 30
0.0
 10
11.004033798
 20
6.5353698228
 30
0.0
 10
10.9617602431
 20
6.5402648405
 30
0.0
 10
10.9201845403
 20
6.5483685379
 30
0.0
 10
10.8796475799
 20
6.5596504293
 30
0.0
 10
10.8404773899
 20
6.5740710741
 30
0.0
 10
10.8029956017
 20
6.5915834983
 30
0.0
 10
10.7675204849
 20
6.6121326593
 30
0.0
 10
10.7343736556
 20
6.6356511926
 30
0.0
 10
10.7038859883
 20
6.6620522418
 30
0.0
 10
10.6764052093
 20
6.6912112314
 30
0.0
 10
10.656283569
 20
6.7177026355
 30
0.0
 10
10.6420713737
 20
6.7400488765
 30
0.0
 10
10.6323949168
 20
6.7573456203
 30
0.0
 10
10.6237376167
 20
6.7751479477
 30
0.0
 10
10.6161402005
 20
6.7934083573
 30
0.0
 10
10.6096408012
 20
6.8120732288
 30
0.0
 10
10.6042730853
 20
6.8310840647
 30
0.0
 10
10.6000662398
 20
6.8503778978
 30
0.0
 10
10.5970443
 20
6.8698875394
 30
0.0
 10
10.595223652
 20
6.8895423607
 30
0.0
 10
10.5948183383
 20
6.9026965009
 30
0.0
 10
10.5948183383
 20
6.909271898
 30
0.0
  0
SPLINE
  5
359
100
AcDbEntity
  8
0
100
AcDbSpline
 62
7
  6
CONTINUOUS
 70
0
 71
3
 72
13
 73
9
 74
0
 42
0.0000001
 43
0.0000001
 44
0.0000000001
 40
0.0
 40
0.0
 40
0.0
 40
0.0
 40
0.1277876948
 40
0.2553014995
 40
0.4454475467
 40
0.6334879769
 40
0.8185885772
 40
1.0
 40
1.0
 40
1.0
 40
1.0
 10
11.0474157084
 20
6.5342421939
 30
0.0
 10
11.0560784623
 20
6.5342436942
 30
0.0
 10
11.0733882106
 20
6.5346467404
 30
0.0
 10
11.1035213652
 20
6.5367473885
 30
0.0
 10
11.1375532918
 20
6.5411192478
 30
0.0
 10
11.1750184657
 20
6.5486690004
 30
0.0
 10
11.2112626464
 20
6.5587721746
 30
0.0
 10
11.2346507165
 20
6.5672448249
 30
0.0
 10
11.2460363757
 20
6.5718930008
 30
0.0
  0
SPLINE
  5
35A
100
AcDbEntity
  8
0
100
AcDbSpline
 62
7
  6
CONTINUOUS
 70
0
 71
3
 72
11
 73
7
 74
0
 42
0.0000001
 43
0.0000001
 44
0.0000000001
 40
0.0
 40
0.0
 40
0.0
 40
0.0
 40
0.247058386
 40
0.4965260237
 40
0.7477872484
 40
1.0
 40
1.0
 40
1.0
 40
1.0
 10
11.2506256592
 20
6.57324521
 30
0.0
 10
11.2347572897
 20
6.5667669753
 30
0.0
 10
11.2021667213
 20
6.5553985567
 30
0.0
 10
11.1516574553
 20
6.5432215203
 30
0.0
 10
11.0998635189
 20
6.5358821789
 30
0.0
 10
11.0649130929
 20
6.5342452339
 30
0.0
 10
11.0474157084
 20
6.5342421738
 30
0.0
  0
SPLINE
  5
35B
100
AcDbEntity
  8
0
100
AcDbSpline
 62
7
  6
CONTINUOUS
 70
0
 71
3
 72
15
 73
11
 74
0
 42
0.0000001
 43
0.0000001
 44
0.0000000001
 40
0.0
 40
0.0
 40
0.0
 40
0.0
 40
0.1211573392
 40
0.2427052557
 40
0.365025423
 40
0.4884825638
 40
0.6134170505
 40
0.7401385373
 40
0.8689211095
 40
1.0
 40
1.0
 40
1.0
 40
1.0
 10
11.4998183032
 20
7.1370506854
 30
0.0
 10
11.4998182776
 20
7.1431230563
 30
0.0
 10
11.4993277183
 20
7.1552930305
 30
0.0
 10
11.4971234667
 20
7.173473438
 30
0.0
 10
11.493458228
 20
7.1915349328
 30
0.0
 10
11.4883445955
 20
7.2094166609
 30
0.0
 10
11.4817999875
 20
7.2270604629
 30
0.0
 10
11.4738462898
 20
7.2444089577
 30
0.0
 10
11.4645109378
 20
7.2614050011
 30
0.0
 10
11.4574513225
 20
7.2723642726
 30
0.0
 10
11.4537110766
 20
7.2777652615
 30
0.0
  0
SPLINE
  5
35C
100
AcDbEntity
  8
0
100
AcDbSpline
 62
7
  6
CONTINUOUS
 70
0
 71
3
 72
15
 73
11
 74
0
 42
0.0000001
 43
0.0000001
 44
0.0000000001
 40
0.0
 40
0.0
 40
0.0
 40
0.0
 40
0.1211085461
 40
0.2426129253
 40
0.364899945
 40
0.4883389985
 40
0.6132742106
 40
0.7400184095
 40
0.8688482027
 40
1.0
 40
1.0
 40
1.0
 40
1.0
 10
10.5948183734
 20
7.1370506854
 30
0.0
 10
10.5948183476
 20
7.143165638
 30
0.0
 10
10.5953159861
 20
7.1554213017
 30
0.0
 10
10.5975511846
 20
7.1737286631
 30
0.0
 10
10.6012679529
 20
7.1919145701
 30
0.0
 10
10.6064533141
 20
7.2099168446
 30
0.0
 10
10.6130891962
 20
7.2276761476
 30
0.0
 10
10.6211530329
 20
7.2451339569
 30
0.0
 10
10.6306168281
 20
7.2622318873
 30
0.0
 10
10.637772171
 20
7.2732517873
 30
0.0
 10
10.6415627753
 20
7.2786816018
 30
0.0
  0
SPLINE
  5
35D
100
AcDbEntity
  8
0
100
AcDbSpline
 62
7
  6
CONTINUOUS
 70
0
 71
3
 72
21
 73
17
 74
0
 42
0.0000001
 43
0.0000001
 44
0.0000000001
 40
0.0
 40
0.0
 40
0.0
 40
0.0
 40
0.055431209
 40
0.1110880284
 40
0.1671896857
 40
0.2239431362
 40
0.2815377838
 40
0.3401415081
 40
0.399897588
 40
0.460922933
 40
0.5233072565
 40
0.587112976
 40
0.7190395292
 40
0.7872247504
 40
0.8568281285
 40
1.0
 40
1.0
 40
1.0
 40
1.0
 10
11.5098183024
 20
6.6067205995
 30
0.0
 10
11.5098183318
 20
6.5997409483
 30
0.0
 10
11.5091834793
 20
6.5857450304
 30
0.0
 10
11.5063331206
 20
6.5648599243
 30
0.0
 10
11.5015965007
 20
6.5441483551
 30
0.0
 10
11.4949944176
 20
6.5236988186
 30
0.0
 10
11.4865555541
 20
6.5035953249
 30
0.0
 10
11.4763162638
 20
6.48392071
 30
0.0
 10
11.4643200485
 20
6.464755281
 30
0.0
 10
11.450617672
 20
6.4461772431
 30
0.0
 10
11.4352653455
 20
6.4282610263
 30
0.0
 10
11.4124338562
 20
6.4051009672
 30
0.0
 10
11.3867531304
 20
6.3838405603
 30
0.0
 10
11.3587325182
 20
6.364626331
 30
0.0
 10
11.3284233058
 20
6.3463494089
 30
0.0
 10
11.3043265091
 20
6.3344811578
 30
0.0
 10
11.287767277
 20
6.3273548034
 30
0.0
  0
SPLINE
  5
35E
100
AcDbEntity
  8
0
100
AcDbSpline
 62
7
  6
CONTINUOUS
 70
0
 71
3
 72
21
 73
17
 74
0
 42
0.0000001
 43
0.0000001
 44
0.0000000001
 40
0.0
 40
0.0
 40
0.0
 40
0.0
 40
0.0552266285
 40
0.1106882501
 40
0.1666128736
 40
0.2232151646
 40
0.280690823
 40
0.3392122298
 40
0.3989253619
 40
0.4599478536
 40
0.5223683348
 40
0.5862464314
 40
0.7184063092
 40
0.7867418194
 40
0.8565070358
 40
1.0
 40
1.0
 40
1.0
 40
1.0
 10
11.6223183383
 20
5.9561823608
 30
0.0
 10
11.6223183387
 20
5.9473088599
 30
0.0
 10
11.6214928921
 20
5.9295131906
 30
0.0
 10
11.6177867934
 20
5.902964416
 30
0.0
 10
11.6116291039
 20
5.8766465607
 30
0.0
 10
11.6030481702
 20
5.8506772461
 30
0.0
 10
11.5920830763
 20
5.8251680066
 30
0.0
 10
11.5787831878
 20
5.8002287134
 30
0.0
 10
11.5632075929
 20
5.7759657454
 30
0.0
 10
11.5454251895
 20
5.7524825248
 30
0.0
 10
11.5255122859
 20
5.7298773681
 30
0.0
 10
11.4959102453
 20
5.70071337
 30
0.0
 10
11.4626550753
 20
5.6740584366
 30
0.0
 10
11.4264195938
 20
5.6500950759
 30
0.0
 10
11.3872555125
 20
5.6273975283
 30
0.0
 10
11.3561637079
 20
5.6127824209
 30
0.0
 10
11.3348183383
 20
5.6040682103
 30
0.0
  0
SPLINE
  5
35F
100
AcDbEntity
  8
0
100
AcDbSpline
 62
7
  6
CONTINUOUS
 70
0
 71
3
 72
21
 73
17
 74
0
 42
0.0000001
 43
0.0000001
 44
0.0000000001
 40
0.0
 40
0.0
 40
0.0
 40
0.0
 40
0.0587073844
 40
0.1175177135
 40
0.1765327273
 40
0.2358515699
 40
0.2955698594
 40
0.3557785065
 40
0.4165627932
 40
0.4780016701
 40
0.5401669742
 40
0.6031232625
 40
0.6669268415
 40
0.7316263844
 40
0.8638308673
 40
1.0
 40
1.0
 40
1.0
 40
1.0
 10
10.4723183385
 20
6.6208627351
 30
0.0
 10
10.4723183335
 20
6.6265469912
 30
0.0
 10
10.4726562258
 20
6.637928346
 30
0.0
 10
10.4741748338
 20
6.6549627775
 30
0.0
 10
10.476703057
 20
6.6719372396
 30
0.0
 10
10.4802359565
 20
6.6888208698
 30
0.0
 10
10.4847673068
 20
6.7055839413
 30
0.0
 10
10.4902888964
 20
6.7221967348
 30
0.0
 10
10.4967906097
 20
6.7386300004
 30
0.0
 10
10.5042610375
 20
6.7548546345
 30
0.0
 10
10.512686434
 20
6.7708423
 30
0.0
 10
10.5220520875
 20
6.7865646044
 30
0.0
 10
10.5323411552
 20
6.8019944887
 30
0.0
 10
10.5473729148
 20
6.822284458
 30
0.0
 10
10.5684335152
 20
6.8467730682
 30
0.0
 10
10.5871197975
 20
6.864884339
 30
0.0
 10
10.5969647789
 20
6.8736538379
 30
0.0
  0
LINE
  5
360
100
AcDbEntity
  8
0
100
AcDbLine
 62
7
  6
CONTINUOUS
 10
10.5840884727
 20
10.5654609895
 11
10.502637875
 21
10.5654473248
  0
SPLINE
  5
361
100
AcDbEntity
  8
0
100
AcDbSpline
 62
7
  6
CONTINUOUS
 70
0
 71
3
 72
21
 73
17
 74
0
 42
0.0000001
 43
0.0000001
 44
0.0000000001
 40
0.0
 40
0.0
 40
0.0
 40
0.0
 40
0.0399118296
 40
0.0812418367
 40
0.1246160991
 40
0.1705678321
 40
0.2195374459
 40
0.2718602448
 40
0.3277820635
 40
0.3874769443
 40
0.4510462011
 40
0.5185367424
 40
0.5899268776
 40
0.6651220523
 40
0.8262822361
 40
1.0
 40
1.0
 40
1.0
 40
1.0
 10
10.6374283543
 20
10.5768844066
 30
0.0
 10
10.6369633804
 20
10.5763031034
 30
0.0
 10
10.6359321765
 20
10.5751854474
 30
0.0
 10
10.6341440562
 20
10.5736920597
 30
0.0
 10
10.6321009659
 20
10.572354922
 30
0.0
 10
10.6298072727
 20
10.5711669426
 30
0.0
 10
10.6272657722
 20
10.5701188566
 30
0.0
 10
10.6244783952
 20
10.5692018012
 30
0.0
 10
10.6214470711
 20
10.5684068027
 30
0.0
 10
10.6181740858
 20
10.5677253577
 30
0.0
 10
10.6146624519
 20
10.567148997
 30
0.0
 10
10.6109165091
 20
10.5666695124
 30
0.0
 10
10.6069424676
 20
10.5662791153
 30
0.0
 10
10.6012177269
 20
10.5658585553
 30
0.0
 10
10.5935745135
 20
10.5655369613
 30
0.0
 10
10.5873284522
 20
10.5654609895
 30
0.0
 10
10.5840884727
 20
10.5654609895
 30
0.0
  0
LINE
  5
362
100
AcDbEntity
  8
0
100
AcDbLine
 62
7
  6
CONTINUOUS
 10
10.6409542892
 20
10.5814643448
 11
10.6374283543
 21
10.5768844066
  0
LINE
  5
363
100
AcDbEntity
  8
0
100
AcDbLine
 62
7
  6
CONTINUOUS
 10
10.4411031645
 20
10.5654609895
 11
10.3697254325
 21
10.5654489345
  0
SPLINE
  5
364
100
AcDbEntity
  8
0
100
AcDbSpline
 62
7
  6
CONTINUOUS
 70
0
 71
3
 72
22
 73
18
 74
0
 42
0.0000001
 43
0.0000001
 44
0.0000000001
 40
0.0
 40
0.0
 40
0.0
 40
0.0
 40
0.0436595157
 40
0.0866176806
 40
0.1298910076
 40
0.1744784388
 40
0.2212642318
 40
0.2709830302
 40
0.3242161208
 40
0.3814059791
 40
0.4428804463
 40
0.5088577278
 40
0.5794684095
 40
0.6547410531
 40
0.7346209155
 40
0.8189654182
 40
1.0
 40
1.0
 40
1.0
 40
1.0
 10
10.5020104499
 20
10.5826441386
 30
0.0
 10
10.5016268908
 20
10.5817565252
 30
0.0
 10
10.5007413346
 20
10.5800458274
 30
0.0
 10
10.4990492621
 20
10.5777067339
 30
0.0
 10
10.4970173993
 20
10.5756271864
 30
0.0
 10
10.494652129
 20
10.5737970927
 30
0.0
 10
10.4919577351
 20
10.57220091
 30
0.0
 10
10.4889361601
 20
10.5708215104
 30
0.0
 10
10.4855874218
 20
10.5696414017
 30
0.0
 10
10.481910595
 20
10.5686434196
 30
0.0
 10
10.4779049157
 20
10.5678108348
 30
0.0
 10
10.4735704527
 20
10.5671279252
 30
0.0
 10
10.4689094842
 20
10.5665796776
 30
0.0
 10
10.4639270404
 20
10.5661526878
 30
0.0
 10
10.4586319042
 20
10.5658343988
 30
0.0
 10
10.4509907985
 20
10.5655356759
 30
0.0
 10
10.4451125945
 20
10.5654609895
 30
0.0
 10
10.4411031645
 20
10.5654609895
 30
0.0
  0
LINE
  5
365
100
AcDbEntity
  8
0
100
AcDbLine
 62
7
  6
CONTINUOUS
 10
10.5314889093
 20
10.6523453593
 11
10.5020104499
 21
10.5826441386
  0
SPLINE
  5
366
100
AcDbEntity
  8
0
100
AcDbSpline
 62
7
  6
CONTINUOUS
 70
0
 71
3
 72
18
 73
14
 74
0
 42
0.0000001
 43
0.0000001
 44
0.0000000001
 40
0.0
 40
0.0
 40
0.0
 40
0.0
 40
0.0365124721
 40
0.076632586
 40
0.1203426508
 40
0.167616073
 40
0.2727417624
 40
0.39177597
 40
0.4564137879
 40
0.5244057781
 40
0.6702677918
 40
0.8289832754
 40
1.0
 40
1.0
 40
1.0
 40
1.0
 10
10.2460042908
 20
10.5757084573
 30
0.0
 10
10.246030165
 20
10.5766672347
 30
0.0
 10
10.2461296791
 20
10.57867841
 30
0.0
 10
10.24639619
 20
10.5818288494
 30
0.0
 10
10.2467866351
 20
10.5852509707
 30
0.0
 10
10.2474979007
 20
10.5903535493
 30
0.0
 10
10.2487144714
 20
10.5973810625
 30
0.0
 10
10.2502501333
 20
10.604811297
 30
0.0
 10
10.2517120544
 20
10.6112585876
 30
0.0
 10
10.2534156168
 20
10.6183731852
 30
0.0
 10
10.2558539499
 20
10.6278521716
 30
0.0
 10
10.2591905532
 20
10.6398920825
 30
0.0
 10
10.2616389892
 20
10.6482007971
 30
0.0
 10
10.2629389676
 20
10.6525009403
 30
0.0
  0
LINE
  5
367
100
AcDbEntity
  8
0
100
AcDbLine
 62
7
  6
CONTINUOUS
 10
10.3076782317
 20
10.5654609895
 11
10.237669462
 21
10.5654473248
  0
SPLINE
  5
368
100
AcDbEntity
  8
0
100
AcDbSpline
 62
7
  6
CONTINUOUS
 70
0
 71
3
 72
18
 73
14
 74
0
 42
0.0000001
 43
0.0000001
 44
0.0000000001
 40
0.0
 40
0.0
 40
0.0
 40
0.0
 40
0.0391415272
 40
0.0811882708
 40
0.1262430762
 40
0.174381215
 40
0.2256607227
 40
0.2801215123
 40
0.3986544571
 40
0.5300519798
 40
0.6742206329
 40
0.830980863
 40
1.0
 40
1.0
 40
1.0
 40
1.0
 10
10.1285500569
 20
10.5756269549
 30
0.0
 10
10.1281849525
 20
10.5765716848
 30
0.0
 10
10.1275063309
 20
10.5785622154
 30
0.0
 10
10.126660749
 20
10.5817195351
 30
0.0
 10
10.1259524922
 20
10.5851483647
 30
0.0
 10
10.1253823574
 20
10.588844394
 30
0.0
 10
10.1249508844
 20
10.592803891
 30
0.0
 10
10.1245503531
 20
10.5985945914
 30
0.0
 10
10.1244307865
 20
10.6064760882
 30
0.0
 10
10.12485319
 20
10.6166691957
 30
0.0
 10
10.1258454686
 20
10.6278156529
 30
0.0
 10
10.1274138365
 20
10.6398772257
 30
0.0
 10
10.1287960986
 20
10.6481948457
 30
0.0
 10
10.1295786254
 20
10.6524978072
 30
0.0
  0
LINE
  5
369
100
AcDbEntity
  8
0
100
AcDbLine
 62
7
  6
CONTINUOUS
 10
10.1859178652
 20
10.5654609895
 11
10.129285845
 21
10.5654496845
  0
LINE
  5
36A
100
AcDbEntity
  8
0
100
AcDbLine
 62
7
  6
CONTINUOUS
 10
10.129285845
 20
10.5654496845
 11
10.1273398807
 21
10.5654489345
  0
SPLINE
  5
36B
100
AcDbEntity
  8
0
100
AcDbSpline
 62
7
  6
CONTINUOUS
 70
0
 71
3
 72
15
 73
11
 74
0
 42
0.0000001
 43
0.0000001
 44
0.0000000001
 40
0.0
 40
0.0
 40
0.0
 40
0.0
 40
0.0910309502
 40
0.1902267921
 40
0.2987128774
 40
0.4172998026
 40
0.5464987553
 40
0.6866131816
 40
0.8378073673
 40
1.0
 40
1.0
 40
1.0
 40
1.0
 10
10.0179041086
 20
10.5757084573
 30
0.0
 10
10.0163999865
 20
10.5776043416
 30
0.0
 10
10.0135917128
 20
10.5818380097
 30
0.0
 10
10.0101475237
 20
10.5890148721
 30
0.0
 10
10.0073148345
 20
10.5972307155
 30
0.0
 10
10.0051057449
 20
10.6064536809
 30
0.0
 10
10.0035325796
 20
10.6166553879
 30
0.0
 10
10.0026111824
 20
10.6278047097
 30
0.0
 10
10.002358239
 20
10.6398648952
 30
0.0
 10
10.0026358742
 20
10.6481959966
 30
0.0
 10
10.0028810685
 20
10.6525009403
 30
0.0
  0
SPLINE
  5
36C
100
AcDbEntity
  8
0
100
AcDbSpline
 62
7
  6
CONTINUOUS
 70
0
 71
3
 72
18
 73
14
 74
0
 42
0.0000001
 43
0.0000001
 44
0.0000000001
 40
0.0
 40
0.0
 40
0.0
 40
0.0
 40
0.0293377607
 40
0.0599420196
 40
0.0931441612
 40
0.1299797634
 40
0.1712001721
 40
0.2173354962
 40
0.3257312238
 40
0.4572332548
 40
0.613012419
 40
0.7937763895
 40
1.0
 40
1.0
 40
1.0
 40
1.0
 10
10.0235742656
 20
10.5654473248
 30
0.0
 10
10.023626894
 20
10.5655529863
 30
0.0
 10
10.0237106199
 20
10.565781589
 30
0.0
 10
10.0237625
 20
10.5661551207
 30
0.0
 10
10.0237444987
 20
10.566561501
 30
0.0
 10
10.0236594685
 20
10.5670022438
 30
0.0
 10
10.023509643
 20
10.5674798035
 30
0.0
 10
10.0232087551
 20
10.5682085019
 30
0.0
 10
10.0226605319
 20
10.5692232779
 30
0.0
 10
10.0217976053
 20
10.570561888
 30
0.0
 10
10.0207027684
 20
10.5720947882
 30
0.0
 10
10.019382437
 20
10.573834492
 30
0.0
 10
10.018419818
 20
10.5750584266
 30
0.0
 10
10.0179041086
 20
10.5757084573
 30
0.0
  0
LINE
  5
36D
100
AcDbEntity
  8
0
100
AcDbLine
 62
7
  6
CONTINUOUS
 10
10.0777422987
 20
10.5654609895
 11
10.0235742656
 21
10.5654473248
  0
SPLINE
  5
36E
100
AcDbEntity
  8
0
100
AcDbSpline
 62
7
  6
CONTINUOUS
 70
0
 71
3
 72
9
 73
5
 74
0
 42
0.0000001
 43
0.0000001
 44
0.0000000001
 40
0.0
 40
0.0
 40
0.0
 40
0.0
 40
0.4867685414
 40
1.0
 40
1.0
 40
1.0
 40
1.0
 10
9.9302154209
 20
10.5756269549
 30
0.0
 10
9.9276968073
 20
10.577746224
 30
0.0
 10
9.9228896159
 20
10.5825494914
 30
0.0
 10
9.9188727133
 20
10.5880206196
 30
0.0
 10
9.9170055469
 20
10.5909461068
 30
0.0
  0
SPLINE
  5
36F
100
AcDbEntity
  8
0
100
AcDbSpline
 62
7
  6
CONTINUOUS
 70
0
 71
3
 72
14
 73
10
 74
0
 42
0.0000001
 43
0.0000001
 44
0.0000000001
 40
0.0
 40
0.0
 40
0.0
 40
0.0
 40
0.2174395985
 40
0.3336613619
 40
0.4552795553
 40
0.5825485981
 40
0.7156740984
 40
0.8548110481
 40
1.0
 40
1.0
 40
1.0
 40
1.0
 10
9.9170055469
 20
10.5909461068
 30
0.0
 10
9.9144859281
 20
10.5948938604
 30
0.0
 10
9.9111483816
 20
10.6013016056
 30
0.0
 10
9.9075584653
 20
10.6104305944
 30
0.0
 10
9.9051698224
 20
10.6179294513
 30
0.0
 10
9.9031559125
 20
10.6259117155
 30
0.0
 10
9.9015256855
 20
10.6343656007
 30
0.0
 10
9.9002893518
 20
10.6432751289
 30
0.0
 10
9.8997455412
 20
10.6493775608
 30
0.0
 10
9.8995381259
 20
10.6524978072
 30
0.0
  0
SPLINE
  5
370
100
AcDbEntity
  8
0
100
AcDbSpline
 62
7
  6
CONTINUOUS
 70
0
 71
3
 72
15
 73
11
 74
0
 42
0.0000001
 43
0.0000001
 44
0.0000000001
 40
0.0
 40
0.0
 40
0.0
 40
0.0
 40
0.0291721852
 40
0.062718531
 40
0.1430869473
 40
0.2412395692
 40
0.3572001688
 40
0.4910240848
 40
0.6427658003
 40
1.0
 40
1.0
 40
1.0
 40
1.0
 10
9.9427599589
 20
10.5654489345
 30
0.0
 10
9.942651782
 20
10.5655628969
 30
0.0
 10
9.9424110869
 20
10.5658002043
 30
0.0
 10
9.9418399627
 20
10.5663178831
 30
0.0
 10
9.9409604559
 20
10.5670473426
 30
0.0
 10
9.9397159697
 20
10.5680307341
 30
0.0
 10
9.9382356298
 20
10.5691800306
 30
0.0
 10
9.9365284567
 20
10.5705077997
 30
0.0
 10
9.9338104176
 20
10.5726525355
 30
0.0
 10
9.9316877145
 20
10.5743881041
 30
0.0
 10
9.9302154209
 20
10.5756269549
 30
0.0
  0
LINE
  5
371
100
AcDbEntity
  8
0
100
AcDbLine
 62
7
  6
CONTINUOUS
 10
9.9848575256
 20
10.5654609895
 11
9.9427599589
 21
10.5654489345
  0
SPLINE
  5
372
100
AcDbEntity
  8
0
100
AcDbSpline
 62
7
  6
CONTINUOUS
 70
0
 71
3
 72
15
 73
11
 74
0
 42
0.0000001
 43
0.0000001
 44
0.0000000001
 40
0.0
 40
0.0
 40
0.0
 40
0.0
 40
0.1109988937
 40
0.2241916077
 40
0.3406023729
 40
0.4612023689
 40
0.5868118981
 40
0.718122879
 40
0.8557265827
 40
1.0
 40
1.0
 40
1.0
 40
1.0
 10
9.8544858083
 20
10.5757084573
 30
0.0
 10
9.8516178008
 20
10.5775423855
 30
0.0
 10
9.8460533769
 20
10.581616483
 30
0.0
 10
9.8384167234
 20
10.5887777387
 30
0.0
 10
9.8314666998
 20
10.596996374
 30
0.0
 10
9.8252392674
 20
10.6062351646
 30
0.0
 10
9.8197671329
 20
10.6164596463
 30
0.0
 10
9.8150852674
 20
10.6276351629
 30
0.0
 10
9.8112307146
 20
10.6397220765
 30
0.0
 10
9.8092832133
 20
10.6481555665
 30
0.0
 10
9.8084490042
 20
10.6525009403
 30
0.0
  0
SPLINE
  5
373
100
AcDbEntity
  8
0
100
AcDbSpline
 62
7
  6
CONTINUOUS
 70
0
 71
3
 72
12
 73
8
 74
0
 42
0.0000001
 43
0.0000001
 44
0.0000000001
 40
0.0
 40
0.0
 40
0.0
 40
0.0
 40
0.0795078016
 40
0.1724553321
 40
0.3974868828
 40
0.6736240714
 40
1.0
 40
1.0
 40
1.0
 40
1.0
 10
9.8738046744
 20
10.5654473248
 30
0.0
 10
9.8732720843
 20
10.5656779337
 30
0.0
 10
9.8721182404
 20
10.5661813213
 30
0.0
 10
9.8694732601
 20
10.5673742741
 30
0.0
 10
9.8655696943
 20
10.5692666319
 30
0.0
 10
9.8602553925
 20
10.5721431649
 30
0.0
 10
9.8564929464
 20
10.5744250062
 30
0.0
 10
9.8544858083
 20
10.5757084573
 30
0.0
  0
LINE
  5
374
100
AcDbEntity
  8
0
100
AcDbLine
 62
7
  6
CONTINUOUS
 10
9.9087283942
 20
10.5654609895
 11
9.8738046744
 21
10.5654473248
  0
SPLINE
  5
375
100
AcDbEntity
  8
0
100
AcDbSpline
 62
7
  6
CONTINUOUS
 70
0
 71
3
 72
15
 73
11
 74
0
 42
0.0000001
 43
0.0000001
 44
0.0000000001
 40
0.0
 40
0.0
 40
0.0
 40
0.0
 40
0.1176808197
 40
0.2359836638
 40
0.3556879065
 40
0.4775693666
 40
0.6023340137
 40
0.7306216873
 40
0.8630206977
 40
1.0
 40
1.0
 40
1.0
 40
1.0
 10
9.8020724695
 20
10.5756269549
 30
0.0
 10
9.7985819104
 20
10.5774490048
 30
0.0
 10
9.7917752102
 20
10.5814864043
 30
0.0
 10
9.7822339692
 20
10.588635626
 30
0.0
 10
9.7733976656
 20
10.5968486942
 30
0.0
 10
9.7653120523
 20
10.6060893855
 30
0.0
 10
9.7580216215
 20
10.6163230936
 30
0.0
 10
9.7515713061
 20
10.627513213
 30
0.0
 10
9.746008545
 20
10.6396191193
 30
0.0
 10
9.742976471
 20
10.6481209044
 30
0.0
 10
9.7416168784
 20
10.6524978072
 30
0.0
  0
SPLINE
  5
376
100
AcDbEntity
  8
0
100
AcDbSpline
 62
7
  6
CONTINUOUS
 70
0
 71
3
 72
9
 73
5
 74
0
 42
0.0000001
 43
0.0000001
 44
0.0000000001
 40
0.0
 40
0.0
 40
0.0
 40
0.0
 40
0.2125970137
 40
1.0
 40
1.0
 40
1.0
 40
1.0
 10
9.8275835023
 20
10.5654489345
 30
0.0
 10
9.8266365251
 20
10.5657073648
 30
0.0
 10
9.8221988278
 20
10.5669831243
 30
0.0
 10
9.8178394439
 20
10.5685310644
 30
0.0
 10
9.8144676314
 20
10.5698906796
 30
0.0
  0
SPLINE
  5
377
100
AcDbEntity
  8
0
100
AcDbSpline
 62
7
  6
CONTINUOUS
 70
0
 71
3
 72
9
 73
5
 74
0
 42
0.0000001
 43
0.0000001
 44
0.0000000001
 40
0.0
 40
0.0
 40
0.0
 40
0.0
 40
0.2308135084
 40
1.0
 40
1.0
 40
1.0
 40
1.0
 10
9.8144676314
 20
10.5698906796
 30
0.0
 10
9.813492839
 20
10.570283745
 30
0.0
 10
9.8092904674
 20
10.5720382204
 30
0.0
 10
9.8051775409
 20
10.5740061272
 30
0.0
 10
9.8020724695
 20
10.5756269549
 30
0.0
  0
LINE
  5
378
100
AcDbEntity
  8
0
100
AcDbLine
 62
7
  6
CONTINUOUS
 10
9.8505555063
 20
10.5654609895
 11
9.8275835023
 21
10.5654489345
  0
SPLINE
  5
379
100
AcDbEntity
  8
0
100
AcDbSpline
 62
7
  6
CONTINUOUS
 70
0
 71
3
 72
15
 73
11
 74
0
 42
0.0000001
 43
0.0000001
 44
0.0000000001
 40
0.0
 40
0.0
 40
0.0
 40
0.0
 40
0.1213260628
 40
0.2430246932
 40
0.3654555747
 40
0.4889512973
 40
0.6138387656
 40
0.740448926
 40
0.8690963266
 40
1.0
 40
1.0
 40
1.0
 40
1.0
 10
9.7468955964
 20
10.5861014247
 30
0.0
 10
9.7439267681
 20
10.5880270766
 30
0.0
 10
9.7381238164
 20
10.5921114038
 30
0.0
 10
9.7298890223
 20
10.5988944348
 30
0.0
 10
9.7221423809
 20
10.6063225857
 30
0.0
 10
9.7149113546
 20
10.6143786621
 30
0.0
 10
9.7082234757
 20
10.623045421
 30
0.0
 10
9.7021069418
 20
10.6323050971
 30
0.0
 10
9.6965916254
 20
10.6421358843
 30
0.0
 10
9.693364456
 20
10.6489919944
 30
0.0
 10
9.6918596565
 20
10.6525009403
 30
0.0
  0
SPLINE
  5
37A
100
AcDbEntity
  8
0
100
AcDbSpline
 62
7
  6
CONTINUOUS
 70
0
 71
3
 72
9
 73
5
 74
0
 42
0.0000001
 43
0.0000001
 44
0.0000000001
 40
0.0
 40
0.0
 40
0.0
 40
0.0
 40
0.4666535788
 40
1.0
 40
1.0
 40
1.0
 40
1.0
 10
9.7886529859
 20
10.5675990594
 30
0.0
 10
9.7850401589
 20
10.5685773968
 30
0.0
 10
9.7773769136
 20
10.5709735221
 30
0.0
 10
9.7699227235
 20
10.573962038
 30
0.0
 10
9.7660175628
 20
10.5757084573
 30
0.0
  0
LINE
  5
37B
100
AcDbEntity
  8
0
100
AcDbLine
 62
7
  6
CONTINUOUS
 10
9.8112562833
 20
10.5654609895
 11
9.7977712625
 21
10.5654473248
  0
LINE
  5
37C
100
AcDbEntity
  8
0
100
AcDbLine
 62
7
  6
CONTINUOUS
 10
9.7914504972
 20
10.5654609895
 11
9.7900288149
 21
10.565459506
  0
LINE
  5
37D
100
AcDbEntity
  8
0
100
AcDbLine
 62
7
  6
CONTINUOUS
 10
9.7900288149
 20
10.565459506
 11
9.7890331917
 21
10.5654504733
  0
LINE
  5
37E
100
AcDbEntity
  8
0
100
AcDbLine
 62
7
  6
CONTINUOUS
 10
9.7916246236
 20
10.5654609744
 11
9.7936624024
 21
10.5654592951
  0
LINE
  5
37F
100
AcDbEntity
  8
0
100
AcDbLine
 62
7
  6
CONTINUOUS
 10
9.7936624024
 20
10.5654592951
 11
9.7965955557
 21
10.5654545686
  0
LINE
  5
380
100
AcDbEntity
  8
0
100
AcDbLine
 62
7
  6
CONTINUOUS
 10
9.7965955557
 20
10.5654545686
 11
9.7976732916
 21
10.565452527
  0
LINE
  5
381
100
AcDbEntity
  8
0
100
AcDbLine
 62
7
  6
CONTINUOUS
 10
9.7645543621
 20
10.5712206014
 11
9.7647593386
 21
10.5711589852
  0
LINE
  5
382
100
AcDbEntity
  8
0
100
AcDbLine
 62
7
  6
CONTINUOUS
 10
9.8125816178
 20
10.5654608912
 11
9.8275204242
 21
10.5654510378
  0
LINE
  5
383
100
AcDbEntity
  8
0
100
AcDbLine
 62
7
  6
CONTINUOUS
 10
12.2833803933
 20
10.5654609895
 11
12.2925100957
 21
10.5654553471
  0
LINE
  5
384
100
AcDbEntity
  8
0
100
AcDbLine
 62
7
  6
CONTINUOUS
 10
12.2925100957
 20
10.5654553471
 11
12.2952276936
 21
10.565450891
  0
LINE
  5
385
100
AcDbEntity
  8
0
100
AcDbLine
 62
7
  6
CONTINUOUS
 10
12.3031861794
 20
10.5654609895
 11
12.3055739098
 21
10.565452532
  0
LINE
  5
386
100
AcDbEntity
  8
0
100
AcDbLine
 62
7
  6
CONTINUOUS
 10
12.3031861794
 20
10.5654609895
 11
12.295165979
 21
10.5654489345
  0
LINE
  5
387
100
AcDbEntity
  8
0
100
AcDbLine
 62
7
  6
CONTINUOUS
 10
12.2833803933
 20
10.5654609895
 11
12.2635565779
 21
10.5654473248
  0
SPLINE
  5
388
100
AcDbEntity
  8
0
100
AcDbSpline
 62
7
  6
CONTINUOUS
 70
0
 71
3
 72
18
 73
14
 74
0
 42
0.0000001
 43
0.0000001
 44
0.0000000001
 40
0.0
 40
0.0
 40
0.0
 40
0.0
 40
0.1800666601
 40
0.3492147743
 40
0.5052876279
 40
0.6459784719
 40
0.7686181914
 40
0.8222710772
 40
0.8703177961
 40
0.9124032562
 40
0.948216569
 40
0.9774790467
 40
1.0
 40
1.0
 40
1.0
 40
1.0
 10
12.3347570814
 20
10.5768844066
 30
0.0
 10
12.3317912906
 20
10.5757638401
 30
0.0
 10
12.3259822894
 20
10.5737389349
 30
0.0
 10
12.3174454439
 20
10.5712238551
 30
0.0
 10
12.3094783958
 20
10.5692587645
 30
0.0
 10
12.3022418796
 20
10.567779605
 30
0.0
 10
12.2967360405
 20
10.5668587802
 30
0.0
 10
12.292824603
 20
10.5663076345
 30
0.0
 10
12.2903121874
 20
10.5659954552
 30
0.0
 10
12.2881072511
 20
10.5657586566
 30
0.0
 10
12.2862276535
 20
10.5655923258
 30
0.0
 10
12.284688564
 20
10.5654913863
 30
0.0
 10
12.2837769184
 20
10.5654609895
 30
0.0
 10
12.2833803933
 20
10.5654609895
 30
0.0
  0
SPLINE
  5
389
100
AcDbEntity
  8
0
100
AcDbSpline
 62
7
  6
CONTINUOUS
 70
0
 71
3
 72
15
 73
11
 74
0
 42
0.0000001
 43
0.0000001
 44
0.0000000001
 40
0.0
 40
0.0
 40
0.0
 40
0.0
 40
0.1237596756
 40
0.2475717427
 40
0.3715623117
 40
0.4959219184
 40
0.6208059355
 40
0.7463559025
 40
0.8727284489
 40
1.0
 40
1.0
 40
1.0
 40
1.0
 10
12.4308594294
 20
10.6523682005
 30
0.0
 10
12.4280556548
 20
10.6481526176
 30
0.0
 10
12.4221019101
 20
10.6399435722
 30
0.0
 10
12.4122140605
 20
10.6283792178
 30
0.0
 10
12.4014279794
 20
10.6176121091
 30
0.0
 10
12.389805407
 20
10.6076871755
 30
0.0
 10
12.3774054363
 20
10.5986442832
 30
0.0
 10
12.364286261
 20
10.5905230694
 30
0.0
 10
12.3505094127
 20
10.5833637421
 30
0.0
 10
12.3409618567
 20
10.5792718647
 30
0.0
 10
12.3361040374
 20
10.5773985695
 30
0.0
  0
LINE
  5
38A
100
AcDbEntity
  8
0
100
AcDbLine
 62
7
  6
CONTINUOUS
 10
12.2440811702
 20
10.5654609895
 11
12.2157563532
 21
10.5654489345
  0
SPLINE
  5
38B
100
AcDbEntity
  8
0
100
AcDbSpline
 62
7
  6
CONTINUOUS
 70
0
 71
3
 72
11
 73
7
 74
0
 42
0.0000001
 43
0.0000001
 44
0.0000000001
 40
0.0
 40
0.0
 40
0.0
 40
0.0
 40
0.2802379362
 40
0.5429514481
 40
0.7843558817
 40
1.0
 40
1.0
 40
1.0
 40
1.0
 10
12.3081528375
 20
10.5774891062
 30
0.0
 10
12.3040894773
 20
10.5760511758
 30
0.0
 10
12.2961232676
 20
10.5735227841
 30
0.0
 10
12.2844206938
 20
10.5705672714
 30
0.0
 10
12.273555054
 20
10.5684244882
 30
0.0
 10
12.2666008151
 20
10.5673800518
 30
0.0
 10
12.2633109956
 20
10.5669580238
 30
0.0
  0
LINE
  5
38C
100
AcDbEntity
  8
0
100
AcDbLine
 62
7
  6
CONTINUOUS
 10
12.2633109956
 20
10.5669580238
 11
12.2629989707
 21
10.5669182129
  0
SPLINE
  5
38D
100
AcDbEntity
  8
0
100
AcDbSpline
 62
7
  6
CONTINUOUS
 70
0
 71
3
 72
12
 73
8
 74
0
 42
0.0000001
 43
0.0000001
 44
0.0000000001
 40
0.0
 40
0.0
 40
0.0
 40
0.0
 40
0.3112392287
 40
0.5839823043
 40
0.8145771346
 40
0.9130895842
 40
1.0
 40
1.0
 40
1.0
 40
1.0
 10
12.2629989707
 20
10.5669182129
 30
0.0
 10
12.2610451346
 20
10.5666702811
 30
0.0
 10
12.2573729442
 20
10.5662520157
 30
0.0
 10
12.2522376331
 20
10.5658009858
 30
0.0
 10
12.2484355645
 20
10.5655690419
 30
0.0
 10
12.2458044973
 20
10.5654774737
 30
0.0
 10
12.2446311343
 20
10.5654609895
 30
0.0
 10
12.2440811702
 20
10.5654609895
 30
0.0
  0
SPLINE
  5
38E
100
AcDbEntity
  8
0
100
AcDbSpline
 62
7
  6
CONTINUOUS
 70
0
 71
3
 72
11
 73
7
 74
0
 42
0.0000001
 43
0.0000001
 44
0.0000000001
 40
0.0
 40
0.0
 40
0.0
 40
0.0
 40
0.2467676621
 40
0.4953451656
 40
0.7462857884
 40
1.0
 40
1.0
 40
1.0
 40
1.0
 10
12.4093646187
 20
10.6523453593
 30
0.0
 10
12.403832698
 20
10.6448144479
 30
0.0
 10
12.3916566068
 20
10.6304553905
 30
0.0
 10
12.3705961306
 20
10.6114942691
 30
0.0
 10
12.3470385695
 20
10.5952791253
 30
0.0
 10
12.3299963254
 20
10.5865025455
 30
0.0
 10
12.3211977673
 20
10.5826441386
 30
0.0
  0
LINE
  5
38F
100
AcDbEntity
  8
0
100
AcDbLine
 62
7
  6
CONTINUOUS
 10
12.1859082824
 20
10.5654609895
 11
12.1451456261
 21
10.5654473248
  0
SPLINE
  5
390
100
AcDbEntity
  8
0
100
AcDbSpline
 62
7
  6
CONTINUOUS
 70
0
 71
3
 72
15
 73
11
 74
0
 42
0.0000001
 43
0.0000001
 44
0.0000000001
 40
0.0
 40
0.0
 40
0.0
 40
0.0
 40
0.306944895
 40
0.4515454402
 40
0.5876847523
 40
0.7131171235
 40
0.8253400213
 40
0.9217502673
 40
0.9632755526
 40
1.0
 40
1.0
 40
1.0
 40
1.0
 10
12.2516124814
 20
10.5768844066
 30
0.0
 10
12.2451396275
 20
10.5746459094
 30
0.0
 10
12.2354225687
 20
10.5718907014
 30
0.0
 10
12.2225818256
 20
10.569221596
 30
0.0
 10
12.2136371819
 20
10.5677446052
 30
0.0
 10
12.2053623933
 20
10.5666861267
 30
0.0
 10
12.1979404352
 20
10.5659818306
 30
0.0
 10
12.1923687249
 20
10.5656262971
 30
0.0
 10
12.1884737795
 20
10.5654862659
 30
0.0
 10
12.1867277307
 20
10.5654609895
 30
0.0
 10
12.1859082824
 20
10.5654609895
 30
0.0
  0
SPLINE
  5
391
100
AcDbEntity
  8
0
100
AcDbSpline
 62
7
  6
CONTINUOUS
 70
0
 71
3
 72
11
 73
7
 74
0
 42
0.0000001
 43
0.0000001
 44
0.0000000001
 40
0.0
 40
0.0
 40
0.0
 40
0.0
 40
0.2459229654
 40
0.4945333705
 40
0.7459204522
 40
1.0
 40
1.0
 40
1.0
 40
1.0
 10
12.3608277674
 20
10.6523682005
 30
0.0
 10
12.3539082479
 20
10.6437969787
 30
0.0
 10
12.338666605
 20
10.6275922733
 30
0.0
 10
12.3124487027
 20
10.6067111668
 30
0.0
 10
12.2832991521
 20
10.5894466256
 30
0.0
 10
12.2623685039
 20
10.5806041454
 30
0.0
 10
12.2516124814
 20
10.5768844066
 30
0.0
  0
LINE
  5
392
100
AcDbEntity
  8
0
100
AcDbLine
 62
7
  6
CONTINUOUS
 10
12.109779151
 20
10.5654609895
 11
12.0629294697
 21
10.5654489345
  0
SPLINE
  5
393
100
AcDbEntity
  8
0
100
AcDbSpline
 62
7
  6
CONTINUOUS
 70
0
 71
3
 72
15
 73
11
 74
0
 42
0.0000001
 43
0.0000001
 44
0.0000000001
 40
0.0
 40
0.0
 40
0.0
 40
0.0
 40
0.291640081
 40
0.4318434618
 40
0.5660898973
 40
0.692405952
 40
0.8084912625
 40
0.911822598
 40
0.9579449128
 40
1.0
 40
1.0
 40
1.0
 40
1.0
 10
12.2035515693
 20
10.5826441386
 30
0.0
 10
12.1949354148
 20
10.5790929916
 30
0.0
 10
12.1817547107
 20
10.574813735
 30
0.0
 10
12.1641072731
 20
10.5708237104
 30
0.0
 10
12.1514806267
 20
10.5686503997
 30
0.0
 10
12.1395377572
 20
10.5671341428
 30
0.0
 10
12.1285313522
 20
10.5661539359
 30
0.0
 10
12.1200577971
 20
10.5656785089
 30
0.0
 10
12.1139407411
 20
10.5654935216
 30
0.0
 10
12.1111230082
 20
10.5654609895
 30
0.0
 10
12.109779151
 20
10.5654609895
 30
0.0
  0
SPLINE
  5
394
100
AcDbEntity
  8
0
100
AcDbSpline
 62
7
  6
CONTINUOUS
 70
0
 71
3
 72
12
 73
8
 74
0
 42
0.0000001
 43
0.0000001
 44
0.0000000001
 40
0.0
 40
0.0
 40
0.0
 40
0.0
 40
0.2468202511
 40
0.3711601885
 40
0.4960458811
 40
0.7471871031
 40
1.0
 40
1.0
 40
1.0
 40
1.0
 10
12.3005943325
 20
10.6523453593
 30
0.0
 10
12.2941618611
 20
10.6447971911
 30
0.0
 10
12.2837537103
 20
10.6340469391
 30
0.0
 10
12.2686453757
 20
10.6210352814
 30
0.0
 10
12.252649666
 20
10.6088374406
 30
0.0
 10
12.231238518
 20
10.5953116671
 30
0.0
 10
12.2129431924
 20
10.5865148948
 30
0.0
 10
12.2035515693
 20
10.5826441386
 30
0.0
  0
LINE
  5
395
100
AcDbEntity
  8
0
100
AcDbLine
 62
7
  6
CONTINUOUS
 10
12.0168943778
 20
10.5654609895
 11
11.9577541483
 21
10.5654473248
  0
SPLINE
  5
396
100
AcDbEntity
  8
0
100
AcDbSpline
 62
7
  6
CONTINUOUS
 70
0
 71
3
 72
15
 73
11
 74
0
 42
0.0000001
 43
0.0000001
 44
0.0000000001
 40
0.0
 40
0.0
 40
0.0
 40
0.0
 40
0.1397545971
 40
0.2787465458
 40
0.415511179
 40
0.5484501867
 40
0.6756493552
 40
0.7949050529
 40
0.9038095972
 40
1.0
 40
1.0
 40
1.0
 40
1.0
 10
12.0927976514
 20
10.5768844066
 30
0.0
 10
12.0893971659
 20
10.5757335858
 30
0.0
 10
12.08253852
 20
10.5736586342
 30
0.0
 10
12.072158831
 20
10.5711520451
 30
0.0
 10
12.0618408144
 20
10.5691941412
 30
0.0
 10
12.0517497713
 20
10.5677207216
 30
0.0
 10
12.0420595133
 20
10.5666656456
 30
0.0
 10
12.0329567951
 20
10.565964623
 30
0.0
 10
12.0246337622
 20
10.5655628952
 30
0.0
 10
12.0193652666
 20
10.5654609895
 30
0.0
 10
12.0168943778
 20
10.5654609895
 30
0.0
  0
SPLINE
  5
397
100
AcDbEntity
  8
0
100
AcDbSpline
 62
7
  6
CONTINUOUS
 70
0
 71
3
 72
11
 73
7
 74
0
 42
0.0000001
 43
0.0000001
 44
0.0000000001
 40
0.0
 40
0.0
 40
0.0
 40
0.0
 40
0.2480161369
 40
0.4978657129
 40
0.7487923791
 40
1.0
 40
1.0
 40
1.0
 40
1.0
 10
12.2082634773
 20
10.6523682005
 30
0.0
 10
12.2005623194
 20
10.6437996516
 30
0.0
 10
12.1839117222
 20
10.6276344055
 30
0.0
 10
12.155963607
 20
10.6067776454
 30
0.0
 10
12.1254917292
 20
10.5895210806
 30
0.0
 10
12.103850833
 20
10.5806251171
 30
0.0
 10
12.0927976514
 20
10.5768844066
 30
0.0
  0
LINE
  5
398
100
AcDbEntity
  8
0
100
AcDbLine
 62
7
  6
CONTINUOUS
 10
11.9087188114
 20
10.5654609895
 11
11.8462880037
 21
10.5654489345
  0
SPLINE
  5
399
100
AcDbEntity
  8
0
100
AcDbSpline
 62
7
  6
CONTINUOUS
 70
0
 71
3
 72
14
 73
10
 74
0
 42
0.0000001
 43
0.0000001
 44
0.0000000001
 40
0.0
 40
0.0
 40
0.0
 40
0.0
 40
0.2676064464
 40
0.4010467461
 40
0.5324510369
 40
0.6601697428
 40
0.7822102157
 40
0.8962737314
 40
1.0
 40
1.0
 40
1.0
 40
1.0
 10
12.0132549851
 20
10.5826441386
 30
0.0
 10
12.004471504
 20
10.579014286
 30
0.0
 10
11.9908169988
 20
10.5747196935
 30
0.0
 10
11.9723175486
 20
10.570787888
 30
0.0
 10
11.9585381482
 20
10.5686205643
 30
0.0
 10
11.9450825739
 20
10.5671099906
 30
0.0
 10
11.9321958593
 20
10.5661351064
 30
0.0
 10
11.9201376255
 20
10.5655919423
 30
0.0
 10
11.91240262
 20
10.5654609895
 30
0.0
 10
11.9087188114
 20
10.5654609895
 30
0.0
  0
SPLINE
  5
39A
100
AcDbEntity
  8
0
100
AcDbSpline
 62
7
  6
CONTINUOUS
 70
0
 71
3
 72
12
 73
8
 74
0
 42
0.0000001
 43
0.0000001
 44
0.0000000001
 40
0.0
 40
0.0
 40
0.0
 40
0.0
 40
0.2498078355
 40
0.5002837045
 40
0.6255557081
 40
0.7506793749
 40
1.0
 40
1.0
 40
1.0
 40
1.0
 10
12.1130761063
 20
10.6523453593
 30
0.0
 10
12.106175894
 20
10.6448146071
 30
0.0
 10
12.0914894903
 20
10.6305059374
 30
0.0
 10
12.0712873205
 20
10.614735651
 30
0.0
 10
12.0541716482
 20
10.6034735657
 30
0.0
 10
12.0365171209
 20
10.5931747559
 30
0.0
 10
12.0226762339
 20
10.5865375545
 30
0.0
 10
12.0132549851
 20
10.5826441386
 30
0.0
  0
LINE
  5
39B
100
AcDbEntity
  8
0
100
AcDbLine
 62
7
  6
CONTINUOUS
 10
11.7869584449
 20
10.5654609895
 11
11.7131566401
 21
10.5654473248
  0
SPLINE
  5
39C
100
AcDbEntity
  8
0
100
AcDbSpline
 62
7
  6
CONTINUOUS
 70
0
 71
3
 72
15
 73
11
 74
0
 42
0.0000001
 43
0.0000001
 44
0.0000000001
 40
0.0
 40
0.0
 40
0.0
 40
0.0
 40
0.1271043171
 40
0.2564540683
 40
0.3869171484
 40
0.5172094668
 40
0.6457266812
 40
0.7705373146
 40
0.8894133724
 40
1.0
 40
1.0
 40
1.0
 40
1.0
 10
11.8682915112
 20
10.5768844066
 30
0.0
 10
11.8649959839
 20
10.5757208959
 30
0.0
 10
11.8582554956
 20
10.5736263288
 30
0.0
 10
11.8479092907
 20
10.571124499
 30
0.0
 10
11.8373576547
 20
10.5691709801
 30
0.0
 10
11.8267524237
 20
10.5677015448
 30
0.0
 10
11.8162547335
 20
10.566650216
 30
0.0
 10
11.8060428277
 20
10.565953047
 30
0.0
 10
11.7963087297
 20
10.5655556687
 30
0.0
 10
11.7899991608
 20
10.5654609895
 30
0.0
 10
11.7869584449
 20
10.5654609895
 30
0.0
  0
SPLINE
  5
39D
100
AcDbEntity
  8
0
100
AcDbSpline
 62
7
  6
CONTINUOUS
 70
0
 71
3
 72
11
 73
7
 74
0
 42
0.0000001
 43
0.0000001
 44
0.0000000001
 40
0.0
 40
0.0
 40
0.0
 40
0.0
 40
0.2530078892
 40
0.5048717171
 40
0.7542636677
 40
1.0
 40
1.0
 40
1.0
 40
1.0
 10
11.9827527344
 20
10.6523682005
 30
0.0
 10
11.9747905858
 20
10.643841325
 30
0.0
 10
11.9578575981
 20
10.6277706595
 30
0.0
 10
11.9299297087
 20
10.6069139332
 30
0.0
 10
11.9000383856
 20
10.5896440387
 30
0.0
 10
11.8789761833
 20
10.5806567105
 30
0.0
 10
11.8682915112
 20
10.5768844066
 30
0.0
  0
LINE
  5
39E
100
AcDbEntity
  8
0
100
AcDbLine
 62
7
  6
CONTINUOUS
 10
11.6535335121
 20
10.5654609895
 11
11.5794443352
 21
10.5654489345
  0
SPLINE
  5
39F
100
AcDbEntity
  8
0
100
AcDbSpline
 62
7
  6
CONTINUOUS
 70
0
 71
3
 72
15
 73
11
 74
0
 42
0.0000001
 43
0.0000001
 44
0.0000000001
 40
0.0
 40
0.0
 40
0.0
 40
0.0
 40
0.1224885285
 40
0.2479124188
 40
0.3755268018
 40
0.5043459187
 40
0.6330640213
 40
0.759999907
 40
0.8830791227
 40
1.0
 40
1.0
 40
1.0
 40
1.0
 10
11.7622650489
 20
10.5826441386
 30
0.0
 10
11.7581272552
 20
10.5808142554
 30
0.0
 10
11.7495591562
 20
10.5775380277
 30
0.0
 10
11.7362175907
 20
10.573697149
 30
0.0
 10
11.7224129523
 20
10.5707559892
 30
0.0
 10
11.708345376
 20
10.568595331
 30
0.0
 10
11.6942200175
 20
10.5670904861
 30
0.0
 10
11.6802618443
 20
10.5661212663
 30
0.0
 10
11.6667174279
 20
10.5655838854
 30
0.0
 10
11.6578522172
 20
10.5654609895
 30
0.0
 10
11.6535335121
 20
10.5654609895
 30
0.0
  0
SPLINE
  5
3A0
100
AcDbEntity
  8
0
100
AcDbSpline
 62
7
  6
CONTINUOUS
 70
0
 71
3
 72
11
 73
7
 74
0
 42
0.0000001
 43
0.0000001
 44
0.0000000001
 40
0.0
 40
0.0
 40
0.0
 40
0.0
 40
0.2553604614
 40
0.5079565729
 40
0.7565321144
 40
1.0
 40
1.0
 40
1.0
 40
1.0
 10
11.8585924
 20
10.6523453593
 30
0.0
 10
11.8516844627
 20
10.6448593545
 30
0.0
 10
11.8371906071
 20
10.6306436101
 30
0.0
 10
11.8136203434
 20
10.611721133
 30
0.0
 10
11.7886683477
 20
10.5955157568
 30
0.0
 10
11.7711471286
 20
10.5865721179
 30
0.0
 10
11.7622650489
 20
10.5826441386
 30
0.0
  0
LINE
  5
3A1
100
AcDbEntity
  8
0
100
AcDbLine
 62
7
  6
CONTINUOUS
 10
11.5105482038
 20
10.5654609895
 11
11.453573867
 21
10.5654542589
  0
SPLINE
  5
3A2
100
AcDbEntity
  8
0
100
AcDbSpline
 62
7
  6
CONTINUOUS
 70
0
 71
3
 72
15
 73
11
 74
0
 42
0.0000001
 43
0.0000001
 44
0.0000000001
 40
0.0
 40
0.0
 40
0.0
 40
0.0
 40
0.1158738532
 40
0.2364935014
 40
0.3611403037
 40
0.488894684
 40
0.6184895628
 40
0.7482797005
 40
0.8762267123
 40
1.0
 40
1.0
 40
1.0
 40
1.0
 10
11.5922006071
 20
10.5768844066
 30
0.0
 10
11.5892231152
 20
10.5757084593
 30
0.0
 10
11.5830309406
 20
10.5735944648
 30
0.0
 10
11.5733636512
 20
10.5710975177
 30
0.0
 10
11.5632381916
 20
10.569148852
 30
0.0
 10
11.5527831404
 20
10.5676839598
 30
0.0
 10
11.5421364146
 20
10.5666368271
 30
0.0
 10
11.5314562813
 20
10.5659436734
 30
0.0
 10
11.5209223829
 20
10.5655504022
 30
0.0
 10
11.5139677431
 20
10.5654609895
 30
0.0
 10
11.5105482038
 20
10.5654609895
 30
0.0
  0
SPLINE
  5
3A3
100
AcDbEntity
  8
0
100
AcDbSpline
 62
7
  6
CONTINUOUS
 70
0
 71
3
 72
13
 73
9
 74
0
 42
0.0000001
 43
0.0000001
 44
0.0000000001
 40
0.0
 40
0.0
 40
0.0
 40
0.0
 40
0.2609224275
 40
0.5156440037
 40
0.6401636093
 40
0.7624975606
 40
0.8825049162
 40
1.0
 40
1.0
 40
1.0
 40
1.0
 10
11.6984652082
 20
10.6523682005
 30
0.0
 10
11.6907721195
 20
10.6439151789
 30
0.0
 10
11.6746821061
 20
10.6279934144
 30
0.0
 10
11.6527163246
 20
10.6104678612
 30
0.0
 10
11.6344438395
 20
10.5982486372
 30
0.0
 10
11.6205854413
 20
10.5900933768
 30
0.0
 10
11.6065388817
 20
10.5829210878
 30
0.0
 10
11.5969876371
 20
10.5787750231
 30
0.0
 10
11.5922006071
 20
10.5768844066
 30
0.0
  0
SPLINE
  5
3A4
100
AcDbEntity
  8
0
100
AcDbSpline
 62
7
  6
CONTINUOUS
 70
0
 71
3
 72
9
 73
5
 74
0
 42
0.0000001
 43
0.0000001
 44
0.0000000001
 40
0.0
 40
0.0
 40
0.0
 40
0.0
 40
0.2454000587
 40
1.0
 40
1.0
 40
1.0
 40
1.0
 10
11.4663523815
 20
10.5826441386
 30
0.0
 10
11.4653409626
 20
10.5821282654
 30
0.0
 10
11.4611822369
 20
10.5800993273
 30
0.0
 10
11.4568883053
 20
10.5783520319
 30
0.0
 10
11.4536025791
 20
10.5771717707
 30
0.0
  0
SPLINE
  5
3A5
100
AcDbEntity
  8
0
100
AcDbSpline
 62
7
  6
CONTINUOUS
 70
0
 71
3
 72
11
 73
7
 74
0
 42
0.0000001
 43
0.0000001
 44
0.0000000001
 40
0.0
 40
0.0
 40
0.0
 40
0.0
 40
0.2620780756
 40
0.5169840743
 40
0.7633322076
 40
1.0
 40
1.0
 40
1.0
 40
1.0
 10
11.5531333607
 20
10.6523453593
 30
0.0
 10
11.5472393667
 20
10.6455808195
 30
0.0
 10
11.5350922984
 20
10.6326791532
 30
0.0
 10
11.5156934969
 20
10.6151274619
 30
0.0
 10
11.4955826041
 20
10.5997898099
 30
0.0
 10
11.4815616372
 20
10.5909688349
 30
0.0
 10
11.4744954144
 20
10.5870047857
 30
0.0
  0
SPLINE
  5
3A6
100
AcDbEntity
  8
0
100
AcDbSpline
 62
7
  6
CONTINUOUS
 70
0
 71
3
 72
42
 73
38
 74
0
 42
0.0000001
 43
0.0000001
 44
0.0000000001
 40
0.0
 40
0.0
 40
0.0
 40
0.0
 40
0.0125789032
 40
0.0252170316
 40
0.0379247009
 40
0.0507113741
 40
0.0635858696
 40
0.0765564359
 40
0.0896306723
 40
0.1028154714
 40
0.1295358868
 40
0.1567639424
 40
0.1845297634
 40
0.2128532286
 40
0.2417449174
 40
0.2712070919
 40
0.3012345789
 40
0.3318154901
 40
0.3629317659
 40
0.3945595838
 40
0.4266696875
 40
0.459227686
 40
0.4921943734
 40
0.5255260957
 40
0.5591751763
 40
0.5930904051
 40
0.6272175837
 40
0.6615001206
 40
0.6958796641
 40
0.7302967603
 40
0.7646915286
 40
0.7990043415
 40
0.8331765022
 40
0.8671509132
 40
0.9008726926
 40
0.9342898934
 40
1.0
 40
1.0
 40
1.0
 40
1.0
 10
8.9090524046
 20
4.7411525785
 30
0.0
 10
8.9113895608
 20
4.7251990877
 30
0.0
 10
8.9167660299
 20
4.6933139731
 30
0.0
 10
8.9268945465
 20
4.6457542507
 30
0.0
 10
8.9390968937
 20
4.5984080805
 30
0.0
 10
8.9533622821
 20
4.5513259615
 30
0.0
 10
8.9696784046
 20
4.5045577335
 30
0.0
 10
8.9880291983
 20
4.4581537036
 30
0.0
 10
9.0083968493
 20
4.4121630789
 30
0.0
 10
9.0383437439
 20
4.35119662
 30
0.0
 10
9.080801078
 20
4.2762412086
 30
0.0
 10
9.1391808769
 20
4.1891660482
 30
0.0
 10
9.2049611975
 20
4.1049175633
 30
0.0
 10
9.2778437421
 20
4.0238498015
 30
0.0
 10
9.3575043368
 20
3.9462887622
 30
0.0
 10
9.4435950655
 20
3.8725375946
 30
0.0
 10
9.535749451
 20
3.8028743586
 30
0.0
 10
9.633585661
 20
3.737553161
 30
0.0
 10
9.7367089574
 20
3.6768052388
 30
0.0
 10
9.844713112
 20
3.6208404088
 30
0.0
 10
9.9571811669
 20
3.569848392
 30
0.0
 10
10.0736858002
 20
3.5239999081
 30
0.0
 10
10.1937895247
 20
3.4834473489
 30
0.0
 10
10.3170449662
 20
3.4483250981
 30
0.0
 10
10.4429953465
 20
3.4187495477
 30
0.0
 10
10.5711752419
 20
3.3948189022
 30
0.0
 10
10.7011116281
 20
3.3766128173
 30
0.0
 10
10.8323252128
 20
3.3641920734
 30
0.0
 10
10.9643319907
 20
3.3575982467
 30
0.0
 10
11.0966449446
 20
3.3568534468
 30
0.0
 10
11.2287759376
 20
3.3619601922
 30
0.0
 10
11.3602373306
 20
3.3729013211
 30
0.0
 10
11.4905447559
 20
3.3896403694
 30
0.0
 10
11.6192154291
 20
3.4121207245
 30
0.0
 10
11.7457825164
 20
3.4402699388
 30
0.0
 10
11.9101382732
 20
3.4849699591
 30
0.0
 10
12.0303198831
 20
3.5270346377
 30
0.0
 10
12.1082998157
 20
3.5588697685
 30
0.0
  0
SPLINE
  5
3A7
100
AcDbEntity
  8
0
100
AcDbSpline
 62
7
  6
CONTINUOUS
 70
0
 71
3
 72
26
 73
22
 74
0
 42
0.0000001
 43
0.0000001
 44
0.0000000001
 40
0.0
 40
0.0
 40
0.0
 40
0.0
 40
0.140319671
 40
0.2089580899
 40
0.2764956035
 40
0.3428915034
 40
0.4081162265
 40
0.4721524739
 40
0.5037269744
 40
0.5350041069
 40
0.5966663006
 40
0.6571741923
 40
0.6870133877
 40
0.7165827478
 40
0.7749387327
 40
0.8323380829
 40
0.8888887271
 40
0.9168908013
 40
0.9447304212
 40
0.9724266061
 40
1.0
 40
1.0
 40
1.0
 40
1.0
 10
12.1082998168
 20
3.5588697688
 30
0.0
 10
12.1807194048
 20
3.5884349776
 30
0.0
 10
12.2865917841
 20
3.6376179442
 30
0.0
 10
12.4210019864
 20
3.7131614681
 30
0.0
 10
12.5164296173
 20
3.7736492232
 30
0.0
 10
12.6068444283
 20
3.8381767714
 30
0.0
 10
12.6919133683
 20
3.9065338322
 30
0.0
 10
12.7583929178
 20
3.9667828323
 30
0.0
 10
12.808543592
 20
4.0166800415
 30
0.0
 10
12.8561867727
 20
4.0671716196
 30
0.0
 10
12.9118772274
 20
4.1321850361
 30
0.0
 10
12.962610677
 20
4.2001466072
 30
0.0
 10
12.9997389448
 20
4.2557510581
 30
0.0
 10
13.0342384997
 20
4.3116172816
 30
0.0
 10
13.0730580706
 20
4.3828137486
 30
0.0
 10
13.1126363519
 20
4.4704307152
 30
0.0
 10
13.1395797618
 20
4.5449294784
 30
0.0
 10
13.1573415921
 20
4.6050272619
 30
0.0
 10
13.1687447885
 20
4.650192
 30
0.0
 10
13.178261999
 20
4.6955459278
 30
0.0
 10
13.1833560338
 20
4.725942649
 30
0.0
 10
13.1855840877
 20
4.7411512781
 30
0.0
  0
SPLINE
  5
3A8
100
AcDbEntity
  8
0
100
AcDbSpline
 62
7
  6
CONTINUOUS
 70
0
 71
3
 72
29
 73
25
 74
0
 42
0.0000001
 43
0.0000001
 44
0.0000000001
 40
0.0
 40
0.0
 40
0.0
 40
0.0
 40
0.0277605309
 40
0.0555501839
 40
0.0833944724
 40
0.1113213811
 40
0.1393578261
 40
0.1675295214
 40
0.1958615083
 40
0.2243778046
 40
0.253101174
 40
0.2820530761
 40
0.3407087298
 40
0.4004997226
 40
0.461541758
 40
0.5239233426
 40
0.5877055457
 40
0.6201381028
 40
0.652931384
 40
0.7195912341
 40
0.7876775746
 40
0.8571513177
 40
0.9279515439
 40
1.0
 40
1.0
 40
1.0
 40
1.0
 10
9.4273183383
 20
5.4851550294
 30
0.0
 10
9.4273183383
 20
5.4977880358
 30
0.0
 10
9.4279030255
 20
5.5230711858
 30
0.0
 10
9.430531773
 20
5.5609432469
 30
0.0
 10
9.4349097071
 20
5.5987301355
 30
0.0
 10
9.4410310626
 20
5.6363874548
 30
0.0
 10
9.4488879351
 20
5.673873418
 30
0.0
 10
9.4584709829
 20
5.7111457943
 30
0.0
 10
9.4697680157
 20
5.7481631194
 30
0.0
 10
9.4827653451
 20
5.7848841994
 30
0.0
 10
9.4974476237
 20
5.8212693909
 30
0.0
 10
9.5193383392
 20
5.8694847714
 30
0.0
 10
9.5509085911
 20
5.928762162
 30
0.0
 10
9.5950399589
 20
5.9975920726
 30
0.0
 10
9.6453843081
 20
6.0641533914
 30
0.0
 10
9.7017102876
 20
6.1281647628
 30
0.0
 10
9.7531424022
 20
6.1788852563
 30
0.0
 10
9.7969731563
 20
6.2179559553
 30
0.0
 10
9.8430761152
 20
6.2563975088
 30
0.0
 10
9.9039837494
 20
6.3023499319
 30
0.0
 10
9.9815297529
 20
6.353668791
 30
0.0
 10
10.0636038919
 20
6.401257501
 30
0.0
 10
10.1498517649
 20
6.4449186296
 30
0.0
 10
10.2094040491
 20
6.4710749518
 30
0.0
 10
10.2397590488
 20
6.4834673285
 30
0.0
  0
SPLINE
  5
3A9
100
AcDbEntity
  8
0
100
AcDbSpline
 62
7
  6
CONTINUOUS
 70
0
 71
3
 72
9
 73
5
 74
0
 42
0.0000001
 43
0.0000001
 44
0.0000000001
 40
0.0
 40
0.0
 40
0.0
 40
0.0
 40
0.2469242364
 40
1.0
 40
1.0
 40
1.0
 40
1.0
 10
10.2437257721
 20
6.4850814465
 30
0.0
 10
10.2621051489
 20
6.4925358151
 30
0.0
 10
10.3370136198
 20
6.52154322
 30
0.0
 10
10.4137239343
 20
6.5458671072
 30
0.0
 10
10.4721276446
 20
6.5616120534
 30
0.0
  0
SPLINE
  5
3AA
100
AcDbEntity
  8
0
100
AcDbSpline
 62
7
  6
CONTINUOUS
 70
0
 71
3
 72
29
 73
25
 74
0
 42
0.0000001
 43
0.0000001
 44
0.0000000001
 40
0.0
 40
0.0
 40
0.0
 40
0.0
 40
0.0728196355
 40
0.1445080861
 40
0.2149171076
 40
0.2839206733
 40
0.3514183931
 40
0.4173388814
 40
0.4816430481
 40
0.5443271943
 40
0.6054256059
 40
0.6650124854
 40
0.6942809898
 40
0.7232182415
 40
0.75184495
 40
0.7801842235
 40
0.808261471
 40
0.8361042398
 40
0.8637420635
 40
0.8912063014
 40
0.9185296117
 40
0.945746049
 40
0.9728916261
 40
1.0
 40
1.0
 40
1.0
 40
1.0
 10
11.6224830291
 20
6.5616190795
 30
0.0
 10
11.6602271066
 20
6.5514442652
 30
0.0
 10
11.7345765686
 20
6.5291273696
 30
0.0
 10
11.8430055046
 20
6.4895143669
 30
0.0
 10
11.9469606628
 20
6.4442116641
 30
0.0
 10
12.0458527947
 20
6.3934671179
 30
0.0
 10
12.1391264223
 20
6.3375557694
 30
0.0
 10
12.2262547019
 20
6.2767797195
 30
0.0
 10
12.3067429779
 20
6.2114667435
 30
0.0
 10
12.3801315215
 20
6.1419671792
 30
0.0
 10
12.445991971
 20
6.0686608016
 30
0.0
 10
12.4945756824
 20
6.0043342891
 30
0.0
 10
12.5292038892
 20
5.9514025093
 30
0.0
 10
12.5529169852
 20
5.9112507495
 30
0.0
 10
12.5744866048
 20
5.8704716656
 30
0.0
 10
12.5938797816
 20
5.8291222375
 30
0.0
 10
12.6110659677
 20
5.7872619247
 30
0.0
 10
12.6260180543
 20
5.7449512235
 30
0.0
 10
12.6387116822
 20
5.7022517423
 30
0.0
 10
12.6491262161
 20
5.6592263771
 30
0.0
 10
12.6572446777
 20
5.6159391987
 30
0.0
 10
12.6630533307
 20
5.5724539932
 30
0.0
 10
12.6665422294
 20
5.5288383618
 30
0.0
 10
12.6673183383
 20
5.4997075042
 30
0.0
 10
12.6673183383
 20
5.4851550294
 30
0.0
  0
SPLINE
  5
3AB
100
AcDbEntity
  8
0
100
AcDbSpline
 62
7
  6
CONTINUOUS
 70
0
 71
3
 72
30
 73
26
 74
0
 42
0.0000001
 43
0.0000001
 44
0.0000000001
 40
0.0
 40
0.0
 40
0.0
 40
0.0
 40
0.0280965484
 40
0.0562177728
 40
0.08438727
 40
0.1126291538
 40
0.1409670044
 40
0.1694237033
 40
0.1980215761
 40
0.2267821481
 40
0.2557260241
 40
0.2848728248
 40
0.3438354351
 40
0.4038161918
 40
0.4342296537
 40
0.4649374374
 40
0.5272653125
 40
0.5908745351
 40
0.6231773946
 40
0.6558132208
 40
0.7220785154
 40
0.7896707864
 40
0.8585594563
 40
0.9286923537
 40
1.0
 40
1.0
 40
1.0
 40
1.0
 10
9.1423183383
 20
5.3277726261
 30
0.0
 10
9.1423183383
 20
5.3429742098
 30
0.0
 10
9.1430194555
 20
5.3733953738
 30
0.0
 10
9.14617167
 20
5.4189593303
 30
0.0
 10
9.1514199548
 20
5.4644097163
 30
0.0
 10
9.1587558907
 20
5.509688467
 30
0.0
 10
9.1681675989
 20
5.5547403148
 30
0.0
 10
9.1796410104
 20
5.5995102939
 30
0.0
 10
9.1931582257
 20
5.6439450363
 30
0.0
 10
9.2086992337
 20
5.687992133
 30
0.0
 10
9.2262419156
 20
5.7316016277
 30
0.0
 10
9.2523636995
 20
5.7893126631
 30
0.0
 10
9.289983655
 20
5.8601661954
 30
0.0
 10
9.3335585134
 20
5.928325052
 30
0.0
 10
9.3719889841
 20
5.9814098965
 30
0.0
 10
9.4131857396
 20
6.034001571
 30
0.0
 10
9.4691450901
 20
6.097759496
 30
0.0
 10
9.5300855049
 20
6.1579968511
 30
0.0
 10
9.5819629108
 20
6.2043384312
 30
0.0
 10
9.6364481286
 20
6.249860104
 30
0.0
 10
9.708363167
 20
6.30421722
 30
0.0
 10
9.7998519837
 20
6.3648568243
 30
0.0
 10
9.8965856805
 20
6.4210130245
 30
0.0
 10
9.9981496508
 20
6.4724687504
 30
0.0
 10
10.0682520622
 20
6.5032684945
 30
0.0
 10
10.1039710028
 20
6.5178506909
 30
0.0
  0
SPLINE
  5
3AC
100
AcDbEntity
  8
0
100
AcDbSpline
 62
7
  6
CONTINUOUS
 70
0
 71
3
 72
10
 73
6
 74
0
 42
0.0000001
 43
0.0000001
 44
0.0000000001
 40
0.0
 40
0.0
 40
0.0
 40
0.0
 40
0.4949189352
 40
0.7463379822
 40
1.0
 40
1.0
 40
1.0
 40
1.0
 10
10.1039710028
 20
6.5178506909
 30
0.0
 10
10.1630661336
 20
6.541976177
 30
0.0
 10
10.2538240057
 20
6.5744907628
 30
0.0
 10
10.3776958178
 20
6.6104685634
 30
0.0
 10
10.4409551812
 20
6.6261060968
 30
0.0
 10
10.4728629973
 20
6.6333283012
 30
0.0
  0
SPLINE
  5
3AD
100
AcDbEntity
  8
0
100
AcDbSpline
 62
7
  6
CONTINUOUS
 70
0
 71
3
 72
30
 73
26
 74
0
 42
0.0000001
 43
0.0000001
 44
0.0000000001
 40
0.0
 40
0.0
 40
0.0
 40
0.0
 40
0.0722215864
 40
0.1434379139
 40
0.2134859203
 40
0.28222586
 40
0.3495451987
 40
0.4153623695
 40
0.4796302898
 40
0.5423393843
 40
0.6035199656
 40
0.633565189
 40
0.6632586797
 40
0.692615853
 40
0.7216546248
 40
0.7503953072
 40
0.778860518
 40
0.8070750395
 40
0.8350656119
 40
0.8628607558
 40
0.8904905892
 40
0.9179865473
 40
0.9453810676
 40
0.9727077173
 40
1.0
 40
1.0
 40
1.0
 40
1.0
 10
11.6216873689
 20
6.633347842
 30
0.0
 10
11.6688847361
 20
6.6226667233
 30
0.0
 10
11.7620282322
 20
6.5987098264
 30
0.0
 10
11.8982439647
 20
6.5547674155
 30
0.0
 10
12.0292988125
 20
6.5032818945
 30
0.0
 10
12.1543933513
 20
6.4445429391
 30
0.0
 10
12.2727710068
 20
6.378875663
 30
0.0
 10
12.3837097866
 20
6.3066409778
 30
0.0
 10
12.4865287623
 20
6.2282312758
 30
0.0
 10
12.5805800296
 20
6.1440778619
 30
0.0
 10
12.6515859277
 20
6.0690795831
 30
0.0
 10
12.7033011263
 20
6.0066820855
 30
0.0
 10
12.7393053333
 20
5.9590374555
 30
0.0
 10
12.7726924988
 20
5.9103393036
 30
0.0
 10
12.8034034128
 20
5.8606583188
 30
0.0
 10
12.8313811335
 20
5.8100693672
 30
0.0
 10
12.8565723756
 20
5.7586500705
 30
0.0
 10
12.8789274106
 20
5.7064812932
 30
0.0
 10
12.8984007424
 20
5.653647214
 30
0.0
 10
12.9149516692
 20
5.6002353583
 30
0.0
 10
12.9285444787
 20
5.5463362681
 30
0.0
 10
12.9391488819
 20
5.4920435989
 30
0.0
 10
12.9467410313
 20
5.4374527013
 30
0.0
 10
12.9513034044
 20
5.382663974
 30
0.0
 10
12.9523183383
 20
5.3460593709
 30
0.0
 10
12.9523183383
 20
5.3277726261
 30
0.0
  0
SPLINE
  5
3AE
100
AcDbEntity
  8
0
100
AcDbSpline
 62
7
  6
CONTINUOUS
 70
0
 71
3
 72
20
 73
16
 74
0
 42
0.0000001
 43
0.0000001
 44
0.0000000001
 40
0.0
 40
0.0
 40
0.0
 40
0.0
 40
0.060152151
 40
0.1204156659
 40
0.1808370881
 40
0.2414641658
 40
0.3023431929
 40
0.3635187518
 40
0.4250341136
 40
0.486930742
 40
0.5492480758
 40
0.6120234269
 40
0.7390611241
 40
0.8683182946
 40
1.0
 40
1.0
 40
1.0
 40
1.0
 10
8.8990731305
 20
4.9580644672
 30
0.0
 10
8.9000004851
 20
4.9745833484
 30
0.0
 10
8.902592118
 20
5.0076150909
 30
0.0
 10
8.9086744636
 20
5.056996647
 30
0.0
 10
8.916946095
 20
5.1061923264
 30
0.0
 10
8.9273949391
 20
5.1551446315
 30
0.0
 10
8.9400058935
 20
5.2037991532
 30
0.0
 10
8.9547618534
 20
5.2521018363
 30
0.0
 10
8.9716422643
 20
5.3000003161
 30
0.0
 10
8.9906246135
 20
5.3474431818
 30
0.0
 10
9.0116846968
 20
5.3943815197
 30
0.0
 10
9.042616746
 20
5.456466937
 30
0.0
 10
9.0864355602
 20
5.5326196657
 30
0.0
 10
9.1466347467
 20
5.6208445637
 30
0.0
 10
9.1913804435
 20
5.6770542551
 30
0.0
 10
9.2149126955
 20
5.7045871369
 30
0.0
  0
SPLINE
  5
3AF
100
AcDbEntity
  8
0
100
AcDbSpline
 62
7
  6
CONTINUOUS
 70
0
 71
3
 72
20
 73
16
 74
0
 42
0.0000001
 43
0.0000001
 44
0.0000000001
 40
0.0
 40
0.0
 40
0.0
 40
0.0
 40
0.1316835936
 40
0.2609420076
 40
0.3879803263
 40
0.4507557719
 40
0.5130730645
 40
0.5749695172
 40
0.6364845969
 40
0.6976597692
 40
0.758538321
 40
0.8191648376
 40
0.8795856589
 40
0.9398485494
 40
1.0
 40
1.0
 40
1.0
 40
1.0
 10
12.8796198177
 20
5.7047089886
 30
0.0
 10
12.9031598298
 20
5.6771728031
 30
0.0
 10
12.9479203077
 20
5.6209559183
 30
0.0
 10
13.0081396907
 20
5.5327184094
 30
0.0
 10
13.0519732725
 20
5.4565538368
 30
0.0
 10
13.0829157603
 20
5.3944583568
 30
0.0
 10
13.1039828709
 20
5.3475122534
 30
0.0
 10
13.1229715943
 20
5.3000613922
 30
0.0
 10
13.1398575731
 20
5.2521546579
 30
0.0
 10
13.1546183963
 20
5.2038435287
 30
0.0
 10
13.1672334279
 20
5.1551803784
 30
0.0
 10
13.1776855649
 20
5.1062192915
 30
0.0
 10
13.1859597253
 20
5.0570147055
 30
0.0
 10
13.1920437705
 20
5.0076241514
 30
0.0
 10
13.1946360221
 20
4.9745863641
 30
0.0
 10
13.1955635461
 20
4.9580644672
 30
0.0
  0
SPLINE
  5
3B0
100
AcDbEntity
  8
0
100
AcDbSpline
 62
7
  6
CONTINUOUS
 70
0
 71
3
 72
15
 73
11
 74
0
 42
0.0000001
 43
0.0000001
 44
0.0000000001
 40
0.0
 40
0.0
 40
0.0
 40
0.0
 40
0.1247713175
 40
0.2499656832
 40
0.3753898684
 40
0.5008777788
 40
0.6262679678
 40
0.7513893214
 40
0.8760479774
 40
1.0
 40
1.0
 40
1.0
 40
1.0
 10
11.5351217894
 20
7.9426684473
 30
0.0
 10
11.5372911515
 20
7.9357055655
 30
0.0
 10
11.541042841
 20
7.9215631402
 30
0.0
 10
11.5448552825
 20
7.8999296317
 30
0.0
 10
11.5468292893
 20
7.8780079909
 30
0.0
 10
11.546945424
 20
7.8559869332
 30
0.0
 10
11.5452030346
 20
7.834052343
 30
0.0
 10
11.5416195976
 20
7.8123910587
 30
0.0
 10
11.5362328151
 20
7.7911947691
 30
0.0
 10
11.5314591991
 20
7.7774474171
 30
0.0
 10
11.5287898062
 20
7.7707119893
 30
0.0
  0
SPLINE
  5
3B1
100
AcDbEntity
  8
0
100
AcDbSpline
 62
7
  6
CONTINUOUS
 70
0
 71
3
 72
15
 73
11
 74
0
 42
0.0000001
 43
0.0000001
 44
0.0000000001
 40
0.0
 40
0.0
 40
0.0
 40
0.0
 40
0.1241429173
 40
0.2490463067
 40
0.3744139127
 40
0.4999979592
 40
0.625582295
 40
0.750950762
 40
0.8758557193
 40
1.0
 40
1.0
 40
1.0
 40
1.0
 10
11.5280324769
 20
7.9644529081
 30
0.0
 10
11.5309345575
 20
7.956622941
 30
0.0
 10
11.5359796114
 20
7.9406149064
 30
0.0
 10
11.5411673557
 20
7.915930967
 30
0.0
 10
11.5439356154
 20
7.8907602313
 30
0.0
 10
11.5442439105
 20
7.8653944941
 30
0.0
 10
11.5420872841
 20
7.8401186642
 30
0.0
 10
11.5374914155
 20
7.8152165255
 30
0.0
 10
11.5305179106
 20
7.7909762135
 30
0.0
 10
11.5243191917
 20
7.7753783845
 30
0.0
 10
11.5208539704
 20
7.7677807382
 30
0.0
  0
SPLINE
  5
3B2
100
AcDbEntity
  8
0
100
AcDbSpline
 62
7
  6
CONTINUOUS
 70
0
 71
3
 72
15
 73
11
 74
0
 42
0.0000001
 43
0.0000001
 44
0.0000000001
 40
0.0
 40
0.0
 40
0.0
 40
0.0
 40
0.1241703565
 40
0.2490767249
 40
0.3744325674
 40
0.4999979754
 40
0.6255636705
 40
0.7509203673
 40
0.87582829
 40
1.0
 40
1.0
 40
1.0
 40
1.0
 10
11.5166306686
 20
7.9613849808
 30
0.0
 10
11.5191302279
 20
7.953402918
 30
0.0
 10
11.5233546143
 20
7.9371323087
 30
0.0
 10
11.5272842749
 20
7.9121795358
 30
0.0
 10
11.5287768779
 20
7.8868668624
 30
0.0
 10
11.5278071645
 20
7.8614850144
 30
0.0
 10
11.524384481
 20
7.8363162498
 30
0.0
 10
11.5185482709
 20
7.8116402042
 30
0.0
 10
11.5103735248
 20
7.7877389593
 30
0.0
 10
11.5034059779
 20
7.7724406565
 30
0.0
 10
11.4995670693
 20
7.7650092751
 30
0.0
  0
SPLINE
  5
3B3
100
AcDbEntity
  8
0
100
AcDbSpline
 62
7
  6
CONTINUOUS
 70
0
 71
3
 72
15
 73
11
 74
0
 42
0.0000001
 43
0.0000001
 44
0.0000000001
 40
0.0
 40
0.0
 40
0.0
 40
0.0
 40
0.1242701506
 40
0.2491874895
 40
0.3745005994
 40
0.4999982074
 40
0.6254960555
 40
0.7508099133
 40
0.875728613
 40
1.0
 40
1.0
 40
1.0
 40
1.0
 10
11.4927516006
 20
7.9558518946
 30
0.0
 10
11.4945273122
 20
7.9476261071
 30
0.0
 10
11.4972845969
 20
7.9309468133
 30
0.0
 10
11.4989898881
 20
7.9056065138
 30
0.0
 10
11.4982512919
 20
7.8801341543
 30
0.0
 10
11.495069743
 20
7.8548115275
 30
0.0
 10
11.4894780835
 20
7.8299098484
 30
0.0
 10
11.4815373324
 20
7.8056954053
 30
0.0
 10
11.4713421184
 20
7.7824336776
 30
0.0
 10
11.4630934449
 20
7.7676767532
 30
0.0
 10
11.4586341485
 20
7.7605400302
 30
0.0
  0
LINE
  5
3B4
100
AcDbEntity
  8
0
100
AcDbLine
 62
7
  6
CONTINUOUS
 10
9.8126391463
 20
10.5656516501
 11
9.8112562833
 21
10.5654609895
  0
SPLINE
  5
3B5
100
AcDbEntity
  8
0
100
AcDbSpline
 62
7
  6
CONTINUOUS
 70
0
 71
3
 72
14
 73
10
 74
0
 42
0.0000001
 43
0.0000001
 44
0.0000000001
 40
0.0
 40
0.0
 40
0.0
 40
0.0
 40
0.0540946816
 40
0.1245746235
 40
0.2148045471
 40
0.3264720943
 40
0.460538256
 40
0.6174371568
 40
1.0
 40
1.0
 40
1.0
 40
1.0
 10
9.8557090282
 20
10.566222872
 30
0.0
 10
9.8556495372
 20
10.5661482867
 30
0.0
 10
9.855472042
 20
10.5660100632
 30
0.0
 10
9.8551230214
 20
10.5658592137
 30
0.0
 10
9.8546581355
 20
10.5657333885
 30
0.0
 10
9.8540738195
 20
10.5656323558
 30
0.0
 10
9.8533676629
 20
10.5655544523
 30
0.0
 10
9.8521821332
 20
10.5654760206
 30
0.0
 10
9.851230221
 20
10.5654609895
 30
0.0
 10
9.8505555063
 20
10.5654609895
 30
0.0
  0
SPLINE
  5
3B6
100
AcDbEntity
  8
0
100
AcDbSpline
 62
7
  6
CONTINUOUS
 70
0
 71
3
 72
16
 73
12
 74
0
 42
0.0000001
 43
0.0000001
 44
0.0000000001
 40
0.0
 40
0.0
 40
0.0
 40
0.0
 40
0.0547920983
 40
0.0878406917
 40
0.1253991238
 40
0.2154560287
 40
0.326929275
 40
0.4608093666
 40
0.6176570686
 40
0.7974682075
 40
1.0
 40
1.0
 40
1.0
 40
1.0
 10
9.9163010998
 20
10.5666160833
 30
0.0
 10
9.9162150311
 20
10.5665027799
 30
0.0
 10
9.9160342531
 20
10.5663539818
 30
0.0
 10
9.9157485798
 20
10.5661981811
 30
0.0
 10
9.9153627849
 20
10.5660370062
 30
0.0
 10
9.9147628883
 20
10.5658701911
 30
0.0
 10
9.9139047079
 20
10.5657173893
 30
0.0
 10
9.912866241
 20
10.5656007557
 30
0.0
 10
9.9116468272
 20
10.5655185532
 30
0.0
 10
9.9102472729
 20
10.5654702791
 30
0.0
 10
9.9092543383
 20
10.5654609895
 30
0.0
 10
9.9087283942
 20
10.5654609895
 30
0.0
  0
SPLINE
  5
3B7
100
AcDbEntity
  8
0
100
AcDbSpline
 62
7
  6
CONTINUOUS
 70
0
 71
3
 72
18
 73
14
 74
0
 42
0.0000001
 43
0.0000001
 44
0.0000000001
 40
0.0
 40
0.0
 40
0.0
 40
0.0
 40
0.029774749
 40
0.0618082876
 40
0.0969604803
 40
0.135906913
 40
0.1791648819
 40
0.2271112132
 40
0.3380805205
 40
0.4703876548
 40
0.6247534554
 40
0.801428929
 40
1.0
 40
1.0
 40
1.0
 40
1.0
 10
10.0017411598
 20
10.5684002493
 30
0.0
 10
10.0016406717
 20
10.5682584216
 30
0.0
 10
10.0014035724
 20
10.5679834849
 30
0.0
 10
10.0009668356
 20
10.5676202507
 30
0.0
 10
10.0004391864
 20
10.5672924092
 30
0.0
 10
9.9998195244
 20
10.5669975947
 30
0.0
 10
9.9991062801
 20
10.5667334127
 30
0.0
 10
9.9979722468
 20
10.5664035591
 30
0.0
 10
9.996301438
 20
10.5660741597
 30
0.0
 10
9.9939963756
 20
10.5657909587
 30
0.0
 10
9.9912975933
 20
10.5655961161
 30
0.0
 10
9.9882074882
 20
10.5654827168
 30
0.0
 10
9.9860167417
 20
10.5654609895
 30
0.0
 10
9.9848575256
 20
10.5654609895
 30
0.0
  0
SPLINE
  5
3B8
100
AcDbEntity
  8
0
100
AcDbSpline
 62
7
  6
CONTINUOUS
 70
0
 71
3
 72
19
 73
15
 74
0
 42
0.0000001
 43
0.0000001
 44
0.0000000001
 40
0.0
 40
0.0
 40
0.0
 40
0.0
 40
0.0298930831
 40
0.0618939567
 40
0.096923399
 40
0.1357044984
 40
0.1787905042
 40
0.2266007252
 40
0.2794318722
 40
0.3374965182
 40
0.4699191733
 40
0.6245763398
 40
0.8015257536
 40
1.0
 40
1.0
 40
1.0
 40
1.0
 10
10.0965999885
 20
10.5688800103
 30
0.0
 10
10.0964938108
 20
10.5687157696
 30
0.0
 10
10.0962402971
 20
10.5683965999
 30
0.0
 10
10.095764791
 20
10.5679733448
 30
0.0
 10
10.0951850772
 20
10.5675913249
 30
0.0
 10
10.0945002187
 20
10.5672478311
 30
0.0
 10
10.0937084956
 20
10.5669401798
 30
0.0
 10
10.0928082363
 20
10.5666662245
 30
0.0
 10
10.091798046
 20
10.5664240187
 30
0.0
 10
10.090233339
 20
10.5661284531
 30
0.0
 10
10.087991411
 20
10.565843886
 30
0.0
 10
10.0849632366
 20
10.5656175372
 30
0.0
 10
10.081497106
 20
10.5654863568
 30
0.0
 10
10.0790407984
 20
10.5654609895
 30
0.0
 10
10.0777422987
 20
10.5654609895
 30
0.0
  0
SPLINE
  5
3B9
100
AcDbEntity
  8
0
100
AcDbSpline
 62
7
  6
CONTINUOUS
 70
0
 71
3
 72
21
 73
17
 74
0
 42
0.0000001
 43
0.0000001
 44
0.0000000001
 40
0.0
 40
0.0
 40
0.0
 40
0.0
 40
0.0361758459
 40
0.073100857
 40
0.1117668321
 40
0.1530393652
 40
0.1976355108
 40
0.2461270267
 40
0.298953856
 40
0.3564472958
 40
0.4188620378
 40
0.486361812
 40
0.5590472602
 40
0.6369752084
 40
0.8084501425
 40
1.0
 40
1.0
 40
1.0
 40
1.0
 10
10.221565986
 20
10.5732849001
 30
0.0
 10
10.2213394751
 20
10.572890586
 30
0.0
 10
10.220817564
 20
10.5721287865
 30
0.0
 10
10.2198488992
 20
10.5711041246
 30
0.0
 10
10.2186930188
 20
10.5701901071
 30
0.0
 10
10.2173492718
 20
10.5693801802
 30
0.0
 10
10.2158155148
 20
10.5686666445
 30
0.0
 10
10.2140888415
 20
10.5680421739
 30
0.0
 10
10.2121661313
 20
10.5674999247
 30
0.0
 10
10.2100444213
 20
10.5670336928
 30
0.0
 10
10.2077214618
 20
10.5666375834
 30
0.0
 10
10.2051958311
 20
10.5663063662
 30
0.0
 10
10.2024671478
 20
10.5660352212
 30
0.0
 10
10.1984289249
 20
10.5657384541
 30
0.0
 10
10.1928892753
 20
10.565512107
 30
0.0
 10
10.1883257117
 20
10.5654609895
 30
0.0
 10
10.1859178652
 20
10.5654609895
 30
0.0
  0
SPLINE
  5
3BA
100
AcDbEntity
  8
0
100
AcDbSpline
 62
7
  6
CONTINUOUS
 70
0
 71
3
 72
15
 73
11
 74
0
 42
0.0000001
 43
0.0000001
 44
0.0000000001
 40
0.0
 40
0.0
 40
0.0
 40
0.0
 40
0.0916351088
 40
0.1875922443
 40
0.2912147147
 40
0.4052292368
 40
0.5317450661
 40
0.6723153164
 40
0.8280997073
 40
1.0
 40
1.0
 40
1.0
 40
1.0
 10
10.1293103412
 20
10.5672803289
 30
0.0
 10
10.1294417601
 20
10.5675090948
 30
0.0
 10
10.1296657181
 20
10.5680047332
 30
0.0
 10
10.1298672512
 20
10.56882259
 30
0.0
 10
10.129942406
 20
10.5697255204
 30
0.0
 10
10.1298953469
 20
10.5707174605
 30
0.0
 10
10.1297297404
 20
10.5718036803
 30
0.0
 10
10.129447914
 20
10.5729891986
 30
0.0
 10
10.1290516081
 20
10.5742785388
 30
0.0
 10
10.1287284658
 20
10.5751653109
 30
0.0
 10
10.1285500569
 20
10.5756269549
 30
0.0
  0
SPLINE
  5
3BB
100
AcDbEntity
  8
0
100
AcDbSpline
 62
7
  6
CONTINUOUS
 70
0
 71
3
 72
21
 73
17
 74
0
 42
0.0000001
 43
0.0000001
 44
0.0000000001
 40
0.0
 40
0.0
 40
0.0
 40
0.0
 40
0.0354902408
 40
0.0717192826
 40
0.1097571858
 40
0.1505239904
 40
0.1947676322
 40
0.2430723997
 40
0.2958810555
 40
0.3535144866
 40
0.4162098326
 40
0.4841126405
 40
0.5572827416
 40
0.6357363262
 40
0.8081593636
 40
1.0
 40
1.0
 40
1.0
 40
1.0
 10
10.3429367753
 20
10.5734986712
 30
0.0
 10
10.342740666
 20
10.5731009209
 30
0.0
 10
10.3422747611
 20
10.5723293805
 30
0.0
 10
10.3413746578
 20
10.5712869565
 30
0.0
 10
10.3402745076
 20
10.5703538981
 30
0.0
 10
10.3389753567
 20
10.5695242751
 30
0.0
 10
10.3374764044
 20
10.5687908648
 30
0.0
 10
10.3357758426
 20
10.5681468667
 30
0.0
 10
10.3338715873
 20
10.5675860057
 30
0.0
 10
10.3317617974
 20
10.5671023651
 30
0.0
 10
10.3294453149
 20
10.5666904898
 30
0.0
 10
10.3269220851
 20
10.5663452957
 30
0.0
 10
10.3241932424
 20
10.5660621853
 30
0.0
 10
10.3201556268
 20
10.5657520561
 30
0.0
 10
10.314627273
 20
10.5655150394
 30
0.0
 10
10.3100753768
 20
10.5654609895
 30
0.0
 10
10.3076782317
 20
10.5654609895
 30
0.0
  0
SPLINE
  5
3BC
100
AcDbEntity
  8
0
100
AcDbSpline
 62
7
  6
CONTINUOUS
 70
0
 71
3
 72
35
 73
31
 74
0
 42
0.0000001
 43
0.0000001
 44
0.0000000001
 40
0.0
 40
0.0
 40
0.0
 40
0.0
 40
0.0620003882
 40
0.0939857499
 40
0.1265665173
 40
0.1932734164
 40
0.2272983426
 40
0.2616662983
 40
0.3310897273
 40
0.4008960233
 40
0.4703858891
 40
0.5388677247
 40
0.5725374936
 40
0.6057181951
 40
0.6383418968
 40
0.6703481038
 40
0.7016850388
 40
0.7323110574
 40
0.762195838
 40
0.7913218125
 40
0.8196855144
 40
0.8472986967
 40
0.8741894479
 40
0.8873803951
 40
0.9004091674
 40
0.9260080844
 40
0.9510720881
 40
0.9634365261
 40
0.97570441
 40
1.0
 40
1.0
 40
1.0
 40
1.0
 10
11.3431286757
 20
7.1147744769
 30
0.0
 10
11.3296658809
 20
7.1042787805
 30
0.0
 10
11.3081298819
 20
7.0897616852
 30
0.0
 10
11.2775565757
 20
7.0730121571
 30
0.0
 10
11.2448643885
 20
7.0575542657
 30
0.0
 10
11.2103642386
 20
7.0447637912
 30
0.0
 10
11.174549617
 20
7.0346692363
 30
0.0
 10
11.137520597
 20
7.0263097135
 30
0.0
 10
11.0901323705
 20
7.0194192201
 30
0.0
 10
11.0326265394
 20
7.0168944401
 30
0.0
 10
10.9754147329
 20
7.0201084963
 30
0.0
 10
10.9286513781
 20
7.0275435465
 30
0.0
 10
10.8924182919
 20
7.0363000432
 30
0.0
 10
10.8661695779
 20
7.0441682295
 30
0.0
 10
10.8408307021
 20
7.0533307365
 30
0.0
 10
10.8165279566
 20
7.0637393536
 30
0.0
 10
10.7933834812
 20
7.0753394462
 30
0.0
 10
10.7715133947
 20
7.0880706057
 30
0.0
 10
10.7510275634
 20
7.1018669118
 30
0.0
 10
10.7320290916
 20
7.1166571459
 30
0.0
 10
10.7146136395
 20
7.1323656052
 30
0.0
 10
10.6988700802
 20
7.1489108757
 30
0.0
 10
10.6871340354
 20
7.16342042
 30
0.0
 10
10.6786807907
 20
7.1753574274
 30
0.0
 10
10.6709462147
 20
7.1873508159
 30
0.0
 10
10.6624271383
 20
7.2027078683
 30
0.0
 10
10.6554446774
 20
7.2186249862
 30
0.0
 10
10.6508726464
 20
7.231526908
 30
0.0
 10
10.6470001682
 20
7.2444335913
 30
0.0
 10
10.6448288776
 20
7.2542866785
 30
0.0
 10
10.6437257694
 20
7.2608844276
 30
0.0
  0
SPLINE
  5
3BD
100
AcDbEntity
  8
0
100
AcDbSpline
 62
7
  6
CONTINUOUS
 70
0
 71
3
 72
17
 73
13
 74
0
 42
0.0000001
 43
0.0000001
 44
0.0000000001
 40
0.0
 40
0.0
 40
0.0
 40
0.0
 40
0.058100457
 40
0.1164667564
 40
0.1751862374
 40
0.2343418441
 40
0.3542257116
 40
0.4767167049
 40
0.6022626549
 40
0.7311975284
 40
0.86374092
 40
1.0
 40
1.0
 40
1.0
 40
1.0
 10
11.4451621721
 20
7.285486785
 30
0.0
 10
11.4447356529
 20
7.2815575262
 30
0.0
 10
11.4436549333
 20
7.2737036946
 30
0.0
 10
11.4413637302
 20
7.2620027717
 30
0.0
 10
11.4384032796
 20
7.2503783287
 30
0.0
 10
11.4335520678
 20
7.2349421126
 30
0.0
 10
11.4258087192
 20
7.2159019442
 30
0.0
 10
11.4140008066
 20
7.1937867695
 30
0.0
 10
11.399721765
 20
7.1724379477
 30
0.0
 10
11.3830750828
 20
7.1519935779
 30
0.0
 10
11.3641796898
 20
7.1325834824
 30
0.0
 10
11.3503574615
 20
7.1205763663
 30
0.0
 10
11.3431286757
 20
7.1147744769
 30
0.0
  0
SPLINE
  5
3BE
100
AcDbEntity
  8
0
100
AcDbSpline
 62
7
  6
CONTINUOUS
 70
0
 71
3
 72
11
 73
7
 74
0
 42
0.0000001
 43
0.0000001
 44
0.0000000001
 40
0.0
 40
0.0
 40
0.0
 40
0.0
 40
0.2455659975
 40
0.4929683975
 40
0.7439316989
 40
1.0
 40
1.0
 40
1.0
 40
1.0
 10
11.4535680927
 20
7.3421853913
 30
0.0
 10
11.4535552053
 20
7.3338975289
 30
0.0
 10
11.4525066439
 20
7.3172438382
 30
0.0
 10
11.4478848665
 20
7.2925055632
 30
0.0
 10
11.4402533738
 20
7.2681545819
 30
0.0
 10
11.4332793717
 20
7.252481642
 30
0.0
 10
11.4293433939
 20
7.2447876262
 30
0.0
  0
SPLINE
  5
3BF
100
AcDbEntity
  8
0
100
AcDbSpline
 62
7
  6
CONTINUOUS
 70
0
 71
3
 72
21
 73
17
 74
0
 42
0.0000001
 43
0.0000001
 44
0.0000000001
 40
0.0
 40
0.0
 40
0.0
 40
0.0
 40
0.0525037492
 40
0.1063084814
 40
0.1615376145
 40
0.2182733314
 40
0.3363119275
 40
0.3976704923
 40
0.4604873847
 40
0.5246708058
 40
0.590103775
 40
0.6566474349
 40
0.72414438
 40
0.7924223157
 40
0.861295734
 40
1.0
 40
1.0
 40
1.0
 40
1.0
 10
11.4293433939
 20
7.2447876262
 30
0.0
 10
11.4257811191
 20
7.2378241219
 30
0.0
 10
11.4178719965
 20
7.2240703907
 30
0.0
 10
11.4039802087
 20
7.2043822948
 30
0.0
 10
11.3880050063
 20
7.1855079917
 30
0.0
 10
11.363745798
 20
7.1612650576
 30
0.0
 10
11.3359450925
 20
7.1394525846
 30
0.0
 10
11.3053615427
 20
7.120269124
 30
0.0
 10
11.2806166716
 20
7.106988345
 30
0.0
 10
11.2545164316
 20
7.0950850676
 30
0.0
 10
11.2272097772
 20
7.0846256235
 30
0.0
 10
11.1988562731
 20
7.0756709713
 30
0.0
 10
11.1696211846
 20
7.0682726783
 30
0.0
 10
11.1396726672
 20
7.0624734606
 30
0.0
 10
11.0989415011
 20
7.0569063686
 30
0.0
 10
11.0679818878
 20
7.0552391163
 30
0.0
 10
11.0473183383
 20
7.0552391163
 30
0.0
  0
SPLINE
  5
3C0
100
AcDbEntity
  8
0
100
AcDbSpline
 62
7
  6
CONTINUOUS
 70
0
 71
3
 72
25
 73
21
 74
0
 42
0.0000001
 43
0.0000001
 44
0.0000000001
 40
0.0
 40
0.0
 40
0.0
 40
0.0
 40
0.1430919014
 40
0.2139337163
 40
0.2839022518
 40
0.3527366217
 40
0.4202013556
 40
0.4860936983
 40
0.5502507192
 40
0.6125562958
 40
0.6729486144
 40
0.7314267689
 40
0.788057102
 40
0.8429773495
 40
0.8698704163
 40
0.8964209875
 40
0.9226665055
 40
0.9486480706
 40
0.9744098792
 40
1.0
 40
1.0
 40
1.0
 40
1.0
 10
11.0473183383
 20
7.0552391163
 30
0.0
 10
11.0226106991
 20
7.0552391163
 30
0.0
 10
10.9856091188
 20
7.057619942
 30
0.0
 10
10.9372125744
 20
7.0655751943
 30
0.0
 10
10.9019371226
 20
7.0738342629
 30
0.0
 10
10.8678741211
 20
7.084335276
 30
0.0
 10
10.8353033262
 20
7.0969922553
 30
0.0
 10
10.8044965474
 20
7.1117011158
 30
0.0
 10
10.7757099359
 20
7.128341381
 30
0.0
 10
10.7491834447
 20
7.1467771649
 30
0.0
 10
10.7251389823
 20
7.1668580466
 30
0.0
 10
10.70377851
 20
7.1884213784
 30
0.0
 10
10.685284743
 20
7.2112890207
 30
0.0
 10
10.6723011483
 20
7.2314248924
 30
0.0
 10
10.663544492
 20
7.2479706312
 30
0.0
 10
10.6578258631
 20
7.2604950655
 30
0.0
 10
10.652923762
 20
7.2731923633
 30
0.0
 10
10.6488489439
 20
7.2860365236
 30
0.0
 10
10.645609798
 20
7.2989994576
 30
0.0
 10
10.6440079349
 20
7.3077277156
 30
0.0
 10
10.6433502086
 20
7.3120971284
 30
0.0
  0
SPLINE
  5
3C1
100
AcDbEntity
  8
0
100
AcDbSpline
 62
7
  6
CONTINUOUS
 70
0
 71
3
 72
18
 73
14
 74
0
 42
0.0000001
 43
0.0000001
 44
0.0000000001
 40
0.0
 40
0.0
 40
0.0
 40
0.0
 40
0.053664652
 40
0.108677107
 40
0.1650612995
 40
0.2228258017
 40
0.3423483967
 40
0.4040643586
 40
0.4669726871
 40
0.5959546618
 40
0.728480153
 40
0.8635331387
 40
1.0
 40
1.0
 40
1.0
 40
1.0
 10
10.6953467171
 20
7.0539658238
 30
0.0
 10
10.6998293669
 20
7.0486440426
 30
0.0
 10
10.7093207906
 20
7.0382087558
 30
0.0
 10
10.7248290258
 20
7.0234363021
 30
0.0
 10
10.7417180907
 20
7.0094154658
 30
0.0
 10
10.7662513855
 20
6.9916087602
 30
0.0
 10
10.7930047156
 20
6.9757967479
 30
0.0
 10
10.8215282262
 20
6.9620410402
 30
0.0
 10
10.8518987001
 20
6.9493964146
 30
0.0
 10
10.8919750727
 20
6.936357246
 30
0.0
 10
10.9422872957
 20
6.925372333
 30
0.0
 10
10.9943754288
 20
6.919115612
 30
0.0
 10
11.0296275188
 20
6.918181456
 30
0.0
 10
11.0473183383
 20
6.9185277047
 30
0.0
  0
SPLINE
  5
3C2
100
AcDbEntity
  8
0
100
AcDbSpline
 62
7
  6
CONTINUOUS
 70
0
 71
3
 72
13
 73
9
 74
0
 42
0.0000001
 43
0.0000001
 44
0.0000000001
 40
0.0
 40
0.0
 40
0.0
 40
0.0
 40
0.2570881209
 40
0.3848516092
 40
0.5115202664
 40
0.6367143981
 40
0.7600836963
 40
1.0
 40
1.0
 40
1.0
 40
1.0
 10
11.0473183383
 20
6.8687190447
 30
0.0
 10
11.0692798747
 20
6.8691469189
 30
0.0
 10
11.1021613944
 20
6.8716712355
 30
0.0
 10
11.1452980252
 20
6.8787998994
 30
0.0
 10
11.1769514003
 20
6.8859712074
 30
0.0
 10
11.2077555307
 20
6.8949357102
 30
0.0
 10
11.2470431342
 20
6.9090673476
 30
0.0
 10
11.2752276326
 20
6.9223588134
 30
0.0
 10
11.2930994135
 20
6.9323982105
 30
0.0
  0
SPLINE
  5
3C3
100
AcDbEntity
  8
0
100
AcDbSpline
 62
7
  6
CONTINUOUS
 70
0
 71
3
 72
20
 73
16
 74
0
 42
0.0000001
 43
0.0000001
 44
0.0000000001
 40
0.0
 40
0.0
 40
0.0
 40
0.0
 40
0.1403524478
 40
0.2758296097
 40
0.4063159294
 40
0.4697568548
 40
0.5320337076
 40
0.5932126103
 40
0.6533783863
 40
0.7126344144
 40
0.7711015784
 40
0.8289164481
 40
0.8862291331
 40
0.9432007758
 40
1.0
 40
1.0
 40
1.0
 40
1.0
 10
11.2930994135
 20
6.9323982105
 30
0.0
 10
11.3053045684
 20
6.9392544044
 30
0.0
 10
11.328654998
 20
6.9539106623
 30
0.0
 10
11.360564165
 20
6.9790179618
 30
0.0
 10
11.3839551399
 20
7.0022144449
 30
0.0
 10
11.4003440919
 20
7.0218403762
 30
0.0
 10
11.4113551478
 20
7.0368994775
 30
0.0
 10
11.4211607023
 20
7.0523848541
 30
0.0
 10
11.429727986
 20
7.0682475661
 30
0.0
 10
11.4370277583
 20
7.0844365135
 30
0.0
 10
11.4430351945
 20
7.1008995161
 30
0.0
 10
11.4477294761
 20
7.1175831804
 30
0.0
 10
11.4510942159
 20
7.1344336131
 30
0.0
 10
11.4531178448
 20
7.1513943289
 30
0.0
 10
11.4535683382
 20
7.1627471806
 30
0.0
 10
11.4535683383
 20
7.1684124525
 30
0.0
  0
SPLINE
  5
3C4
100
AcDbEntity
  8
0
100
AcDbSpline
 62
7
  6
CONTINUOUS
 70
0
 71
3
 72
24
 73
20
 74
0
 42
0.0000001
 43
0.0000001
 44
0.0000000001
 40
0.0
 40
0.0
 40
0.0
 40
0.0
 40
0.1414396296
 40
0.211608227
 40
0.2810168985
 40
0.3494121351
 40
0.4165650561
 40
0.4822781846
 40
0.5463920388
 40
0.6087917203
 40
0.6694134069
 40
0.7282507307
 40
0.7853597661
 40
0.8408630628
 40
0.8949503881
 40
0.9215516427
 40
0.9478994111
 40
0.9740343922
 40
1.0
 40
1.0
 40
1.0
 40
1.0
 10
11.0473183383
 20
6.9185277047
 30
0.0
 10
11.071883099
 20
6.9190084917
 30
0.0
 10
11.1086486144
 20
6.9220825945
 30
0.0
 10
11.156688242
 20
6.9308858195
 30
0.0
 10
11.1917407486
 20
6.9397519791
 30
0.0
 10
11.2256059229
 20
6.9508304284
 30
0.0
 10
11.2580094452
 20
6.9640376927
 30
0.0
 10
11.2886845597
 20
6.9792725233
 30
0.0
 10
11.31737965
 20
6.9964177194
 30
0.0
 10
11.3438586749
 20
7.01534086
 30
0.0
 10
11.3679032178
 20
7.0358955818
 30
0.0
 10
11.3893136944
 20
7.0579222597
 30
0.0
 10
11.407911022
 20
7.0812502384
 30
0.0
 10
11.4235364297
 20
7.1056941408
 30
0.0
 10
11.4340292832
 20
7.126959918
 30
0.0
 10
11.4407733509
 20
7.1442966437
 30
0.0
 10
11.4449912339
 20
7.1573797984
 30
0.0
 10
11.4483867624
 20
7.1705853598
 30
0.0
 10
11.4501020445
 20
7.1794786144
 30
0.0
 10
11.4508187176
 20
7.1839317975
 30
0.0
  0
SPLINE
  5
3C5
100
AcDbEntity
  8
0
100
AcDbSpline
 62
7
  6
CONTINUOUS
 70
0
 71
3
 72
25
 73
21
 74
0
 42
0.0000001
 43
0.0000001
 44
0.0000000001
 40
0.0
 40
0.0
 40
0.0
 40
0.0
 40
0.1415197728
 40
0.2117234491
 40
0.2811609653
 40
0.3495771665
 40
0.4167418966
 40
0.4824568765
 40
0.5465624807
 40
0.6089442873
 40
0.6695398508
 40
0.7283449576
 40
0.7854188085
 40
0.8408879322
 40
0.8680896353
 40
0.894968685
 40
0.9215596196
 40
0.9479004644
 40
0.974032568
 40
1.0
 40
1.0
 40
1.0
 40
1.0
 10
11.0473183383
 20
6.9681751956
 30
0.0
 10
11.0719758915
 20
6.9686564454
 30
0.0
 10
11.1088799205
 20
6.971749599
 30
0.0
 10
11.1570932001
 20
6.9806148779
 30
0.0
 10
11.1922648158
 20
6.9895445069
 30
0.0
 10
11.2262357641
 20
7.0007025676
 30
0.0
 10
11.2587287946
 20
7.0140043084
 30
0.0
 10
11.2894743965
 20
7.0293469681
 30
0.0
 10
11.3182184504
 20
7.0466115852
 30
0.0
 10
11.3447227434
 20
7.0656638761
 30
0.0
 10
11.3687668478
 20
7.0863551107
 30
0.0
 10
11.3901499832
 20
7.1085242975
 30
0.0
 10
11.4086905144
 20
7.1319951125
 30
0.0
 10
11.4217278969
 20
7.1526261741
 30
0.0
 10
11.4305439467
 20
7.1695693097
 30
0.0
 10
11.4363164941
 20
7.182396773
 30
0.0
 10
11.441278995
 20
7.1953982398
 30
0.0
 10
11.4454206978
 20
7.2085480674
 30
0.0
 10
11.4487330745
 20
7.2218185519
 30
0.0
 10
11.4503878601
 20
7.2307526772
 30
0.0
 10
11.4510732019
 20
7.2352257501
 30
0.0
  0
SPLINE
  5
3C6
100
AcDbEntity
  8
0
100
AcDbSpline
 62
7
  6
CONTINUOUS
 70
0
 71
3
 72
18
 73
14
 74
0
 42
0.0000001
 43
0.0000001
 44
0.0000000001
 40
0.0
 40
0.0
 40
0.0
 40
0.0
 40
0.1411486342
 40
0.2778020581
 40
0.4096058924
 40
0.5364122893
 40
0.6583220768
 40
0.7175779708
 40
0.7757727473
 40
0.8329968629
 40
0.889358019
 40
0.9449797586
 40
1.0
 40
1.0
 40
1.0
 40
1.0
 10
11.2201279562
 20
6.4869480864
 30
0.0
 10
11.2311082147
 20
6.4914307582
 30
0.0
 10
11.2523421144
 20
6.5012198457
 30
0.0
 10
11.2821253092
 20
6.5185748878
 30
0.0
 10
11.3090122303
 20
6.5381804337
 30
0.0
 10
11.3326621744
 20
6.5597977411
 30
0.0
 10
11.3495900729
 20
6.5794683932
 30
0.0
 10
11.3611621171
 20
6.5959335752
 30
0.0
 10
11.3687827329
 20
6.6084910415
 30
0.0
 10
11.3754001262
 20
6.6213319772
 30
0.0
 10
11.3809937275
 20
6.6344169925
 30
0.0
 10
11.3855449675
 20
6.6477040446
 30
0.0
 10
11.3878854567
 20
6.6567124407
 30
0.0
 10
11.3888736389
 20
6.6612286781
 30
0.0
  0
LINE
  5
3C7
100
AcDbEntity
  8
0
100
AcDbLine
 62
7
  6
CONTINUOUS
 10
11.0466661831
 20
6.5342425637
 11
11.047226152
 21
6.534242193
  0
SPLINE
  5
3C8
100
AcDbEntity
  8
0
100
AcDbSpline
 62
7
  6
CONTINUOUS
 70
0
 71
3
 72
31
 73
27
 74
0
 42
0.0000001
 43
0.0000001
 44
0.0000000001
 40
0.0
 40
0.0
 40
0.0
 40
0.0
 40
0.0667239569
 40
0.1007585078
 40
0.1351529058
 40
0.2047287164
 40
0.2749010178
 40
0.34507331
 40
0.4146491565
 40
0.483058004
 40
0.5166708214
 40
0.5498036027
 40
0.6144034373
 40
0.6458117579
 40
0.6765760517
 40
0.7360739652
 40
0.764831662
 40
0.7929331348
 40
0.8204052414
 40
0.8472878729
 40
0.873633999
 40
0.8995093348
 40
0.9249914868
 40
0.950168552
 40
0.9751371733
 40
1.0
 40
1.0
 40
1.0
 40
1.0
 10
11.2785683383
 20
6.323498348
 30
0.0
 10
11.2608347449
 20
6.3162586388
 30
0.0
 10
11.2334460681
 20
6.3067527208
 30
0.0
 10
11.1959400664
 20
6.2967827771
 30
0.0
 10
11.1571880745
 20
6.2884797027
 30
0.0
 10
11.1076002878
 20
6.2815354726
 30
0.0
 10
11.0473189356
 20
6.2787538239
 30
0.0
 10
10.9870340028
 20
6.2815358583
 30
0.0
 10
10.9277710237
 20
6.2898347287
 30
0.0
 10
10.8797763307
 20
6.3013030602
 30
0.0
 10
10.8428088202
 20
6.3131330472
 30
0.0
 10
10.8075218954
 20
6.326453834
 30
0.0
 10
10.7738918828
 20
6.3422627586
 30
0.0
 10
10.7423888552
 20
6.3605199844
 30
0.0
 10
10.713243264
 20
6.3797948208
 30
0.0
 10
10.686494412
 20
6.4012346847
 30
0.0
 10
10.6626840858
 20
6.4246926715
 30
0.0
 10
10.6466671725
 20
6.442875077
 30
0.0
 10
10.6323639447
 20
6.4617637585
 30
0.0
 10
10.6198357567
 20
6.4812796277
 30
0.0
 10
10.6091380201
 20
6.5013394922
 30
0.0
 10
10.6003182559
 20
6.5218577887
 30
0.0
 10
10.5934161798
 20
6.5427461465
 30
0.0
 10
10.5884632526
 20
6.5639148568
 30
0.0
 10
10.5854822749
 20
6.5852693114
 30
0.0
 10
10.5848184043
 20
6.5995832189
 30
0.0
 10
10.5848183742
 20
6.6067205995
 30
0.0
  0
SPLINE
  5
3C9
100
AcDbEntity
  8
0
100
AcDbSpline
 62
7
  6
CONTINUOUS
 70
0
 71
3
 72
35
 73
31
 74
0
 42
0.0000001
 43
0.0000001
 44
0.0000000001
 40
0.0
 40
0.0
 40
0.0
 40
0.0
 40
0.0667176106
 40
0.1007491293
 40
0.1351402755
 40
0.204709592
 40
0.2397643499
 40
0.2748942149
 40
0.3450599605
 40
0.3799653366
 40
0.4146486642
 40
0.4830511228
 40
0.5166608121
 40
0.5497904952
 40
0.5823881505
 40
0.6144084764
 40
0.6458138662
 40
0.6765752891
 40
0.7066732358
 40
0.7360986224
 40
0.7648536279
 40
0.7929524745
 40
0.820422018
 40
0.8473021387
 40
0.8736458071
 40
0.8995187222
 40
0.924998488
 40
0.9501732031
 40
0.975139487
 40
1.0
 40
1.0
 40
1.0
 40
1.0
 10
11.3348183383
 20
5.6040682103
 30
0.0
 10
11.3127712055
 20
5.595067506
 30
0.0
 10
11.2787205093
 20
5.5832493576
 30
0.0
 10
11.2320911556
 20
5.570854213
 30
0.0
 10
11.1839141147
 20
5.5605316589
 30
0.0
 10
11.1346883305
 20
5.5536382084
 30
0.0
 10
11.0849118224
 20
5.5501753217
 30
0.0
 10
11.03481521
 20
5.5490168525
 30
0.0
 10
10.9847411914
 20
5.5513276593
 30
0.0
 10
10.9351790236
 20
5.5571075329
 30
0.0
 10
10.8865663911
 20
5.5651136314
 30
0.0
 10
10.8390212691
 20
5.5764745291
 30
0.0
 10
10.7930644494
 20
5.5911811432
 30
0.0
 10
10.7598770597
 20
5.6037093783
 30
0.0
 10
10.7279173828
 20
5.6177448279
 30
0.0
 10
10.6973205216
 20
5.6332284407
 30
0.0
 10
10.668217424
 20
5.6500945635
 30
0.0
 10
10.6407323103
 20
5.6682719047
 30
0.0
 10
10.6149827342
 20
5.6876836746
 30
0.0
 10
10.5910789886
 20
5.7082479372
 30
0.0
 10
10.5691237423
 20
5.7298779313
 30
0.0
 10
10.5492116562
 20
5.7524823772
 30
0.0
 10
10.5314290423
 20
5.7759657812
 30
0.0
 10
10.5158535002
 20
5.8002287012
 30
0.0
 10
10.5025536002
 20
5.8251680069
 30
0.0
 10
10.4915885065
 20
5.8506772419
 30
0.0
 10
10.4830075749
 20
5.8766465585
 30
0.0
 10
10.4768498827
 20
5.9029644115
 30
0.0
 10
10.4731437853
 20
5.929513188
 30
0.0
 10
10.4723183387
 20
5.9473088575
 30
0.0
 10
10.4723183383
 20
5.9561823608
 30
0.0
  0
SPLINE
  5
3CA
100
AcDbEntity
  8
0
100
AcDbSpline
 62
7
  6
CONTINUOUS
 70
0
 71
3
 72
21
 73
17
 74
0
 42
0.0000001
 43
0.0000001
 44
0.0000000001
 40
0.0
 40
0.0
 40
0.0
 40
0.0
 40
0.1361723208
 40
0.2683781213
 40
0.3330782825
 40
0.3968822551
 40
0.4598386569
 40
0.5220039193
 40
0.5834425795
 40
0.6442264351
 40
0.7044345162
 40
0.7641521159
 40
0.8234701389
 40
0.8824842244
 40
0.9412935962
 40
1.0
 40
1.0
 40
1.0
 40
1.0
 10
11.4976341428
 20
6.8736874524
 30
0.0
 10
11.5074819829
 20
6.8649172506
 30
0.0
 10
11.5261737957
 20
6.8468045469
 30
0.0
 10
11.5472406886
 20
6.8223132631
 30
0.0
 10
11.5622769822
 20
6.8020209048
 30
0.0
 10
11.5725691989
 20
6.7865891093
 30
0.0
 10
11.5819377026
 20
6.770864742
 30
0.0
 10
11.5903656882
 20
6.7548749017
 30
0.0
 10
11.5978384366
 20
6.7386479859
 30
0.0
 10
11.6043421501
 20
6.7222123297
 30
0.0
 10
11.6098654815
 20
6.7055970751
 30
0.0
 10
11.6143982207
 20
6.6888314556
 30
0.0
 10
11.6179322556
 20
6.6719452356
 30
0.0
 10
11.6204612471
 20
6.6549681315
 30
0.0
 10
11.6219803533
 20
6.6379310333
 30
0.0
 10
11.622318333
 20
6.6265478851
 30
0.0
 10
11.622318338
 20
6.6208627351
 30
0.0
  0
SPLINE
  5
3CB
100
AcDbEntity
  8
0
100
AcDbSpline
 62
7
  6
CONTINUOUS
 70
0
 71
3
 72
15
 73
11
 74
0
 42
0.0000001
 43
0.0000001
 44
0.0000000001
 40
0.0
 40
0.0
 40
0.0
 40
0.0
 40
0.1157793678
 40
0.2279944173
 40
0.340097474
 40
0.4554047494
 40
0.5768914122
 40
0.7069594853
 40
0.8475086219
 40
1.0
 40
1.0
 40
1.0
 40
1.0
 10
10.389587227
 20
10.5879289345
 30
0.0
 10
10.3893126545
 20
10.5873082885
 30
0.0
 10
10.3886810506
 20
10.5861232323
 30
0.0
 10
10.3874662874
 20
10.5845316755
 30
0.0
 10
10.3860108948
 20
10.5831608189
 30
0.0
 10
10.3843190625
 20
10.5819990586
 30
0.0
 10
10.3823930318
 20
10.5810301446
 30
0.0
 10
10.3802318714
 20
10.5802359777
 30
0.0
 10
10.3778321197
 20
10.5795988763
 30
0.0
 10
10.3761426245
 20
10.5792811164
 30
0.0
 10
10.375259949
 20
10.5791401222
 30
0.0
  0
SPLINE
  5
3CC
100
AcDbEntity
  8
0
100
AcDbSpline
 62
7
  6
CONTINUOUS
 70
0
 71
3
 72
15
 73
11
 74
0
 42
0.0000001
 43
0.0000001
 44
0.0000000001
 40
0.0
 40
0.0
 40
0.0
 40
0.0
 40
0.1255667512
 40
0.2506050571
 40
0.3752657735
 40
0.4997640134
 40
0.6242994914
 40
0.7490538087
 40
0.8742215595
 40
1.0
 40
1.0
 40
1.0
 40
1.0
 10
9.6624981593
 20
10.6503238937
 30
0.0
 10
9.6646569232
 20
10.6467009118
 30
0.0
 10
9.6692283608
 20
10.6396231984
 30
0.0
 10
9.6768187574
 20
10.629548115
 30
0.0
 10
9.685091004
 20
10.6200717499
 30
0.0
 10
9.6940082068
 20
10.6112239886
 30
0.0
 10
9.7035349524
 20
10.6030315103
 30
0.0
 10
9.7136359107
 20
10.5955206329
 30
0.0
 10
9.7242753192
 20
10.5887176417
 30
0.0
 10
9.7316839796
 20
10.5846818761
 30
0.0
 10
9.7354616594
 20
10.582790999
 30
0.0
  0
LINE
  5
3CD
100
AcDbEntity
  8
0
100
AcDbLine
 62
7
  6
CONTINUOUS
 10
10.3676576099
 20
10.6646884641
 11
10.2689961157
 21
10.6647820038
  0
SPLINE
  5
3CE
100
AcDbEntity
  8
0
100
AcDbSpline
 62
9
  6
CONTINUOUS
 70
0
 71
3
 72
28
 73
24
 74
0
 42
0.0000001
 43
0.0000001
 44
0.0000000001
 40
0.0
 40
0.0
 40
0.0
 40
0.0
 40
0.0251805042
 40
0.0504416338
 40
0.075862226
 40
0.1015176256
 40
0.1274781409
 40
0.1538078019
 40
0.1805633733
 40
0.2077936005
 40
0.2355387639
 40
0.2638305449
 40
0.3221117079
 40
0.382750971
 40
0.4457094029
 40
0.5108393793
 40
0.5779014355
 40
0.6465809687
 40
0.7165047512
 40
0.7872567948
 40
0.8583936126
 40
0.9294586618
 40
1.0
 40
1.0
 40
1.0
 40
1.0
 10
10.5948183548
 20
6.909271898
 30
0.0
 10
10.5948183222
 20
6.9032196712
 30
0.0
 10
10.5953058016
 20
6.8910902418
 30
0.0
 10
10.5974953205
 20
6.8729698965
 30
0.0
 10
10.601136235
 20
6.8549672503
 30
0.0
 10
10.6062162108
 20
6.8371426254
 30
0.0
 10
10.6127179371
 20
6.8195535126
 30
0.0
 10
10.6206195378
 20
6.8022569315
 30
0.0
 10
10.6298948051
 20
6.7853085805
 30
0.0
 10
10.6405129297
 20
6.768763016
 30
0.0
 10
10.6524394473
 20
6.7526725936
 30
0.0
 10
10.6702054892
 20
6.7316910557
 30
0.0
 10
10.6955763494
 20
6.7068937229
 30
0.0
 10
10.7301997376
 20
6.6800661916
 30
0.0
 10
10.7688647329
 20
6.6561930561
 30
0.0
 10
10.8110735229
 20
6.6355730853
 30
0.0
 10
10.8562895843
 20
6.6184615009
 30
0.0
 10
10.9039372776
 20
6.6050720912
 30
0.0
 10
10.9534105715
 20
6.5955726943
 30
0.0
 10
11.0040794237
 20
6.5900827631
 30
0.0
 10
11.0552997611
 20
6.5886715557
 30
0.0
 10
11.1064149737
 20
6.5913561452
 30
0.0
 10
11.1401935511
 20
6.5958818894
 30
0.0
 10
11.1568904109
 20
6.5988284967
 30
0.0
  0
SPLINE
  5
3CF
100
AcDbEntity
  8
0
100
AcDbSpline
 62
7
  6
CONTINUOUS
 70
0
 71
3
 72
17
 73
13
 74
0
 42
0.0000001
 43
0.0000001
 44
0.0000000001
 40
0.0
 40
0.0
 40
0.0
 40
0.0
 40
0.035690563
 40
0.0752319391
 40
0.1185785055
 40
0.1656781221
 40
0.2709168588
 40
0.3904715596
 40
0.5237888214
 40
0.6702586902
 40
0.8292488067
 40
1.0
 40
1.0
 40
1.0
 40
1.0
 10
10.3498335704
 20
10.5891082687
 30
0.0
 10
10.3498698838
 20
10.5900332819
 30
0.0
 10
10.3499934324
 20
10.5919813687
 30
0.0
 10
10.3502998832
 20
10.5950421893
 30
0.0
 10
10.350736074
 20
10.5983858573
 30
0.0
 10
10.3515190869
 20
10.6034011101
 30
0.0
 10
10.3528353735
 20
10.6103313101
 30
0.0
 10
10.3548569521
 20
10.6193982693
 30
0.0
 10
10.3573667514
 20
10.6294485176
 30
0.0
 10
10.3603541154
 20
10.6404309566
 30
0.0
 10
10.363807463
 20
10.6522907037
 30
0.0
 10
10.3663254619
 20
10.6604646922
 30
0.0
 10
10.3676576099
 20
10.6646884641
 30
0.0
  0
LINE
  5
3D0
100
AcDbEntity
  8
0
100
AcDbLine
 62
7
  6
CONTINUOUS
 10
10.2344120875
 20
10.6646738851
 11
10.1366333293
 21
10.6647796043
  0
SPLINE
  5
3D1
100
AcDbEntity
  8
0
100
AcDbSpline
 62
7
  6
CONTINUOUS
 70
0
 71
3
 72
26
 73
22
 74
0
 42
0.0000001
 43
0.0000001
 44
0.0000000001
 40
0.0
 40
0.0
 40
0.0
 40
0.0
 40
0.026006459
 40
0.0521278864
 40
0.0784147591
 40
0.1049150642
 40
0.1587075431
 40
0.2138452643
 40
0.2420085119
 40
0.2705933564
 40
0.2996184725
 40
0.3290978786
 40
0.3894342737
 40
0.4516408883
 40
0.515669657
 40
0.5814118414
 40
0.6487059849
 40
0.7173454183
 40
0.787086289
 40
0.8576555146
 40
1.0
 40
1.0
 40
1.0
 40
1.0
 10
11.4529331288
 20
7.2182558729
 30
0.0
 10
11.452574324
 20
7.2135950206
 30
0.0
 10
11.4515508332
 20
7.204273318
 30
0.0
 10
11.449110865
 20
7.1903818656
 30
0.0
 10
11.4457687589
 20
7.176587221
 30
0.0
 10
11.4400944085
 20
7.1582781207
 30
0.0
 10
11.4307320303
 20
7.1357373478
 30
0.0
 10
11.4186337679
 20
7.1142039694
 30
0.0
 10
11.4073554745
 20
7.0975427933
 30
0.0
 10
11.3980291905
 20
7.0852561307
 30
0.0
 10
11.3879178916
 20
7.0732961966
 30
0.0
 10
11.3733085177
 20
7.0577008978
 30
0.0
 10
11.3531601779
 20
7.0391734889
 30
0.0
 10
11.3264487393
 20
7.0188243958
 30
0.0
 10
11.2972521414
 20
7.0003525875
 30
0.0
 10
11.2658326826
 20
6.9839142657
 30
0.0
 10
11.2324694755
 20
6.9696458408
 30
0.0
 10
11.1974604912
 20
6.9576659076
 30
0.0
 10
11.1611131607
 20
6.9480722695
 30
0.0
 10
11.1111799271
 20
6.9385428996
 30
0.0
 10
11.0728995143
 20
6.9352218484
 30
0.0
 10
11.0473183383
 20
6.9347087464
 30
0.0
  0
SPLINE
  5
3D2
100
AcDbEntity
  8
0
100
AcDbSpline
 62
7
  6
CONTINUOUS
 70
0
 71
3
 72
26
 73
22
 74
0
 42
0.0000001
 43
0.0000001
 44
0.0000000001
 40
0.0
 40
0.0
 40
0.0
 40
0.0
 40
0.0260017097
 40
0.0521235282
 40
0.0784153099
 40
0.1049243523
 40
0.158743343
 40
0.2139146851
 40
0.2420956289
 40
0.2706980866
 40
0.2997401895
 40
0.3292354891
 40
0.3895989797
 40
0.451824226
 40
0.5158615626
 40
0.5816016174
 40
0.6488830366
 40
0.7174999463
 40
0.7872098588
 40
0.8577414541
 40
1.0
 40
1.0
 40
1.0
 40
1.0
 10
11.4528056702
 20
7.26794048
 30
0.0
 10
11.4524138884
 20
7.2632967867
 30
0.0
 10
11.4513264759
 20
7.2540106497
 30
0.0
 10
11.4487980047
 20
7.2401767351
 30
0.0
 10
11.4453744082
 20
7.2264421546
 30
0.0
 10
11.4396002844
 20
7.2082153331
 30
0.0
 10
11.4301316431
 20
7.1857834169
 30
0.0
 10
11.4179539444
 20
7.1643622074
 30
0.0
 10
11.4066263374
 20
7.1477905414
 30
0.0
 10
11.397270049
 20
7.1355715111
 30
0.0
 10
11.3871360087
 20
7.1236788806
 30
0.0
 10
11.3725060648
 20
7.1081736224
 30
0.0
 10
11.3523503682
 20
7.0897564971
 30
0.0
 10
11.3256557284
 20
7.0695314499
 30
0.0
 10
11.2965003859
 20
7.0511749608
 30
0.0
 10
11.2651444084
 20
7.0348411671
 30
0.0
 10
11.2318643826
 20
7.0206646564
 30
0.0
 10
11.1969554472
 20
7.0087624303
 30
0.0
 10
11.1607220091
 20
6.9992309586
 30
0.0
 10
11.110956115
 20
6.9897626873
 30
0.0
 10
11.0728096695
 20
6.9864607172
 30
0.0
 10
11.0473183383
 20
6.9859484935
 30
0.0
  0
SPLINE
  5
3D3
100
AcDbEntity
  8
0
100
AcDbSpline
 62
7
  6
CONTINUOUS
 70
0
 71
3
 72
15
 73
11
 74
0
 42
0.0000001
 43
0.0000001
 44
0.0000000001
 40
0.0
 40
0.0
 40
0.0
 40
0.0
 40
0.086478614
 40
0.1841952796
 40
0.2931698356
 40
0.4133094744
 40
0.5443926749
 40
0.6861217439
 40
0.8381568254
 40
1.0
 40
1.0
 40
1.0
 40
1.0
 10
10.2293632061
 20
10.5945956038
 30
0.0
 10
10.2289477408
 20
10.5965896823
 30
0.0
 10
10.2283041664
 20
10.6008881082
 30
0.0
 10
10.2278409526
 20
10.6077829854
 30
0.0
 10
10.2278228116
 20
10.6154856268
 30
0.0
 10
10.2282501832
 20
10.6239620365
 30
0.0
 10
10.2291230574
 20
10.6331788549
 30
0.0
 10
10.2304412406
 20
10.6431004919
 30
0.0
 10
10.2322034135
 20
10.653687764
 30
0.0
 10
10.2336292466
 20
10.6609431122
 30
0.0
 10
10.2344120875
 20
10.6646738851
 30
0.0
  0
LINE
  5
3D4
100
AcDbEntity
  8
0
100
AcDbLine
 62
7
  6
CONTINUOUS
 10
10.0910749685
 20
10.6646884641
 11
10.0108212351
 21
10.6647820038
  0
SPLINE
  5
3D5
100
AcDbEntity
  8
0
100
AcDbSpline
 62
7
  6
CONTINUOUS
 70
0
 71
3
 72
16
 73
12
 74
0
 42
0.0000001
 43
0.0000001
 44
0.0000000001
 40
0.0
 40
0.0
 40
0.0
 40
0.0
 40
0.0884144105
 40
0.1360041436
 40
0.1860388468
 40
0.2938755281
 40
0.4126437335
 40
0.5426571801
 40
0.683982104
 40
0.8365300344
 40
1.0
 40
1.0
 40
1.0
 40
1.0
 10
10.1022884521
 20
10.5891082687
 30
0.0
 10
10.1009046478
 20
10.5909399932
 30
0.0
 10
10.0990412077
 20
10.5939642551
 30
0.0
 10
10.0969667629
 20
10.5983284066
 30
0.0
 10
10.0950024467
 20
10.6032926959
 30
0.0
 10
10.0929815062
 20
10.6102018696
 30
0.0
 10
10.0912592173
 20
10.6193114625
 30
0.0
 10
10.0901907931
 20
10.62939364
 30
0.0
 10
10.0897852984
 20
10.6403997485
 30
0.0
 10
10.0900524191
 20
10.6522774964
 30
0.0
 10
10.0906636663
 20
10.6604639489
 30
0.0
 10
10.0910749685
 20
10.6646884641
 30
0.0
  0
LINE
  5
3D6
100
AcDbEntity
  8
0
100
AcDbLine
 62
7
  6
CONTINUOUS
 10
9.98342948
 20
10.6646738851
 11
9.9082394752
 21
10.6647796043
  0
SPLINE
  5
3D7
100
AcDbEntity
  8
0
100
AcDbSpline
 62
7
  6
CONTINUOUS
 70
0
 71
3
 72
15
 73
11
 74
0
 42
0.0000001
 43
0.0000001
 44
0.0000000001
 40
0.0
 40
0.0
 40
0.0
 40
0.0
 40
0.1009556913
 40
0.2076799671
 40
0.3209419683
 40
0.4413420412
 40
0.5692712966
 40
0.7049686211
 40
0.8485674236
 40
1.0
 40
1.0
 40
1.0
 40
1.0
 10
10.0032798392
 20
10.5945956038
 30
0.0
 10
10.0016780624
 20
10.5965097565
 30
0.0
 10
9.9986460431
 20
10.6006730521
 30
0.0
 10
9.9947506056
 20
10.6076028342
 30
0.0
 10
9.9914043191
 20
10.6153391781
 30
0.0
 10
9.9886193818
 20
10.6238455216
 30
0.0
 10
9.9864065631
 20
10.6330879429
 30
0.0
 10
9.9847782334
 20
10.6430313354
 30
0.0
 10
9.9837468121
 20
10.6536368032
 30
0.0
 10
9.9834715786
 20
10.6609302495
 30
0.0
 10
9.98342948
 20
10.6646738851
 30
0.0
  0
LINE
  5
3D8
100
AcDbEntity
  8
0
100
AcDbLine
 62
7
  6
CONTINUOUS
 10
9.8745766148
 20
10.6646884641
 11
9.8177732794
 21
10.6647820038
  0
SPLINE
  5
3D9
100
AcDbEntity
  8
0
100
AcDbSpline
 62
7
  6
CONTINUOUS
 70
0
 71
3
 72
15
 73
11
 74
0
 42
0.0000001
 43
0.0000001
 44
0.0000000001
 40
0.0
 40
0.0
 40
0.0
 40
0.0
 40
0.1086519984
 40
0.2200358508
 40
0.3353560985
 40
0.4556489287
 40
0.5817263295
 40
0.7142037433
 40
0.8535454748
 40
1.0
 40
1.0
 40
1.0
 40
1.0
 10
9.9141230371
 20
10.5891082687
 30
0.0
 10
9.9114728346
 20
10.5908718735
 30
0.0
 10
9.9063556549
 20
10.5948333752
 30
0.0
 10
9.8994492689
 20
10.6018592259
 30
0.0
 10
9.8932744195
 20
10.6099674981
 30
0.0
 10
9.8878617463
 20
10.6191031339
 30
0.0
 10
9.8832388997
 20
10.6292152856
 30
0.0
 10
9.8794332228
 20
10.6402521815
 30
0.0
 10
9.8764735285
 20
10.6521587998
 30
0.0
 10
9.875116338
 20
10.6604315991
 30
0.0
 10
9.8745766148
 20
10.6646884641
 30
0.0
  0
LINE
  5
3DA
100
AcDbEntity
  8
0
100
AcDbLine
 62
7
  6
CONTINUOUS
 10
9.7992949222
 20
10.6646738851
 11
9.7514181353
 21
10.6647796043
  0
LINE
  5
3DB
100
AcDbEntity
  8
0
100
AcDbLine
 62
7
  6
CONTINUOUS
 10
10.5873525293
 20
6.6055537418
 11
10.5874460967
 21
6.6061774068
  0
SPLINE
  5
3DC
100
AcDbEntity
  8
0
100
AcDbSpline
 62
7
  6
CONTINUOUS
 70
0
 71
3
 72
11
 73
7
 74
0
 42
0.0000001
 43
0.0000001
 44
0.0000000001
 40
0.0
 40
0.0
 40
0.0
 40
0.0
 40
0.2451105614
 40
0.4928915679
 40
0.7442514638
 40
1.0
 40
1.0
 40
1.0
 40
1.0
 10
10.5874460967
 20
6.6061774068
 30
0.0
 10
10.5885336248
 20
6.6133605298
 30
0.0
 10
10.5913926034
 20
6.6277118288
 30
0.0
 10
10.5976554993
 20
6.6488930696
 30
0.0
 10
10.6058815015
 20
6.6697302905
 30
0.0
 10
10.6125869413
 20
6.6832053954
 30
0.0
 10
10.6162385274
 20
6.6898481875
 30
0.0
  0
SPLINE
  5
3DD
100
AcDbEntity
  8
0
100
AcDbSpline
 62
7
  6
CONTINUOUS
 70
0
 71
3
 72
9
 73
5
 74
0
 42
0.0000001
 43
0.0000001
 44
0.0000000001
 40
0.0
 40
0.0
 40
0.0
 40
0.0
 40
0.4938603994
 40
1.0
 40
1.0
 40
1.0
 40
1.0
 10
10.6162385274
 20
6.6898481875
 30
0.0
 10
10.6204741042
 20
6.6975533476
 30
0.0
 10
10.6297950074
 20
6.7127556425
 30
0.0
 10
10.6404351667
 20
6.7270613193
 30
0.0
 10
10.6461113805
 20
6.7340600621
 30
0.0
  0
SPLINE
  5
3DE
100
AcDbEntity
  8
0
100
AcDbSpline
 62
7
  6
CONTINUOUS
 70
0
 71
3
 72
15
 73
11
 74
0
 42
0.0000001
 43
0.0000001
 44
0.0000000001
 40
0.0
 40
0.0
 40
0.0
 40
0.0
 40
0.1209719739
 40
0.2423546765
 40
0.3645491139
 40
0.4879375555
 40
0.6128751029
 40
0.7396832936
 40
0.8686449102
 40
1.0
 40
1.0
 40
1.0
 40
1.0
 10
10.5848183742
 20
6.6067205995
 30
0.0
 10
10.5848183473
 20
6.6130915295
 30
0.0
 10
10.5853469127
 20
6.6258612682
 30
0.0
 10
10.5877208767
 20
6.6449334091
 30
0.0
 10
10.5916679751
 20
6.6638739937
 30
0.0
 10
10.5971739035
 20
6.6826157064
 30
0.0
 10
10.6042187011
 20
6.7010943542
 30
0.0
 10
10.6127774303
 20
6.7192466777
 30
0.0
 10
10.622819159
 20
6.7370096801
 30
0.0
 10
10.6304071245
 20
6.7484435564
 30
0.0
 10
10.634426021
 20
6.7540741656
 30
0.0
  0
SPLINE
  5
3DF
100
AcDbEntity
  8
0
100
AcDbSpline
 62
7
  6
CONTINUOUS
 70
0
 71
3
 72
11
 73
7
 74
0
 42
0.0000001
 43
0.0000001
 44
0.0000000001
 40
0.0
 40
0.0
 40
0.0
 40
0.0
 40
0.2371469253
 40
0.4822317291
 40
0.7362882015
 40
1.0
 40
1.0
 40
1.0
 40
1.0
 10
9.8189527294
 20
10.6189024438
 30
0.0
 10
9.8166913183
 20
10.6221532623
 30
0.0
 10
9.8124479044
 20
10.6290172544
 30
0.0
 10
9.8070594055
 20
10.6400892645
 30
0.0
 10
9.80258868
 20
10.6520362966
 30
0.0
 10
9.8002885737
 20
10.6603838334
 30
0.0
 10
9.7992949222
 20
10.6646738851
 30
0.0
  0
LINE
  5
3E0
100
AcDbEntity
  8
0
100
AcDbLine
 62
7
  6
CONTINUOUS
 10
9.7317659367
 20
10.6646884641
 11
9.7019821618
 21
10.6647820038
  0
SPLINE
  5
3E1
100
AcDbEntity
  8
0
100
AcDbSpline
 62
7
  6
CONTINUOUS
 70
0
 71
3
 72
11
 73
7
 74
0
 42
0.0000001
 43
0.0000001
 44
0.0000000001
 40
0.0
 40
0.0
 40
0.0
 40
0.0
 40
0.2428122357
 40
0.4899423198
 40
0.7421541437
 40
1.0
 40
1.0
 40
1.0
 40
1.0
 10
9.7537036961
 20
10.623797305
 30
0.0
 10
9.7513751883
 20
10.6267652561
 30
0.0
 10
9.7469412443
 20
10.632966368
 30
0.0
 10
9.7410604395
 20
10.6428995758
 30
0.0
 10
9.7359302811
 20
10.6535001834
 30
0.0
 10
9.7330655438
 20
10.6608992123
 30
0.0
 10
9.7317659367
 20
10.6646884641
 30
0.0
  0
LINE
  5
3E2
100
AcDbEntity
  8
0
100
AcDbLine
 62
7
  6
CONTINUOUS
 10
9.6935782655
 20
10.6646738851
 11
9.6760229712
 21
10.6647796043
  0
LINE
  5
3E3
100
AcDbEntity
  8
0
100
AcDbLine
 62
7
  6
CONTINUOUS
 10
9.6716162542
 20
10.6646884641
 11
9.6698966933
 21
10.664752179
  0
LINE
  5
3E4
100
AcDbEntity
  8
0
100
AcDbLine
 62
7
  6
CONTINUOUS
 10
9.6596037432
 20
10.6524595516
 11
9.6612987251
 21
10.6523682005
  0
SPLINE
  5
3E5
100
AcDbEntity
  8
0
100
AcDbSpline
 62
7
  6
CONTINUOUS
 70
0
 71
3
 72
19
 73
15
 74
0
 42
0.0000001
 43
0.0000001
 44
0.0000000001
 40
0.0
 40
0.0
 40
0.0
 40
0.0
 40
0.0579658353
 40
0.1160590071
 40
0.1744049335
 40
0.2331251494
 40
0.2923356334
 40
0.3521453525
 40
0.4126546858
 40
0.4739546111
 40
0.5991876295
 40
0.728413325
 40
0.861963477
 40
1.0
 40
1.0
 40
1.0
 40
1.0
 10
11.622318338
 20
6.6208627351
 30
0.0
 10
11.6223183437
 20
6.6144981971
 30
0.0
 10
11.621894574
 20
6.6017511033
 30
0.0
 10
11.6199901567
 20
6.5826833694
 30
0.0
 10
11.6168209465
 20
6.5636999715
 30
0.0
 10
11.6123941444
 20
6.5448443579
 30
0.0
 10
11.6067201274
 20
6.5261580358
 30
0.0
 10
11.5998116497
 20
6.5076827695
 30
0.0
 10
11.5916841209
 20
6.4894588063
 30
0.0
 10
11.5791608303
 20
6.465382611
 30
0.0
 10
11.5604632069
 20
6.4360891043
 30
0.0
 10
11.5336783983
 20
6.402858118
 30
0.0
 10
11.5026274367
 20
6.3715719043
 30
0.0
 10
11.4796385324
 20
6.3524994918
 30
0.0
 10
11.4675552138
 20
6.3433506016
 30
0.0
  0
SPLINE
  5
3E6
100
AcDbEntity
  8
0
100
AcDbSpline
 62
7
  6
CONTINUOUS
 70
0
 71
3
 72
21
 73
17
 74
0
 42
0.0000001
 43
0.0000001
 44
0.0000000001
 40
0.0
 40
0.0
 40
0.0
 40
0.0
 40
0.2038381432
 40
0.380989043
 40
0.4593852673
 40
0.5310132495
 40
0.5959990449
 40
0.6545872471
 40
0.7072038911
 40
0.7544992438
 40
0.7974223003
 40
0.8372707296
 40
0.8756762581
 40
0.9144655257
 40
0.9554064562
 40
1.0
 40
1.0
 40
1.0
 40
1.0
 10
11.4743021438
 20
7.7535814089
 30
0.0
 10
11.4746193684
 20
7.7526637875
 30
0.0
 10
11.4752559927
 20
7.7509632499
 30
0.0
 10
11.4761637164
 20
7.748969215
 30
0.0
 10
11.476913235
 20
7.747602125
 30
0.0
 10
11.4774571236
 20
7.7467335548
 30
0.0
 10
11.4780051945
 20
7.7459813356
 30
0.0
 10
11.4785573101
 20
7.7453475929
 30
0.0
 10
11.4791128025
 20
7.7448336909
 30
0.0
 10
11.4796714833
 20
7.7444410722
 30
0.0
 10
11.4802331574
 20
7.7441717226
 30
0.0
 10
11.4807967429
 20
7.7440283814
 30
0.0
 10
11.481358971
 20
7.7440143613
 30
0.0
 10
11.4819144861
 20
7.7441301648
 30
0.0
 10
11.4824587105
 20
7.7443731226
 30
0.0
 10
11.4827959139
 20
7.7446056297
 30
0.0
 10
11.4829617369
 20
7.7447383644
 30
0.0
  0
SPLINE
  5
3E7
100
AcDbEntity
  8
0
100
AcDbSpline
 62
7
  6
CONTINUOUS
 70
0
 71
3
 72
22
 73
18
 74
0
 42
0.0000001
 43
0.0000001
 44
0.0000000001
 40
0.0
 40
0.0
 40
0.0
 40
0.0
 40
0.2270268103
 40
0.4267676062
 40
0.5969315597
 40
0.6703576226
 40
0.7357849111
 40
0.79310429
 40
0.8422828096
 40
0.8833894643
 40
0.9166806829
 40
0.9427749075
 40
0.9535554057
 40
0.9631891298
 40
0.9721121023
 40
0.9808690874
 40
1.0
 40
1.0
 40
1.0
 40
1.0
 10
11.49702504
 20
7.7607144356
 30
0.0
 10
11.4972006268
 20
7.7593460685
 30
0.0
 10
11.4975625599
 20
7.7567776455
 30
0.0
 10
11.4981807332
 20
7.7532027026
 30
0.0
 10
11.4987431469
 20
7.7505668737
 30
0.0
 10
11.4992132424
 20
7.7487485538
 30
0.0
 10
11.4995506359
 20
7.747604917
 30
0.0
 10
11.4998886952
 20
7.7466159279
 30
0.0
 10
11.5002256925
 20
7.7457841115
 30
0.0
 10
11.5005603764
 20
7.7451105112
 30
0.0
 10
11.5008913127
 20
7.7445958888
 30
0.0
 10
11.5011826603
 20
7.7442783151
 30
0.0
 10
11.5014176523
 20
7.744118873
 30
0.0
 10
11.50158296
 20
7.7440485198
 30
0.0
 10
11.5017485132
 20
7.7440211219
 30
0.0
 10
11.501973524
 20
7.7440439748
 30
0.0
 10
11.5021285854
 20
7.7441292078
 30
0.0
 10
11.502220336
 20
7.7442005996
 30
0.0
  0
LINE
  5
3E8
100
AcDbEntity
  8
0
100
AcDbLine
 62
7
  6
CONTINUOUS
 10
11.5084404847
 20
7.7497620882
 11
11.5086850347
 21
7.7440281077
  0
LINE
  5
3E9
100
AcDbEntity
  8
0
100
AcDbLine
 62
9
  6
CONTINUOUS
 10
11.4537567846
 20
8.0261529013
 11
11.4842054655
 21
8.0261514262
  0
LINE
  5
3EA
100
AcDbEntity
  8
0
100
AcDbLine
 62
9
  6
CONTINUOUS
 10
11.453754619
 20
7.7103290562
 11
11.4842054655
 21
7.7103305367
  0
LINE
  5
3EB
100
AcDbEntity
  8
0
100
AcDbLine
 62
9
  6
CONTINUOUS
 10
10.6406365756
 20
7.8298055421
 11
10.57296426
 21
7.8298062069
  0
LINE
  5
3EC
100
AcDbEntity
  8
0
100
AcDbLine
 62
9
  6
CONTINUOUS
 10
11.4842054655
 20
8.0261514262
 11
11.5189044734
 21
8.0261513933
  0
LINE
  5
3ED
100
AcDbEntity
  8
0
100
AcDbLine
 62
9
  6
CONTINUOUS
 10
11.4842054655
 20
7.7103305367
 11
11.5189033104
 21
7.7103305779
  0
LINE
  5
3EE
100
AcDbEntity
  8
0
100
AcDbLine
 62
9
  6
CONTINUOUS
 10
11.4739421833
 20
7.6695525977
 11
11.4540419872
 21
7.6695525409
  0
LINE
  5
3EF
100
AcDbEntity
  8
0
100
AcDbLine
 62
9
  6
CONTINUOUS
 10
10.6408213742
 20
7.6695527007
 11
10.6076919247
 21
7.6695519042
  0
SPLINE
  5
3F0
100
AcDbEntity
  8
0
100
AcDbSpline
 62
9
  6
CONTINUOUS
 70
0
 71
3
 72
11
 73
7
 74
0
 42
0.0000001
 43
0.0000001
 44
0.0000000001
 40
0.0
 40
0.0
 40
0.0
 40
0.0
 40
0.2483470651
 40
0.4978816111
 40
0.7484946196
 40
1.0
 40
1.0
 40
1.0
 40
1.0
 10
11.4536487089
 20
7.6374156457
 30
0.0
 10
11.456091949
 20
7.6394709245
 30
0.0
 10
11.4606759864
 20
7.6439813643
 30
0.0
 10
11.4664389438
 20
7.6517327654
 30
0.0
 10
11.4709765345
 20
7.6603051247
 30
0.0
 10
11.4731102212
 20
7.6664281215
 30
0.0
 10
11.4739421833
 20
7.6695525977
 30
0.0
  0
LINE
  5
3F1
100
AcDbEntity
  8
0
100
AcDbLine
 62
7
  6
CONTINUOUS
 10
12.4207046139
 20
10.6646884641
 11
12.4070159238
 21
10.6647820038
  0
LINE
  5
3F2
100
AcDbEntity
  8
0
100
AcDbLine
 62
9
  6
CONTINUOUS
 10
11.4739423828
 20
8.0669294218
 11
11.5083134404
 21
8.0669293576
  0
SPLINE
  5
3F3
100
AcDbEntity
  8
0
100
AcDbSpline
 62
9
  6
CONTINUOUS
 70
0
 71
3
 72
11
 73
7
 74
0
 42
0.0000001
 43
0.0000001
 44
0.0000000001
 40
0.0
 40
0.0
 40
0.0
 40
0.0
 40
0.2483472025
 40
0.4978817505
 40
0.7484946876
 40
1.0
 40
1.0
 40
1.0
 40
1.0
 10
11.4536487141
 20
8.0990665169
 30
0.0
 10
11.4560919847
 20
8.0970112401
 30
0.0
 10
11.4606760791
 20
8.0925007962
 30
0.0
 10
11.4664391028
 20
8.0847493651
 30
0.0
 10
11.4709767328
 20
8.0761769574
 30
0.0
 10
11.4731104242
 20
8.0700539194
 30
0.0
 10
11.4739423828
 20
8.0669294218
 30
0.0
  0
LINE
  5
3F4
100
AcDbEntity
  8
0
100
AcDbLine
 62
9
  6
CONTINUOUS
 10
10.6406372839
 20
7.9066763775
 11
10.5729642474
 21
7.9066756999
  0
SPLINE
  5
3F5
100
AcDbEntity
  8
0
100
AcDbSpline
 62
9
  6
CONTINUOUS
 70
0
 71
3
 72
15
 73
11
 74
0
 42
0.0000001
 43
0.0000001
 44
0.0000000001
 40
0.0
 40
0.0
 40
0.0
 40
0.0
 40
0.1255582246
 40
0.2512723516
 40
0.3768981334
 40
0.5023484877
 40
0.6274751786
 40
0.7521551477
 40
0.8763726434
 40
1.0
 40
1.0
 40
1.0
 40
1.0
 10
11.4842055055
 20
8.0261514363
 30
0.0
 10
11.4845304152
 20
8.0247817289
 30
0.0
 10
11.4849927209
 20
8.0219921905
 30
0.0
 10
11.4851098229
 20
8.0177556132
 30
0.0
 10
11.4846482565
 20
8.0135430309
 30
0.0
 10
11.4836181358
 20
8.0094392708
 30
0.0
 10
11.4820387952
 20
8.005525332
 30
0.0
 10
11.4799419172
 20
8.0018780301
 30
0.0
 10
11.4773689024
 20
7.9985715906
 30
0.0
 10
11.4753641965
 20
7.9966316139
 30
0.0
 10
11.4743021576
 20
7.9957409639
 30
0.0
  0
SPLINE
  5
3F6
100
AcDbEntity
  8
0
100
AcDbSpline
 62
9
  6
CONTINUOUS
 70
0
 71
3
 72
15
 73
11
 74
0
 42
0.0000001
 43
0.0000001
 44
0.0000000001
 40
0.0
 40
0.0
 40
0.0
 40
0.0
 40
0.1236272415
 40
0.2478446959
 40
0.3725246545
 40
0.4976513607
 40
0.6231017452
 40
0.7487275679
 40
0.8744417399
 40
1.0
 40
1.0
 40
1.0
 40
1.0
 10
11.4743015861
 20
7.7407402737
 30
0.0
 10
11.475363595
 20
7.7398496486
 30
0.0
 10
11.477368247
 20
7.7379097289
 30
0.0
 10
11.4799412008
 20
7.7346033895
 30
0.0
 10
11.4820380399
 20
7.7309561986
 30
0.0
 10
11.4836173666
 20
7.7270423785
 30
0.0
 10
11.4846474997
 20
7.72293874
 30
0.0
 10
11.4851091058
 20
7.7187262776
 30
0.0
 10
11.484992072
 20
7.7144898134
 30
0.0
 10
11.4845298306
 20
7.711700342
 30
0.0
 10
11.4842049568
 20
7.7103306651
 30
0.0
  0
SPLINE
  5
3F7
100
AcDbEntity
  8
0
100
AcDbSpline
 62
9
  6
CONTINUOUS
 70
0
 71
3
 72
15
 73
11
 74
0
 42
0.0000001
 43
0.0000001
 44
0.0000000001
 40
0.0
 40
0.0
 40
0.0
 40
0.0
 40
0.1605512671
 40
0.3069676127
 40
0.4401934752
 40
0.5619674973
 40
0.6749393906
 40
0.7827184932
 40
0.889599049
 40
1.0
 40
1.0
 40
1.0
 40
1.0
 10
11.4536563982
 20
7.7772591887
 30
0.0
 10
11.4544023844
 20
7.776566503
 30
0.0
 10
11.4557730832
 20
7.775179592
 30
0.0
 10
11.4575155283
 20
7.7729912582
 30
0.0
 10
11.4588346714
 20
7.770804525
 30
0.0
 10
11.4597179085
 20
7.7686327093
 30
0.0
 10
11.4601510681
 20
7.7664896658
 30
0.0
 10
11.4601215845
 20
7.7643951908
 30
0.0
 10
11.4596250029
 20
7.7623772906
 30
0.0
 10
11.4590050866
 20
7.7611336776
 30
0.0
 10
11.4586341476
 20
7.7605400304
 30
0.0
  0
SPLINE
  5
3F8
100
AcDbEntity
  8
0
100
AcDbSpline
 62
7
  6
CONTINUOUS
 70
0
 71
3
 72
15
 73
11
 74
0
 42
0.0000001
 43
0.0000001
 44
0.0000000001
 40
0.0
 40
0.0
 40
0.0
 40
0.0
 40
0.1194662098
 40
0.2397612131
 40
0.3613044341
 40
0.4844867005
 40
0.6096611243
 40
0.7371346863
 40
0.8671831032
 40
1.0
 40
1.0
 40
1.0
 40
1.0
 10
10.6415975432
 20
7.1436204756
 30
0.0
 10
10.6420058817
 20
7.1381302766
 30
0.0
 10
10.6432992242
 20
7.1271413298
 30
0.0
 10
10.6466443405
 20
7.1108117305
 30
0.0
 10
10.6513865427
 20
7.0946526203
 30
0.0
 10
10.6575083066
 20
7.0787241188
 30
0.0
 10
10.6649872854
 20
7.0630834365
 30
0.0
 10
10.6737964724
 20
7.0477860516
 30
0.0
 10
10.6839037598
 20
7.032888122
 30
0.0
 10
10.6914024618
 20
7.0233600091
 30
0.0
 10
10.6953467171
 20
7.0186797703
 30
0.0
  0
SPLINE
  5
3F9
100
AcDbEntity
  8
0
100
AcDbSpline
 62
9
  6
CONTINUOUS
 70
0
 71
3
 72
18
 73
14
 74
0
 42
0.0000001
 43
0.0000001
 44
0.0000000001
 40
0.0
 40
0.0
 40
0.0
 40
0.0
 40
0.1655252913
 40
0.322439769
 40
0.4686121929
 40
0.6023325674
 40
0.6641274652
 40
0.7223885987
 40
0.7770721467
 40
0.82818855
 40
0.8758244981
 40
0.9201565998
 40
1.0
 40
1.0
 40
1.0
 40
1.0
 10
11.4569092663
 20
7.9807127615
 30
0.0
 10
11.459256445
 20
7.979977518
 30
0.0
 10
11.4637901557
 20
7.9784175846
 30
0.0
 10
11.4702263056
 20
7.9757467238
 30
0.0
 10
11.4760376276
 20
7.9728427168
 30
0.0
 10
11.4803856465
 20
7.9702055372
 30
0.0
 10
11.4834513984
 20
7.9680068438
 30
0.0
 10
11.4854737691
 20
7.9663758285
 30
0.0
 10
11.4872716799
 20
7.9647265375
 30
0.0
 10
11.4888370644
 20
7.9630659911
 30
0.0
 10
11.4901635694
 20
7.961399783
 30
0.0
 10
11.4915559089
 20
7.9592583826
 30
0.0
 10
11.4923106523
 20
7.9575459288
 30
0.0
 10
11.4926186834
 20
7.9564001714
 30
0.0
  0
SPLINE
  5
3FA
100
AcDbEntity
  8
0
100
AcDbSpline
 62
9
  6
CONTINUOUS
 70
0
 71
3
 72
22
 73
18
 74
0
 42
0.0000001
 43
0.0000001
 44
0.0000000001
 40
0.0
 40
0.0
 40
0.0
 40
0.0
 40
0.1786463623
 40
0.2621664424
 40
0.341474702
 40
0.4163742982
 40
0.4867475571
 40
0.5525571629
 40
0.6138706889
 40
0.6708734797
 40
0.7239052057
 40
0.7734781007
 40
0.8203034345
 40
0.8652837558
 40
0.9094780365
 40
0.9540170768
 40
1.0
 40
1.0
 40
1.0
 40
1.0
 10
11.4752158031
 20
7.7920745343
 30
0.0
 10
11.4775018098
 20
7.7912550971
 30
0.0
 10
11.4808141348
 20
7.7899239649
 30
0.0
 10
11.4849876054
 20
7.7878885696
 30
0.0
 10
11.4878164234
 20
7.7863228121
 30
0.0
 10
11.4903992251
 20
7.7846916994
 30
0.0
 10
11.4927225326
 20
7.7830039142
 30
0.0
 10
11.4947740134
 20
7.7812678535
 30
0.0
 10
11.4965430864
 20
7.7794923695
 30
0.0
 10
11.4980200421
 20
7.7776857103
 30
0.0
 10
11.4991966838
 20
7.7758564363
 30
0.0
 10
11.5000650495
 20
7.7740127622
 30
0.0
 10
11.5006182052
 20
7.7721639031
 30
0.0
 10
11.5008495724
 20
7.7703205544
 30
0.0
 10
11.5007555156
 20
7.7684955915
 30
0.0
 10
11.5003363341
 20
7.7667036254
 30
0.0
 10
11.4998539033
 20
7.7655646409
 30
0.0
 10
11.4995670479
 20
7.7650092785
 30
0.0
  0
LINE
  5
3FB
100
AcDbEntity
  8
0
100
AcDbLine
 62
7
  6
CONTINUOUS
 10
12.3514737299
 20
10.6646884641
 11
12.3094962697
 21
10.6647820038
  0
SPLINE
  5
3FC
100
AcDbEntity
  8
0
100
AcDbSpline
 62
9
  6
CONTINUOUS
 70
0
 71
3
 72
15
 73
11
 74
0
 42
0.0000001
 43
0.0000001
 44
0.0000000001
 40
0.0
 40
0.0
 40
0.0
 40
0.0
 40
0.1633143002
 40
0.3170337747
 40
0.4599167734
 40
0.5911584608
 40
0.7102968991
 40
0.8174329335
 40
0.9134006983
 40
1.0
 40
1.0
 40
1.0
 40
1.0
 10
11.4890350437
 20
7.9810870677
 30
0.0
 10
11.4908437884
 20
7.9804936443
 30
0.0
 10
11.4943239571
 20
7.9792432374
 30
0.0
 10
11.4992469948
 20
7.9771114083
 30
0.0
 10
11.5036715464
 20
7.9747996138
 30
0.0
 10
11.5075448237
 20
7.9723358535
 30
0.0
 10
11.5108218699
 20
7.9697476776
 30
0.0
 10
11.5134648234
 20
7.9670613471
 30
0.0
 10
11.5154408153
 20
7.9643039549
 30
0.0
 10
11.5163290263
 20
7.9623482653
 30
0.0
 10
11.5166306684
 20
7.9613849808
 30
0.0
  0
SPLINE
  5
3FD
100
AcDbEntity
  8
0
100
AcDbSpline
 62
9
  6
CONTINUOUS
 70
0
 71
3
 72
18
 73
14
 74
0
 42
0.0000001
 43
0.0000001
 44
0.0000000001
 40
0.0
 40
0.0
 40
0.0
 40
0.0
 40
0.1643965329
 40
0.313990261
 40
0.4492774999
 40
0.5716520028
 40
0.6836325718
 40
0.7369502918
 40
0.7891851571
 40
0.8409655019
 40
0.8929409997
 40
0.945752179
 40
1.0
 40
1.0
 40
1.0
 40
1.0
 10
11.5099388231
 20
7.7877805946
 30
0.0
 10
11.5111244645
 20
7.7870834749
 30
0.0
 10
11.5133343995
 20
7.7856543689
 30
0.0
 10
11.5162621168
 20
7.7832838789
 30
0.0
 10
11.5186188392
 20
7.7808067881
 30
0.0
 10
11.5203772251
 20
7.7782442791
 30
0.0
 10
11.521336043
 20
7.7760147035
 30
0.0
 10
11.5217555416
 20
7.7742398299
 30
0.0
 10
11.5219032741
 20
7.7729284882
 30
0.0
 10
11.5218883514
 20
7.7716201548
 30
0.0
 10
11.5217103743
 20
7.7703190046
 30
0.0
 10
11.5213704921
 20
7.769029476
 30
0.0
 10
11.5210423017
 20
7.7681936748
 30
0.0
 10
11.5208539701
 20
7.7677807382
 30
0.0
  0
SPLINE
  5
3FE
100
AcDbEntity
  8
0
100
AcDbSpline
 62
9
  6
CONTINUOUS
 70
0
 71
3
 72
15
 73
11
 74
0
 42
0.0000001
 43
0.0000001
 44
0.0000000001
 40
0.0
 40
0.0
 40
0.0
 40
0.0
 40
0.1579421284
 40
0.3069348664
 40
0.446388306
 40
0.5760095222
 40
0.6957241635
 40
0.8057683004
 40
0.9068041104
 40
1.0
 40
1.0
 40
1.0
 40
1.0
 10
11.5067554889
 20
7.9806003506
 30
0.0
 10
11.508067016
 20
7.9801150322
 30
0.0
 10
11.5105919223
 20
7.9791052922
 30
0.0
 10
11.5141700425
 20
7.9774205167
 30
0.0
 10
11.5174078617
 20
7.9756198421
 30
0.0
 10
11.5202809871
 20
7.9737165084
 30
0.0
 10
11.5227685632
 20
7.9717242989
 30
0.0
 10
11.5248518218
 20
7.9696559935
 30
0.0
 10
11.526514046
 20
7.9675258872
 30
0.0
 10
11.5273615982
 20
7.9660189964
 30
0.0
 10
11.5276993922
 20
7.9652661357
 30
0.0
  0
SPLINE
  5
3FF
100
AcDbEntity
  8
0
100
AcDbSpline
 62
9
  6
CONTINUOUS
 70
0
 71
3
 72
14
 73
10
 74
0
 42
0.0000001
 43
0.0000001
 44
0.0000000001
 40
0.0
 40
0.0
 40
0.0
 40
0.0
 40
0.2683279642
 40
0.3938416308
 40
0.5154644437
 40
0.6349858498
 40
0.7543169658
 40
0.875381618
 40
1.0
 40
1.0
 40
1.0
 40
1.0
 10
11.5268009389
 20
7.7824362548
 30
0.0
 10
11.5274777585
 20
7.7815499564
 30
0.0
 10
11.5283536601
 20
7.7801456583
 30
0.0
 10
11.5291304561
 20
7.7781440009
 30
0.0
 10
11.5294910255
 20
7.7766584318
 30
0.0
 10
11.5296399164
 20
7.7751627752
 30
0.0
 10
11.5295756481
 20
7.7736632797
 30
0.0
 10
11.5292993432
 20
7.7721670098
 30
0.0
 10
11.528980627
 20
7.7711934604
 30
0.0
 10
11.5287897797
 20
7.7707119909
 30
0.0
  0
LINE
  5
400
100
AcDbEntity
  8
0
100
AcDbLine
 62
7
  6
CONTINUOUS
 10
12.291859877
 20
10.6646738851
 11
12.2330931831
 21
10.6647796043
  0
SPLINE
  5
401
100
AcDbEntity
  8
0
100
AcDbSpline
 62
7
  6
CONTINUOUS
 70
0
 71
3
 72
11
 73
7
 74
0
 42
0.0000001
 43
0.0000001
 44
0.0000000001
 40
0.0
 40
0.0
 40
0.0
 40
0.0
 40
0.2471410031
 40
0.4963632112
 40
0.7474211126
 40
1.0
 40
1.0
 40
1.0
 40
1.0
 10
12.2330931831
 20
10.6647796043
 30
0.0
 10
12.2272952396
 20
10.6581829632
 30
0.0
 10
12.2148659403
 20
10.6456044666
 30
0.0
 10
12.1942026004
 20
10.6288396852
 30
0.0
 10
12.1717414108
 20
10.6142208742
 30
0.0
 10
12.1557999741
 20
10.6060083643
 30
0.0
 10
12.1476272369
 20
10.6022975936
 30
0.0
  0
LINE
  5
402
100
AcDbEntity
  8
0
100
AcDbLine
 62
7
  6
CONTINUOUS
 10
12.2002979664
 20
10.6646884641
 11
12.1326693342
 21
10.6647820038
  0
SPLINE
  5
403
100
AcDbEntity
  8
0
100
AcDbSpline
 62
9
  6
CONTINUOUS
 70
0
 71
3
 72
10
 73
6
 74
0
 42
0.0000001
 43
0.0000001
 44
0.0000000001
 40
0.0
 40
0.0
 40
0.0
 40
0.0
 40
0.5011580769
 40
0.7511586045
 40
1.0
 40
1.0
 40
1.0
 40
1.0
 10
10.6103146173
 20
7.2200398757
 30
0.0
 10
10.6164420062
 20
7.2651102824
 30
0.0
 10
10.6249888848
 20
7.3327540933
 30
0.0
 10
10.634831361
 20
7.4229801988
 30
0.0
 10
10.6391805357
 20
7.4680472401
 30
0.0
 10
10.6411962327
 20
7.4905419082
 30
0.0
  0
SPLINE
  5
404
100
AcDbEntity
  8
0
100
AcDbSpline
 62
7
  6
CONTINUOUS
 70
0
 71
3
 72
9
 73
5
 74
0
 42
0.0000001
 43
0.0000001
 44
0.0000000001
 40
0.0
 40
0.0
 40
0.0
 40
0.0
 40
0.4981318468
 40
1.0
 40
1.0
 40
1.0
 40
1.0
 10
12.1326693342
 20
10.6647820038
 30
0.0
 10
12.1243485888
 20
10.655745631
 30
0.0
 10
12.1062493638
 20
10.6388511174
 30
0.0
 10
12.0859789444
 20
10.6246600056
 30
0.0
 10
12.0753906635
 20
10.6182528854
 30
0.0
  0
SPLINE
  5
405
100
AcDbEntity
  8
0
100
AcDbSpline
 62
7
  6
CONTINUOUS
 70
0
 71
3
 72
24
 73
20
 74
0
 42
0.0000001
 43
0.0000001
 44
0.0000000001
 40
0.0
 40
0.0
 40
0.0
 40
0.0
 40
0.0053769104
 40
0.0102321578
 40
0.0154854732
 40
0.0218870374
 40
0.029869436
 40
0.0396565276
 40
0.0650467584
 40
0.098529118
 40
0.1402585103
 40
0.190270609
 40
0.2485284864
 40
0.3149716517
 40
0.3895247614
 40
0.4720803252
 40
0.5625145122
 40
0.7664913659
 40
1.0
 40
1.0
 40
1.0
 40
1.0
 10
11.5074644708
 20
7.992421658
 30
0.0
 10
11.5074493394
 20
7.9924333059
 30
0.0
 10
11.5074170131
 20
7.9924520281
 30
0.0
 10
11.5073602306
 20
7.9924565024
 30
0.0
 10
11.5073043693
 20
7.9924340763
 30
0.0
 10
11.5072503687
 20
7.9923889418
 30
0.0
 10
11.5071961929
 20
7.9923219106
 30
0.0
 10
11.5071159125
 20
7.992191019
 30
0.0
 10
11.5070176022
 20
7.9919669659
 30
0.0
 10
11.5069030297
 20
7.99162844
 30
0.0
 10
11.5067847988
 20
7.9911994991
 30
0.0
 10
11.5066632424
 20
7.9906807768
 30
0.0
 10
11.5065389544
 20
7.9900728086
 30
0.0
 10
11.5064123859
 20
7.9893765521
 30
0.0
 10
11.5062840025
 20
7.9885930516
 30
0.0
 10
11.5061542408
 20
7.9877235387
 30
0.0
 10
11.5059726356
 20
7.9863971374
 30
0.0
 10
11.5057480287
 20
7.9845356826
 30
0.0
 10
11.5055864117
 20
7.9829903804
 30
0.0
 10
11.5055053307
 20
7.9821650773
 30
0.0
  0
LINE
  5
406
100
AcDbEntity
  8
0
100
AcDbLine
 62
7
  6
CONTINUOUS
 10
12.1059945613
 20
10.6646738851
 11
12.0215311627
 21
10.6647796043
  0
SPLINE
  5
407
100
AcDbEntity
  8
0
100
AcDbSpline
 62
7
  6
CONTINUOUS
 70
0
 71
3
 72
20
 73
16
 74
0
 42
0.0000001
 43
0.0000001
 44
0.0000000001
 40
0.0
 40
0.0
 40
0.0
 40
0.0
 40
0.0321902451
 40
0.0611918567
 40
0.0895386288
 40
0.1199313916
 40
0.1545820618
 40
0.1949725747
 40
0.2420143704
 40
0.2962293493
 40
0.3578934614
 40
0.4271496368
 40
0.5884963076
 40
0.7799163342
 40
1.0
 40
1.0
 40
1.0
 40
1.0
 10
11.4954327765
 20
7.9920958587
 30
0.0
 10
11.4953137725
 20
7.992189378
 30
0.0
 10
11.4950685212
 20
7.9923460926
 30
0.0
 10
11.4946583815
 20
7.9924671381
 30
0.0
 10
11.4942388031
 20
7.99244925
 30
0.0
 10
11.4938214855
 20
7.9922952954
 30
0.0
 10
11.4934087335
 20
7.9920143799
 30
0.0
 10
11.4929976572
 20
7.9916106265
 30
0.0
 10
11.4925867891
 20
7.9910846994
 30
0.0
 10
11.4921759929
 20
7.9904370552
 30
0.0
 10
11.4917658681
 20
7.9896685253
 30
0.0
 10
11.4911920637
 20
7.9884191746
 30
0.0
 10
11.4904991439
 20
7.9865571553
 30
0.0
 10
11.4897259057
 20
7.9839759067
 30
0.0
 10
11.4892634197
 20
7.9820963496
 30
0.0
 10
11.4890350437
 20
7.9810870677
 30
0.0
  0
SPLINE
  5
408
100
AcDbEntity
  8
0
100
AcDbSpline
 62
7
  6
CONTINUOUS
 70
0
 71
3
 72
21
 73
17
 74
0
 42
0.0000001
 43
0.0000001
 44
0.0000000001
 40
0.0
 40
0.0
 40
0.0
 40
0.0
 40
0.0478770831
 40
0.0926804484
 40
0.1356864943
 40
0.1783335175
 40
0.2220726358
 40
0.2682164349
 40
0.3178459307
 40
0.3717812593
 40
0.4306294959
 40
0.4947972143
 40
0.5645567566
 40
0.6400722013
 40
0.8085578184
 40
1.0
 40
1.0
 40
1.0
 40
1.0
 10
11.4712609246
 20
7.9911558195
 30
0.0
 10
11.471009592
 20
7.9913632449
 30
0.0
 10
11.4704947546
 20
7.9917326816
 30
0.0
 10
11.4696621211
 20
7.9921427468
 30
0.0
 10
11.468801796
 20
7.992383532
 30
0.0
 10
11.467918317
 20
7.9924530795
 30
0.0
 10
11.4670168573
 20
7.9923520912
 30
0.0
 10
11.4661016861
 20
7.9920834314
 30
0.0
 10
11.4651757084
 20
7.9916501451
 30
0.0
 10
11.4642414305
 20
7.99105435
 30
0.0
 10
11.4633017102
 20
7.9902977343
 30
0.0
 10
11.4623595727
 20
7.9893821788
 30
0.0
 10
11.4614186149
 20
7.9883095438
 30
0.0
 10
11.4601232955
 20
7.9866098658
 30
0.0
 10
11.4585490967
 20
7.9840912516
 30
0.0
 10
11.4574495902
 20
7.9818984976
 30
0.0
 10
11.4569092663
 20
7.9807127615
 30
0.0
  0
SPLINE
  5
409
100
AcDbEntity
  8
0
100
AcDbSpline
 62
7
  6
CONTINUOUS
 70
0
 71
3
 72
13
 73
9
 74
0
 42
0.0000001
 43
0.0000001
 44
0.0000000001
 40
0.0
 40
0.0
 40
0.0
 40
0.0
 40
0.2504731678
 40
0.3760282527
 40
0.5015367811
 40
0.6268416011
 40
0.7517951915
 40
1.0
 40
1.0
 40
1.0
 40
1.0
 10
12.0215311627
 20
10.6647796043
 30
0.0
 10
12.0129999051
 20
10.6557212048
 30
0.0
 10
11.9991909835
 20
10.6430224302
 30
0.0
 10
11.9792342295
 20
10.6280856558
 30
0.0
 10
11.9635456314
 20
10.6178867791
 30
0.0
 10
11.9472509996
 20
10.608748965
 30
0.0
 10
11.9249014059
 20
10.5980589241
 30
0.0
 10
11.9074117772
 20
10.5917007608
 30
0.0
 10
11.8955655285
 20
10.5882785467
 30
0.0
  0
LINE
  5
40A
100
AcDbEntity
  8
0
100
AcDbLine
 62
7
  6
CONTINUOUS
 10
10.5722823073
 20
10.6525009403
 11
10.6410505607
 21
10.6524311533
  0
LINE
  5
40B
100
AcDbEntity
  8
0
100
AcDbLine
 62
7
  6
CONTINUOUS
 10
11.9766762525
 20
10.6646884641
 11
11.887645804
 21
10.6647820038
  0
SPLINE
  5
40C
100
AcDbEntity
  8
0
100
AcDbSpline
 62
7
  6
CONTINUOUS
 70
0
 71
3
 72
15
 73
11
 74
0
 42
0.0000001
 43
0.0000001
 44
0.0000000001
 40
0.0
 40
0.0
 40
0.0
 40
0.0
 40
0.0851772652
 40
0.1824375854
 40
0.2914516954
 40
0.4119007457
 40
0.5434102217
 40
0.6855721916
 40
0.8379626728
 40
1.0
 40
1.0
 40
1.0
 40
1.0
 10
10.5244539817
 20
10.5757084573
 30
0.0
 10
10.5261151279
 20
10.5776728243
 30
0.0
 10
10.5295449955
 20
10.5819888003
 30
0.0
 10
10.5347265239
 20
10.5891069266
 30
0.0
 10
10.5402654623
 20
10.5972755538
 30
0.0
 10
10.5461371347
 20
10.6064629082
 30
0.0
 10
10.5523171626
 20
10.6166374322
 30
0.0
 10
10.5587801735
 20
10.6277656988
 30
0.0
 10
10.5654982638
 20
10.6398095063
 30
0.0
 10
10.569994998
 20
10.6481743989
 30
0.0
 10
10.5722823073
 20
10.6525009403
 30
0.0
  0
LINE
  5
40D
100
AcDbEntity
  8
0
100
AcDbLine
 62
9
  6
CONTINUOUS
 10
11.5083137043
 20
7.669552601
 11
11.4739421281
 21
7.6695526133
  0
SPLINE
  5
40E
100
AcDbEntity
  8
0
100
AcDbSpline
 62
7
  6
CONTINUOUS
 70
0
 71
3
 72
15
 73
11
 74
0
 42
0.0000001
 43
0.0000001
 44
0.0000000001
 40
0.0
 40
0.0
 40
0.0
 40
0.0
 40
0.1480080542
 40
0.2876195353
 40
0.4194866435
 40
0.5444498831
 40
0.6635728806
 40
0.7781769598
 40
0.8897575988
 40
1.0
 40
1.0
 40
1.0
 40
1.0
 10
10.502637875
 20
10.5654473248
 30
0.0
 10
10.5038344931
 20
10.5656520531
 30
0.0
 10
10.5061518859
 20
10.5660995328
 30
0.0
 10
10.5094925491
 20
10.5669312354
 30
0.0
 10
10.5125938603
 20
10.5679174963
 30
0.0
 10
10.5154565815
 20
10.5690729736
 30
0.0
 10
10.5180808642
 20
10.5704126303
 30
0.0
 10
10.5204654
 20
10.5719511281
 30
0.0
 10
10.5226067304
 20
10.5737010633
 30
0.0
 10
10.5238701017
 20
10.5750179975
 30
0.0
 10
10.5244539817
 20
10.5757084573
 30
0.0
  0
SPLINE
  5
40F
100
AcDbEntity
  8
0
100
AcDbSpline
 62
7
  6
CONTINUOUS
 70
0
 71
3
 72
11
 73
7
 74
0
 42
0.0000001
 43
0.0000001
 44
0.0000000001
 40
0.0
 40
0.0
 40
0.0
 40
0.0
 40
0.2521873287
 40
0.5034982165
 40
0.7530369708
 40
1.0
 40
1.0
 40
1.0
 40
1.0
 10
11.887645804
 20
10.6647820038
 30
0.0
 10
11.8810889638
 20
10.6579098642
 30
0.0
 10
11.8672822874
 20
10.644854496
 30
0.0
 10
11.8448167702
 20
10.6274715377
 30
0.0
 10
11.820945073
 20
10.6124446994
 30
0.0
 10
11.8042020634
 20
10.6040382619
 30
0.0
 10
11.7956937294
 20
10.6002796048
 30
0.0
  0
LINE
  5
410
100
AcDbEntity
  8
0
100
AcDbLine
 62
9
  6
CONTINUOUS
 10
10.6076895832
 20
8.0669292148
 11
10.6410503556
 21
8.0669292506
  0
LINE
  5
411
100
AcDbEntity
  8
0
100
AcDbLine
 62
9
  6
CONTINUOUS
 10
11.4540476161
 20
8.0669294048
 11
11.4739422045
 21
8.0669293713
  0
LINE
  5
412
100
AcDbEntity
  8
0
100
AcDbLine
 62
7
  6
CONTINUOUS
 10
10.4172840863
 20
10.6524978072
 11
10.5314889093
 21
10.6523453593
  0
LINE
  5
413
100
AcDbEntity
  8
0
100
AcDbLine
 62
7
  6
CONTINUOUS
 10
11.853608725
 20
10.6646738851
 11
11.7487557676
 21
10.6647796043
  0
SPLINE
  5
414
100
AcDbEntity
  8
0
100
AcDbSpline
 62
7
  6
CONTINUOUS
 70
0
 71
3
 72
12
 73
8
 74
0
 42
0.0000001
 43
0.0000001
 44
0.0000000001
 40
0.0
 40
0.0
 40
0.0
 40
0.0
 40
0.0787053303
 40
0.1715195047
 40
0.3977288058
 40
0.6751673643
 40
1.0
 40
1.0
 40
1.0
 40
1.0
 10
10.384614283
 20
10.5756269549
 30
0.0
 10
10.3854964546
 20
10.5776328504
 30
0.0
 10
10.3874061505
 20
10.5820098448
 30
0.0
 10
10.3917967555
 20
10.5921757894
 30
0.0
 10
10.3983157157
 20
10.607449524
 30
0.0
 10
10.4072992268
 20
10.6286948049
 30
0.0
 10
10.4137907402
 20
10.6441557407
 30
0.0
 10
10.4172840863
 20
10.6524978072
 30
0.0
  0
SPLINE
  5
415
100
AcDbEntity
  8
0
100
AcDbSpline
 62
7
  6
CONTINUOUS
 70
0
 71
3
 72
15
 73
11
 74
0
 42
0.0000001
 43
0.0000001
 44
0.0000000001
 40
0.0
 40
0.0
 40
0.0
 40
0.0
 40
0.1493827169
 40
0.288143061
 40
0.417630309
 40
0.5395679218
 40
0.6560974772
 40
0.7697924505
 40
0.8834593109
 40
1.0
 40
1.0
 40
1.0
 40
1.0
 10
10.3697254325
 20
10.5654489345
 30
0.0
 10
10.3706373816
 20
10.5656522418
 30
0.0
 10
10.3723858407
 20
10.5660955954
 30
0.0
 10
10.3748655732
 20
10.5669257636
 30
0.0
 10
10.3771033004
 20
10.5679097997
 30
0.0
 10
10.3791011903
 20
10.5690628685
 30
0.0
 10
10.3808596321
 20
10.5704003033
 30
0.0
 10
10.3823769064
 20
10.5719357334
 30
0.0
 10
10.3836499991
 20
10.5736790456
 30
0.0
 10
10.384320836
 20
10.5749597105
 30
0.0
 10
10.384614283
 20
10.5756269549
 30
0.0
  0
SPLINE
  5
416
100
AcDbEntity
  8
0
100
AcDbSpline
 62
7
  6
CONTINUOUS
 70
0
 71
3
 72
28
 73
24
 74
0
 42
0.0000001
 43
0.0000001
 44
0.0000000001
 40
0.0
 40
0.0
 40
0.0
 40
0.0
 40
0.0274403508
 40
0.0549852193
 40
0.0826565509
 40
0.1104755719
 40
0.1384626508
 40
0.1666372172
 40
0.2236109299
 40
0.2815411514
 40
0.310906166
 40
0.3405513787
 40
0.4007165165
 40
0.4621184689
 40
0.493304134
 40
0.524816618
 40
0.5888264955
 40
0.654167327
 40
0.7208319251
 40
0.7887955827
 40
0.858017634
 40
0.9284419263
 40
1.0
 40
1.0
 40
1.0
 40
1.0
 10
13.1858115769
 20
4.7411178339
 30
0.0
 10
13.1836298501
 20
4.7262255994
 30
0.0
 10
13.1786404159
 20
4.6964712223
 30
0.0
 10
13.1693128314
 20
4.6520912552
 30
0.0
 10
13.1581375933
 20
4.6079251861
 30
0.0
 10
13.14512462
 20
4.5640127969
 30
0.0
 10
13.1302850618
 20
4.5203914523
 30
0.0
 10
13.1080016076
 20
4.4624605483
 30
0.0
 10
13.0755675894
 20
4.3909065733
 30
0.0
 10
13.0375403758
 20
4.3214240047
 30
0.0
 10
13.0037391303
 20
4.2668965826
 30
0.0
 10
12.9673364805
 20
4.2125874729
 30
0.0
 10
12.9175545138
 20
4.1461607394
 30
0.0
 10
12.8628842363
 20
4.0825854193
 30
0.0
 10
12.8160692166
 20
4.0331571324
 30
0.0
 10
12.766703377
 20
3.9842216182
 30
0.0
 10
12.7011738438
 20
3.9250472779
 30
0.0
 10
12.6172075477
 20
3.8578024972
 30
0.0
 10
12.5277904269
 20
3.7941803272
 30
0.0
 10
12.4332356773
 20
3.7344016125
 30
0.0
 10
12.3338705659
 20
3.6786714594
 30
0.0
 10
12.2300433109
 20
3.6271830046
 30
0.0
 10
12.158625382
 20
3.5960370973
 30
0.0
 10
12.122286909
 20
3.5812019778
 30
0.0
  0
SPLINE
  5
417
100
AcDbEntity
  8
0
100
AcDbSpline
 62
7
  6
CONTINUOUS
 70
0
 71
3
 72
13
 73
9
 74
0
 42
0.0000001
 43
0.0000001
 44
0.0000000001
 40
0.0
 40
0.0
 40
0.0
 40
0.0
 40
0.2577204807
 40
0.3852124182
 40
0.5114468364
 40
0.6362191307
 40
0.759351937
 40
1.0
 40
1.0
 40
1.0
 40
1.0
 10
11.7487557676
 20
10.6647796043
 30
0.0
 10
11.7401846998
 20
10.6557146008
 30
0.0
 10
11.7264890056
 20
10.6429635889
 30
0.0
 10
11.7068612525
 20
10.6278569207
 30
0.0
 10
11.691664617
 20
10.6175992518
 30
0.0
 10
11.6760364211
 20
10.6084208775
 30
0.0
 10
11.6549147925
 20
10.5977612577
 30
0.0
 10
11.6384335893
 20
10.5913612035
 30
0.0
 10
11.6273016568
 20
10.5879289345
 30
0.0
  0
SPLINE
  5
418
100
AcDbEntity
  8
0
100
AcDbSpline
 62
7
  6
CONTINUOUS
 70
0
 71
3
 72
9
 73
5
 74
0
 42
0.0000001
 43
0.0000001
 44
0.0000000001
 40
0.0
 40
0.0
 40
0.0
 40
0.0
 40
0.4950054736
 40
1.0
 40
1.0
 40
1.0
 40
1.0
 10
11.6273016568
 20
10.5879289345
 30
0.0
 10
11.6237500992
 20
10.5868338955
 30
0.0
 10
11.6164931504
 20
10.5848827677
 30
0.0
 10
11.6091316712
 20
10.5833844991
 30
0.0
 10
11.6053978198
 20
10.5827256206
 30
0.0
  0
LINE
  5
419
100
AcDbEntity
  8
0
100
AcDbLine
 62
7
  6
CONTINUOUS
 10
11.6946595628
 20
10.6646884641
 11
11.5898214086
 21
10.6647820038
  0
LINE
  5
41A
100
AcDbEntity
  8
0
100
AcDbLine
 62
7
  6
CONTINUOUS
 10
10.2629389676
 20
10.6525009403
 11
10.3615811279
 21
10.6523682005
  0
SPLINE
  5
41B
100
AcDbEntity
  8
0
100
AcDbSpline
 62
9
  6
CONTINUOUS
 70
0
 71
3
 72
51
 73
47
 74
0
 42
0.0000001
 43
0.0000001
 44
0.0000000001
 40
0.0
 40
0.0
 40
0.0
 40
0.0
 40
0.0133250096
 40
0.0265234085
 40
0.0396092317
 40
0.0525975244
 40
0.06550424
 40
0.0783461091
 40
0.0911404863
 40
0.103905193
 40
0.116658347
 40
0.1294181807
 40
0.1422028596
 40
0.1550303007
 40
0.1679180016
 40
0.1808828755
 40
0.1939410933
 40
0.2071079575
 40
0.2203977864
 40
0.2338238038
 40
0.2473980705
 40
0.2611314308
 40
0.2891055068
 40
0.3178145029
 40
0.3324610038
 40
0.3473046481
 40
0.3623473479
 40
0.377589813
 40
0.4086661864
 40
0.4405227928
 40
0.4731271925
 40
0.5064325794
 40
0.5403795125
 40
0.5748975823
 40
0.6099070577
 40
0.6453205146
 40
0.6810443888
 40
0.7169805212
 40
0.7530276684
 40
0.7890829871
 40
0.8250435176
 40
0.8608076613
 40
0.8962766771
 40
0.9313561816
 40
0.9659574795
 40
1.0
 40
1.0
 40
1.0
 40
1.0
 10
9.1509224022
 20
5.4549997038
 30
0.0
 10
9.1428643978
 20
5.4381782822
 30
0.0
 10
9.1276302679
 20
5.4043020479
 30
0.0
 10
9.107412825
 20
5.3526524457
 30
0.0
 10
9.089972169
 20
5.3004949803
 30
0.0
 10
9.0753347041
 20
5.2479059941
 30
0.0
 10
9.0635216384
 20
5.1949607027
 30
0.0
 10
9.0545502044
 20
5.1417354412
 30
0.0
 10
9.0484337169
 20
5.0883068349
 30
0.0
 10
9.0451812383
 20
5.0347519405
 30
0.0
 10
9.0447973653
 20
4.9811480312
 30
0.0
 10
9.0472827563
 20
4.9275724462
 30
0.0
 10
9.0526338824
 20
4.8741025056
 30
0.0
 10
9.0608426566
 20
4.8208153079
 30
0.0
 10
9.071897045
 20
4.7677876357
 30
0.0
 10
9.0857809988
 20
4.71509588
 30
0.0
 10
9.1024739907
 20
4.6628157663
 30
0.0
 10
9.1219515865
 20
4.6110223724
 30
0.0
 10
9.1441856156
 20
4.5597899911
 30
0.0
 10
9.1691434022
 20
4.5091922054
 30
0.0
 10
9.1967893801
 20
4.4593004251
 30
0.0
 10
9.2374246938
 20
4.3934194542
 30
0.0
 10
9.294894751
 20
4.3131680898
 30
0.0
 10
9.3599173855
 20
4.2372355454
 30
0.0
 10
9.4166033332
 20
4.178702056
 30
0.0
 10
9.4617374716
 20
4.1356819502
 30
0.0
 10
9.5091380818
 20
4.0939016625
 30
0.0
 10
9.5756932353
 20
4.0395810302
 30
0.0
 10
9.6642774592
 20
3.9751607265
 30
0.0
 10
9.7777676023
 20
3.9042332555
 30
0.0
 10
9.8984919039
 20
3.8395769553
 30
0.0
 10
10.0257580014
 20
3.7815588826
 30
0.0
 10
10.1588422952
 20
3.7305053765
 30
0.0
 10
10.2969866801
 20
3.6867050087
 30
0.0
 10
10.4394046208
 20
3.6504051493
 30
0.0
 10
10.5852851799
 20
3.6218114969
 30
0.0
 10
10.7337975404
 20
3.6010858852
 30
0.0
 10
10.8840958253
 20
3.5883457324
 30
0.0
 10
11.0353239134
 20
3.583663493
 30
0.0
 10
11.1866203332
 20
3.5870654922
 30
0.0
 10
11.33712319
 20
3.5985325292
 30
0.0
 10
11.4859753018
 20
3.6179997112
 30
0.0
 10
11.6323283957
 20
3.6453562673
 30
0.0
 10
11.7753505165
 20
3.6804481925
 30
0.0
 10
11.9142209924
 20
3.723073892
 30
0.0
 10
12.0043193842
 20
3.7566566691
 30
0.0
 10
12.0484360611
 20
3.774667227
 30
0.0
  0
SPLINE
  5
41C
100
AcDbEntity
  8
0
100
AcDbSpline
 62
9
  6
CONTINUOUS
 70
0
 71
3
 72
22
 73
18
 74
0
 42
0.0000001
 43
0.0000001
 44
0.0000000001
 40
0.0
 40
0.0
 40
0.0
 40
0.0
 40
0.0565487829
 40
0.1132760979
 40
0.1703565559
 40
0.2279571338
 40
0.28623385
 40
0.3453289645
 40
0.4053687801
 40
0.4664620643
 40
0.5286990662
 40
0.5921510653
 40
0.6568703709
 40
0.7228906859
 40
0.7902277489
 40
0.8588801808
 40
1.0
 40
1.0
 40
1.0
 40
1.0
 10
9.1423183383
 20
5.1983375589
 30
0.0
 10
9.1423183383
 20
5.1730382333
 30
0.0
 10
9.1443411938
 20
5.1223366329
 30
0.0
 10
9.1534290072
 20
5.04658833
 30
0.0
 10
9.1685412946
 20
4.9713250327
 30
0.0
 10
9.189627327
 20
4.8967952022
 30
0.0
 10
9.2166167735
 20
4.8232359467
 30
0.0
 10
9.2494202726
 20
4.7508824333
 30
0.0
 10
9.2879300444
 20
4.679964401
 30
0.0
 10
9.3320204872
 20
4.6107063297
 30
0.0
 10
9.3815487842
 20
4.5433266899
 30
0.0
 10
9.4363553385
 20
4.4780375888
 30
0.0
 10
9.4962647407
 20
4.4150439821
 30
0.0
 10
9.5610846158
 20
4.3545443173
 30
0.0
 10
9.6306126411
 20
4.2967257012
 30
0.0
 10
9.7301853493
 20
4.2227916768
 30
0.0
 10
9.809955145
 20
4.1729365976
 30
0.0
 10
9.8650492199
 20
4.1421025977
 30
0.0
  0
SPLINE
  5
41D
100
AcDbEntity
  8
0
100
AcDbSpline
 62
9
  6
CONTINUOUS
 70
0
 71
3
 72
23
 73
19
 74
0
 42
0.0000001
 43
0.0000001
 44
0.0000000001
 40
0.0
 40
0.0
 40
0.0
 40
0.0
 40
0.058499089
 40
0.1182110622
 40
0.1790286145
 40
0.2408262434
 40
0.3034630595
 40
0.3667854685
 40
0.4306297992
 40
0.4948249067
 40
0.5591946946
 40
0.6235606266
 40
0.6877442195
 40
0.7515695381
 40
0.8148657119
 40
0.877469481
 40
0.9392273773
 40
1.0
 40
1.0
 40
1.0
 40
1.0
 10
9.8650492199
 20
4.1421025977
 30
0.0
 10
9.9025809601
 20
4.12109755
 30
0.0
 10
9.9798432333
 20
4.0811432225
 30
0.0
 10
10.1003794878
 20
4.0280697008
 30
0.0
 10
10.2261609675
 20
3.9814876489
 30
0.0
 10
10.3564851471
 20
3.9416562856
 30
0.0
 10
10.4906328589
 20
3.9087935864
 30
0.0
 10
10.6278613828
 20
3.8830806833
 30
0.0
 10
10.7674114542
 20
3.8646588737
 30
0.0
 10
10.9085107594
 20
3.853629804
 30
0.0
 10
11.0503783558
 20
3.8500542431
 30
0.0
 10
11.1922290224
 20
3.853951754
 30
0.0
 10
11.3332775886
 20
3.8653010245
 30
0.0
 10
11.4727435189
 20
3.8840394942
 30
0.0
 10
11.6098545759
 20
3.9100636541
 30
0.0
 10
11.7438534236
 20
3.9432311242
 30
0.0
 10
11.873993008
 20
3.9833567066
 30
0.0
 10
11.9584514378
 20
4.0148801025
 30
0.0
 10
11.9998183383
 20
4.0317680689
 30
0.0
  0
SPLINE
  5
41E
100
AcDbEntity
  8
0
100
AcDbSpline
 62
9
  6
CONTINUOUS
 70
0
 71
3
 72
44
 73
40
 74
0
 42
0.0000001
 43
0.0000001
 44
0.0000000001
 40
0.0
 40
0.0
 40
0.0
 40
0.0
 40
0.0124257413
 40
0.0248647673
 40
0.0373302617
 40
0.0498352166
 40
0.0623923257
 40
0.0750139121
 40
0.0877118315
 40
0.1004974041
 40
0.1133813547
 40
0.1263737343
 40
0.1394839055
 40
0.1527204631
 40
0.1795980136
 40
0.2070649251
 40
0.2351610734
 40
0.2639133173
 40
0.2933358771
 40
0.3234309408
 40
0.3541894202
 40
0.3855918048
 40
0.4176090684
 40
0.4502035944
 40
0.4833301019
 40
0.5169365607
 40
0.5509650906
 40
0.5853528391
 40
0.6200328444
 40
0.6549348799
 40
0.6899862831
 40
0.7251127742
 40
0.7602392656
 40
0.7952906693
 40
0.8301927039
 40
0.8648727112
 40
0.8992604435
 40
0.933289031
 40
1.0
 40
1.0
 40
1.0
 40
1.0
 10
9.4273183738
 20
5.4611215783
 30
0.0
 10
9.4273183941
 20
5.4486248552
 30
0.0
 10
9.4278973703
 20
5.4236141878
 30
0.0
 10
9.4305019017
 20
5.3861484029
 30
0.0
 10
9.4348392916
 20
5.3487625514
 30
0.0
 10
9.4409052612
 20
5.311498009
 30
0.0
 10
9.4486928011
 20
5.2743945503
 30
0.0
 10
9.4581936401
 20
5.2374922074
 30
0.0
 10
9.4693973741
 20
5.2008306256
 30
0.0
 10
9.4822916598
 20
5.1644491429
 30
0.0
 10
9.4968627996
 20
5.1283868762
 30
0.0
 10
9.5130944899
 20
5.0926824853
 30
0.0
 10
9.5309699475
 20
5.0573738168
 30
0.0
 10
9.5570985917
 20
5.0106413989
 30
0.0
 10
9.5938571966
 20
4.9533793144
 30
0.0
 10
9.6439567068
 20
4.8872195047
 30
0.0
 10
9.7000571159
 20
4.8235333326
 30
0.0
 10
9.7619134961
 20
4.7625933026
 30
0.0
 10
9.829259681
 20
4.7046556443
 30
0.0
 10
9.9018063069
 20
4.649965095
 30
0.0
 10
9.9792426469
 20
4.5987524281
 30
0.0
 10
10.0612375441
 20
4.5512339844
 30
0.0
 10
10.1474407485
 20
4.5076106747
 30
0.0
 10
10.2374842663
 20
4.4680671384
 30
0.0
 10
10.3309838404
 20
4.432770918
 30
0.0
 10
10.4275405193
 20
4.4018717037
 30
0.0
 10
10.5267423135
 20
4.3755006578
 30
0.0
 10
10.6281659163
 20
4.3537697766
 30
0.0
 10
10.7313785075
 20
4.3367713959
 30
0.0
 10
10.8359396003
 20
4.3245777809
 30
0.0
 10
10.9414029271
 20
4.3172407913
 30
0.0
 10
11.0473183345
 20
4.3147916406
 30
0.0
 10
11.1532337724
 20
4.3172407686
 30
0.0
 10
11.2586970124
 20
4.3245777329
 30
0.0
 10
11.3632584224
 20
4.3367714595
 30
0.0
 10
11.4664698229
 20
4.3537695139
 30
0.0
 10
11.567897779
 20
4.3755017121
 30
0.0
 10
11.6992678053
 20
4.4104233417
 30
0.0
 10
11.7952031664
 20
4.4437198197
 30
0.0
 10
11.8573183383
 20
4.4690782324
 30
0.0
  0
SPLINE
  5
41F
100
AcDbEntity
  8
0
100
AcDbSpline
 62
9
  6
CONTINUOUS
 70
0
 71
3
 72
22
 73
18
 74
0
 42
0.0000001
 43
0.0000001
 44
0.0000000001
 40
0.0
 40
0.0
 40
0.0
 40
0.0
 40
0.056548779
 40
0.1132760901
 40
0.1703565441
 40
0.2279571179
 40
0.2862338298
 40
0.34532894
 40
0.405368751
 40
0.4664620305
 40
0.5286990275
 40
0.5921510214
 40
0.6568703216
 40
0.7228906314
 40
0.7902276873
 40
0.8588801193
 40
1.0
 40
1.0
 40
1.0
 40
1.0
 10
12.9523183383
 20
5.1983375589
 30
0.0
 10
12.9523183383
 20
5.173038235
 30
0.0
 10
12.950295483
 20
5.1223366379
 30
0.0
 10
12.9412076708
 20
5.04658834
 30
0.0
 10
12.9260953855
 20
4.9713250475
 30
0.0
 10
12.9050093558
 20
4.8967952218
 30
0.0
 10
12.8780199128
 20
4.8232359708
 30
0.0
 10
12.845216418
 20
4.7508824617
 30
0.0
 10
12.8067066511
 20
4.6799644335
 30
0.0
 10
12.762616214
 20
4.6107063658
 30
0.0
 10
12.7130879232
 20
4.5433267293
 30
0.0
 10
12.6582813757
 20
4.4780376312
 30
0.0
 10
12.5983719811
 20
4.4150440267
 30
0.0
 10
12.5335521137
 20
4.354544365
 30
0.0
 10
12.4640240965
 20
4.2967257471
 30
0.0
 10
12.3644513682
 20
4.222791709
 30
0.0
 10
12.2846815551
 20
4.1729366026
 30
0.0
 10
12.2295874462
 20
4.1421026069
 30
0.0
  0
SPLINE
  5
420
100
AcDbEntity
  8
0
100
AcDbSpline
 62
9
  6
CONTINUOUS
 70
0
 71
3
 72
9
 73
5
 74
0
 42
0.0000001
 43
0.0000001
 44
0.0000000001
 40
0.0
 40
0.0
 40
0.0
 40
0.0
 40
0.2462376157
 40
1.0
 40
1.0
 40
1.0
 40
1.0
 10
12.2295874462
 20
4.1421026069
 30
0.0
 10
12.2113246562
 20
4.131881645
 30
0.0
 10
12.1364942097
 20
4.0915655249
 30
0.0
 10
12.0591303306
 20
4.0559820884
 30
0.0
 10
11.9998183383
 20
4.0317680689
 30
0.0
  0
SPLINE
  5
421
100
AcDbEntity
  8
0
100
AcDbSpline
 62
9
  6
CONTINUOUS
 70
0
 71
3
 72
28
 73
24
 74
0
 42
0.0000001
 43
0.0000001
 44
0.0000000001
 40
0.0
 40
0.0
 40
0.0
 40
0.0
 40
0.0276006138
 40
0.0552307338
 40
0.0829196517
 40
0.1106962155
 40
0.1385886293
 40
0.1666242649
 40
0.1948294486
 40
0.2232293408
 40
0.2518477448
 40
0.2807070032
 40
0.3392171381
 40
0.3989187589
 40
0.4599294943
 40
0.5223379179
 40
0.58620369
 40
0.651558401
 40
0.7184069125
 40
0.7867290001
 40
0.8564814955
 40
0.9275993044
 40
1.0
 40
1.0
 40
1.0
 40
1.0
 10
12.9523183383
 20
5.3277726261
 30
0.0
 10
12.9523183383
 20
5.3130774053
 30
0.0
 10
12.9516373212
 20
5.2836667193
 30
0.0
 10
12.9485748003
 20
5.2396097177
 30
0.0
 10
12.9434741981
 20
5.1956467409
 30
0.0
 10
12.9363411371
 20
5.151826392
 30
0.0
 10
12.9271835919
 20
5.1081954617
 30
0.0
 10
12.9160112225
 20
5.064801075
 30
0.0
 10
12.9028365623
 20
5.0216896986
 30
0.0
 10
12.8876737897
 20
4.9789079356
 30
0.0
 10
12.8705390152
 20
4.9365008874
 30
0.0
 10
12.8449754202
 20
4.8802686782
 30
0.0
 10
12.8080836671
 20
4.811089211
 30
0.0
 10
12.7564822389
 20
4.7307078652
 30
0.0
 10
12.6975673228
 20
4.652905596
 30
0.0
 10
12.6315978443
 20
4.5780162695
 30
0.0
 10
12.5588592014
 20
4.506355053
 30
0.0
 10
12.4796651099
 20
4.4382247367
 30
0.0
 10
12.3943555876
 20
4.3739126979
 30
0.0
 10
12.3032963294
 20
4.3136904106
 30
0.0
 10
12.2068758876
 20
4.2578121013
 30
0.0
 10
12.1055097588
 20
4.2065151812
 30
0.0
 10
12.0355067088
 20
4.1757728524
 30
0.0
 10
11.9998183383
 20
4.1612031361
 30
0.0
  0
SPLINE
  5
422
100
AcDbEntity
  8
0
100
AcDbSpline
 62
7
  6
CONTINUOUS
 70
0
 71
3
 72
13
 73
9
 74
0
 42
0.0000001
 43
0.0000001
 44
0.0000000001
 40
0.0
 40
0.0
 40
0.0
 40
0.0
 40
0.2618620319
 40
0.3903790557
 40
0.5169420115
 40
0.6413500079
 40
0.7634321548
 40
1.0
 40
1.0
 40
1.0
 40
1.0
 10
11.5898214086
 20
10.6647820038
 30
0.0
 10
11.5818367802
 20
10.6561730696
 30
0.0
 10
11.5691925203
 20
10.6439961717
 30
0.0
 10
11.5511781579
 20
10.6293961715
 30
0.0
 10
11.5373596196
 20
10.6194498678
 30
0.0
 10
11.5232283429
 20
10.610479216
 30
0.0
 10
11.5042748628
 20
10.5999793552
 30
0.0
 10
11.4894997537
 20
10.5934820743
 30
0.0
 10
11.4795178047
 20
10.5898930975
 30
0.0
  0
SPLINE
  5
423
100
AcDbEntity
  8
0
100
AcDbSpline
 62
9
  6
CONTINUOUS
 70
0
 71
3
 72
28
 73
24
 74
0
 42
0.0000001
 43
0.0000001
 44
0.0000000001
 40
0.0
 40
0.0
 40
0.0
 40
0.0
 40
0.0276006123
 40
0.0552307343
 40
0.0829196515
 40
0.1106962133
 40
0.1385886326
 40
0.166624261
 40
0.1948294517
 40
0.2232293399
 40
0.2518477431
 40
0.2807070083
 40
0.3392171426
 40
0.3989187573
 40
0.4599294873
 40
0.5223379107
 40
0.5862036898
 40
0.6515584052
 40
0.718406919
 40
0.7867289946
 40
0.8564815003
 40
0.9275993192
 40
1.0
 40
1.0
 40
1.0
 40
1.0
 10
12.6673183028
 20
5.4851550294
 30
0.0
 10
12.6673183231
 20
5.472658307
 30
0.0
 10
12.6667392322
 20
5.4476476433
 30
0.0
 10
12.6641348612
 20
5.4101818464
 30
0.0
 10
12.6597972813
 20
5.3727960184
 30
0.0
 10
12.653731516
 20
5.3355314424
 30
0.0
 10
12.6459438016
 20
5.298428018
 30
0.0
 10
12.6364430804
 20
5.2615256545
 30
0.0
 10
12.6252392936
 20
5.2248640533
 30
0.0
 10
12.6123450222
 20
5.1884826947
 30
0.0
 10
12.5977737496
 20
5.1524199919
 30
0.0
 10
12.5760345233
 20
5.1046005214
 30
0.0
 10
12.5446620565
 20
5.0457707177
 30
0.0
 10
12.5007805469
 20
4.9774149193
 30
0.0
 10
12.4506797037
 20
4.9112523444
 30
0.0
 10
12.3945796767
 20
4.8475669291
 30
0.0
 10
12.3327231656
 20
4.7866267027
 30
0.0
 10
12.2653769899
 20
4.7286891251
 30
0.0
 10
12.1928303159
 20
4.6739985694
 30
0.0
 10
12.1153941069
 20
4.6227858997
 30
0.0
 10
12.0333987688
 20
4.5752673331
 30
0.0
 10
11.9471976487
 20
4.5316447559
 30
0.0
 10
11.8876674974
 20
4.5055016759
 30
0.0
 10
11.8573183383
 20
4.4931116836
 30
0.0
  0
SPLINE
  5
424
100
AcDbEntity
  8
0
100
AcDbSpline
 62
7
  6
CONTINUOUS
 70
0
 71
3
 72
23
 73
19
 74
0
 42
0.0000001
 43
0.0000001
 44
0.0000000001
 40
0.0
 40
0.0
 40
0.0
 40
0.0
 40
0.117206524
 40
0.1475908136
 40
0.1783525818
 40
0.2408913328
 40
0.3045998252
 40
0.369212163
 40
0.434439915
 40
0.4999794486
 40
0.5655197189
 40
0.6307496589
 40
0.6953655884
 40
0.7590789835
 40
0.8216238224
 40
0.8523890291
 40
0.8827769868
 40
1.0
 40
1.0
 40
1.0
 40
1.0
 10
10.7769122453
 20
7.1280238337
 30
0.0
 10
10.7951903784
 20
7.1152025424
 30
0.0
 10
10.8197901767
 20
7.1011935857
 30
0.0
 10
10.8508316623
 20
7.0873910651
 30
0.0
 10
10.8727293786
 20
7.0786773104
 30
0.0
 10
10.9011460425
 20
7.0692516486
 30
0.0
 10
10.9364389742
 20
7.0603904891
 30
0.0
 10
10.9727813005
 20
7.0539991233
 30
0.0
 10
11.0098283694
 20
7.0501377284
 30
0.0
 10
11.0472301013
 20
7.0488424791
 30
0.0
 10
11.0846326674
 20
7.0501255946
 30
0.0
 10
11.1216822325
 20
7.0539749657
 30
0.0
 10
11.1580286924
 20
7.0603545334
 30
0.0
 10
11.1933273559
 20
7.0692042322
 30
0.0
 10
11.2217499808
 20
7.0786206185
 30
0.0
 10
11.2436532474
 20
7.0873272109
 30
0.0
 10
11.2747040672
 20
7.1011198031
 30
0.0
 10
11.2993127626
 20
7.1151207227
 30
0.0
 10
11.3175990168
 20
7.1279359026
 30
0.0
  0
SPLINE
  5
425
100
AcDbEntity
  8
0
100
AcDbSpline
 62
7
  6
CONTINUOUS
 70
0
 71
3
 72
21
 73
17
 74
0
 42
0.0000001
 43
0.0000001
 44
0.0000000001
 40
0.0
 40
0.0
 40
0.0
 40
0.0
 40
0.1158040685
 40
0.1762543593
 40
0.2381405328
 40
0.3012458851
 40
0.3653268028
 40
0.4301195449
 40
0.4953469186
 40
0.5607244543
 40
0.6259670145
 40
0.690794683
 40
0.754939442
 40
0.8181511809
 40
0.8802043933
 40
1.0
 40
1.0
 40
1.0
 40
1.0
 10
10.7819068965
 20
7.0821783035
 30
0.0
 10
10.7995952125
 20
7.0706108639
 30
0.0
 10
10.8281593097
 20
7.0554048555
 30
0.0
 10
10.8686340553
 20
7.0395100183
 30
0.0
 10
10.9009992993
 20
7.029499143
 30
0.0
 10
10.9346345878
 20
7.0216725317
 30
0.0
 10
10.9692537767
 20
7.0161010369
 30
0.0
 10
11.0045542673
 20
7.0128399179
 30
0.0
 10
11.0402296576
 20
7.0119234972
 30
0.0
 10
11.075969765
 20
7.0133661769
 30
0.0
 10
11.1114638727
 20
7.0171618436
 30
0.0
 10
11.1464040022
 20
7.0232843701
 30
0.0
 10
11.1804850935
 20
7.0316866121
 30
0.0
 10
11.2134169174
 20
7.0423054739
 30
0.0
 10
11.2548952405
 20
7.0590943207
 30
0.0
 10
11.2842328906
 20
7.0750046453
 30
0.0
 10
11.3024835371
 20
7.0870428875
 30
0.0
  0
SPLINE
  5
426
100
AcDbEntity
  8
0
100
AcDbSpline
 62
7
  6
CONTINUOUS
 70
0
 71
3
 72
13
 73
9
 74
0
 42
0.0000001
 43
0.0000001
 44
0.0000000001
 40
0.0
 40
0.0
 40
0.0
 40
0.0
 40
0.285407697
 40
0.5384240634
 40
0.656596135
 40
0.7715234217
 40
0.885266315
 40
1.0
 40
1.0
 40
1.0
 40
1.0
 10
10.237669462
 20
10.5654473248
 30
0.0
 10
10.2385128117
 20
10.5657048859
 30
0.0
 10
10.2400801139
 20
10.5662792549
 30
0.0
 10
10.2418553224
 20
10.567289423
 30
0.0
 10
10.2430226795
 20
10.5682393184
 30
0.0
 10
10.2437702741
 20
10.5690108576
 30
0.0
 10
10.244409627
 20
10.5698609425
 30
0.0
 10
10.2447604978
 20
10.5704759526
 30
0.0
 10
10.2449172407
 20
10.5707939002
 30
0.0
  0
SPLINE
  5
427
100
AcDbEntity
  8
0
100
AcDbSpline
 62
7
  6
CONTINUOUS
 70
0
 71
3
 72
21
 73
17
 74
0
 42
0.0000001
 43
0.0000001
 44
0.0000000001
 40
0.0
 40
0.0
 40
0.0
 40
0.0
 40
0.1170784911
 40
0.1778517057
 40
0.2398692907
 40
0.3029355047
 40
0.3668353468
 40
0.4313391502
 40
0.4962076135
 40
0.5611965426
 40
0.6260612465
 40
0.6905615721
 40
0.7544661319
 40
0.817557271
 40
0.8796358144
 40
1.0
 40
1.0
 40
1.0
 40
1.0
 10
10.7999945539
 20
7.0222052815
 30
0.0
 10
10.8172003304
 20
7.0122636364
 30
0.0
 10
10.8445930266
 20
6.999237447
 30
0.0
 10
10.8829986253
 20
6.9856744197
 30
0.0
 10
10.9134114394
 20
6.9771999612
 30
0.0
 10
10.9448280734
 20
6.9706255052
 30
0.0
 10
10.9770173564
 20
6.9660032374
 30
0.0
 10
11.0097364054
 20
6.9633732889
 30
0.0
 10
11.0427399622
 20
6.962760279
 30
0.0
 10
11.0757802251
 20
6.9641739763
 30
0.0
 10
11.1086091808
 20
6.9676089261
 30
0.0
 10
11.1409808067
 20
6.9730447975
 30
0.0
 10
11.1726511
 20
6.9804456782
 30
0.0
 10
11.2033869134
 20
6.9897635866
 30
0.0
 10
11.2423892737
 20
7.0044956191
 30
0.0
 10
11.2702089382
 20
7.0184177303
 30
0.0
 10
11.2877137748
 20
7.0289500769
 30
0.0
  0
LINE
  5
428
100
AcDbEntity
  8
0
100
AcDbLine
 62
7
  6
CONTINUOUS
 10
11.5505606983
 20
10.6646738851
 11
11.4536149306
 21
10.6647665428
  0
SPLINE
  5
429
100
AcDbEntity
  8
0
100
AcDbSpline
 62
7
  6
CONTINUOUS
 70
0
 71
3
 72
18
 73
14
 74
0
 42
0.0000001
 43
0.0000001
 44
0.0000000001
 40
0.0
 40
0.0
 40
0.0
 40
0.0
 40
0.1672442143
 40
0.3235246676
 40
0.4681751999
 40
0.5359794638
 40
0.6006858135
 40
0.7205549212
 40
0.8273212966
 40
0.8756686332
 40
0.9205953126
 40
0.962053093
 40
1.0
 40
1.0
 40
1.0
 40
1.0
 10
10.3615811279
 20
10.6523682005
 30
0.0
 10
10.3602980645
 20
10.6482321337
 30
0.0
 10
10.3578671928
 20
10.6402151184
 30
0.0
 10
10.3545206891
 20
10.6285631003
 30
0.0
 10
10.3520393046
 20
10.6193427881
 30
0.0
 10
10.3502786588
 20
10.6123853585
 30
0.0
 10
10.3487438491
 20
10.6060330924
 30
0.0
 10
10.3470979797
 20
10.598670206
 30
0.0
 10
10.3457445035
 20
10.5916783156
 30
0.0
 10
10.3449067574
 20
10.5865664713
 30
0.0
 10
10.3444171966
 20
10.5831120056
 30
0.0
 10
10.3440459481
 20
10.5799137688
 30
0.0
 10
10.3438700582
 20
10.5778647975
 30
0.0
 10
10.3438046347
 20
10.5768844066
 30
0.0
  0
SPLINE
  5
42A
100
AcDbEntity
  8
0
100
AcDbSpline
 62
7
  6
CONTINUOUS
 70
0
 71
3
 72
36
 73
32
 74
0
 42
0.0000001
 43
0.0000001
 44
0.0000000001
 40
0.0
 40
0.0
 40
0.0
 40
0.0
 40
0.0248354481
 40
0.0498082127
 40
0.075049097
 40
0.1006805351
 40
0.1268100135
 40
0.1535287267
 40
0.1809092385
 40
0.2090048499
 40
0.2378496452
 40
0.2674591565
 40
0.2978313436
 40
0.3289480791
 40
0.3607764747
 40
0.3932705142
 40
0.426372639
 40
0.4600151883
 40
0.4941220253
 40
0.5286099606
 40
0.5983447797
 40
0.6334276872
 40
0.6685167365
 40
0.7383004161
 40
0.7728302847
 40
0.8069900189
 40
0.840695617
 40
0.8738699303
 40
0.9064443207
 40
0.938359406
 40
1.0
 40
1.0
 40
1.0
 40
1.0
 10
10.6410683386
 20
7.3116695084
 30
0.0
 10
10.6410683506
 20
7.3045253331
 30
0.0
 10
10.6418267389
 20
7.2901861035
 30
0.0
 10
10.6452291229
 20
7.2688294658
 30
0.0
 10
10.650876721
 20
7.2477156464
 30
0.0
 10
10.6587348797
 20
7.2269674625
 30
0.0
 10
10.6687569286
 20
7.2067003815
 30
0.0
 10
10.6808838712
 20
7.1870272573
 30
0.0
 10
10.6950456908
 20
7.1680564627
 30
0.0
 10
10.711161598
 20
7.1498919765
 30
0.0
 10
10.7291406503
 20
7.1326330134
 30
0.0
 10
10.748882122
 20
7.1163737025
 30
0.0
 10
10.7702760023
 20
7.1012027196
 30
0.0
 10
10.7932034424
 20
7.087202876
 30
0.0
 10
10.8175373425
 20
7.0744506793
 30
0.0
 10
10.8431429242
 20
7.0630159298
 30
0.0
 10
10.8698785664
 20
7.0529612944
 30
0.0
 10
10.8975959726
 20
7.0443420261
 30
0.0
 10
10.9261431578
 20
7.0372052318
 30
0.0
 10
10.9652350889
 20
7.0296929085
 30
0.0
 10
11.0051620305
 20
7.0253388232
 30
0.0
 10
11.04540474
 20
7.0241447136
 30
0.0
 10
11.0856685934
 20
7.0250710985
 30
0.0
 10
11.1256513545
 20
7.029160341
 30
0.0
 10
11.1648346519
 20
7.0364108862
 30
0.0
 10
11.193475377
 20
7.0433572979
 30
0.0
 10
11.2213062242
 20
7.0517917274
 30
0.0
 10
11.2481737526
 20
7.0616675084
 30
0.0
 10
11.2739320098
 20
7.0729323586
 30
0.0
 10
11.3062164729
 20
7.089519352
 30
0.0
 10
11.3289515167
 20
7.1041247664
 30
0.0
 10
11.3431286757
 20
7.1147744769
 30
0.0
  0
LINE
  5
42B
100
AcDbEntity
  8
0
100
AcDbLine
 62
7
  6
CONTINUOUS
 10
10.1295786254
 20
10.6524978072
 11
10.2273305425
 21
10.6523453593
  0
SPLINE
  5
42C
100
AcDbEntity
  8
0
100
AcDbSpline
 62
9
  6
CONTINUOUS
 70
0
 71
3
 72
26
 73
22
 74
0
 42
0.0000001
 43
0.0000001
 44
0.0000000001
 40
0.0
 40
0.0
 40
0.0
 40
0.0
 40
0.0257136514
 40
0.0514890181
 40
0.0773868089
 40
0.1034656792
 40
0.1297813568
 40
0.1563858792
 40
0.1833267881
 40
0.210646803
 40
0.2665437813
 40
0.3243344237
 40
0.3841589244
 40
0.4460694666
 40
0.5100369113
 40
0.5759594306
 40
0.6436719939
 40
0.7129560356
 40
0.7835489068
 40
0.8551536932
 40
1.0
 40
1.0
 40
1.0
 40
1.0
 10
11.4535683383
 20
8.1198041144
 30
0.0
 10
11.4535683383
 20
8.1151028554
 30
0.0
 10
11.4532409812
 20
8.1056857975
 30
0.0
 10
11.4517701282
 20
8.0916029616
 30
0.0
 10
11.4493226988
 20
8.0775883004
 30
0.0
 10
11.4459049144
 20
8.0636768834
 30
0.0
 10
11.4415255124
 20
8.0499021899
 30
0.0
 10
11.4361951675
 20
8.0362979243
 30
0.0
 10
11.4299271683
 20
8.0228963617
 30
0.0
 10
11.4202690717
 20
8.0052104015
 30
0.0
 10
11.405859519
 20
7.9837537709
 30
0.0
 10
11.3852608778
 20
7.9595466199
 30
0.0
 10
11.3614227757
 20
7.9368995661
 30
0.0
 10
11.3345792399
 20
7.9160267277
 30
0.0
 10
11.304988881
 20
7.8971217139
 30
0.0
 10
11.2729357622
 20
7.8803614137
 30
0.0
 10
11.2387261759
 20
7.8659028634
 30
0.0
 10
11.2026881444
 20
7.8538822568
 30
0.0
 10
11.1651616419
 20
7.8444123547
 30
0.0
 10
11.1134512881
 20
7.8352754664
 30
0.0
 10
11.0738007692
 20
7.8325419845
 30
0.0
 10
11.0473183383
 20
7.8325419845
 30
0.0
  0
LINE
  5
42D
100
AcDbEntity
  8
0
100
AcDbLine
 62
7
  6
CONTINUOUS
 10
9.9222576238
 20
10.5838441677
 11
9.9141230371
 21
10.5891082687
  0
SPLINE
  5
42E
100
AcDbEntity
  8
0
100
AcDbSpline
 62
7
  6
CONTINUOUS
 70
0
 71
3
 72
19
 73
15
 74
0
 42
0.0000001
 43
0.0000001
 44
0.0000000001
 40
0.0
 40
0.0
 40
0.0
 40
0.0
 40
0.0287774399
 40
0.0577901608
 40
0.0889023282
 40
0.1235959517
 40
0.1629130501
 40
0.2075458458
 40
0.2579494166
 40
0.3144254507
 40
0.4463320547
 40
0.6043141929
 40
0.7888586364
 40
1.0
 40
1.0
 40
1.0
 40
1.0
 10
10.0109871505
 20
10.5814507882
 30
0.0
 10
10.0110748886
 20
10.5815746131
 30
0.0
 10
10.0112221249
 20
10.5818457701
 30
0.0
 10
10.0113348867
 20
10.5823055493
 30
0.0
 10
10.0113402881
 20
10.5828091493
 30
0.0
 10
10.011244891
 20
10.5833575673
 30
0.0
 10
10.0110535607
 20
10.5839547821
 30
0.0
 10
10.0107692236
 20
10.5846047152
 30
0.0
 10
10.0103942203
 20
10.5853108831
 30
0.0
 10
10.0097412792
 20
10.5863881929
 30
0.0
 10
10.0086942373
 20
10.587886716
 30
0.0
 10
10.0071688531
 20
10.5898701865
 30
0.0
 10
10.0053298707
 20
10.5921383439
 30
0.0
 10
10.0039944065
 20
10.5937416828
 30
0.0
 10
10.0032798392
 20
10.5945956038
 30
0.0
  0
SPLINE
  5
42F
100
AcDbEntity
  8
0
100
AcDbSpline
 62
7
  6
CONTINUOUS
 70
0
 71
3
 72
15
 73
11
 74
0
 42
0.0000001
 43
0.0000001
 44
0.0000000001
 40
0.0
 40
0.0
 40
0.0
 40
0.0
 40
0.0797716397
 40
0.1630308449
 40
0.2568028248
 40
0.3659245682
 40
0.4933932436
 40
0.6409803105
 40
0.8096608593
 40
1.0
 40
1.0
 40
1.0
 40
1.0
 10
10.1049897404
 20
10.5818564105
 30
0.0
 10
10.1051071861
 20
10.5820380768
 30
0.0
 10
10.1052917088
 20
10.5824491947
 30
0.0
 10
10.1053692747
 20
10.5831502636
 30
0.0
 10
10.1052617943
 20
10.5839245751
 30
0.0
 10
10.1049829365
 20
10.5847792401
 30
0.0
 10
10.1045395102
 20
10.585723955
 30
0.0
 10
10.103935701
 20
10.5867660086
 30
0.0
 10
10.1031745883
 20
10.5879104417
 30
0.0
 10
10.102599587
 20
10.5886964233
 30
0.0
 10
10.1022884521
 20
10.5891082687
 30
0.0
  0
SPLINE
  5
430
100
AcDbEntity
  8
0
100
AcDbSpline
 62
7
  6
CONTINUOUS
 70
0
 71
3
 72
12
 73
8
 74
0
 42
0.0000001
 43
0.0000001
 44
0.0000000001
 40
0.0
 40
0.0
 40
0.0
 40
0.0
 40
0.1039405781
 40
0.2107884914
 40
0.4400851697
 40
0.7004311308
 40
1.0
 40
1.0
 40
1.0
 40
1.0
 10
10.2287369661
 20
10.5857691227
 30
0.0
 10
10.2288929132
 20
10.5860405992
 30
0.0
 10
10.2291736345
 20
10.5866123708
 30
0.0
 10
10.2296063339
 20
10.5878684086
 30
0.0
 10
10.2298839664
 20
10.5896584062
 30
0.0
 10
10.2298174369
 20
10.5920432
 30
0.0
 10
10.2295472544
 20
10.5937122406
 30
0.0
 10
10.2293632061
 20
10.5945956038
 30
0.0
  0
LINE
  5
431
100
AcDbEntity
  8
0
100
AcDbLine
 62
7
  6
CONTINUOUS
 10
10.2465991155
 20
10.5797624701
 11
10.2444225216
 21
10.5791393714
  0
SPLINE
  5
432
100
AcDbEntity
  8
0
100
AcDbSpline
 62
7
  6
CONTINUOUS
 70
0
 71
3
 72
12
 73
8
 74
0
 42
0.0000001
 43
0.0000001
 44
0.0000000001
 40
0.0
 40
0.0
 40
0.0
 40
0.0
 40
0.2930140227
 40
0.5516909958
 40
0.7836185139
 40
0.8930024255
 40
1.0
 40
1.0
 40
1.0
 40
1.0
 10
10.222498246
 20
10.5826441386
 30
0.0
 10
10.2226635707
 20
10.5817219822
 30
0.0
 10
10.2228930244
 20
10.5799683117
 30
0.0
 10
10.2228824955
 20
10.5774538091
 30
0.0
 10
10.2225341602
 20
10.5755529248
 30
0.0
 10
10.222045618
 20
10.5742025452
 30
0.0
 10
10.2217363914
 20
10.5735815447
 30
0.0
 10
10.221565986
 20
10.5732849001
 30
0.0
  0
SPLINE
  5
433
100
AcDbEntity
  8
0
100
AcDbSpline
 62
7
  6
CONTINUOUS
 70
0
 71
3
 72
15
 73
11
 74
0
 42
0.0000001
 43
0.0000001
 44
0.0000000001
 40
0.0
 40
0.0
 40
0.0
 40
0.0
 40
0.1266182824
 40
0.2523544786
 40
0.3773956501
 40
0.501960344
 40
0.6262650454
 40
0.7505378561
 40
0.8750355377
 40
1.0
 40
1.0
 40
1.0
 40
1.0
 10
12.3407243881
 20
10.5770537715
 30
0.0
 10
12.3454584551
 20
10.5788702231
 30
0.0
 10
12.3547639456
 20
10.5828399788
 30
0.0
 10
12.3681947067
 20
10.589799754
 30
0.0
 10
12.3809903126
 20
10.597714927
 30
0.0
 10
12.3930933292
 20
10.6065567798
 30
0.0
 10
12.4044457474
 20
10.6162971825
 30
0.0
 10
12.4149883714
 20
10.6269060616
 30
0.0
 10
12.4246582935
 20
10.6383499921
 30
0.0
 10
12.4304678187
 20
10.6464936168
 30
0.0
 10
12.4332029138
 20
10.6506844262
 30
0.0
  0
SPLINE
  5
434
100
AcDbEntity
  8
0
100
AcDbSpline
 62
7
  6
CONTINUOUS
 70
0
 71
3
 72
9
 73
5
 74
0
 42
0.0000001
 43
0.0000001
 44
0.0000000001
 40
0.0
 40
0.0
 40
0.0
 40
0.0
 40
0.4689123961
 40
1.0
 40
1.0
 40
1.0
 40
1.0
 10
12.295165979
 20
10.5654489345
 30
0.0
 10
12.3015622043
 20
10.5663304836
 30
0.0
 10
12.3151280424
 20
10.5688024169
 30
0.0
 10
12.3283888796
 20
10.5726320364
 30
0.0
 10
12.3352884588
 20
10.5750554632
 30
0.0
  0
SPLINE
  5
435
100
AcDbEntity
  8
0
100
AcDbSpline
 62
7
  6
CONTINUOUS
 70
0
 71
3
 72
15
 73
11
 74
0
 42
0.0000001
 43
0.0000001
 44
0.0000000001
 40
0.0
 40
0.0
 40
0.0
 40
0.0
 40
0.1592308063
 40
0.3092668435
 40
0.449702771
 40
0.5802624887
 40
0.7007038921
 40
0.8108464517
 40
0.9106117977
 40
1.0
 40
1.0
 40
1.0
 40
1.0
 10
10.2273305425
 20
10.6523453593
 30
0.0
 10
10.2266026234
 20
10.6486907406
 30
0.0
 10
10.2252755755
 20
10.6415748103
 30
0.0
 10
10.2236337723
 20
10.6311780029
 30
0.0
 10
10.2224002842
 20
10.6214004834
 30
0.0
 10
10.2215760299
 20
10.6122748023
 30
0.0
 10
10.2211610351
 20
10.6038306086
 30
0.0
 10
10.2211551709
 20
10.5960958416
 30
0.0
 10
10.2215579233
 20
10.5890989027
 30
0.0
 10
10.2221290925
 20
10.5847032208
 30
0.0
 10
10.222498246
 20
10.5826441386
 30
0.0
  0
LINE
  5
436
100
AcDbEntity
  8
0
100
AcDbLine
 62
7
  6
CONTINUOUS
 10
10.0028810685
 20
10.6525009403
 11
10.0831094576
 21
10.6523682005
  0
LINE
  5
437
100
AcDbEntity
  8
0
100
AcDbLine
 62
7
  6
CONTINUOUS
 10
12.4171384291
 20
10.6525009403
 11
12.4308594294
 21
10.6523682005
  0
SPLINE
  5
438
100
AcDbEntity
  8
0
100
AcDbSpline
 62
7
  6
CONTINUOUS
 70
0
 71
3
 72
11
 73
7
 74
0
 42
0.0000001
 43
0.0000001
 44
0.0000000001
 40
0.0
 40
0.0
 40
0.0
 40
0.0
 40
0.253473096
 40
0.5040172725
 40
0.7525082869
 40
1.0
 40
1.0
 40
1.0
 40
1.0
 10
12.3222299894
 20
10.5801980795
 30
0.0
 10
12.3317091644
 20
10.5839793313
 30
0.0
 10
12.3500944664
 20
10.5927323311
 30
0.0
 10
12.3755350847
 20
10.6093549086
 30
0.0
 10
12.3982429318
 20
10.6291954349
 30
0.0
 10
12.411266197
 20
10.6444503511
 30
0.0
 10
12.4171384291
 20
10.6525009403
 30
0.0
  0
SPLINE
  5
439
100
AcDbEntity
  8
0
100
AcDbSpline
 62
7
  6
CONTINUOUS
 70
0
 71
3
 72
9
 73
5
 74
0
 42
0.0000001
 43
0.0000001
 44
0.0000000001
 40
0.0
 40
0.0
 40
0.0
 40
0.0
 40
0.475350168
 40
1.0
 40
1.0
 40
1.0
 40
1.0
 10
12.2635565779
 20
10.5654473248
 30
0.0
 10
12.2710507816
 20
10.5663466954
 30
0.0
 10
12.2867459104
 20
10.5688965385
 30
0.0
 10
12.3021151288
 20
10.5730502441
 30
0.0
 10
12.310010447
 20
10.5757084573
 30
0.0
  0
SPLINE
  5
43A
100
AcDbEntity
  8
0
100
AcDbSpline
 62
7
  6
CONTINUOUS
 70
0
 71
3
 72
21
 73
17
 74
0
 42
0.0000001
 43
0.0000001
 44
0.0000000001
 40
0.0
 40
0.0
 40
0.0
 40
0.0
 40
0.1177935412
 40
0.1786448614
 40
0.2405840944
 40
0.3034431572
 40
0.3670396049
 40
0.4311803845
 40
0.4956650849
 40
0.5602891669
 40
0.6248475651
 40
0.6891375713
 40
0.7529623568
 40
0.8161343173
 40
0.8784781204
 40
1.0
 40
1.0
 40
1.0
 40
1.0
 10
10.8146269473
 20
6.9654538721
 30
0.0
 10
10.8308867714
 20
6.956926195
 30
0.0
 10
10.8565029158
 20
6.9457361335
 30
0.0
 10
10.8921431024
 20
6.9340300016
 30
0.0
 10
10.9201576593
 20
6.9267026343
 30
0.0
 10
10.9489758755
 20
6.920977894
 30
0.0
 10
10.9784188074
 20
6.9168945357
 30
0.0
 10
11.008299203
 20
6.9144826519
 30
0.0
 10
11.0384281963
 20
6.9137613637
 30
0.0
 10
11.0686150512
 20
6.914739285
 30
0.0
 10
11.0986686638
 20
6.9174142462
 30
0.0
 10
11.1283990736
 20
6.9217735234
 30
0.0
 10
11.157617312
 20
6.9277933512
 30
0.0
 10
11.1861416843
 20
6.9354411351
 30
0.0
 10
11.2226787905
 20
6.947638976
 30
0.0
 10
11.2490061253
 20
6.9592250341
 30
0.0
 10
11.2657814638
 20
6.9680209713
 30
0.0
  0
SPLINE
  5
43B
100
AcDbEntity
  8
0
100
AcDbSpline
 62
9
  6
CONTINUOUS
 70
0
 71
3
 72
9
 73
5
 74
0
 42
0.0000001
 43
0.0000001
 44
0.0000000001
 40
0.0
 40
0.0
 40
0.0
 40
0.0
 40
0.246829624
 40
1.0
 40
1.0
 40
1.0
 40
1.0
 10
10.2451611418
 20
6.4814021058
 30
0.0
 10
10.2634124573
 20
6.4888531741
 30
0.0
 10
10.3378326306
 20
6.5178616159
 30
0.0
 10
10.4140616094
 20
6.5421988502
 30
0.0
 10
10.4721127371
 20
6.5579644363
 30
0.0
  0
SPLINE
  5
43C
100
AcDbEntity
  8
0
100
AcDbSpline
 62
9
  6
CONTINUOUS
 70
0
 71
3
 72
36
 73
32
 74
0
 42
0.0000001
 43
0.0000001
 44
0.0000000001
 40
0.0
 40
0.0
 40
0.0
 40
0.0
 40
0.0751530506
 40
0.1121287777
 40
0.148652788
 40
0.2202100352
 40
0.2552095158
 40
0.2896579186
 40
0.323541467
 40
0.3568515194
 40
0.4217224299
 40
0.4533164943
 40
0.4843602958
 40
0.5148753803
 40
0.5448898942
 40
0.5744385797
 40
0.6035626467
 40
0.6323094999
 40
0.6607323005
 40
0.6888893595
 40
0.7168433599
 40
0.7446604206
 40
0.7724090262
 40
0.8001588587
 40
0.8279795786
 40
0.8559396066
 40
0.8841049585
 40
0.9125381787
 40
0.9412974092
 40
0.9704356183
 40
1.0
 40
1.0
 40
1.0
 40
1.0
 10
11.6225239446
 20
6.5579644464
 30
0.0
 10
11.6721552207
 20
6.5444855522
 30
0.0
 10
11.7454954622
 20
6.5215823226
 30
0.0
 10
11.8406421083
 20
6.4855298751
 30
0.0
 10
11.9319898084
 20
6.4466264075
 30
0.0
 10
12.0196623173
 20
6.402712869
 30
0.0
 10
12.1029086777
 20
6.3538664948
 30
0.0
 10
12.1622358179
 20
6.3153423743
 30
0.0
 10
12.2187594238
 20
6.2747581537
 30
0.0
 10
12.2895558823
 20
6.2185450899
 30
0.0
 10
12.3549472376
 20
6.1581717849
 30
0.0
 10
12.4140624267
 20
6.0939425784
 30
0.0
 10
12.4545770128
 20
6.0446802443
 30
0.0
 10
12.4915464358
 20
5.9940371005
 30
0.0
 10
12.5248782282
 20
5.9421382478
 30
0.0
 10
12.5544864886
 20
5.8891143448
 30
0.0
 10
12.5802951135
 20
5.8350985935
 30
0.0
 10
12.6022373063
 20
5.7802272118
 30
0.0
 10
12.6202559995
 20
5.7246389367
 30
0.0
 10
12.6343040627
 20
5.6684747619
 30
0.0
 10
12.6443445633
 20
5.6118775619
 30
0.0
 10
12.6503509854
 20
5.5549916853
 30
0.0
 10
12.6523074094
 20
5.4979624935
 30
0.0
 10
12.6502086235
 20
5.4409358648
 30
0.0
 10
12.6440602104
 20
5.3840576647
 30
0.0
 10
12.6338784748
 20
5.3274732401
 30
0.0
 10
12.6196902748
 20
5.2713268492
 30
0.0
 10
12.6015330135
 20
5.2157614818
 30
0.0
 10
12.5794537723
 20
5.1609173949
 30
0.0
 10
12.5535115018
 20
5.1069357604
 30
0.0
 10
12.5338341652
 20
5.0718781474
 30
0.0
 10
12.5233975948
 20
5.0545462106
 30
0.0
  0
SPLINE
  5
43D
100
AcDbEntity
  8
0
100
AcDbSpline
 62
9
  6
CONTINUOUS
 70
0
 71
3
 72
11
 73
7
 74
0
 42
0.0000001
 43
0.0000001
 44
0.0000000001
 40
0.0
 40
0.0
 40
0.0
 40
0.0
 40
0.2437951034
 40
0.4915884837
 40
0.7436003356
 40
1.0
 40
1.0
 40
1.0
 40
1.0
 10
12.5233975948
 20
5.0545462106
 30
0.0
 10
12.5129812741
 20
5.0372479023
 30
0.0
 10
12.4909090286
 20
5.0029999686
 30
0.0
 10
12.454550384
 20
4.9532481084
 30
0.0
 10
12.4147697752
 20
4.9048300196
 30
0.0
 10
12.3862805896
 20
4.8737887265
 30
0.0
 10
12.371515958
 20
4.858524804
 30
0.0
  0
SPLINE
  5
43E
100
AcDbEntity
  8
0
100
AcDbSpline
 62
9
  6
CONTINUOUS
 70
0
 71
3
 72
11
 73
7
 74
0
 42
0.0000001
 43
0.0000001
 44
0.0000000001
 40
0.0
 40
0.0
 40
0.0
 40
0.0
 40
0.2398801116
 40
0.4865624124
 40
0.7400039498
 40
1.0
 40
1.0
 40
1.0
 40
1.0
 10
12.371515958
 20
4.858524804
 30
0.0
 10
12.3470632325
 20
4.8332451684
 30
0.0
 10
12.2952154604
 20
4.7841016179
 30
0.0
 10
12.2106108264
 20
4.7160053348
 30
0.0
 10
12.1186205296
 20
4.6529112611
 30
0.0
 10
12.0535507916
 20
4.6149107739
 30
0.0
 10
12.0199958271
 20
4.5968214493
 30
0.0
  0
LINE
  5
43F
100
AcDbEntity
  8
0
100
AcDbLine
 62
9
  6
CONTINUOUS
 10
11.9488840559
 20
4.5606135214
 11
11.9485923857
 21
4.5604734363
  0
SPLINE
  5
440
100
AcDbEntity
  8
0
100
AcDbSpline
 62
9
  6
CONTINUOUS
 70
0
 71
3
 72
28
 73
24
 74
0
 42
0.0000001
 43
0.0000001
 44
0.0000000001
 40
0.0
 40
0.0
 40
0.0
 40
0.0
 40
0.0724006808
 40
0.1435184997
 40
0.2132710054
 40
0.281593081
 40
0.3484415948
 40
0.4137963102
 40
0.4776620893
 40
0.5400705127
 40
0.6010812427
 40
0.6607828574
 40
0.7192929917
 40
0.7481522569
 40
0.7767706601
 40
0.8051705483
 40
0.833375739
 40
0.8614113674
 40
0.8893037867
 40
0.9170803485
 40
0.9447692657
 40
0.9723993877
 40
1.0
 40
1.0
 40
1.0
 40
1.0
 10
11.8573183383
 20
4.4690782324
 30
0.0
 10
11.8876674974
 20
4.4814682248
 30
0.0
 10
11.9471976487
 20
4.5076113048
 30
0.0
 10
12.0333987688
 20
4.5512338819
 30
0.0
 10
12.1153941069
 20
4.5987524486
 30
0.0
 10
12.1928303159
 20
4.6499651182
 30
0.0
 10
12.2653769899
 20
4.7046556739
 30
0.0
 10
12.3327231656
 20
4.7625932515
 30
0.0
 10
12.3945796767
 20
4.823533478
 30
0.0
 10
12.4506797037
 20
4.8872188932
 30
0.0
 10
12.5007805469
 20
4.9533814682
 30
0.0
 10
12.5446620565
 20
5.0217372665
 30
0.0
 10
12.5760345233
 20
5.0805670702
 30
0.0
 10
12.5977737496
 20
5.1283865407
 30
0.0
 10
12.6123450222
 20
5.1644492435
 30
0.0
 10
12.6252392936
 20
5.2008306021
 30
0.0
 10
12.6364430804
 20
5.2374922034
 30
0.0
 10
12.6459438016
 20
5.2743945669
 30
0.0
 10
12.653731516
 20
5.3114979913
 30
0.0
 10
12.6597972813
 20
5.3487625672
 30
0.0
 10
12.6641348612
 20
5.3861483952
 30
0.0
 10
12.6667392322
 20
5.4236141922
 30
0.0
 10
12.6673183231
 20
5.4486248558
 30
0.0
 10
12.6673183028
 20
5.4611215783
 30
0.0
  0
SPLINE
  5
441
100
AcDbEntity
  8
0
100
AcDbSpline
 62
9
  6
CONTINUOUS
 70
0
 71
3
 72
34
 73
30
 74
0
 42
0.0000001
 43
0.0000001
 44
0.0000000001
 40
0.0
 40
0.0
 40
0.0
 40
0.0
 40
0.0739910315
 40
0.1103413268
 40
0.1462335826
 40
0.2165714631
 40
0.284932271
 40
0.3512844866
 40
0.4156555125
 40
0.4471333931
 40
0.4781556884
 40
0.5087442056
 40
0.538924962
 40
0.5687281019
 40
0.5981877561
 40
0.6273418325
 40
0.6562317329
 40
0.684901974
 40
0.7133997332
 40
0.7417743268
 40
0.7700766282
 40
0.7983584355
 40
0.8266718098
 40
0.8550684071
 40
0.8835988231
 40
0.9123119655
 40
0.9412544844
 40
0.9704702661
 40
1.0
 40
1.0
 40
1.0
 40
1.0
 10
12.0484360611
 20
3.774667227
 30
0.0
 10
12.0975045155
 20
3.7946993397
 30
0.0
 10
12.1696929628
 20
3.8270978072
 30
0.0
 10
12.2627843011
 20
3.8751587501
 30
0.0
 10
12.3517471904
 20
3.9253630811
 30
0.0
 10
12.4571087444
 20
3.9929888941
 30
0.0
 10
12.5740594143
 20
4.0821236816
 30
0.0
 10
12.6798168069
 20
4.1780536498
 30
0.0
 10
12.758562231
 20
4.263738039
 30
0.0
 10
12.8150359045
 20
4.3349788363
 30
0.0
 10
12.8538264354
 20
4.3892502289
 30
0.0
 10
12.8892884241
 20
4.4446526933
 30
0.0
 10
12.9213568933
 20
4.5010856028
 30
0.0
 10
12.9499715773
 20
4.5584448673
 30
0.0
 10
12.97507883
 20
4.6166249186
 30
0.0
 10
12.9966312737
 20
4.6755183973
 30
0.0
 10
13.0145882475
 20
4.7350163926
 30
0.0
 10
13.0289157439
 20
4.795008678
 30
0.0
 10
13.039586513
 20
4.8553839212
 30
0.0
 10
13.0465801407
 20
4.9160299045
 30
0.0
 10
13.0498832411
 20
4.9768337519
 30
0.0
 10
13.0494895784
 20
5.0376822069
 30
0.0
 10
13.0453999147
 20
5.0984619216
 30
0.0
 10
13.0376220539
 20
5.1590596982
 30
0.0
 10
13.0261707475
 20
5.2193628081
 30
0.0
 10
13.0110679606
 20
5.2792590403
 30
0.0
 10
12.9923421544
 20
5.3386378749
 30
0.0
 10
12.9700298872
 20
5.3973871395
 30
0.0
 10
12.9528882106
 20
5.4358450907
 30
0.0
 10
12.9437514026
 20
5.4549221897
 30
0.0
  0
SPLINE
  5
442
100
AcDbEntity
  8
0
100
AcDbSpline
 62
9
  6
CONTINUOUS
 70
0
 71
3
 72
26
 73
22
 74
0
 42
0.0000001
 43
0.0000001
 44
0.0000000001
 40
0.0
 40
0.0
 40
0.0
 40
0.0
 40
0.0623887349
 40
0.0940595912
 40
0.1260078864
 40
0.1906043568
 40
0.2559313289
 40
0.3217155373
 40
0.3876736091
 40
0.4535183578
 40
0.5189650819
 40
0.5837378597
 40
0.6475759673
 40
0.7102403722
 40
0.7715204913
 40
0.8015910442
 40
0.8312532044
 40
0.8892814897
 40
0.9176399953
 40
0.9455488845
 40
1.0
 40
1.0
 40
1.0
 40
1.0
 10
11.8494755348
 20
4.5165262808
 30
0.0
 10
11.8057492994
 20
4.49867512
 30
0.0
 10
11.7387688732
 20
4.4742634652
 30
0.0
 10
11.6475017159
 20
4.44647315
 30
0.0
 10
11.5536858296
 20
4.4215073867
 30
0.0
 10
11.4336722845
 20
4.3962333439
 30
0.0
 10
11.2868518729
 20
4.3755937012
 30
0.0
 10
11.1379533242
 20
4.3647056919
 30
0.0
 10
10.9882706923
 20
4.3636641757
 30
0.0
 10
10.8390992658
 20
4.3724776029
 30
0.0
 10
10.6917312329
 20
4.3910703818
 30
0.0
 10
10.5474431011
 20
4.4192825517
 30
0.0
 10
10.4074825874
 20
4.4568723091
 30
0.0
 10
10.2730666338
 20
4.5035152545
 30
0.0
 10
10.1659588128
 20
4.5498926588
 30
0.0
 10
10.0841699209
 20
4.59120853
 30
0.0
 10
10.0062651584
 20
4.6345835303
 30
0.0
 10
9.9321793736
 20
4.6820331032
 30
0.0
 10
9.8625549303
 20
4.7334477496
 30
0.0
 10
9.7974428449
 20
4.7862568731
 30
0.0
 10
9.7517796012
 20
4.8288967732
 30
0.0
 10
9.7231207186
 20
4.858524804
 30
0.0
  0
SPLINE
  5
443
100
AcDbEntity
  8
0
100
AcDbSpline
 62
9
  6
CONTINUOUS
 70
0
 71
3
 72
11
 73
7
 74
0
 42
0.0000001
 43
0.0000001
 44
0.0000000001
 40
0.0
 40
0.0
 40
0.0
 40
0.0
 40
0.2563996649
 40
0.5084115165
 40
0.7562048967
 40
1.0
 40
1.0
 40
1.0
 40
1.0
 10
9.7231207186
 20
4.858524804
 30
0.0
 10
9.7083560869
 20
4.8737887265
 30
0.0
 10
9.6798669013
 20
4.9048300196
 30
0.0
 10
9.6400862925
 20
4.9532481084
 30
0.0
 10
9.6037276479
 20
5.0029999687
 30
0.0
 10
9.5816554025
 20
5.0372479024
 30
0.0
 10
9.5712390818
 20
5.0545462106
 30
0.0
  0
SPLINE
  5
444
100
AcDbEntity
  8
0
100
AcDbSpline
 62
9
  6
CONTINUOUS
 70
0
 71
3
 72
36
 73
32
 74
0
 42
0.0000001
 43
0.0000001
 44
0.0000000001
 40
0.0
 40
0.0
 40
0.0
 40
0.0
 40
0.0302247024
 40
0.0600525601
 40
0.0895221011
 40
0.1186762593
 40
0.1475619964
 40
0.1762298232
 40
0.2047332197
 40
0.2331279518
 40
0.2614713202
 40
0.2898213585
 40
0.318236005
 40
0.3467722761
 40
0.3754854754
 40
0.4044284595
 40
0.4336509785
 40
0.4631991065
 40
0.4931147909
 40
0.5234355019
 40
0.5541939807
 40
0.5854180706
 40
0.6171306505
 40
0.6493496507
 40
0.7153359191
 40
0.7491335252
 40
0.7834617547
 40
0.8536708058
 40
0.8895453046
 40
0.9259069923
 40
1.0
 40
1.0
 40
1.0
 40
1.0
 10
9.5712390818
 20
5.0545462106
 30
0.0
 10
9.5618145493
 20
5.0701974635
 30
0.0
 10
9.5439426579
 20
5.1018186606
 30
0.0
 10
9.5200368029
 20
5.150396801
 30
0.0
 10
9.4992658731
 20
5.1996973559
 30
0.0
 10
9.4816746874
 20
5.2496171127
 30
0.0
 10
9.4673001402
 20
5.3000536942
 30
0.0
 10
9.4561728544
 20
5.3509028052
 30
0.0
 10
9.4483164043
 20
5.40205921
 30
0.0
 10
9.4437475335
 20
5.4534168348
 30
0.0
 10
9.4424760175
 20
5.5048690733
 30
0.0
 10
9.4445046598
 20
5.5563090476
 30
0.0
 10
9.4498291004
 20
5.6076299062
 30
0.0
 10
9.4584378917
 20
5.6587251407
 30
0.0
 10
9.4703126733
 20
5.7094888552
 30
0.0
 10
9.4854282379
 20
5.7598160232
 30
0.0
 10
9.5037526271
 20
5.8096027221
 30
0.0
 10
9.5252470926
 20
5.8587464225
 30
0.0
 10
9.5498664464
 20
5.907146144
 30
0.0
 10
9.5775591402
 20
5.9547026048
 30
0.0
 10
9.6082675837
 20
6.001318508
 30
0.0
 10
9.6419275708
 20
6.0468982241
 30
0.0
 10
9.6784706905
 20
6.0913500581
 30
0.0
 10
9.7313481531
 20
6.1494457931
 30
0.0
 10
9.7893596195
 20
6.2044364873
 30
0.0
 10
9.8518649077
 20
6.2560890383
 30
0.0
 10
9.9186379532
 20
6.3064612249
 30
0.0
 10
9.9896652114
 20
6.3531360916
 30
0.0
 10
10.0643566789
 20
6.3960068393
 30
0.0
 10
10.1427603241
 20
6.4369890865
 30
0.0
 10
10.2036968505
 20
6.4644743797
 30
0.0
 10
10.2451611418
 20
6.4814021058
 30
0.0
  0
SPLINE
  5
445
100
AcDbEntity
  8
0
100
AcDbSpline
 62
9
  6
CONTINUOUS
 70
0
 71
3
 72
45
 73
41
 74
0
 42
0.0000001
 43
0.0000001
 44
0.0000000001
 40
0.0
 40
0.0
 40
0.0
 40
0.0
 40
0.066563812
 40
0.1005120713
 40
0.1348170736
 40
0.1694135456
 40
0.2042329048
 40
0.2392041983
 40
0.2742548532
 40
0.3093114605
 40
0.3443005493
 40
0.3791493598
 40
0.41378662
 40
0.4481433289
 40
0.4821535496
 40
0.5157552163
 40
0.5488909575
 40
0.5815089387
 40
0.6135637197
 40
0.6450171303
 40
0.6758391562
 40
0.7060088276
 40
0.7355150914
 40
0.7643576427
 40
0.7785352312
 40
0.7925521048
 40
0.8201129426
 40
0.8470804414
 40
0.8603590178
 40
0.8735085209
 40
0.8865369723
 40
0.8994531192
 40
0.9122664212
 40
0.9249870076
 40
0.9376256133
 40
0.9501935442
 40
0.962702583
 40
0.9751649387
 40
0.987593149
 40
1.0
 40
1.0
 40
1.0
 40
1.0
 10
11.8573183383
 20
4.4931116836
 30
0.0
 10
11.7958330975
 20
4.4680104391
 30
0.0
 10
11.7008976788
 20
4.4350035323
 30
0.0
 10
11.570915151
 20
4.4002781249
 30
0.0
 10
11.4705719649
 20
4.3786002559
 30
0.0
 10
11.3684635264
 20
4.3615590818
 30
0.0
 10
11.2650101241
 20
4.349223593
 30
0.0
 10
11.1606463843
 20
4.3416457649
 30
0.0
 10
11.0558084142
 20
4.3388570642
 30
0.0
 10
10.9509349536
 20
4.3408691579
 30
0.0
 10
10.8464647198
 20
4.3476736311
 30
0.0
 10
10.7428347765
 20
4.3592421067
 30
0.0
 10
10.640478638
 20
4.3755263517
 30
0.0
 10
10.5398244654
 20
4.3964584991
 30
0.0
 10
10.4412932692
 20
4.4219513517
 30
0.0
 10
10.345297152
 20
4.4518987749
 30
0.0
 10
10.2522375956
 20
4.4861761697
 30
0.0
 10
10.1625037877
 20
4.5246410119
 30
0.0
 10
10.0764710602
 20
4.5671334995
 30
0.0
 10
9.9944993115
 20
4.6134773301
 30
0.0
 10
9.916931837
 20
4.6634802063
 30
0.0
 10
9.8440930947
 20
4.7169356072
 30
0.0
 10
9.7762907787
 20
4.7736201935
 30
0.0
 10
9.7239209221
 20
4.8236425502
 30
0.0
 10
9.6848715356
 20
4.865051503
 30
0.0
 10
9.6481576472
 20
4.9068565705
 30
0.0
 10
9.605832029
 20
4.9606571305
 30
0.0
 10
9.5681099174
 20
5.0169041818
 30
0.0
 10
9.5411199907
 20
5.0628487951
 30
0.0
 10
9.5225603247
 20
5.0975782574
 30
0.0
 10
9.5056012958
 20
5.1327155021
 30
0.0
 10
9.4902607037
 20
5.1682242646
 30
0.0
 10
9.4765549073
 20
5.2040670823
 30
0.0
 10
9.4644983436
 20
5.2402062751
 30
0.0
 10
9.4541041474
 20
5.276603894
 30
0.0
 10
9.4453830199
 20
5.3132215239
 30
0.0
 10
9.4383447252
 20
5.3500206111
 30
0.0
 10
9.4329963708
 20
5.3869625389
 30
0.0
 10
9.4293440436
 20
5.4240073572
 30
0.0
 10
9.4280415451
 20
5.4487616382
 30
0.0
 10
9.4276745677
 20
5.4611346868
 30
0.0
  0
SPLINE
  5
446
100
AcDbEntity
  8
0
100
AcDbSpline
 62
9
  6
CONTINUOUS
 70
0
 71
3
 72
45
 73
41
 74
0
 42
0.0000001
 43
0.0000001
 44
0.0000000001
 40
0.0
 40
0.0
 40
0.0
 40
0.0
 40
0.0331259581
 40
0.0667315686
 40
0.1007594567
 40
0.1351464915
 40
0.1698257904
 40
0.2047271149
 40
0.2397778044
 40
0.2749035797
 40
0.310029355
 40
0.3450800446
 40
0.3799813691
 40
0.4146606664
 40
0.4490477124
 40
0.4830755484
 40
0.5166813244
 40
0.5498071593
 40
0.5824010208
 40
0.6144176299
 40
0.6458193726
 40
0.6765772248
 40
0.7066716768
 40
0.7214688205
 40
0.7360976432
 40
0.7648493009
 40
0.7929448764
 40
0.8204112284
 40
0.8472882315
 40
0.873628841
 40
0.886620957
 40
0.899504643
 40
0.9122899574
 40
0.9249876162
 40
0.9376089463
 40
0.9501657996
 40
0.9626704986
 40
0.9751357402
 40
0.9875745118
 40
1.0
 40
1.0
 40
1.0
 40
1.0
 10
11.9998183383
 20
4.1612031361
 30
0.0
 10
11.9635474904
 20
4.1463956245
 30
0.0
 10
11.8896725757
 20
4.1185075287
 30
0.0
 10
11.7761315621
 20
4.0821735054
 30
0.0
 10
11.6594770664
 20
4.0511627982
 30
0.0
 10
11.5402105666
 20
4.0256089527
 30
0.0
 10
11.4188401754
 20
4.0056200516
 30
0.0
 10
11.2958840853
 20
3.9912812755
 30
0.0
 10
11.1718670195
 20
3.9826535491
 30
0.0
 10
11.0473183385
 20
3.9797735591
 30
0.0
 10
10.9227696562
 20
3.9826535495
 30
0.0
 10
10.798752594
 20
3.9912812738
 30
0.0
 10
10.6757964923
 20
4.0056200579
 30
0.0
 10
10.5544261392
 20
4.0256089307
 30
0.0
 10
10.435159506
 20
4.0511628702
 30
0.0
 10
10.3185055462
 20
4.0821732693
 30
0.0
 10
10.2049620258
 20
4.1185084244
 30
0.0
 10
10.0950134424
 20
4.1600141255
 30
0.0
 10
9.9891289065
 20
4.2065144289
 30
0.0
 10
9.8877604537
 20
4.2578121408
 30
0.0
 10
9.7913401293
 20
4.3136906551
 30
0.0
 10
9.7002822301
 20
4.373911772
 30
0.0
 10
9.628788724
 20
4.4278085664
 30
0.0
 10
9.5746968792
 20
4.4728731579
 30
0.0
 10
9.5233073795
 20
4.518640572
 30
0.0
 10
9.4630378845
 20
4.5780171589
 30
0.0
 10
9.3970695992
 20
4.6529053657
 30
0.0
 10
9.3381543739
 20
4.730707925
 30
0.0
 10
9.2865530264
 20
4.8110891951
 30
0.0
 10
9.2496612543
 20
4.8802686801
 30
0.0
 10
9.2240976617
 20
4.9365008871
 30
0.0
 10
9.2069628867
 20
4.9789079357
 30
0.0
 10
9.1918001143
 20
5.0216896986
 30
0.0
 10
9.178625454
 20
5.064801075
 30
0.0
 10
9.1674530846
 20
5.1081954617
 30
0.0
 10
9.1582955395
 20
5.151826392
 30
0.0
 10
9.1511624784
 20
5.1956467409
 30
0.0
 10
9.1460618762
 20
5.2396097177
 30
0.0
 10
9.1429993554
 20
5.2836667193
 30
0.0
 10
9.1423183383
 20
5.3130774053
 30
0.0
 10
9.1423183383
 20
5.3277726261
 30
0.0
  0
SPLINE
  5
447
100
AcDbEntity
  8
0
100
AcDbSpline
 62
9
  6
CONTINUOUS
 70
0
 71
3
 72
37
 73
33
 74
0
 42
0.0000001
 43
0.0000001
 44
0.0000000001
 40
0.0
 40
0.0
 40
0.0
 40
0.0
 40
0.0740861718
 40
0.110399106
 40
0.1461908427
 40
0.2161267752
 40
0.2502666569
 40
0.2838420227
 40
0.316854275
 40
0.3493102319
 40
0.3812223441
 40
0.4126088648
 40
0.4434939578
 40
0.4739077274
 40
0.5038861516
 40
0.5334709045
 40
0.5627090501
 40
0.5916525992
 40
0.620357924
 40
0.6488850349
 40
0.6772967307
 40
0.7056576476
 40
0.7340332382
 40
0.7624887186
 40
0.791088025
 40
0.8198928192
 40
0.8489615806
 40
0.8783488103
 40
0.9081043673
 40
0.9382729479
 40
0.9688937048
 40
1.0
 40
1.0
 40
1.0
 40
1.0
 10
12.0978596418
 20
3.6610013494
 30
0.0
 10
12.1554561148
 20
3.6845150111
 30
0.0
 10
12.2399959282
 20
3.7228689946
 30
0.0
 10
12.3484729214
 20
3.7803962041
 30
0.0
 10
12.451427536
 20
3.840670432
 30
0.0
 10
12.5489080379
 20
3.9065171129
 30
0.0
 10
12.6399785498
 20
3.9777534613
 30
0.0
 10
12.7040667716
 20
4.0330053057
 30
0.0
 10
12.7643283237
 20
4.0903748705
 30
0.0
 10
12.8206254605
 20
4.1497320696
 30
0.0
 10
12.8728268518
 20
4.2109403034
 30
0.0
 10
12.9208110663
 20
4.273859146
 30
0.0
 10
12.9644659995
 20
4.3383439823
 30
0.0
 10
13.0036893535
 20
4.4042464378
 30
0.0
 10
13.0383888394
 20
4.4714146036
 30
0.0
 10
13.0684824526
 20
4.5396933246
 30
0.0
 10
13.0938987332
 20
4.6089244892
 30
0.0
 10
13.1145770303
 20
4.6789473501
 30
0.0
 10
13.130467767
 20
4.7495988786
 30
0.0
 10
13.1415327023
 20
4.8207141625
 30
0.0
 10
13.1477451165
 20
4.8921268616
 30
0.0
 10
13.1490899734
 20
4.9636696961
 30
0.0
 10
13.1455640158
 20
5.0351749692
 30
0.0
 10
13.1371757863
 20
5.1064751052
 30
0.0
 10
13.1239455731
 20
5.1774031819
 30
0.0
 10
13.10590528
 20
5.2477934459
 30
0.0
 10
13.0830982543
 20
5.3174817638
 30
0.0
 10
13.0555790163
 20
5.3863061221
 30
0.0
 10
13.0234132223
 20
5.4541067422
 30
0.0
 10
12.986676607
 20
5.5207274497
 30
0.0
 10
12.9454576596
 20
5.5860120258
 30
0.0
 10
12.9152961717
 20
5.6282060057
 30
0.0
 10
12.899526155
 20
5.6490286795
 30
0.0
  0
SPLINE
  5
448
100
AcDbEntity
  8
0
100
AcDbSpline
 62
9
  6
CONTINUOUS
 70
0
 71
3
 72
52
 73
48
 74
0
 42
0.0000001
 43
0.0000001
 44
0.0000000001
 40
0.0
 40
0.0
 40
0.0
 40
0.0
 40
0.0141173667
 40
0.028047901
 40
0.0418018231
 40
0.0553909248
 40
0.0688285231
 40
0.0821293943
 40
0.0953096848
 40
0.1083867837
 40
0.121379173
 40
0.1343062556
 40
0.1471881606
 40
0.1600455248
 40
0.1728992631
 40
0.1857703318
 40
0.1986794895
 40
0.2116470651
 40
0.2246927374
 40
0.2378353297
 40
0.2510926242
 40
0.26448121
 40
0.2780163523
 40
0.2917118846
 40
0.3055801279
 40
0.3196318462
 40
0.3338762177
 40
0.3483208183
 40
0.377826133
 40
0.4081846043
 40
0.4394017626
 40
0.4714612176
 40
0.5043266883
 40
0.5379442319
 40
0.5722444383
 40
0.60714467
 40
0.6425511907
 40
0.6783612953
 40
0.7144653357
 40
0.7507487421
 40
0.7870939789
 40
0.8233825002
 40
0.85949669
 40
0.8953218058
 40
0.9307479486
 40
0.9656719453
 40
1.0
 40
1.0
 40
1.0
 40
1.0
 10
9.1953652786
 20
5.6493649825
 30
0.0
 10
9.1820894513
 20
5.6318463621
 30
0.0
 10
9.156516645
 20
5.5964229267
 30
0.0
 10
9.1209839512
 20
5.5418637277
 30
0.0
 10
9.0885953467
 20
5.4863286643
 30
0.0
 10
9.0594055043
 20
5.4299096967
 30
0.0
 10
9.033462564
 20
5.3726984835
 30
0.0
 10
9.0108098398
 20
5.3147885818
 30
0.0
 10
8.9914849879
 20
5.2562747885
 30
0.0
 10
8.9755203038
 20
5.1972530338
 30
0.0
 10
8.9629426093
 20
5.1378202091
 30
0.0
 10
8.9537731407
 20
5.078074031
 30
0.0
 10
8.9480272283
 20
5.018112883
 30
0.0
 10
8.9457145402
 20
4.9580355616
 30
0.0
 10
8.9468390424
 20
4.8979411053
 30
0.0
 10
8.9513989139
 20
4.8379286054
 30
0.0
 10
8.9593863385
 20
4.7780969685
 30
0.0
 10
8.9707878369
 20
4.71854472
 30
0.0
 10
8.9855842964
 20
4.6593698342
 30
0.0
 10
9.0037509374
 20
4.6006695457
 30
0.0
 10
9.0252572324
 20
4.5425401078
 30
0.0
 10
9.0500672685
 20
4.4850767031
 30
0.0
 10
9.0781398239
 20
4.4283733017
 30
0.0
 10
9.1094283204
 20
4.3725225173
 30
0.0
 10
9.1438809321
 20
4.3176152878
 30
0.0
 10
9.1814405135
 20
4.2637412783
 30
0.0
 10
9.2220462229
 20
4.2109871802
 30
0.0
 10
9.2805649329
 20
4.1417758961
 30
0.0
 10
9.3611547141
 20
4.0585391921
 30
0.0
 10
9.4681352879
 20
3.9652148901
 30
0.0
 10
9.5853833173
 20
3.8783226098
 30
0.0
 10
9.7121280646
 20
3.7984241098
 30
0.0
 10
9.847545701
 20
3.726028444
 30
0.0
 10
9.9907557348
 20
3.6616004232
 30
0.0
 10
10.1408279958
 20
3.6055533393
 30
0.0
 10
10.2967880928
 20
3.5582481009
 30
0.0
 10
10.4576232515
 20
3.5199891402
 30
0.0
 10
10.6222890723
 20
3.491023598
 30
0.0
 10
10.7897159937
 20
3.4715381454
 30
0.0
 10
10.9588164592
 20
3.4616590388
 30
0.0
 10
11.1284919015
 20
3.4614497693
 30
0.0
 10
11.2976399401
 20
3.4709120463
 30
0.0
 10
11.4651618987
 20
3.4899843985
 30
0.0
 10
11.6299688784
 20
3.5185437181
 30
0.0
 10
11.7909926797
 20
3.5564061489
 30
0.0
 10
11.9471792888
 20
3.603324261
 30
0.0
 10
12.0483758536
 20
3.6407996775
 30
0.0
 10
12.0978596418
 20
3.6610013494
 30
0.0
  0
SPLINE
  5
449
100
AcDbEntity
  8
0
100
AcDbSpline
 62
7
  6
CONTINUOUS
 70
0
 71
3
 72
43
 73
39
 74
0
 42
0.0000001
 43
0.0000001
 44
0.0000000001
 40
0.0
 40
0.0
 40
0.0
 40
0.0
 40
0.0327679753
 40
0.0659897987
 40
0.0996144987
 40
0.1335860991
 40
0.167845364
 40
0.2023300408
 40
0.2369756553
 40
0.271716148
 40
0.3064845361
 40
0.3412135672
 40
0.3758363706
 40
0.4102871107
 40
0.4445016449
 40
0.4784181879
 40
0.511977988
 40
0.5451260142
 40
0.5778116548
 40
0.6099894329
 40
0.641619735
 40
0.6726695532
 40
0.7031132349
 40
0.7329332331
 40
0.7621208369
 40
0.7906768638
 40
0.818612284
 40
0.8459487347
 40
0.8727188714
 40
0.8989664944
 40
0.911913612
 40
0.9247515424
 40
0.9374887606
 40
0.9501343299
 40
0.9626978833
 40
0.9751895501
 40
0.9876199269
 40
1.0
 40
1.0
 40
1.0
 40
1.0
 10
12.122286909
 20
3.5812019778
 30
0.0
 10
12.0833840249
 20
3.5653199418
 30
0.0
 10
12.0042166161
 20
3.5353144422
 30
0.0
 10
11.8826572107
 20
3.4959082607
 30
0.0
 10
11.7578713932
 20
3.461918439
 30
0.0
 10
11.6303442104
 20
3.4334773339
 30
0.0
 10
11.5005669181
 20
3.410693751
 30
0.0
 10
11.3690404922
 20
3.3936554692
 30
0.0
 10
11.2362724364
 20
3.3824279937
 30
0.0
 10
11.1027751468
 20
3.3770545454
 30
0.0
 10
10.9690638299
 20
3.3775557763
 30
0.0
 10
10.8356545258
 20
3.3839297497
 30
0.0
 10
10.7030620989
 20
3.3961519353
 30
0.0
 10
10.5717982448
 20
3.4141753136
 30
0.0
 10
10.4423695079
 20
3.4379305674
 30
0.0
 10
10.3152753228
 20
3.4673263745
 30
0.0
 10
10.1910060774
 20
3.5022497507
 30
0.0
 10
10.0700412227
 20
3.5425665223
 30
0.0
 10
9.9528474468
 20
3.5881219072
 30
0.0
 10
9.839876905
 20
3.6387411438
 30
0.0
 10
9.7315655223
 20
3.6942302072
 30
0.0
 10
9.6283313778
 20
3.7543765938
 30
0.0
 10
9.5305731847
 20
3.8189501731
 30
0.0
 10
9.4386688348
 20
3.8877040545
 30
0.0
 10
9.352974117
 20
3.9603755114
 30
0.0
 10
9.2738214589
 20
4.036687074
 30
0.0
 10
9.201519052
 20
4.1163469409
 30
0.0
 10
9.1363489897
 20
4.199051749
 30
0.0
 10
9.0785693077
 20
4.2844806849
 30
0.0
 10
9.036572167
 20
4.3580153373
 30
0.0
 10
9.0069648339
 20
4.4178272172
 30
0.0
 10
8.9868329056
 20
4.4629530034
 30
0.0
 10
8.9686962272
 20
4.5085006853
 30
0.0
 10
8.9525723496
 20
4.554426974
 30
0.0
 10
8.9384768425
 20
4.6006869106
 30
0.0
 10
8.926423928
 20
4.6472361104
 30
0.0
 10
8.9164252093
 20
4.6940280473
 30
0.0
 10
8.9111261285
 20
4.7254112483
 30
0.0
 10
8.9088248896
 20
4.7411191256
 30
0.0
  0
SPLINE
  5
44A
100
AcDbEntity
  8
0
100
AcDbSpline
 62
9
  6
CONTINUOUS
 70
0
 71
3
 72
15
 73
11
 74
0
 42
0.0000001
 43
0.0000001
 44
0.0000000001
 40
0.0
 40
0.0
 40
0.0
 40
0.0
 40
0.1337826595
 40
0.2652626434
 40
0.3942942033
 40
0.520761024
 40
0.6445840163
 40
0.7657227085
 40
0.8841790269
 40
1.0
 40
1.0
 40
1.0
 40
1.0
 10
11.8632509719
 20
4.4488927861
 30
0.0
 10
11.8930191402
 20
4.46104559
 30
0.0
 10
11.951440468
 20
4.4866538226
 30
0.0
 10
12.0361274867
 20
4.5292780207
 30
0.0
 10
12.1168168364
 20
4.575631084
 30
0.0
 10
12.1931790288
 20
4.6255263142
 30
0.0
 10
12.2649050108
 20
4.6787635626
 30
0.0
 10
12.3317045312
 20
4.7351309474
 30
0.0
 10
12.3933021794
 20
4.7943983696
 30
0.0
 10
12.4311563436
 20
4.836154551
 30
0.0
 10
12.4490963884
 20
4.8574388016
 30
0.0
  0
LINE
  5
44B
100
AcDbEntity
  8
0
100
AcDbLine
 62
9
  6
CONTINUOUS
 10
12.4490963884
 20
4.8574388016
 11
12.4502349057
 21
4.8587916479
  0
SPLINE
  5
44C
100
AcDbEntity
  8
0
100
AcDbSpline
 62
9
  6
CONTINUOUS
 70
0
 71
3
 72
23
 73
19
 74
0
 42
0.0000001
 43
0.0000001
 44
0.0000000001
 40
0.0
 40
0.0
 40
0.0
 40
0.0
 40
0.0673763044
 40
0.1336571503
 40
0.1989027185
 40
0.2631859789
 40
0.3265923941
 40
0.3892193568
 40
0.451175334
 40
0.5125787068
 40
0.5735562918
 40
0.6342415798
 40
0.6947727358
 40
0.7552904208
 40
0.8159355155
 40
0.8768468344
 40
0.9381589191
 40
1.0
 40
1.0
 40
1.0
 40
1.0
 10
12.4502349057
 20
4.8587916479
 30
0.0
 10
12.4635469871
 20
4.8746343517
 30
0.0
 10
12.489116197
 20
4.9067793469
 30
0.0
 10
12.5244258308
 20
4.9566679323
 30
0.0
 10
12.5562900926
 20
5.0077120735
 30
0.0
 10
12.5846319254
 20
5.0597912789
 30
0.0
 10
12.6093841899
 20
5.112784672
 30
0.0
 10
12.630487525
 20
5.166568357
 30
0.0
 10
12.6478911679
 20
5.2210164149
 30
0.0
 10
12.6615530651
 20
5.2760009617
 30
0.0
 10
12.6714400708
 20
5.3313925259
 30
0.0
 10
12.6775280974
 20
5.3870603847
 30
0.0
 10
12.6798022712
 20
5.4428729198
 30
0.0
 10
12.6782569979
 20
5.4986981145
 30
0.0
 10
12.6728961037
 20
5.5544036449
 30
0.0
 10
12.6637324253
 20
5.6098585548
 30
0.0
 10
12.6507893211
 20
5.6649289951
 30
0.0
 10
12.6397142414
 20
5.7011281571
 30
0.0
 10
12.6335752245
 20
5.7191017009
 30
0.0
  0
SPLINE
  5
44D
100
AcDbEntity
  8
0
100
AcDbSpline
 62
9
  6
CONTINUOUS
 70
0
 71
3
 72
10
 73
6
 74
0
 42
0.0000001
 43
0.0000001
 44
0.0000000001
 40
0.0
 40
0.0
 40
0.0
 40
0.0
 40
0.2459068959
 40
0.6201297345
 40
1.0
 40
1.0
 40
1.0
 40
1.0
 10
10.1170657142
 20
6.5155428207
 30
0.0
 10
10.1453692114
 20
6.527097675
 30
0.0
 10
10.2173722582
 20
6.5547197957
 30
0.0
 10
10.3356635158
 20
6.593213382
 30
0.0
 10
10.4264486081
 20
6.6168540587
 30
0.0
 10
10.4724754758
 20
6.6274271823
 30
0.0
  0
SPLINE
  5
44E
100
AcDbEntity
  8
0
100
AcDbSpline
 62
9
  6
CONTINUOUS
 70
0
 71
3
 72
52
 73
48
 74
0
 42
0.0000001
 43
0.0000001
 44
0.0000000001
 40
0.0
 40
0.0
 40
0.0
 40
0.0
 40
0.0371964065
 40
0.0738936334
 40
0.1100149047
 40
0.1454919341
 40
0.1802663698
 40
0.2142912716
 40
0.2475325751
 40
0.2799705602
 40
0.311601283
 40
0.3424378555
 40
0.3725114958
 40
0.3872805054
 40
0.4018791595
 40
0.4163166852
 40
0.4306034604
 40
0.4447510041
 40
0.4587719001
 40
0.4726797381
 40
0.4864890445
 40
0.5002151647
 40
0.5138741612
 40
0.5274826881
 40
0.5410578428
 40
0.5546170243
 40
0.5681777768
 40
0.58175763
 40
0.5953739388
 40
0.6090437339
 40
0.6227835737
 40
0.636609398
 40
0.6505364183
 40
0.6645789978
 40
0.6787505493
 40
0.6930634773
 40
0.7075290934
 40
0.7221575726
 40
0.73695794
 40
0.7670980514
 40
0.7980046512
 40
0.8297073004
 40
0.8622175294
 40
0.8955299322
 40
0.9296234988
 40
0.9644626667
 40
1.0
 40
1.0
 40
1.0
 40
1.0
 10
11.6220392367
 20
6.6274552118
 30
0.0
 10
11.6642495
 20
6.6177611645
 30
0.0
 10
11.7476106075
 20
6.5962714819
 30
0.0
 10
11.8697744304
 20
6.5575382693
 30
0.0
 10
11.9876977599
 20
6.5126942201
 30
0.0
 10
12.1007675377
 20
6.4619699944
 30
0.0
 10
12.2084014659
 20
6.4056246547
 30
0.0
 10
12.3100435616
 20
6.3439461898
 30
0.0
 10
12.4051686956
 20
6.2772490751
 30
0.0
 10
12.4932840591
 20
6.2058733657
 30
0.0
 10
12.5739330522
 20
6.1301811087
 30
0.0
 10
12.6466921245
 20
6.0505623859
 30
0.0
 10
12.7007646551
 20
5.98084749
 30
0.0
 10
12.7396090765
 20
5.9235448594
 30
0.0
 10
12.7663780714
 20
5.8801102877
 30
0.0
 10
12.7909191217
 20
5.8360208759
 30
0.0
 10
12.81320049
 20
5.7913328044
 30
0.0
 10
12.8331930106
 20
5.7461043025
 30
0.0
 10
12.8508703425
 20
5.7003939167
 30
0.0
 10
12.8662090314
 20
5.6542609667
 30
0.0
 10
12.8791890956
 20
5.6077655043
 30
0.0
 10
12.8897931522
 20
5.5609679649
 30
0.0
 10
12.8980071315
 20
5.5139293237
 30
0.0
 10
12.9038203567
 20
5.4667109434
 30
0.0
 10
12.9072248132
 20
5.4193743965
 30
0.0
 10
12.9082161075
 20
5.3719815065
 30
0.0
 10
12.9067930451
 20
5.3245941465
 30
0.0
 10
12.9029572183
 20
5.2772742088
 30
0.0
 10
12.8967139832
 20
5.2300834551
 30
0.0
 10
12.8880716236
 20
5.1830834378
 30
0.0
 10
12.8770413802
 20
5.1363354843
 30
0.0
 10
12.8636381642
 20
5.0899004135
 30
0.0
 10
12.8478795674
 20
5.043838666
 30
0.0
 10
12.82978629
 20
4.998210149
 30
0.0
 10
12.8093824349
 20
4.953073999
 30
0.0
 10
12.7866945689
 20
4.9084887794
 30
0.0
 10
12.7617526646
 20
4.8645124391
 30
0.0
 10
12.7345889138
 20
4.8212010239
 30
0.0
 10
12.6952224174
 20
4.764075329
 30
0.0
 10
12.6405162667
 20
4.6946085247
 30
0.0
 10
12.5670356243
 20
4.6153250598
 30
0.0
 10
12.4857011283
 20
4.5400034263
 30
0.0
 10
12.3969396868
 20
4.4690316636
 30
0.0
 10
12.3012113713
 20
4.4027699129
 30
0.0
 10
12.1990108342
 20
4.341555844
 30
0.0
 10
12.0908708903
 20
4.2857030931
 30
0.0
 10
12.0158790022
 20
4.2525377515
 30
0.0
 10
11.9775709624
 20
4.2368985597
 30
0.0
  0
SPLINE
  5
44F
100
AcDbEntity
  8
0
100
AcDbSpline
 62
9
  6
CONTINUOUS
 70
0
 71
3
 72
24
 73
20
 74
0
 42
0.0000001
 43
0.0000001
 44
0.0000000001
 40
0.0
 40
0.0
 40
0.0
 40
0.0
 40
0.0618659286
 40
0.1231968582
 40
0.1841213528
 40
0.2447744005
 40
0.3052953609
 40
0.365825745
 40
0.4265069099
 40
0.4874777602
 40
0.5488725428
 40
0.6108188208
 40
0.6734356955
 40
0.7368323152
 40
0.8011066926
 40
0.8663448358
 40
0.899352195
 40
0.9326269241
 40
1.0
 40
1.0
 40
1.0
 40
1.0
 10
9.4618138179
 20
5.7212951441
 30
0.0
 10
9.4556110137
 20
5.703289132
 30
0.0
 10
9.4444129728
 20
5.667022333
 30
0.0
 10
9.4313000427
 20
5.6118399489
 30
0.0
 10
9.4219831984
 20
5.5562665998
 30
0.0
 10
9.4164862858
 20
5.500437027
 30
0.0
 10
9.4148225253
 20
5.4444830915
 30
0.0
 10
9.4169960852
 20
5.3885380421
 30
0.0
 10
9.4230016099
 20
5.3327348378
 30
0.0
 10
9.4328243835
 20
5.2772060494
 30
0.0
 10
9.4464403478
 20
5.2220833579
 30
0.0
 10
9.4638162663
 20
5.1674971549
 30
0.0
 10
9.4849098822
 20
5.1135763008
 30
0.0
 10
9.5096703719
 20
5.0604474214
 30
0.0
 10
9.538037567
 20
5.0082361337
 30
0.0
 10
9.5645241227
 20
4.96575667
 30
0.0
 10
9.5874163795
 20
4.9323577494
 30
0.0
 10
9.6116386533
 20
4.8990948286
 30
0.0
 10
9.6309330747
 20
4.8748264944
 30
0.0
 10
9.6442723851
 20
4.8589456962
 30
0.0
  0
SPLINE
  5
450
100
AcDbEntity
  8
0
100
AcDbSpline
 62
9
  6
CONTINUOUS
 70
0
 71
3
 72
15
 73
11
 74
0
 42
0.0000001
 43
0.0000001
 44
0.0000000001
 40
0.0
 40
0.0
 40
0.0
 40
0.0
 40
0.1160116364
 40
0.234596272
 40
0.3558014472
 40
0.4796325591
 40
0.6060554227
 40
0.7349991286
 40
0.8663590636
 40
1.0
 40
1.0
 40
1.0
 40
1.0
 10
9.6442723851
 20
4.8589456962
 30
0.0
 10
9.6617180293
 20
4.8381762004
 30
0.0
 10
9.6984869868
 20
4.7974071217
 30
0.0
 10
9.7582351097
 20
4.7394437442
 30
0.0
 10
9.8229491607
 20
4.6842216262
 30
0.0
 10
9.8923753085
 20
4.6319552165
 30
0.0
 10
9.966246302
 20
4.5828425722
 30
0.0
 10
10.0442778387
 20
4.5370709306
 30
0.0
 10
10.1261666691
 20
4.4948160396
 30
0.0
 10
10.1826646072
 20
4.4693042885
 30
0.0
 10
10.21145529
 20
4.4571629745
 30
0.0
  0
SPLINE
  5
451
100
AcDbEntity
  8
0
100
AcDbSpline
 62
9
  6
CONTINUOUS
 70
0
 71
3
 72
13
 73
9
 74
0
 42
0.0000001
 43
0.0000001
 44
0.0000000001
 40
0.0
 40
0.0
 40
0.0
 40
0.0
 40
0.2432145127
 40
0.3668762941
 40
0.4917204539
 40
0.6176081447
 40
0.7443933125
 40
1.0
 40
1.0
 40
1.0
 40
1.0
 10
10.21145529
 20
4.4571629745
 30
0.0
 10
10.259467491
 20
4.4369157574
 30
0.0
 10
10.3332082977
 20
4.4093844054
 30
0.0
 10
10.433909816
 20
4.3783886341
 30
0.0
 10
10.5114456735
 20
4.3577634542
 30
0.0
 10
10.590359543
 20
4.339946629
 30
0.0
 10
10.6974192338
 20
4.3199440162
 30
0.0
 10
10.7787555839
 20
4.3093687053
 30
0.0
 10
10.8332792509
 20
4.304267793
 30
0.0
  0
SPLINE
  5
452
100
AcDbEntity
  8
0
100
AcDbSpline
 62
9
  6
CONTINUOUS
 70
0
 71
3
 72
13
 73
9
 74
0
 42
0.0000001
 43
0.0000001
 44
0.0000000001
 40
0.0
 40
0.0
 40
0.0
 40
0.0
 40
0.2553102938
 40
0.3819964821
 40
0.5078325942
 40
0.6326824137
 40
0.7564143576
 40
1.0
 40
1.0
 40
1.0
 40
1.0
 10
11.2612918114
 20
4.3042616305
 30
0.0
 10
11.3139304476
 20
4.3091846959
 30
0.0
 10
11.3924709951
 20
4.3192949235
 30
0.0
 10
11.4959189844
 20
4.338275781
 30
0.0
 10
11.5722404765
 20
4.3551392477
 30
0.0
 10
11.6473039424
 20
4.3746257154
 30
0.0
 10
11.744944877
 20
4.4038839831
 30
0.0
 10
11.8165521703
 20
4.4298280803
 30
0.0
 10
11.8632509719
 20
4.4488927861
 30
0.0
  0
SPLINE
  5
453
100
AcDbEntity
  8
0
100
AcDbSpline
 62
9
  6
CONTINUOUS
 70
0
 71
3
 72
11
 73
7
 74
0
 42
0.0000001
 43
0.0000001
 44
0.0000000001
 40
0.0
 40
0.0
 40
0.0
 40
0.0
 40
0.2451723413
 40
0.4938431753
 40
0.7456026306
 40
1.0
 40
1.0
 40
1.0
 40
1.0
 10
11.9775709624
 20
4.2368985597
 30
0.0
 10
11.9427379132
 20
4.222678027
 30
0.0
 10
11.871812082
 20
4.1958672554
 30
0.0
 10
11.7628374414
 20
4.1608423693
 30
0.0
 10
11.6509087849
 20
4.1308419808
 30
0.0
 10
11.5749703537
 20
4.1143487579
 30
0.0
 10
11.5366363574
 20
4.1069595905
 30
0.0
  0
SPLINE
  5
454
100
AcDbEntity
  8
0
100
AcDbSpline
 62
9
  6
CONTINUOUS
 70
0
 71
3
 72
10
 73
6
 74
0
 42
0.0000001
 43
0.0000001
 44
0.0000000001
 40
0.0
 40
0.0
 40
0.0
 40
0.0
 40
0.2486993828
 40
0.6237227538
 40
1.0
 40
1.0
 40
1.0
 40
1.0
 10
11.4522564877
 20
4.0921831699
 30
0.0
 10
11.4183668758
 20
4.0868394162
 30
0.0
 10
11.3330946044
 20
4.075159456
 30
0.0
 10
11.1955742587
 20
4.0632878078
 30
0.0
 10
11.0918978826
 20
4.0605104538
 30
0.0
 10
11.0399902597
 20
4.0606550491
 30
0.0
  0
SPLINE
  5
455
100
AcDbEntity
  8
0
100
AcDbSpline
 62
9
  6
CONTINUOUS
 70
0
 71
3
 72
16
 73
12
 74
0
 42
0.0000001
 43
0.0000001
 44
0.0000000001
 40
0.0
 40
0.0
 40
0.0
 40
0.0
 40
0.1301338683
 40
0.2597316019
 40
0.3882905725
 40
0.5153291638
 40
0.6403972959
 40
0.7630872
 40
0.8234372777
 40
0.8830650515
 40
1.0
 40
1.0
 40
1.0
 40
1.0
 10
11.0399902597
 20
4.0606550491
 30
0.0
 10
10.9848463035
 20
4.0608086596
 30
0.0
 10
10.8747635447
 20
4.0645740813
 30
0.0
 10
10.710899218
 20
4.0805686359
 30
0.0
 10
10.5496754341
 20
4.1067798778
 30
0.0
 10
10.3923676519
 20
4.1430038228
 30
0.0
 10
10.2402158774
 20
4.1889558166
 30
0.0
 10
10.1180359238
 20
4.2353159848
 30
0.0
 10
10.0240067606
 20
4.2769943379
 30
0.0
 10
9.9337834809
 20
4.3210544808
 30
0.0
 10
9.8684307296
 20
4.3576841703
 30
0.0
 10
9.8262250173
 20
4.3836455397
 30
0.0
  0
SPLINE
  5
456
100
AcDbEntity
  8
0
100
AcDbSpline
 62
9
  6
CONTINUOUS
 70
0
 71
3
 72
39
 73
35
 74
0
 42
0.0000001
 43
0.0000001
 44
0.0000000001
 40
0.0
 40
0.0
 40
0.0
 40
0.0
 40
0.0687523889
 40
0.1021168887
 40
0.1185427645
 40
0.1347973406
 40
0.1667948249
 40
0.1981325405
 40
0.2288406537
 40
0.258960378
 40
0.2885439267
 40
0.3176541612
 40
0.3463638831
 40
0.374754733
 40
0.4029156894
 40
0.4309411947
 40
0.4589289821
 40
0.4869777109
 40
0.5151845462
 40
0.5436428283
 40
0.5724399606
 40
0.60165562
 40
0.6313603476
 40
0.6616145435
 40
0.6924678459
 40
0.7239588572
 40
0.739954613
 40
0.7561192341
 40
0.7889576326
 40
0.8224845758
 40
0.8566967059
 40
0.8915814424
 40
0.927117789
 40
1.0
 40
1.0
 40
1.0
 40
1.0
 10
9.8262250173
 20
4.3836455397
 30
0.0
 10
9.7716929312
 20
4.4171890472
 30
0.0
 10
9.69320365
 20
4.4713328007
 30
0.0
 10
9.6081346255
 20
4.5417618735
 30
0.0
 10
9.5625867373
 20
4.583103085
 30
0.0
 10
9.5192525423
 20
4.6249426735
 30
0.0
 10
9.4683719443
 20
4.6789087318
 30
0.0
 10
9.4125653836
 20
4.7464814653
 30
0.0
 10
9.3625249652
 20
4.8162952991
 30
0.0
 10
9.3184321503
 20
4.8881042567
 30
0.0
 10
9.280446238
 20
4.9616564426
 30
0.0
 10
9.2487060228
 20
5.0366923361
 30
0.0
 10
9.2233283936
 20
5.1129460555
 30
0.0
 10
9.2044076736
 20
5.1901459906
 30
0.0
 10
9.1920147593
 20
5.268015813
 30
0.0
 10
9.186196397
 20
5.3462756516
 30
0.0
 10
9.1869746258
 20
5.4246434891
 30
0.0
 10
9.1943464968
 20
5.5028367013
 30
0.0
 10
9.2082841068
 20
5.5805736413
 30
0.0
 10
9.2287349566
 20
5.6575751568
 30
0.0
 10
9.2556225467
 20
5.7335659264
 30
0.0
 10
9.2888471811
 20
5.8082756371
 30
0.0
 10
9.3282866367
 20
5.8814397423
 30
0.0
 10
9.3737975754
 20
5.9528008451
 30
0.0
 10
9.4252140205
 20
6.022106927
 30
0.0
 10
9.4725848835
 20
6.077661112
 30
0.0
 10
9.5131905116
 20
6.1208517479
 30
0.0
 10
9.5560388154
 20
6.1636148119
 30
0.0
 10
9.6129646671
 20
6.2153235864
 30
0.0
 10
9.6859705066
 20
6.2740760259
 30
0.0
 10
9.7637728752
 20
6.329653313
 30
0.0
 10
9.8460998419
 20
6.381862044
 30
0.0
 10
9.962464144
 20
6.4472739458
 30
0.0
 10
10.0542316973
 20
6.4898909407
 30
0.0
 10
10.1170657142
 20
6.5155428207
 30
0.0
  0
SPLINE
  5
457
100
AcDbEntity
  8
0
100
AcDbSpline
 62
7
  6
CONTINUOUS
 70
0
 71
3
 72
14
 73
10
 74
0
 42
0.0000001
 43
0.0000001
 44
0.0000000001
 40
0.0
 40
0.0
 40
0.0
 40
0.0
 40
0.2543924239
 40
0.3804231248
 40
0.5056752482
 40
0.6301919125
 40
0.7540284917
 40
0.8772741616
 40
1.0
 40
1.0
 40
1.0
 40
1.0
 10
12.265147562
 20
10.5756269549
 30
0.0
 10
12.2764607357
 20
10.579245325
 30
0.0
 10
12.293044604
 20
10.5858098953
 30
0.0
 10
12.313985845
 20
10.5967431921
 30
0.0
 10
12.3289430736
 20
10.6059473598
 30
0.0
 10
12.3431144292
 20
10.6161448092
 30
0.0
 10
12.3564233945
 20
10.6273016608
 30
0.0
 10
12.3687857472
 20
10.6393791899
 30
0.0
 10
12.3763558567
 20
10.6480348915
 30
0.0
 10
12.379949866
 20
10.6524978072
 30
0.0
  0
SPLINE
  5
458
100
AcDbEntity
  8
0
100
AcDbSpline
 62
7
  6
CONTINUOUS
 70
0
 71
3
 72
9
 73
5
 74
0
 42
0.0000001
 43
0.0000001
 44
0.0000000001
 40
0.0
 40
0.0
 40
0.0
 40
0.0
 40
0.4821989194
 40
1.0
 40
1.0
 40
1.0
 40
1.0
 10
12.2157563532
 20
10.5654489345
 30
0.0
 10
12.2238236384
 20
10.5663345097
 30
0.0
 10
12.240490764
 20
10.5688244094
 30
0.0
 10
12.256846835
 20
10.5729720764
 30
0.0
 10
12.265147562
 20
10.5756269549
 30
0.0
  0
SPLINE
  5
459
100
AcDbEntity
  8
0
100
AcDbSpline
 62
7
  6
CONTINUOUS
 70
0
 71
3
 72
15
 73
11
 74
0
 42
0.0000001
 43
0.0000001
 44
0.0000000001
 40
0.0
 40
0.0
 40
0.0
 40
0.0
 40
0.1817459354
 40
0.3441639509
 40
0.4879313279
 40
0.6141690271
 40
0.72479083
 40
0.8227930478
 40
0.9125823647
 40
1.0
 40
1.0
 40
1.0
 40
1.0
 10
10.0943852684
 20
10.5768844066
 30
0.0
 10
10.0946799035
 20
10.5764450532
 30
0.0
 10
10.0952220058
 20
10.5756021772
 30
0.0
 10
10.095925806
 20
10.5743676427
 30
0.0
 10
10.0964705959
 20
10.5732314807
 30
0.0
 10
10.0968528945
 20
10.572189265
 30
0.0
 10
10.0970679698
 20
10.571234923
 30
0.0
 10
10.0971084962
 20
10.5703614078
 30
0.0
 10
10.096963435
 20
10.5695655575
 30
0.0
 10
10.0967381272
 20
10.5690936897
 30
0.0
 10
10.0965999885
 20
10.5688800103
 30
0.0
  0
SPLINE
  5
45A
100
AcDbEntity
  8
0
100
AcDbSpline
 62
7
  6
CONTINUOUS
 70
0
 71
3
 72
18
 73
14
 74
0
 42
0.0000001
 43
0.0000001
 44
0.0000000001
 40
0.0
 40
0.0
 40
0.0
 40
0.0
 40
0.1364726914
 40
0.2715272505
 40
0.4040512076
 40
0.5330297792
 40
0.5959361481
 40
0.6576502066
 40
0.7771699011
 40
0.8349338829
 40
0.8913184584
 40
0.9463324377
 40
1.0
 40
1.0
 40
1.0
 40
1.0
 10
11.0473183383
 20
6.8833389507
 30
0.0
 10
11.0296279868
 20
6.8829850924
 30
0.0
 10
10.9943766383
 20
6.8839047442
 30
0.0
 10
10.942288549
 20
6.890142124
 30
0.0
 10
10.8919762331
 20
6.9011102882
 30
0.0
 10
10.8518995887
 20
6.9141377313
 30
0.0
 10
10.8215289749
 20
6.9267744165
 30
0.0
 10
10.79300528
 20
6.9405233278
 30
0.0
 10
10.7662516979
 20
6.9563300235
 30
0.0
 10
10.7417183334
 20
6.974132859
 30
0.0
 10
10.7248291101
 20
6.9881517269
 30
0.0
 10
10.7093207196
 20
7.0029230609
 30
0.0
 10
10.6998293381
 20
7.0133580233
 30
0.0
 10
10.6953467171
 20
7.0186797703
 30
0.0
  0
SPLINE
  5
45B
100
AcDbEntity
  8
0
100
AcDbSpline
 62
7
  6
CONTINUOUS
 70
0
 71
3
 72
15
 73
11
 74
0
 42
0.0000001
 43
0.0000001
 44
0.0000000001
 40
0.0
 40
0.0
 40
0.0
 40
0.0
 40
0.1605935332
 40
0.311066924
 40
0.4511556245
 40
0.5808181173
 40
0.700131924
 40
0.8093584004
 40
0.9090360365
 40
1.0
 40
1.0
 40
1.0
 40
1.0
 10
10.0831094576
 20
10.6523682005
 30
0.0
 10
10.0827727661
 20
10.648230119
 30
0.0
 10
10.0822932204
 20
10.6401991159
 30
0.0
 10
10.0821741022
 20
10.6285310368
 30
0.0
 10
10.082671497
 20
10.6176720406
 30
0.0
 10
10.0837770119
 20
10.6076665769
 30
0.0
 10
10.0854818429
 20
10.5985542115
 30
0.0
 10
10.0877793577
 20
10.5903716501
 30
0.0
 10
10.0906624927
 20
10.5831581769
 30
0.0
 10
10.093075478
 20
10.5788375372
 30
0.0
 10
10.0943852684
 20
10.5768844066
 30
0.0
  0
SPLINE
  5
45C
100
AcDbEntity
  8
0
100
AcDbSpline
 62
7
  6
CONTINUOUS
 70
0
 71
3
 72
28
 73
24
 74
0
 42
0.0000001
 43
0.0000001
 44
0.0000000001
 40
0.0
 40
0.0
 40
0.0
 40
0.0
 40
0.1455724037
 40
0.2174444747
 40
0.2882679726
 40
0.3577604008
 40
0.4256687533
 40
0.4917779829
 40
0.5559197261
 40
0.6179807501
 40
0.6779120967
 40
0.7070931062
 40
0.7357570987
 40
0.7639197376
 40
0.791601869
 40
0.8188297854
 40
0.8456352004
 40
0.8720550596
 40
0.8981315346
 40
0.9239114052
 40
0.9494457902
 40
0.9747894175
 40
1.0
 40
1.0
 40
1.0
 40
1.0
 10
11.0473183383
 20
6.9347087464
 30
0.0
 10
11.0218204056
 20
6.9341973142
 30
0.0
 10
10.9836144394
 20
6.9359639494
 30
0.0
 10
10.9336398034
 20
6.9434314715
 30
0.0
 10
10.8973120954
 20
6.9514714829
 30
0.0
 10
10.8623205475
 20
6.9618946442
 30
0.0
 10
10.8289719019
 20
6.974603064
 30
0.0
 10
10.7975633194
 20
6.9894783525
 30
0.0
 10
10.768373027
 20
7.0063844057
 30
0.0
 10
10.7416625889
 20
7.0251655583
 30
0.0
 10
10.7214871477
 20
7.0423941811
 30
0.0
 10
10.7068564592
 20
7.0569545386
 30
0.0
 10
10.6967405724
 20
7.0681316872
 30
0.0
 10
10.687408632
 20
7.0796351102
 30
0.0
 10
10.678881645
 20
7.0914388353
 30
0.0
 10
10.671178921
 20
7.1035155832
 30
0.0
 10
10.6643179095
 20
7.1158375674
 30
0.0
 10
10.6583145309
 20
7.1283765165
 30
0.0
 10
10.653182213
 20
7.1411033443
 30
0.0
 10
10.6489332572
 20
7.1539887336
 30
0.0
 10
10.645577085
 20
7.1670028674
 30
0.0
 10
10.6431219396
 20
7.1801147621
 30
0.0
 10
10.6420874617
 20
7.1889190531
 30
0.0
 10
10.6417232435
 20
7.1933206921
 30
0.0
  0
LINE
  5
45D
100
AcDbEntity
  8
0
100
AcDbLine
 62
7
  6
CONTINUOUS
 10
9.8995381259
 20
10.6524978072
 11
9.9746950246
 21
10.6523453593
  0
SPLINE
  5
45E
100
AcDbEntity
  8
0
100
AcDbSpline
 62
7
  6
CONTINUOUS
 70
0
 71
3
 72
25
 73
21
 74
0
 42
0.0000001
 43
0.0000001
 44
0.0000000001
 40
0.0
 40
0.0
 40
0.0
 40
0.0
 40
0.1454852735
 40
0.2173200369
 40
0.2881136394
 40
0.3575854636
 40
0.4254839478
 40
0.4915949074
 40
0.555750131
 40
0.6178357193
 40
0.6778010355
 40
0.7356670149
 40
0.791533474
 40
0.8455842173
 40
0.8720220988
 40
0.8981138356
 40
0.9239054114
 40
0.9494471616
 40
0.9747930235
 40
1.0
 40
1.0
 40
1.0
 40
1.0
 10
11.0473183383
 20
6.9859484935
 30
0.0
 10
11.0219106588
 20
6.9854379507
 30
0.0
 10
10.9838395182
 20
6.9871881453
 30
0.0
 10
10.9340340299
 20
6.9945977093
 30
0.0
 10
10.8978211928
 20
7.0025778588
 30
0.0
 10
10.8629305584
 20
7.0129255626
 30
0.0
 10
10.8296658657
 20
7.0255442466
 30
0.0
 10
10.7983212898
 20
7.0403172848
 30
0.0
 10
10.7691730278
 20
7.0571098963
 30
0.0
 10
10.7424786081
 20
7.0757703523
 30
0.0
 10
10.7184748892
 20
7.0961310454
 30
0.0
 10
10.6973760825
 20
7.1180111809
 30
0.0
 10
10.6793746474
 20
7.1412128798
 30
0.0
 10
10.6669985766
 20
7.1616353883
 30
0.0
 10
10.6588560895
 20
7.1783887739
 30
0.0
 10
10.6536562246
 20
7.191053247
 30
0.0
 10
10.6493325935
 20
7.2038777793
 30
0.0
 10
10.6458943471
 20
7.2168333288
 30
0.0
 10
10.6433500632
 20
7.2298891977
 30
0.0
 10
10.6422511536
 20
7.2386590798
 30
0.0
 10
10.641853706
 20
7.2430441628
 30
0.0
  0
SPLINE
  5
45F
100
AcDbEntity
  8
0
100
AcDbSpline
 62
7
  6
CONTINUOUS
 70
0
 71
3
 72
11
 73
7
 74
0
 42
0.0000001
 43
0.0000001
 44
0.0000000001
 40
0.0
 40
0.0
 40
0.0
 40
0.0
 40
0.2538322929
 40
0.5051726461
 40
0.7538975763
 40
1.0
 40
1.0
 40
1.0
 40
1.0
 10
12.205239831
 20
10.5780997867
 30
0.0
 10
12.2162353423
 20
10.5818318644
 30
0.0
 10
12.2376895327
 20
10.5906035392
 30
0.0
 10
12.2678179336
 20
10.6075691881
 30
0.0
 10
12.2952304023
 20
10.6280671573
 30
0.0
 10
12.3114073333
 20
10.64402821
 30
0.0
 10
12.3188205449
 20
10.6525009403
 30
0.0
  0
SPLINE
  5
460
100
AcDbEntity
  8
0
100
AcDbSpline
 62
9
  6
CONTINUOUS
 70
0
 71
3
 72
26
 73
22
 74
0
 42
0.0000001
 43
0.0000001
 44
0.0000000001
 40
0.0
 40
0.0
 40
0.0
 40
0.0
 40
0.1448463068
 40
0.2164510932
 40
0.2870439644
 40
0.3563280061
 40
0.4240405694
 40
0.4899630887
 40
0.5539305334
 40
0.6158410756
 40
0.6756655763
 40
0.7334562187
 40
0.789353197
 40
0.8166732119
 40
0.8436141208
 40
0.8702186432
 40
0.8965343208
 40
0.9226131911
 40
0.9485109819
 40
0.9742863486
 40
1.0
 40
1.0
 40
1.0
 40
1.0
 10
11.0473183383
 20
7.8325419845
 30
0.0
 10
11.0208359074
 20
7.8325419845
 30
0.0
 10
10.9811853885
 20
7.8352754664
 30
0.0
 10
10.9294750347
 20
7.8444123547
 30
0.0
 10
10.8919485322
 20
7.8538822568
 30
0.0
 10
10.8559105006
 20
7.8659028634
 30
0.0
 10
10.8217009144
 20
7.8803614137
 30
0.0
 10
10.7896477955
 20
7.8971217139
 30
0.0
 10
10.7600574367
 20
7.9160267277
 30
0.0
 10
10.7332139009
 20
7.9368995661
 30
0.0
 10
10.7093757988
 20
7.9595466199
 30
0.0
 10
10.6887771575
 20
7.9837537709
 30
0.0
 10
10.6743676049
 20
8.0052104015
 30
0.0
 10
10.6647095082
 20
8.0228963617
 30
0.0
 10
10.658441509
 20
8.0362979243
 30
0.0
 10
10.6531111641
 20
8.0499021899
 30
0.0
 10
10.6487317622
 20
8.0636768834
 30
0.0
 10
10.6453139777
 20
8.0775883004
 30
0.0
 10
10.6428665483
 20
8.0916029616
 30
0.0
 10
10.6413956954
 20
8.1056857975
 30
0.0
 10
10.6410683383
 20
8.1151028554
 30
0.0
 10
10.6410683383
 20
8.1198041144
 30
0.0
  0
SPLINE
  5
461
100
AcDbEntity
  8
0
100
AcDbSpline
 62
7
  6
CONTINUOUS
 70
0
 71
3
 72
9
 73
5
 74
0
 42
0.0000001
 43
0.0000001
 44
0.0000000001
 40
0.0
 40
0.0
 40
0.0
 40
0.0
 40
0.4874176253
 40
1.0
 40
1.0
 40
1.0
 40
1.0
 10
12.1451456261
 20
10.5654473248
 30
0.0
 10
12.1538391822
 20
10.5663213987
 30
0.0
 10
12.1716176259
 20
10.5687768933
 30
0.0
 10
12.1890892296
 20
10.5729923972
 30
0.0
 10
12.1978671167
 20
10.5757084573
 30
0.0
  0
SPLINE
  5
462
100
AcDbEntity
  8
0
100
AcDbSpline
 62
7
  6
CONTINUOUS
 70
0
 71
3
 72
12
 73
8
 74
0
 42
0.0000001
 43
0.0000001
 44
0.0000000001
 40
0.0
 40
0.0
 40
0.0
 40
0.0
 40
0.2876111095
 40
0.5539897889
 40
0.7930896024
 40
0.900847616
 40
1.0
 40
1.0
 40
1.0
 40
1.0
 10
11.4693281135
 20
7.7794310624
 30
0.0
 10
11.4695507241
 20
7.776911735
 30
0.0
 10
11.4700961103
 20
7.7720682724
 30
0.0
 10
11.4712330628
 20
7.7651844701
 30
0.0
 10
11.4724099245
 20
7.7599178694
 30
0.0
 10
11.4734624905
 20
7.7561389766
 30
0.0
 10
11.4740172649
 20
7.7544054651
 30
0.0
 10
11.4743021438
 20
7.7535814089
 30
0.0
  0
SPLINE
  5
463
100
AcDbEntity
  8
0
100
AcDbSpline
 62
7
  6
CONTINUOUS
 70
0
 71
3
 72
11
 73
7
 74
0
 42
0.0000001
 43
0.0000001
 44
0.0000000001
 40
0.0
 40
0.0
 40
0.0
 40
0.0
 40
0.2527650335
 40
0.5040350769
 40
0.7532694353
 40
1.0
 40
1.0
 40
1.0
 40
1.0
 10
12.1168815627
 20
10.5756269549
 30
0.0
 10
12.1288332411
 20
10.5792618543
 30
0.0
 10
12.152236698
 20
10.5880184371
 30
0.0
 10
12.1852680922
 20
10.6054019283
 30
0.0
 10
12.2155305973
 20
10.6267481809
 30
0.0
 10
12.2335180404
 20
10.6435427824
 30
0.0
 10
12.2417945324
 20
10.6524978072
 30
0.0
  0
SPLINE
  5
464
100
AcDbEntity
  8
0
100
AcDbSpline
 62
7
  6
CONTINUOUS
 70
0
 71
3
 72
9
 73
5
 74
0
 42
0.0000001
 43
0.0000001
 44
0.0000000001
 40
0.0
 40
0.0
 40
0.0
 40
0.0
 40
0.4925959165
 40
1.0
 40
1.0
 40
1.0
 40
1.0
 10
12.0629294697
 20
10.5654489345
 30
0.0
 10
12.0719142176
 20
10.5663135797
 30
0.0
 10
12.090100105
 20
10.5687225077
 30
0.0
 10
12.1079862602
 20
10.5729216002
 30
0.0
 10
12.1168815627
 20
10.5756269549
 30
0.0
  0
SPLINE
  5
465
100
AcDbEntity
  8
0
100
AcDbSpline
 62
7
  6
CONTINUOUS
 70
0
 71
3
 72
18
 73
14
 74
0
 42
0.0000001
 43
0.0000001
 44
0.0000000001
 40
0.0
 40
0.0
 40
0.0
 40
0.0
 40
0.20401847
 40
0.3831935657
 40
0.5376137801
 40
0.6678967938
 40
0.7243676248
 40
0.7753613592
 40
0.8212370739
 40
0.8625069258
 40
0.9341563063
 40
0.9670992813
 40
1.0
 40
1.0
 40
1.0
 40
1.0
 10
9.9948125219
 20
10.5826441386
 30
0.0
 10
9.9955037359
 20
10.5817573077
 30
0.0
 10
9.996791766
 20
10.5800835944
 30
0.0
 10
9.9985447892
 20
10.5776943385
 30
0.0
 10
9.9999793224
 20
10.5755774358
 30
0.0
 10
10.0009402295
 20
10.5739585103
 30
0.0
 10
10.0015196671
 20
10.5727824805
 30
0.0
 10
10.0018433472
 20
10.5720011646
 30
0.0
 10
10.0020752836
 20
10.5712743884
 30
0.0
 10
10.002251353
 20
10.5704169382
 30
0.0
 10
10.0022549534
 20
10.5695944576
 30
0.0
 10
10.0020267143
 20
10.5688664633
 30
0.0
 10
10.0018459859
 20
10.5685481997
 30
0.0
 10
10.0017411598
 20
10.5684002493
 30
0.0
  0
SPLINE
  5
466
100
AcDbEntity
  8
0
100
AcDbSpline
 62
7
  6
CONTINUOUS
 70
0
 71
3
 72
14
 73
10
 74
0
 42
0.0000001
 43
0.0000001
 44
0.0000000001
 40
0.0
 40
0.0
 40
0.0
 40
0.0
 40
0.1494821999
 40
0.2917044789
 40
0.4266363475
 40
0.5544118068
 40
0.6752488985
 40
0.7894860589
 40
1.0
 40
1.0
 40
1.0
 40
1.0
 10
9.9746950246
 20
10.6523453593
 30
0.0
 10
9.974813436
 20
10.6486772403
 30
0.0
 10
9.9752251115
 20
10.6415232044
 30
0.0
 10
9.9764129514
 20
10.6311103949
 30
0.0
 10
9.9781465522
 20
10.6213137998
 30
0.0
 10
9.9804145983
 20
10.6121667452
 30
0.0
 10
9.9832080781
 20
10.6036954751
 30
0.0
 10
9.9874963052
 20
10.5936253654
 30
0.0
 10
9.9916352254
 20
10.5867206251
 30
0.0
 10
9.9948125219
 20
10.5826441386
 30
0.0
  0
SPLINE
  5
467
100
AcDbEntity
  8
0
100
AcDbSpline
 62
7
  6
CONTINUOUS
 70
0
 71
3
 72
11
 73
7
 74
0
 42
0.0000001
 43
0.0000001
 44
0.0000000001
 40
0.0
 40
0.0
 40
0.0
 40
0.0
 40
0.2508792852
 40
0.5017005533
 40
0.7516747225
 40
1.0
 40
1.0
 40
1.0
 40
1.0
 10
12.0134305753
 20
10.5757084573
 30
0.0
 10
12.0254364333
 20
10.5793571408
 30
0.0
 10
12.0490198453
 20
10.5881440193
 30
0.0
 10
12.0824672314
 20
10.6055113094
 30
0.0
 10
12.1133998351
 20
10.6268238324
 30
0.0
 10
12.1319824744
 20
10.6435657052
 30
0.0
 10
12.1406095008
 20
10.6525009403
 30
0.0
  0
SPLINE
  5
468
100
AcDbEntity
  8
0
100
AcDbSpline
 62
7
  6
CONTINUOUS
 70
0
 71
3
 72
9
 73
5
 74
0
 42
0.0000001
 43
0.0000001
 44
0.0000000001
 40
0.0
 40
0.0
 40
0.0
 40
0.0
 40
0.496992066
 40
1.0
 40
1.0
 40
1.0
 40
1.0
 10
11.9577541483
 20
10.5654473248
 30
0.0
 10
11.9671061244
 20
10.5663026071
 30
0.0
 10
11.9858726332
 20
10.5686827372
 30
0.0
 10
12.0043365859
 20
10.5729447156
 30
0.0
 10
12.0134305753
 20
10.5757084573
 30
0.0
  0
LINE
  5
469
100
AcDbEntity
  8
0
100
AcDbLine
 62
7
  6
CONTINUOUS
 10
9.8084490042
 20
10.6525009403
 11
9.8652225773
 21
10.6523682005
  0
LINE
  5
46A
100
AcDbEntity
  8
0
100
AcDbLine
 62
7
  6
CONTINUOUS
 10
12.0285858665
 20
10.6524978072
 11
12.1130761063
 21
10.6523453593
  0
SPLINE
  5
46B
100
AcDbEntity
  8
0
100
AcDbSpline
 62
7
  6
CONTINUOUS
 70
0
 71
3
 72
11
 73
7
 74
0
 42
0.0000001
 43
0.0000001
 44
0.0000000001
 40
0.0
 40
0.0
 40
0.0
 40
0.0
 40
0.2484056686
 40
0.4985346208
 40
0.7494234346
 40
1.0
 40
1.0
 40
1.0
 40
1.0
 10
11.9014109724
 20
10.5756269549
 30
0.0
 10
11.9132799854
 20
10.5792869795
 30
0.0
 10
11.9366682319
 20
10.5881177881
 30
0.0
 10
11.9699568808
 20
10.6055113465
 30
0.0
 10
12.0009978865
 20
10.6268535779
 30
0.0
 10
12.0197933177
 20
10.643572084
 30
0.0
 10
12.0285858665
 20
10.6524978072
 30
0.0
  0
SPLINE
  5
46C
100
AcDbEntity
  8
0
100
AcDbSpline
 62
7
  6
CONTINUOUS
 70
0
 71
3
 72
11
 73
7
 74
0
 42
0.0000001
 43
0.0000001
 44
0.0000000001
 40
0.0
 40
0.0
 40
0.0
 40
0.0
 40
0.2503958399
 40
0.5013359127
 40
0.7515666487
 40
1.0
 40
1.0
 40
1.0
 40
1.0
 10
11.8462880037
 20
10.5654489345
 30
0.0
 10
11.850955386
 20
10.5658724745
 30
0.0
 10
11.8602866921
 20
10.5668839211
 30
0.0
 10
11.8741987674
 20
10.5689994532
 30
0.0
 10
11.8879484958
 20
10.5718240048
 30
0.0
 10
11.8969676086
 20
10.5742567634
 30
0.0
 10
11.9014109724
 20
10.5756269549
 30
0.0
  0
SPLINE
  5
46D
100
AcDbEntity
  8
0
100
AcDbSpline
 62
7
  6
CONTINUOUS
 70
0
 71
3
 72
24
 73
20
 74
0
 42
0.0000001
 43
0.0000001
 44
0.0000000001
 40
0.0
 40
0.0
 40
0.0
 40
0.0
 40
0.0491206211
 40
0.0755393887
 40
0.1031169436
 40
0.131750395
 40
0.1613165448
 40
0.1916821062
 40
0.2227177512
 40
0.2863141939
 40
0.3513096321
 40
0.4170923311
 40
0.4832211905
 40
0.5493817345
 40
0.6153509612
 40
0.6809648272
 40
0.7460974195
 40
0.8745221176
 40
1.0
 40
1.0
 40
1.0
 40
1.0
 10
11.3727462656
 20
6.6869512803
 30
0.0
 10
11.3727462656
 20
6.6844415926
 30
0.0
 10
11.372259303
 20
6.6805736075
 30
0.0
 10
11.3708806125
 20
6.6754862419
 30
0.0
 10
11.3694373478
 20
6.6715131612
 30
0.0
 10
11.3676397325
 20
6.6675127154
 30
0.0
 10
11.3655196266
 20
6.6635118621
 30
0.0
 10
11.3631095361
 20
6.6595351462
 30
0.0
 10
11.3595229627
 20
6.6542481891
 30
0.0
 10
11.3544831058
 20
6.6478226299
 30
0.0
 10
11.3477839783
 20
6.6404816239
 30
0.0
 10
11.3405441034
 20
6.6334877887
 30
0.0
 10
11.3328905164
 20
6.6268602539
 30
0.0
 10
11.3249200083
 20
6.6206033325
 30
0.0
 10
11.3167068749
 20
6.6147145957
 30
0.0
 10
11.3083086079
 20
6.609188576
 30
0.0
 10
11.2969792715
 20
6.6023288591
 30
0.0
 10
11.2825936637
 20
6.5946348548
 30
0.0
 10
11.2707537332
 20
6.5893051914
 30
0.0
 10
11.2648183383
 20
6.5868820766
 30
0.0
  0
SPLINE
  5
46E
100
AcDbEntity
  8
0
100
AcDbSpline
 62
7
  6
CONTINUOUS
 70
0
 71
3
 72
27
 73
23
 74
0
 42
0.0000001
 43
0.0000001
 44
0.0000000001
 40
0.0
 40
0.0
 40
0.0
 40
0.0
 40
0.150041355
 40
0.2231609427
 40
0.2948306809
 40
0.3648951089
 40
0.4331728859
 40
0.4994495168
 40
0.5634880304
 40
0.6250361381
 40
0.6838510502
 40
0.7397723637
 40
0.7666767765
 40
0.7929186656
 40
0.8185820906
 40
0.8438037457
 40
0.8687788572
 40
0.8937615096
 40
0.9190569298
 40
0.9449915793
 40
0.9718880065
 40
1.0
 40
1.0
 40
1.0
 40
1.0
 10
11.2648183383
 20
6.5868820766
 30
0.0
 10
11.2590515228
 20
6.584527784
 30
0.0
 10
11.25034905
 20
6.5813183981
 30
0.0
 10
11.2386371624
 20
6.5777545293
 30
0.0
 10
11.230001049
 20
6.5755123144
 30
0.0
 10
11.2214685441
 20
6.5737051888
 30
0.0
 10
11.2130758398
 20
6.5723669686
 30
0.0
 10
11.2048675278
 20
6.571540894
 30
0.0
 10
11.1968997423
 20
6.5712787701
 30
0.0
 10
11.189242853
 20
6.5716437605
 30
0.0
 10
11.1819892314
 20
6.5727117188
 30
0.0
 10
11.1763005547
 20
6.5742848063
 30
0.0
 10
11.1721081625
 20
6.5760084367
 30
0.0
 10
11.1692017749
 20
6.5775217971
 30
0.0
 10
11.1665214071
 20
6.5792844823
 30
0.0
 10
11.1640976399
 20
6.5813070608
 30
0.0
 10
11.1619646589
 20
6.5835976554
 30
0.0
 10
11.1601578994
 20
6.5861586514
 30
0.0
 10
11.1587127941
 20
6.5889854135
 30
0.0
 10
11.157660408
 20
6.5920649502
 30
0.0
 10
11.1570246479
 20
6.5953746949
 30
0.0
 10
11.1568904109
 20
6.5976614449
 30
0.0
 10
11.1568904109
 20
6.5988284967
 30
0.0
  0
SPLINE
  5
46F
100
AcDbEntity
  8
0
100
AcDbSpline
 62
9
  6
CONTINUOUS
 70
0
 71
3
 72
19
 73
15
 74
0
 42
0.0000001
 43
0.0000001
 44
0.0000000001
 40
0.0
 40
0.0
 40
0.0
 40
0.0
 40
0.1384143916
 40
0.2722444532
 40
0.401633172
 40
0.5269031564
 40
0.5881757572
 40
0.6486284949
 40
0.7083546369
 40
0.7674577734
 40
0.8260506446
 40
0.8842536098
 40
0.9421931834
 40
1.0
 40
1.0
 40
1.0
 40
1.0
 10
11.3727462656
 20
6.6869512803
 30
0.0
 10
11.3826423222
 20
6.694194093
 30
0.0
 10
11.4014795054
 20
6.709326554
 30
0.0
 10
11.426955374
 20
6.7342546446
 30
0.0
 10
11.4489508794
 20
6.7608147158
 30
0.0
 10
11.4643210018
 20
6.7842906723
 30
0.0
 10
11.4746190616
 20
6.8036126899
 30
0.0
 10
11.4813025437
 20
6.8182457245
 30
0.0
 10
11.4869846728
 20
6.8330902064
 30
0.0
 10
11.491652415
 20
6.8481122234
 30
0.0
 10
11.4952946513
 20
6.8632767286
 30
0.0
 10
11.4979023703
 20
6.878548807
 30
0.0
 10
11.4994696634
 20
6.8938918648
 30
0.0
 10
11.4998182941
 20
6.9041502742
 30
0.0
 10
11.4998183218
 20
6.909271898
 30
0.0
  0
SPLINE
  5
470
100
AcDbEntity
  8
0
100
AcDbSpline
 62
7
  6
CONTINUOUS
 70
0
 71
3
 72
21
 73
17
 74
0
 42
0.0000001
 43
0.0000001
 44
0.0000000001
 40
0.0
 40
0.0
 40
0.0
 40
0.0
 40
0.1434931983
 40
0.213258092
 40
0.2815937044
 40
0.4137535897
 40
0.4776316711
 40
0.5400521238
 40
0.6010746131
 40
0.6607877447
 40
0.7193091851
 40
0.7767848474
 40
0.8333871467
 40
0.8893117596
 40
0.944773367
 40
1.0
 40
1.0
 40
1.0
 40
1.0
 10
11.2735683383
 20
6.8599521582
 30
0.0
 10
11.2903662433
 20
6.8668098742
 30
0.0
 10
11.314834137
 20
6.8783113146
 30
0.0
 10
11.3456545471
 20
6.8961733319
 30
0.0
 10
11.3741702929
 20
6.9150314072
 30
0.0
 10
11.4003406874
 20
6.936007677
 30
0.0
 10
11.4236361798
 20
6.9589584961
 30
0.0
 10
11.4393067393
 20
6.9767477891
 30
0.0
 10
11.4533007149
 20
6.9952280583
 30
0.0
 10
11.4655580513
 20
7.0143219498
 30
0.0
 10
11.4760245186
 20
7.033948076
 30
0.0
 10
11.484653597
 20
7.0540227344
 30
0.0
 10
11.4914063933
 20
7.0744594648
 30
0.0
 10
11.4962521992
 20
7.095170478
 30
0.0
 10
11.4991686878
 20
7.1160632099
 30
0.0
 10
11.4998183326
 20
7.1300676255
 30
0.0
 10
11.4998183032
 20
7.1370506854
 30
0.0
  0
SPLINE
  5
471
100
AcDbEntity
  8
0
100
AcDbSpline
 62
7
  6
CONTINUOUS
 70
0
 71
3
 72
31
 73
27
 74
0
 42
0.0000001
 43
0.0000001
 44
0.0000000001
 40
0.0
 40
0.0
 40
0.0
 40
0.0
 40
0.0667239565
 40
0.1007585075
 40
0.1351529056
 40
0.2047287163
 40
0.2749010176
 40
0.3450733098
 40
0.4146491564
 40
0.4830580038
 40
0.5166708212
 40
0.5498036026
 40
0.6144034372
 40
0.6458117578
 40
0.6765760516
 40
0.7360739651
 40
0.7648316619
 40
0.7929331348
 40
0.8204052413
 40
0.8472878728
 40
0.873633999
 40
0.8995093348
 40
0.9249914868
 40
0.950168552
 40
0.9751371733
 40
1.0
 40
1.0
 40
1.0
 40
1.0
 10
11.2735683383
 20
6.8599521582
 30
0.0
 10
11.256218174
 20
6.8528689833
 30
0.0
 10
11.2294216849
 20
6.8435685987
 30
0.0
 10
11.1927266238
 20
6.8338142213
 30
0.0
 10
11.1548125129
 20
6.8256906728
 30
0.0
 10
11.1062968944
 20
6.8188965883
 30
0.0
 10
11.0473189228
 20
6.8161750833
 30
0.0
 10
10.988337448
 20
6.8188969656
 30
0.0
 10
10.9303558306
 20
6.827016401
 30
0.0
 10
10.8833988607
 20
6.8382367686
 30
0.0
 10
10.8472306477
 20
6.849810972
 30
0.0
 10
10.8127066834
 20
6.8628437418
 30
0.0
 10
10.7798038062
 20
6.8783108518
 30
0.0
 10
10.7489819251
 20
6.8961733268
 30
0.0
 10
10.7204665089
 20
6.91503141
 30
0.0
 10
10.6942960104
 20
6.9360077093
 30
0.0
 10
10.6710005021
 20
6.9589584963
 30
0.0
 10
10.6553299004
 20
6.9767477687
 30
0.0
 10
10.6413359316
 20
6.9952280463
 30
0.0
 10
10.6290786234
 20
7.0143219507
 30
0.0
 10
10.6186121891
 20
7.0339480885
 30
0.0
 10
10.6099831225
 20
7.0540227462
 30
0.0
 10
10.6032302806
 20
7.0744594638
 30
0.0
 10
10.5983844436
 20
7.0951704722
 30
0.0
 10
10.5954679195
 20
7.116063209
 30
0.0
 10
10.5948184028
 20
7.1300676266
 30
0.0
 10
10.5948183734
 20
7.1370506854
 30
0.0
  0
SPLINE
  5
472
100
AcDbEntity
  8
0
100
AcDbSpline
 62
9
  6
CONTINUOUS
 70
0
 71
3
 72
26
 73
22
 74
0
 42
0.0000001
 43
0.0000001
 44
0.0000000001
 40
0.0
 40
0.0
 40
0.0
 40
0.0
 40
0.0656267212
 40
0.1328231667
 40
0.2011584296
 40
0.2701547944
 40
0.3393104297
 40
0.4081176332
 40
0.4760816263
 40
0.5427395606
 40
0.6076801735
 40
0.6705638416
 40
0.731143811
 40
0.7892875136
 40
0.8449974203
 40
0.8719986409
 40
0.8984632803
 40
0.924436185
 40
0.9499722878
 40
0.9751359548
 40
1.0
 40
1.0
 40
1.0
 40
1.0
 10
11.2201279562
 20
6.4869480864
 30
0.0
 10
11.207849915
 20
6.4819355971
 30
0.0
 10
11.1824819761
 20
6.4730195659
 30
0.0
 10
11.1429979648
 20
6.4631352205
 30
0.0
 10
11.1021178968
 20
6.4566918267
 30
0.0
 10
11.0604411742
 20
6.4537838864
 30
0.0
 10
11.0185731533
 20
6.454452671
 30
0.0
 10
10.9771236249
 20
6.4586888408
 30
0.0
 10
10.9366956438
 20
6.4664312093
 30
0.0
 10
10.8978773794
 20
6.4775690268
 30
0.0
 10
10.8612330591
 20
6.4919428971
 30
0.0
 10
10.8272958314
 20
6.5093483952
 30
0.0
 10
10.7965590951
 20
6.5295407174
 30
0.0
 10
10.7694760892
 20
6.5522321031
 30
0.0
 10
10.7500780978
 20
6.5731884079
 30
0.0
 10
10.7368531611
 20
6.5908673279
 30
0.0
 10
10.7281776238
 20
6.6043917045
 30
0.0
 10
10.7206778635
 20
6.6182664086
 30
0.0
 10
10.7143817344
 20
6.632441291
 30
0.0
 10
10.7093137432
 20
6.6468624897
 30
0.0
 10
10.7067537499
 20
6.6566568419
 30
0.0
 10
10.7056892524
 20
6.6615672928
 30
0.0
  0
SPLINE
  5
473
100
AcDbEntity
  8
0
100
AcDbSpline
 62
7
  6
CONTINUOUS
 70
0
 71
3
 72
15
 73
11
 74
0
 42
0.0000001
 43
0.0000001
 44
0.0000000001
 40
0.0
 40
0.0
 40
0.0
 40
0.0
 40
0.1223695521
 40
0.2450161396
 40
0.3681895299
 40
0.4921318798
 40
0.6170747726
 40
0.7432357328
 40
0.8708164093
 40
1.0
 40
1.0
 40
1.0
 40
1.0
 10
10.5873604074
 20
6.5727207013
 30
0.0
 10
10.5873895478
 20
6.5776692536
 30
0.0
 10
10.5877682028
 20
6.5875786347
 30
0.0
 10
10.5892944914
 20
6.6023996215
 30
0.0
 10
10.5917763919
 20
6.6171558322
 30
0.0
 10
10.5952081304
 20
6.6318155027
 30
0.0
 10
10.5995827064
 20
6.6463479362
 30
0.0
 10
10.6048904323
 20
6.6607228897
 30
0.0
 10
10.6111198549
 20
6.6749096881
 30
0.0
 10
10.6158476217
 20
6.6841621896
 30
0.0
 10
10.6183556728
 20
6.688744976
 30
0.0
  0
SPLINE
  5
474
100
AcDbEntity
  8
0
100
AcDbSpline
 62
7
  6
CONTINUOUS
 70
0
 71
3
 72
15
 73
11
 74
0
 42
0.0000001
 43
0.0000001
 44
0.0000000001
 40
0.0
 40
0.0
 40
0.0
 40
0.0
 40
0.131359907
 40
0.2603246863
 40
0.3871345005
 40
0.5120721048
 40
0.6354592609
 40
0.7576515013
 40
0.8790313195
 40
1.0
 40
1.0
 40
1.0
 40
1.0
 10
11.4601665461
 20
6.754135963
 30
0.0
 10
11.4641889598
 20
6.748503471
 30
0.0
 10
11.4717834238
 20
6.7370654804
 30
0.0
 10
11.4818341001
 20
6.719295692
 30
0.0
 10
11.4904005251
 20
6.7011360401
 30
0.0
 10
11.4974516016
 20
6.6826495814
 30
0.0
 10
11.5029624372
 20
6.6638997046
 30
0.0
 10
11.5069131471
 20
6.644950711
 30
0.0
 10
11.5092893784
 20
6.6258699702
 30
0.0
 10
11.5098182755
 20
6.6130944155
 30
0.0
 10
11.5098183024
 20
6.6067205995
 30
0.0
  0
SPLINE
  5
475
100
AcDbEntity
  8
0
100
AcDbSpline
 62
7
  6
CONTINUOUS
 70
0
 71
3
 72
9
 73
5
 74
0
 42
0.0000001
 43
0.0000001
 44
0.0000000001
 40
0.0
 40
0.0
 40
0.0
 40
0.0
 40
0.5061403697
 40
1.0
 40
1.0
 40
1.0
 40
1.0
 10
11.4484436556
 20
6.7341607289
 30
0.0
 10
11.4541219995
 20
6.7271650374
 30
0.0
 10
11.464767015
 20
6.712865576
 30
0.0
 10
11.4740938937
 20
6.6976693915
 30
0.0
 10
11.478332732
 20
6.6899672003
 30
0.0
  0
SPLINE
  5
476
100
AcDbEntity
  8
0
100
AcDbSpline
 62
7
  6
CONTINUOUS
 70
0
 71
3
 72
11
 73
7
 74
0
 42
0.0000001
 43
0.0000001
 44
0.0000000001
 40
0.0
 40
0.0
 40
0.0
 40
0.0
 40
0.255752969
 40
0.5071156056
 40
0.7548957033
 40
1.0
 40
1.0
 40
1.0
 40
1.0
 10
11.478332732
 20
6.6899672003
 30
0.0
 10
11.4819856382
 20
6.6833296785
 30
0.0
 10
11.4886945622
 20
6.6698652347
 30
0.0
 10
11.4969285933
 20
6.6490441047
 30
0.0
 10
11.5032022475
 20
6.6278787396
 30
0.0
 10
11.5060704294
 20
6.6135376273
 30
0.0
 10
11.5071629159
 20
6.6063594317
 30
0.0
  0
SPLINE
  5
477
100
AcDbEntity
  8
0
100
AcDbSpline
 62
7
  6
CONTINUOUS
 70
0
 71
3
 72
19
 73
15
 74
0
 42
0.0000001
 43
0.0000001
 44
0.0000000001
 40
0.0
 40
0.0
 40
0.0
 40
0.0
 40
0.2210731487
 40
0.4149693836
 40
0.5807957296
 40
0.717962447
 40
0.7756862726
 40
0.8261512918
 40
0.8694195693
 40
0.9056811739
 40
0.9353797122
 40
0.9594768727
 40
0.9799312267
 40
1.0
 40
1.0
 40
1.0
 40
1.0
 10
9.9048421915
 20
10.5768844066
 30
0.0
 10
9.9057854679
 20
10.5761937748
 30
0.0
 10
9.9075595535
 20
10.5749022034
 30
0.0
 10
9.9100423942
 20
10.5730941737
 30
0.0
 10
9.9121526687
 20
10.5715285525
 30
0.0
 10
9.9136580208
 20
10.5703560234
 30
0.0
 10
9.9146477865
 20
10.5695167263
 30
0.0
 10
9.9152378447
 20
10.568974687
 30
0.0
 10
9.9157168591
 20
10.5684808904
 30
0.0
 10
9.9160826381
 20
10.5680324397
 30
0.0
 10
9.9163331491
 20
10.5676251099
 30
0.0
 10
9.9164660837
 20
10.5672505989
 30
0.0
 10
9.9164647053
 20
10.5668994066
 30
0.0
 10
9.916365296
 20
10.5667005931
 30
0.0
 10
9.9163010998
 20
10.5666160833
 30
0.0
  0
SPLINE
  5
478
100
AcDbEntity
  8
0
100
AcDbSpline
 62
7
  6
CONTINUOUS
 70
0
 71
3
 72
10
 73
6
 74
0
 42
0.0000001
 43
0.0000001
 44
0.0000000001
 40
0.0
 40
0.0
 40
0.0
 40
0.0
 40
0.4887327762
 40
0.7417546144
 40
1.0
 40
1.0
 40
1.0
 40
1.0
 10
11.4675552138
 20
6.0958632282
 30
0.0
 10
11.4477321833
 20
6.0808542117
 30
0.0
 10
11.4159396623
 20
6.0602418959
 30
0.0
 10
11.3707811858
 20
6.0367750715
 30
0.0
 10
11.3469818878
 20
6.0262269595
 30
0.0
 10
11.3348183383
 20
6.0212612112
 30
0.0
  0
SPLINE
  5
479
100
AcDbEntity
  8
0
100
AcDbSpline
 62
7
  6
CONTINUOUS
 70
0
 71
3
 72
10
 73
6
 74
0
 42
0.0000001
 43
0.0000001
 44
0.0000000001
 40
0.0
 40
0.0
 40
0.0
 40
0.0
 40
0.2446842429
 40
0.6188665633
 40
1.0
 40
1.0
 40
1.0
 40
1.0
 10
11.3348183383
 20
6.0212612112
 30
0.0
 10
11.322430141
 20
6.0162037508
 30
0.0
 10
11.290706017
 20
6.0043545766
 30
0.0
 10
11.2381652936
 20
5.988955144
 30
0.0
 10
11.1976499832
 20
5.9806469803
 30
0.0
 10
11.1770814628
 20
5.9772778159
 30
0.0
  0
SPLINE
  5
47A
100
AcDbEntity
  8
0
100
AcDbSpline
 62
7
  6
CONTINUOUS
 70
0
 71
3
 72
15
 73
11
 74
0
 42
0.0000001
 43
0.0000001
 44
0.0000000001
 40
0.0
 40
0.0
 40
0.0
 40
0.0
 40
0.1447482954
 40
0.2830052262
 40
0.4149780211
 40
0.541091873
 40
0.661883867
 40
0.7780385738
 40
0.8904233962
 40
1.0
 40
1.0
 40
1.0
 40
1.0
 10
9.8652225773
 20
10.6523682005
 30
0.0
 10
9.8658589584
 20
10.6481978772
 30
0.0
 10
9.867385704
 20
10.6400835874
 30
0.0
 10
9.8705230926
 20
10.6283907373
 30
0.0
 10
9.8744321155
 20
10.6175058065
 30
0.0
 10
9.8790876513
 20
10.6074752918
 30
0.0
 10
9.8844650359
 20
10.5983413695
 30
0.0
 10
9.8905410393
 20
10.5901461354
 30
0.0
 10
9.8972885474
 20
10.5829348393
 30
0.0
 10
9.9022654656
 20
10.5787709892
 30
0.0
 10
9.9048421915
 20
10.5768844066
 30
0.0
  0
SPLINE
  5
47B
100
AcDbEntity
  8
0
100
AcDbSpline
 62
7
  6
CONTINUOUS
 70
0
 71
3
 72
39
 73
35
 74
0
 42
0.0000001
 43
0.0000001
 44
0.0000000001
 40
0.0
 40
0.0
 40
0.0
 40
0.0
 40
0.0695862869
 40
0.1051518331
 40
0.1410867048
 40
0.1772818719
 40
0.2136237694
 40
0.2499965479
 40
0.2862838271
 40
0.3223706242
 40
0.3581451922
 40
0.3935009596
 40
0.4283384342
 40
0.4625672143
 40
0.4961080005
 40
0.528894703
 40
0.5608765592
 40
0.5920202904
 40
0.6072758577
 40
0.6223185128
 40
0.6517664597
 40
0.680401529
 40
0.7082791917
 40
0.7354797072
 40
0.7621073677
 40
0.7882884054
 40
0.8141672327
 40
0.8399011932
 40
0.8656539819
 40
0.8915884747
 40
0.9178595858
 40
0.9446079843
 40
0.971955149
 40
1.0
 40
1.0
 40
1.0
 40
1.0
 10
11.2793092649
 20
6.321708597
 30
0.0
 10
11.256349575
 20
6.3128062646
 30
0.0
 10
11.2207375511
 20
6.3015924386
 30
0.0
 10
11.171953524
 20
6.2908862209
 30
0.0
 10
11.1342909285
 20
6.2849022224
 30
0.0
 10
11.0960769226
 20
6.2810645315
 30
0.0
 10
11.0575512508
 20
6.2793965143
 30
0.0
 10
11.0189605646
 20
6.2799090017
 30
0.0
 10
10.9805506051
 20
6.2825986818
 30
0.0
 10
10.9425663115
 20
6.2874485066
 30
0.0
 10
10.9052497851
 20
6.2944277248
 30
0.0
 10
10.8688388667
 20
6.3034921193
 30
0.0
 10
10.8335655871
 20
6.314584308
 30
0.0
 10
10.7996546825
 20
6.3276341914
 30
0.0
 10
10.7673223203
 20
6.3425593162
 30
0.0
 10
10.7367742783
 20
6.3592659071
 30
0.0
 10
10.7082065702
 20
6.3776479165
 30
0.0
 10
10.6860484033
 20
6.3943830095
 30
0.0
 10
10.6695093251
 20
6.4085057753
 30
0.0
 10
10.6540006315
 20
6.4228832325
 30
0.0
 10
10.6361352441
 20
6.4416521672
 30
0.0
 10
10.6171735285
 20
6.4654920999
 30
0.0
 10
10.600962158
 20
6.4903422472
 30
0.0
 10
10.5876101001
 20
6.5160444884
 30
0.0
 10
10.5772078396
 20
6.5424348295
 30
0.0
 10
10.5698276053
 20
6.5693426397
 30
0.0
 10
10.5655216161
 20
6.5965918741
 30
0.0
 10
10.5643208543
 20
6.6240024109
 30
0.0
 10
10.5662340122
 20
6.6513920562
 30
0.0
 10
10.5712472696
 20
6.6785789419
 30
0.0
 10
10.5793245477
 20
6.7053835476
 30
0.0
 10
10.5904094232
 20
6.7316316329
 30
0.0
 10
10.6044234364
 20
6.7571514445
 30
0.0
 10
10.6155110546
 20
6.7733586421
 30
0.0
 10
10.6214832074
 20
6.7812851235
 30
0.0
  0
SPLINE
  5
47C
100
AcDbEntity
  8
0
100
AcDbSpline
 62
7
  6
CONTINUOUS
 70
0
 71
3
 72
31
 73
27
 74
0
 42
0.0000001
 43
0.0000001
 44
0.0000000001
 40
0.0
 40
0.0
 40
0.0
 40
0.0
 40
0.0616605196
 40
0.1215256887
 40
0.1509013676
 40
0.1799614162
 40
0.2087603239
 40
0.2373565319
 40
0.2658116295
 40
0.2941894149
 40
0.3225549241
 40
0.3509733928
 40
0.379509207
 40
0.408224889
 40
0.4371801791
 40
0.4664311179
 40
0.4960294582
 40
0.526021985
 40
0.5564500661
 40
0.5873494967
 40
0.6506524169
 40
0.7161249188
 40
0.7838433275
 40
0.8537983136
 40
0.9259014825
 40
1.0
 40
1.0
 40
1.0
 40
1.0
 10
11.4732432798
 20
6.7811658063
 30
0.0
 10
11.4803812505
 20
6.7716829915
 30
0.0
 10
11.4934396618
 20
6.7522041708
 30
0.0
 10
11.5066800026
 20
6.7262643631
 30
0.0
 10
11.5150779285
 20
6.7050832845
 30
0.0
 10
11.5202594501
 20
6.689098202
 30
0.0
 10
11.5243490536
 20
6.6729544042
 30
0.0
 10
11.527337461
 20
6.6566889893
 30
0.0
 10
11.5292174587
 20
6.6403399623
 30
0.0
 10
11.5299842494
 20
6.623945419
 30
0.0
 10
11.5296363561
 20
6.6075436812
 30
0.0
 10
11.5281743261
 20
6.591173056
 30
0.0
 10
11.5256017649
 20
6.5748717769
 30
0.0
 10
11.5219250377
 20
6.5586777934
 30
0.0
 10
11.5171526183
 20
6.542628864
 30
0.0
 10
11.5112962592
 20
6.526762137
 30
0.0
 10
11.5043696706
 20
6.5111143501
 30
0.0
 10
11.4963893021
 20
6.4957217668
 30
0.0
 10
11.4873737962
 20
6.4806192685
 30
0.0
 10
11.4738952593
 20
6.4607598156
 30
0.0
 10
11.4544929757
 20
6.4368351959
 30
0.0
 10
11.4276670182
 20
6.410081877
 30
0.0
 10
11.3973560212
 20
6.3852830279
 30
0.0
 10
11.3638416304
 20
6.3626629213
 30
0.0
 10
11.327434223
 20
6.3424237686
 30
0.0
 10
11.3017735384
 20
6.3307840352
 30
0.0
 10
11.2885683383
 20
6.3253930349
 30
0.0
  0
SPLINE
  5
47D
100
AcDbEntity
  8
0
100
AcDbSpline
 62
7
  6
CONTINUOUS
 70
0
 71
3
 72
29
 73
25
 74
0
 42
0.0000001
 43
0.0000001
 44
0.0000000001
 40
0.0
 40
0.0
 40
0.0
 40
0.0
 40
0.0707256167
 40
0.1419085397
 40
0.2131032388
 40
0.2838620077
 40
0.3537514487
 40
0.4223666005
 40
0.4893456306
 40
0.5543853557
 40
0.6172569372
 40
0.6478436763
 40
0.6778452555
 40
0.7360730754
 40
0.7643474651
 40
0.7920820204
 40
0.8193085165
 40
0.8460671654
 40
0.872406359
 40
0.8983822302
 40
0.9240579742
 40
0.9495028685
 40
0.9747910445
 40
1.0
 40
1.0
 40
1.0
 40
1.0
 10
11.1770814628
 20
6.2247651893
 30
0.0
 10
11.1559872976
 20
6.2213099233
 30
0.0
 10
11.113359731
 20
6.2161076353
 30
0.0
 10
11.0489455188
 20
6.2134246194
 30
0.0
 10
10.9845066749
 20
6.2158509147
 30
0.0
 10
10.9208540878
 20
6.2233571241
 30
0.0
 10
10.8587819091
 20
6.235850609
 30
0.0
 10
10.7990662671
 20
6.2531766301
 30
0.0
 10
10.7424518851
 20
6.275123104
 30
0.0
 10
10.6896495866
 20
6.3014180718
 30
0.0
 10
10.6489955296
 20
6.3269259707
 30
0.0
 10
10.6190609294
 20
6.3492301421
 30
0.0
 10
10.5914772341
 20
6.3722425553
 30
0.0
 10
10.5663784287
 20
6.3970794681
 30
0.0
 10
10.5442050216
 20
6.4235682043
 30
0.0
 10
10.529320442
 20
6.4438715855
 30
0.0
 10
10.5160713563
 20
6.4647374986
 30
0.0
 10
10.5044994943
 20
6.4861012491
 30
0.0
 10
10.4946426267
 20
6.5078952799
 30
0.0
 10
10.4865329643
 20
6.5300507849
 30
0.0
 10
10.4801973452
 20
6.5524972607
 30
0.0
 10
10.475656693
 20
6.5751635905
 30
0.0
 10
10.4729261423
 20
6.5979752969
 30
0.0
 10
10.4723183453
 20
6.6132438757
 30
0.0
 10
10.4723183385
 20
6.6208627351
 30
0.0
  0
LINE
  5
47E
100
AcDbEntity
  8
0
100
AcDbLine
 62
7
  6
CONTINUOUS
 10
11.8937029521
 20
10.6525009403
 11
11.9827527344
 21
10.6523682005
  0
LINE
  5
47F
100
AcDbEntity
  8
0
100
AcDbLine
 62
7
  6
CONTINUOUS
 10
9.7416168784
 20
10.6524978072
 11
9.7894563743
 21
10.6523453593
  0
SPLINE
  5
480
100
AcDbEntity
  8
0
100
AcDbSpline
 62
7
  6
CONTINUOUS
 70
0
 71
3
 72
11
 73
7
 74
0
 42
0.0000001
 43
0.0000001
 44
0.0000000001
 40
0.0
 40
0.0
 40
0.0
 40
0.0
 40
0.2453054167
 40
0.4944731623
 40
0.7464556115
 40
1.0
 40
1.0
 40
1.0
 40
1.0
 10
11.7682896489
 20
10.5757084573
 30
0.0
 10
11.7798497274
 20
10.5793872832
 30
0.0
 10
11.8027103722
 20
10.5882662709
 30
0.0
 10
11.8353667642
 20
10.6056537956
 30
0.0
 10
11.866101121
 20
10.6269745128
 30
0.0
 10
11.8848571724
 20
10.6436142541
 30
0.0
 10
11.8937029521
 20
10.6525009403
 30
0.0
  0
SPLINE
  5
481
100
AcDbEntity
  8
0
100
AcDbSpline
 62
7
  6
CONTINUOUS
 70
0
 71
3
 72
11
 73
7
 74
0
 42
0.0000001
 43
0.0000001
 44
0.0000000001
 40
0.0
 40
0.0
 40
0.0
 40
0.0
 40
0.2536028206
 40
0.5055170795
 40
0.7546256427
 40
1.0
 40
1.0
 40
1.0
 40
1.0
 10
11.7131566401
 20
10.5654473248
 30
0.0
 10
11.717887467
 20
10.5658683787
 30
0.0
 10
11.7273040933
 20
10.5668746269
 30
0.0
 10
11.7412821117
 20
10.5689987485
 30
0.0
 10
11.7549754826
 20
10.5718456862
 30
0.0
 10
11.7639106198
 20
10.5743148953
 30
0.0
 10
11.7682896489
 20
10.5757084573
 30
0.0
  0
LINE
  5
482
100
AcDbEntity
  8
0
100
AcDbLine
 62
7
  6
CONTINUOUS
 10
11.753720553
 20
10.6524978072
 11
11.8585924
 21
10.6523453593
  0
SPLINE
  5
483
100
AcDbEntity
  8
0
100
AcDbSpline
 62
7
  6
CONTINUOUS
 70
0
 71
3
 72
12
 73
8
 74
0
 42
0.0000001
 43
0.0000001
 44
0.0000000001
 40
0.0
 40
0.0
 40
0.0
 40
0.0
 40
0.2414711681
 40
0.364741604
 40
0.4895052336
 40
0.7427874239
 40
1.0
 40
1.0
 40
1.0
 40
1.0
 10
11.6322746009
 20
10.5756269549
 30
0.0
 10
11.6433425158
 20
10.5793237048
 30
0.0
 10
11.6597212962
 20
10.5859920732
 30
0.0
 10
11.6807610158
 20
10.5968227939
 30
0.0
 10
11.7016274092
 20
10.609156548
 30
0.0
 10
11.7266571285
 20
10.6270497456
 30
0.0
 10
11.7450024658
 20
10.6436382724
 30
0.0
 10
11.753720553
 20
10.6524978072
 30
0.0
  0
SPLINE
  5
484
100
AcDbEntity
  8
0
100
AcDbSpline
 62
7
  6
CONTINUOUS
 70
0
 71
3
 72
11
 73
7
 74
0
 42
0.0000001
 43
0.0000001
 44
0.0000000001
 40
0.0
 40
0.0
 40
0.0
 40
0.0
 40
0.2568427363
 40
0.5096635797
 40
0.7576007223
 40
1.0
 40
1.0
 40
1.0
 40
1.0
 10
11.5794443352
 20
10.5654489345
 30
0.0
 10
11.5840409872
 20
10.5658684831
 30
0.0
 10
11.5931485122
 20
10.5668677291
 30
0.0
 10
11.6066049045
 20
10.5689789222
 30
0.0
 10
11.6196672916
 20
10.5717991126
 30
0.0
 10
11.6281427875
 20
10.5742469045
 30
0.0
 10
11.6322746009
 20
10.5756269549
 30
0.0
  0
SPLINE
  5
485
100
AcDbEntity
  8
0
100
AcDbSpline
 62
7
  6
CONTINUOUS
 70
0
 71
3
 72
25
 73
21
 74
0
 42
0.0000001
 43
0.0000001
 44
0.0000000001
 40
0.0
 40
0.0
 40
0.0
 40
0.0
 40
0.2247104312
 40
0.4225232082
 40
0.5109865292
 40
0.5923387313
 40
0.6664594003
 40
0.7332168487
 40
0.7924772033
 40
0.8441094056
 40
0.8879967978
 40
0.9240653834
 40
0.9391735177
 40
0.9523551898
 40
0.9636600385
 40
0.9731852918
 40
0.9811166287
 40
0.9877996076
 40
0.9938247266
 40
1.0
 40
1.0
 40
1.0
 40
1.0
 10
9.8332596092
 20
10.5826441386
 30
0.0
 10
9.8349469273
 20
10.5813760373
 30
0.0
 10
9.8381539395
 20
10.5790369049
 30
0.0
 10
9.8421071174
 20
10.5763139951
 30
0.0
 10
9.8449833058
 20
10.5744029533
 30
0.0
 10
9.8469024421
 20
10.573151117
 30
0.0
 10
9.8486573986
 20
10.5720208666
 30
0.0
 10
9.8502398423
 20
10.5710060048
 30
0.0
 10
9.8516414771
 20
10.5701005267
 30
0.0
 10
9.8528541634
 20
10.5692984384
 30
0.0
 10
9.8538694786
 20
10.5685934079
 30
0.0
 10
9.8545822163
 20
10.5680544571
 30
0.0
 10
9.8550415848
 20
10.5676611644
 30
0.0
 10
9.8553107114
 20
10.567404112
 30
0.0
 10
9.8555246645
 20
10.5671663012
 30
0.0
 10
9.855682849
 20
10.5669463417
 30
0.0
 10
9.8557844917
 20
10.566742117
 30
0.0
 10
9.8558272935
 20
10.5665500999
 30
0.0
 10
9.8558039106
 20
10.5663700701
 30
0.0
 10
9.8557451976
 20
10.5662682186
 30
0.0
 10
9.8557090282
 20
10.566222872
 30
0.0
  0
SPLINE
  5
486
100
AcDbEntity
  8
0
100
AcDbSpline
 62
7
  6
CONTINUOUS
 70
0
 71
3
 72
13
 73
9
 74
0
 42
0.0000001
 43
0.0000001
 44
0.0000000001
 40
0.0
 40
0.0
 40
0.0
 40
0.0
 40
0.2695056979
 40
0.5238349276
 40
0.6462853978
 40
0.7661077357
 40
0.8838342695
 40
1.0
 40
1.0
 40
1.0
 40
1.0
 10
9.7894563743
 20
10.6523453593
 30
0.0
 10
9.7913631731
 20
10.6450594921
 30
0.0
 10
9.7960272191
 20
10.6311229082
 30
0.0
 10
9.8043396739
 20
10.6149954354
 30
0.0
 10
9.8122245041
 20
10.6035570094
 30
0.0
 10
9.8186475725
 20
10.5957961362
 30
0.0
 10
9.8256284591
 20
10.5887793459
 30
0.0
 10
9.8306645677
 20
10.5845944379
 30
0.0
 10
9.8332596092
 20
10.5826441386
 30
0.0
  0
LINE
  5
487
100
AcDbEntity
  8
0
100
AcDbLine
 62
7
  6
CONTINUOUS
 10
11.5936149453
 20
10.6525009403
 11
11.6984652082
 21
10.6523682005
  0
SPLINE
  5
488
100
AcDbEntity
  8
0
100
AcDbSpline
 62
7
  6
CONTINUOUS
 70
0
 71
3
 72
12
 73
8
 74
0
 42
0.0000001
 43
0.0000001
 44
0.0000000001
 40
0.0
 40
0.0
 40
0.0
 40
0.0
 40
0.2368972688
 40
0.3590234885
 40
0.4834132593
 40
0.738254594
 40
1.0
 40
1.0
 40
1.0
 40
1.0
 10
11.4778474436
 20
10.5757084573
 30
0.0
 10
11.4882623086
 20
10.5794323751
 30
0.0
 10
11.5036894072
 20
10.5861330402
 30
0.0
 10
11.5235228049
 20
10.5969221207
 30
0.0
 10
11.5434158121
 20
10.6092831275
 30
0.0
 10
11.5674539179
 20
10.6272157008
 30
0.0
 10
11.5851391283
 20
10.6436971187
 30
0.0
 10
11.5936149453
 20
10.6525009403
 30
0.0
  0
SPLINE
  5
489
100
AcDbEntity
  8
0
100
AcDbSpline
 62
7
  6
CONTINUOUS
 70
0
 71
3
 72
9
 73
5
 74
0
 42
0.0000001
 43
0.0000001
 44
0.0000000001
 40
0.0
 40
0.0
 40
0.0
 40
0.0
 40
0.5075724999
 40
1.0
 40
1.0
 40
1.0
 40
1.0
 10
11.4536876733
 20
10.5692025975
 30
0.0
 10
11.4578447762
 20
10.5700172879
 30
0.0
 10
11.4659892153
 20
10.5718703
 30
0.0
 10
11.4739775997
 20
10.5743247638
 30
0.0
 10
11.4778474436
 20
10.5757084573
 30
0.0
  0
LINE
  5
48A
100
AcDbEntity
  8
0
100
AcDbLine
 62
7
  6
CONTINUOUS
 10
11.4536146781
 20
10.6524828356
 11
11.5531333607
 21
10.6523453593
  0
SPLINE
  5
48B
100
AcDbEntity
  8
0
100
AcDbSpline
 62
7
  6
CONTINUOUS
 70
0
 71
3
 72
29
 73
25
 74
0
 42
0.0000001
 43
0.0000001
 44
0.0000000001
 40
0.0
 40
0.0
 40
0.0
 40
0.0
 40
0.2200753637
 40
0.4168128487
 40
0.5058221228
 40
0.5882966784
 40
0.6640000974
 40
0.7326667314
 40
0.7940214861
 40
0.8477827418
 40
0.8717263685
 40
0.893664521
 40
0.9135622488
 40
0.9313871403
 40
0.9471108178
 40
0.9607081576
 40
0.9721597294
 40
0.9814575748
 40
0.9886221905
 40
0.9937472831
 40
0.9956357205
 40
0.9971826341
 40
0.9985586325
 40
1.0
 40
1.0
 40
1.0
 40
1.0
 10
9.7870850926
 20
10.5768844066
 30
0.0
 10
9.7889201783
 20
10.5759553449
 30
0.0
 10
9.7924243119
 20
10.5742514718
 30
0.0
 10
9.7967389432
 20
10.572317586
 30
0.0
 10
9.7999089237
 20
10.570977629
 30
0.0
 10
9.8020479426
 20
10.5701046187
 30
0.0
 10
9.8040195291
 20
10.569324907
 30
0.0
 10
9.8058136404
 20
10.568633408
 30
0.0
 10
9.8074200233
 20
10.5680251913
 30
0.0
 10
9.8086365223
 20
10.5675677068
 30
0.0
 10
9.8095073046
 20
10.5672375144
 30
0.0
 10
9.8100812991
 20
10.5670172932
 30
0.0
 10
9.8106005928
 20
10.5668141716
 30
0.0
 10
9.811063964
 20
10.5666275688
 30
0.0
 10
9.8114702687
 20
10.5664570166
 30
0.0
 10
9.811818469
 20
10.5663020402
 30
0.0
 10
9.8121074436
 20
10.5661622111
 30
0.0
 10
9.8123367469
 20
10.566037096
 30
0.0
 10
9.8125052681
 20
10.56592626
 30
0.0
 10
9.8126060622
 20
10.5658378836
 30
0.0
 10
9.812650721
 20
10.5657708532
 30
0.0
 10
9.8126651246
 20
10.5657273392
 30
0.0
 10
9.8126615731
 20
10.565685417
 30
0.0
 10
9.8126477123
 20
10.5656620472
 30
0.0
 10
9.8126391463
 20
10.5656516501
 30
0.0
  0
SPLINE
  5
48C
100
AcDbEntity
  8
0
100
AcDbSpline
 62
7
  6
CONTINUOUS
 70
0
 71
3
 72
15
 73
11
 74
0
 42
0.0000001
 43
0.0000001
 44
0.0000000001
 40
0.0
 40
0.0
 40
0.0
 40
0.0
 40
0.1321736663
 40
0.2614435826
 40
0.3881382642
 40
0.5127173456
 40
0.6356593047
 40
0.7574803923
 40
0.8787530755
 40
1.0
 40
1.0
 40
1.0
 40
1.0
 10
9.7216111212
 20
10.6523682005
 30
0.0
 10
9.7232001493
 20
10.6481529473
 30
0.0
 10
9.7266898478
 20
10.639940353
 30
0.0
 10
9.7328998644
 20
10.6282414923
 30
0.0
 10
9.7399841802
 20
10.6173560713
 30
0.0
 10
9.7478992335
 20
10.6073317915
 30
0.0
 10
9.7566025406
 20
10.5982111795
 30
0.0
 10
9.7660523631
 20
10.5900364099
 30
0.0
 10
9.7762028151
 20
10.5828507585
 30
0.0
 10
9.7833982605
 20
10.578750965
 30
0.0
 10
9.7870850926
 20
10.5768844066
 30
0.0
  0
LINE
  5
48D
100
AcDbEntity
  8
0
100
AcDbLine
 62
7
  6
CONTINUOUS
 10
9.6657376556
 20
10.6524978072
 11
9.6832538173
 21
10.6523453593
  0
LINE
  5
48E
100
AcDbEntity
  8
0
100
AcDbLine
 62
7
  6
CONTINUOUS
 10
10.6410396959
 20
10.6647345104
 11
10.576075844
 21
10.6647820038
  0
SPLINE
  5
48F
100
AcDbEntity
  8
0
100
AcDbSpline
 62
7
  6
CONTINUOUS
 70
0
 71
3
 72
18
 73
14
 74
0
 42
0.0000001
 43
0.0000001
 44
0.0000000001
 40
0.0
 40
0.0
 40
0.0
 40
0.0
 40
0.1651552278
 40
0.3199442544
 40
0.4637083587
 40
0.5312915588
 40
0.5959223584
 40
0.7160815467
 40
0.8237394055
 40
0.8727569309
 40
0.9185052193
 40
0.9609353677
 40
1.0
 40
1.0
 40
1.0
 40
1.0
 10
10.576075844
 20
10.6647820038
 30
0.0
 10
10.5737652381
 20
10.6603604265
 30
0.0
 10
10.5692263132
 20
10.6518273409
 30
0.0
 10
10.5624448796
 20
10.6395701693
 30
0.0
 10
10.5569127393
 20
10.6299921919
 30
0.0
 10
10.5526266762
 20
10.6228415931
 30
0.0
 10
10.5486321354
 20
10.6163482003
 30
0.0
 10
10.5438665292
 20
10.6089085388
 30
0.0
 10
10.5391462026
 20
10.6020034882
 30
0.0
 10
10.5355484439
 20
10.5970587458
 30
0.0
 10
10.5330371061
 20
10.5937614772
 30
0.0
 10
10.5306314395
 20
10.5907631491
 30
0.0
 10
10.5290343101
 20
10.5888891252
 30
0.0
 10
10.5282523986
 20
10.5880053196
 30
0.0
  0
SPLINE
  5
490
100
AcDbEntity
  8
0
100
AcDbSpline
 62
7
  6
CONTINUOUS
 70
0
 71
3
 72
30
 73
26
 74
0
 42
0.0000001
 43
0.0000001
 44
0.0000000001
 40
0.0
 40
0.0
 40
0.0
 40
0.0
 40
0.2211877059
 40
0.3229567609
 40
0.4185676553
 40
0.5077991505
 40
0.590419685
 40
0.6661891167
 40
0.734855448
 40
0.7961589179
 40
0.8498389043
 40
0.8956490423
 40
0.9333458405
 40
0.9490797389
 40
0.9627075869
 40
0.9742095601
 40
0.9835673161
 40
0.9874373621
 40
0.9907663506
 40
0.9935542465
 40
0.9958039788
 40
0.9975226449
 40
0.9987277075
 40
0.9994751323
 40
1.0
 40
1.0
 40
1.0
 40
1.0
 10
9.7672480052
 20
10.5734148247
 30
0.0
 10
9.7690044358
 20
10.572703906
 30
0.0
 10
9.7715870063
 20
10.5717095089
 30
0.0
 10
9.7749647396
 20
10.570505695
 30
0.0
 10
9.777290147
 20
10.5697173077
 30
0.0
 10
9.779470592
 20
10.5690130842
 30
0.0
 10
9.7814977874
 20
10.5683880769
 30
0.0
 10
9.783363363
 20
10.5678373545
 30
0.0
 10
9.7850589619
 20
10.5673562372
 30
0.0
 10
9.7865762243
 20
10.5669401234
 30
0.0
 10
9.7879069643
 20
10.5665843498
 30
0.0
 10
9.7890434658
 20
10.5662851003
 30
0.0
 10
9.7898655901
 20
10.5660685345
 30
0.0
 10
9.7904202289
 20
10.5659188852
 30
0.0
 10
9.7907576189
 20
10.5658255149
 30
0.0
 10
9.791041537
 20
10.565743771
 30
0.0
 10
9.7912441508
 20
10.5656818314
 30
0.0
 10
9.7913788091
 20
10.565637231
 30
0.0
 10
9.7914594428
 20
10.5656086634
 30
0.0
 10
9.7915263508
 20
10.5655827766
 30
0.0
 10
9.7915792631
 20
10.5655596074
 30
0.0
 10
9.7916190172
 20
10.5655391311
 30
0.0
 10
9.7916442945
 20
10.5655214488
 30
0.0
 10
9.7916603547
 20
10.5655051589
 30
0.0
 10
9.7916581254
 20
10.5654924995
 30
0.0
 10
9.7916552429
 20
10.5654890486
 30
0.0
  0
SPLINE
  5
491
100
AcDbEntity
  8
0
100
AcDbSpline
 62
7
  6
CONTINUOUS
 70
0
 71
3
 72
15
 73
11
 74
0
 42
0.0000001
 43
0.0000001
 44
0.0000000001
 40
0.0
 40
0.0
 40
0.0
 40
0.0
 40
0.1091652492
 40
0.2196488037
 40
0.3333584443
 40
0.4519630971
 40
0.5769075475
 40
0.7093275618
 40
0.8501241885
 40
1.0
 40
1.0
 40
1.0
 40
1.0
 10
10.5282523986
 20
10.5880053196
 30
0.0
 10
10.5276818025
 20
10.5873603669
 30
0.0
 10
10.5264449477
 20
10.5861384246
 30
0.0
 10
10.5243459821
 20
10.5845436384
 30
0.0
 10
10.5220086113
 20
10.5831723752
 30
0.0
 10
10.5194364639
 20
10.5820097451
 30
0.0
 10
10.5166304815
 20
10.5810387535
 30
0.0
 10
10.5135896896
 20
10.5802422372
 30
0.0
 10
10.51031213
 20
10.5796032812
 30
0.0
 10
10.508040938
 20
10.5792815785
 30
0.0
 10
10.5068672547
 20
10.5791393714
 30
0.0
  0
SPLINE
  5
492
100
AcDbEntity
  8
0
100
AcDbSpline
 62
7
  6
CONTINUOUS
 70
0
 71
3
 72
15
 73
11
 74
0
 42
0.0000001
 43
0.0000001
 44
0.0000000001
 40
0.0
 40
0.0
 40
0.0
 40
0.0
 40
0.1282496718
 40
0.2550446599
 40
0.3806011731
 40
0.5052111685
 40
0.6291585682
 40
0.7527361829
 40
0.8762622405
 40
1.0
 40
1.0
 40
1.0
 40
1.0
 10
9.6832538173
 20
10.6523453593
 30
0.0
 10
9.6850257903
 20
10.6486125198
 30
0.0
 10
9.6888278063
 20
10.6413173699
 30
0.0
 10
9.6953084374
 20
10.6308938446
 30
0.0
 10
9.7024997323
 20
10.6210913394
 30
0.0
 10
9.7103672918
 20
10.6119436054
 30
0.0
 10
9.7188777329
 20
10.6034807745
 30
0.0
 10
9.727998179
 20
10.5957326031
 30
0.0
 10
9.7376931838
 20
10.5887293921
 30
0.0
 10
9.7445063175
 20
10.5845817748
 30
0.0
 10
9.7479904714
 20
10.5826441386
 30
0.0
  0
SPLINE
  5
493
100
AcDbEntity
  8
0
100
AcDbSpline
 62
7
  6
CONTINUOUS
 70
0
 71
3
 72
26
 73
22
 74
0
 42
0.0000001
 43
0.0000001
 44
0.0000000001
 40
0.0
 40
0.0
 40
0.0
 40
0.0
 40
0.0260150176
 40
0.0521398508
 40
0.0784255263
 40
0.1049206602
 40
0.1586931756
 40
0.2138028483
 40
0.2419507096
 40
0.2705199331
 40
0.2995297263
 40
0.3289945478
 40
0.3893053675
 40
0.4514935019
 40
0.5155124626
 40
0.5812542987
 40
0.6485575556
 40
0.7172149226
 40
0.7869814049
 40
0.8575823127
 40
1.0
 40
1.0
 40
1.0
 40
1.0
 10
11.4530456993
 20
7.1684489839
 30
0.0
 10
11.4527191327
 20
7.1637706485
 30
0.0
 10
11.4517581607
 20
7.1544127676
 30
0.0
 10
11.4494048195
 20
7.1404629126
 30
0.0
 10
11.4461425402
 20
7.1266074032
 30
0.0
 10
11.4405659992
 20
7.108215131
 30
0.0
 10
11.4313080294
 20
7.0855645548
 30
0.0
 10
11.4192879173
 20
7.0639179754
 30
0.0
 10
11.4080582311
 20
7.0471665504
 30
0.0
 10
11.3987616599
 20
7.0348118159
 30
0.0
 10
11.388672983
 20
7.0227841811
 30
0.0
 10
11.3740843632
 20
7.0070984441
 30
0.0
 10
11.3539440498
 20
6.9884603141
 30
0.0
 10
11.3272170845
 20
6.9679866546
 30
0.0
 10
11.2979810613
 20
6.9493991215
 30
0.0
 10
11.2665004541
 20
6.9328559842
 30
0.0
 10
11.2330568311
 20
6.9184954764
 30
0.0
 10
11.1979509226
 20
6.9064377972
 30
0.0
 10
11.1614931115
 20
6.8967820939
 30
0.0
 10
11.1113974654
 20
6.8871919936
 30
0.0
 10
11.072986797
 20
6.8838523943
 30
0.0
 10
11.0473183383
 20
6.8833389507
 30
0.0
  0
SPLINE
  5
494
100
AcDbEntity
  8
0
100
AcDbSpline
 62
7
  6
CONTINUOUS
 70
0
 71
3
 72
15
 73
11
 74
0
 42
0.0000001
 43
0.0000001
 44
0.0000000001
 40
0.0
 40
0.0
 40
0.0
 40
0.0
 40
0.1292110755
 40
0.2567983042
 40
0.3829505701
 40
0.507875966
 40
0.6317994436
 40
0.7549599135
 40
0.8776075688
 40
1.0
 40
1.0
 40
1.0
 40
1.0
 10
11.4762810399
 20
6.6887449859
 30
0.0
 10
11.4788250143
 20
6.6840965423
 30
0.0
 10
11.4836163292
 20
6.6747100737
 30
0.0
 10
11.4899158987
 20
6.6603138913
 30
0.0
 10
11.4952665575
 20
6.64572488
 30
0.0
 10
11.499656314
 20
6.630975076
 30
0.0
 10
11.5030756084
 20
6.6160961886
 30
0.0
 10
11.5055165314
 20
6.6011201339
 30
0.0
 10
11.5069740671
 20
6.5860802371
 30
0.0
 10
11.5072877567
 20
6.5760273634
 30
0.0
 10
11.5072799812
 20
6.5710079662
 30
0.0
  0
LINE
  5
495
100
AcDbEntity
  8
0
100
AcDbLine
 62
7
  6
CONTINUOUS
 10
10.5364725844
 20
10.6646738851
 11
10.4222488717
 21
10.6647796043
  0
SPLINE
  5
496
100
AcDbEntity
  8
0
100
AcDbSpline
 62
7
  6
CONTINUOUS
 70
0
 71
3
 72
13
 73
9
 74
0
 42
0.0000001
 43
0.0000001
 44
0.0000000001
 40
0.0
 40
0.0
 40
0.0
 40
0.0
 40
0.3313368125
 40
0.6114739548
 40
0.730872247
 40
0.8357745691
 40
0.9256678674
 40
1.0
 40
1.0
 40
1.0
 40
1.0
 10
10.4222488717
 20
10.6647796043
 30
0.0
 10
10.4186894159
 20
10.6562714808
 30
0.0
 10
10.4121049272
 20
10.6405764675
 30
0.0
 10
10.4041853732
 20
10.6218375557
 30
0.0
 10
10.3986809707
 20
10.6089205542
 30
0.0
 10
10.3952330717
 20
10.6008833756
 30
0.0
 10
10.3922579783
 20
10.5940083699
 30
0.0
 10
10.3904243001
 20
10.5898210611
 30
0.0
 10
10.389587227
 20
10.5879289345
 30
0.0
  0
ELLIPSE
  5
497
100
AcDbEntity
  8
0
100
AcDbEllipse
 62
7
  6
CONTINUOUS
 10
11.0473183383
 20
6.7410708879
 30
0.0
 11
0.4522967215
 21
0.1611958191
 31
0.0
 40
0.084133201
 41
-1.3561925479
 42
-0.7981537211
  0
ENDSEC
  0
SECTION
  2
OBJECTS
  0
DICTIONARY
  5
C
100
AcDbDictionary
280
0
281
1
  3
ACAD_GROUP
350
D
  3
ACAD_MLINESTYLE
350
17
  3
ACAD_LAYOUT
350
1A
  3
ACAD_PLOTSETTINGS
350
19
  3
ACAD_PLOTSTYLENAME
350
E
  0
DICTIONARY
  5
D
102
{ACAD_REACTORS
330
C
102
}
100
AcDbDictionary
280
0
281
1
  0
ACDBDICTIONARYWDFLT
  5
E
102
{ACAD_REACTORS
330
C
102
}
100
AcDbDictionary
281
1
  3
Normal
350
F
100
AcDbDictionaryWithDefault
340
F
  0
DICTIONARY
  5
17
102
{ACAD_REACTORS
330
C
102
}
100
AcDbDictionary
280
0
281
1
  3
Standard
350
18
  0
DICTIONARY
  5
19
102
{ACAD_REACTORS
330
C
102
}
100
AcDbDictionary
281
1
  0
DICTIONARY
  5
1A
102
{ACAD_REACTORS
330
C
102
}
100
AcDbDictionary
281
1
  3
Model
350
498
  3
Layout1
350
499
  0
ACDBPLACEHOLDER
  5
F
102
{ACAD_REACTORS
330
E
102
}
  0
MLINESTYLE
  5
18
102
{ACAD_REACTORS
330
17
102
}
100
AcDbMlineStyle
  2
STANDARD
 70
0
  3

 62
256
 51
90.0
 52
90.0
 71
2
 49
0.5
 62
256
  6
BYLAYER
 49
-0.5
 62
256
  6
BYLAYER
  0
LAYOUT
  5
498
102
{ACAD_REACTORS
330
1A
102
}
100
AcDbPlotSettings
  1

  2
none_device
  4
ANSI_C_(22.00_x_17.00_Inches)
  6

 40
0.0
 41
0.0
 42
0.0
 43
0.0
 44
558.8
 45
431.8
 46
0.0
 47
0.0
 48
0.0
 49
0.0
140
0.0
141
0.0
142
1.0
143
1.0
 70
1024
 72
0
 73
0
 74
0
  7

 75
0
147
1.0
148
0.0
149
0.0
100
AcDbLayout
  1
Model
 70
0
 71
0
 10
0.0
 20
0.0
 11
22.0
 21
17.0
 12
0.0
 22
0.0
 32
0.0
 14
0.0
 24
0.0
 34
0.0
 15
0.0
 25
0.0
 35
0.0
146
0.0
 13
0.0
 23
0.0
 33
0.0
 16
1.0
 26
0.0
 36
0.0
 17
0.0
 27
1.0
 37
0.0
 76
0
330
205
345
0
346
0
  0
LAYOUT
  5
499
102
{ACAD_REACTORS
330
1A
102
}
100
AcDbPlotSettings
  1

  2
none_device
  4
ANSI_C_(22.00_x_17.00_Inches)
  6

 40
0.0
 41
0.0
 42
0.0
 43
0.0
 44
558.8
 45
431.8
 46
0.0
 47
0.0
 48
0.0
 49
0.0
140
0.0
141
0.0
142
1.0
143
1.0
 70
0
 72
0
 73
0
 74
0
  7

 75
0
147
1.0
148
0.0
149
0.0
100
AcDbLayout
  1
Layout1
 70
0
 71
1
 10
0.0
 20
0.0
 11
22.0
 21
17.0
 12
0.0
 22
0.0
 32
0.0
 14
0.0
 24
0.0
 34
0.0
 15
0.0
 25
0.0
 35
0.0
146
0.0
 13
0.0
 23
0.0
 33
0.0
 16
1.0
 26
0.0
 36
0.0
 17
0.0
 27
1.0
 37
0.0
 76
0
330
206
345
0
346
0
  0
ENDSEC
  0
EOF
