999
DXF file: E:\BT Custom\CADOUTPUT\_RIGHT.dxf
999
Pro/ENGINEER 2018400 by Parametric Technology Corporation
  0
SECTION
  2
HEADER
  9
$ACADVER
  1
AC1018
  9
$DWGCODEPAGE
  3
ANSI_1252
  9
$EXTMAX
 10
22.0
 20
17.0
 30
0.0
  9
$EXTMIN
 10
0.0
 20
0.0
 30
0.0
  9
$LIMMIN
 10
0.0
 20
0.0
  9
$LIMMAX
 10
22.0
 20
17.0
  9
$VIEWCTR
 10
11.0
 20
8.5
  9
$VIEWSIZE
 40
17.0
  9
$CLAYER
  8
0
  9
$LTSCALE
 40
1.21
  9
$CELTYPE
  6
BYLAYER
  9
$DIMSCALE
 40
1.0
  9
$DIMASZ
 40
0.1
  9
$DIMEXO
 40
0.0625
  9
$DIMDLI
 40
0.836
  9
$DIMEXE
 40
0.125
  9
$DIMCEN
 40
0.198
  9
$DIMLFAC
 40
1.0
  9
$DIMBLK
  1
_FILLED
  9
$DIMALT
 70
1
  9
$DIMALTD
 70
2
  9
$DIMALTTD
 70
2
  9
$DIMALTF
 40
25.4
  9
$DIMTXT
 40
0.08
  9
$DIMTOL
 70
1
  9
$DIMLIM
 70
0
  9
$DIMTFAC
 40
1.0
  9
$DIMTP
 40
0.001
  9
$DIMTM
 40
0.001
  9
$DIMGAP
 40
0.09
  9
$DIMDSEP
 70
46
  9
$AUNITS
 70
0
  9
$PDMODE
 70
3
  9
$PDSIZE
 40
0.06
  9
$HANDSEED
  5
543
  9
$TILEMODE
 70
1
  9
$MEASUREMENT
 70
0
  9
$INSUNITS
 70
1
  0
ENDSEC
  0
SECTION
  2
CLASSES
  0
CLASS
  1
ACDBDICTIONARYWDFLT
  2
AcDbDictionaryWithDefault
  3
AutoCAD 2000
 90
0
 91
1
280
0
281
0
  0
CLASS
  1
ACDBPLACEHOLDER
  2
AcDbPlaceHolder
  3
AutoCAD 2000
 90
0
 91
1
280
0
281
0
  0
CLASS
  1
LAYOUT
  2
AcDbLayout
  3
AutoCAD 2000
 90
0
 91
0
280
0
281
0
  0
ENDSEC
  0
SECTION
  2
TABLES
  0
TABLE
  2
VPORT
  5
8
100
AcDbSymbolTable
 70
2
  0
VPORT
  5
1F4
100
AcDbSymbolTableRecord
100
AcDbViewportTableRecord
  2
*ACTIVE
 70
0
 10
0.0
 20
0.0
 11
1.0
 21
1.0
 12
11.0
 22
8.5
 13
0.0
 23
0.0
 14
1.0
 24
1.0
 15
0.0
 25
0.0
 16
0.0
 26
0.0
 36
1.0
 17
0.0
 27
0.0
 37
0.0
 40
17.0
 41
1.2941176471
 42
50.0
 43
0.0
 44
0.0
 50
0.0
 51
0.0
 71
0
 72
100
 73
1
 74
1
 75
0
 76
0
 77
0
 78
0
  0
ENDTAB
  0
TABLE
  2
LTYPE
  5
5
100
AcDbSymbolTable
 70
6
  0
LTYPE
  5
14
100
AcDbSymbolTableRecord
100
AcDbLinetypeTableRecord
  2
BYBLOCK
 70
0
  3

 72
65
 73
0
 40
0.0
  0
LTYPE
  5
15
100
AcDbSymbolTableRecord
100
AcDbLinetypeTableRecord
  2
BYLAYER
 70
0
  3

 72
65
 73
0
 40
0.0
  0
LTYPE
  5
16
100
AcDbSymbolTableRecord
100
AcDbLinetypeTableRecord
  2
CONTINUOUS
 70
64
  3
Solid line
 72
65
 73
0
 40
0.0
  0
LTYPE
  5
1F5
100
AcDbSymbolTableRecord
100
AcDbLinetypeTableRecord
  2
CENTER
 70
64
  3
____ _ ____ _ ____ _ ____ _ ____ _ ____ _ ____
 72
65
 73
4
 40
0.6
 49
0.375
 74
0
 49
-0.075
 74
0
 49
0.075
 74
0
 49
-0.075
 74
0
  0
LTYPE
  5
1F6
100
AcDbSymbolTableRecord
100
AcDbLinetypeTableRecord
  2
HIDDEN
 70
64
  3
- - - - - - - - - - - - - - - - - - - -
 72
65
 73
2
 40
0.2
 49
0.1
 74
0
 49
-0.1
 74
0
  0
LTYPE
  5
1F7
100
AcDbSymbolTableRecord
100
AcDbLinetypeTableRecord
  2
PHANTOM
 70
64
  3
_____ _ _ _____ _ _ _____ _ _ _____
 72
65
 73
6
 40
0.8
 49
0.45
 74
0
 49
-0.05
 74
0
 49
0.1
 74
0
 49
-0.05
 74
0
 49
0.1
 74
0
 49
-0.05
 74
0
  0
LTYPE
  5
1F8
100
AcDbSymbolTableRecord
100
AcDbLinetypeTableRecord
  2
DOT
 70
64
  3
. . . . . . . . . . . . . . . . . . . .
 72
65
 73
2
 40
0.2
 49
0.1
 74
0
 49
-0.1
 74
0
  0
LTYPE
  5
1F9
100
AcDbSymbolTableRecord
100
AcDbLinetypeTableRecord
  2
DASHED
 70
64
  3
- - - - - - - - - - - - - - - - - - - -
 72
65
 73
2
 40
0.2
 49
0.1
 74
0
 49
-0.1
 74
0
  0
ENDTAB
  0
TABLE
  2
LAYER
  5
2
100
AcDbSymbolTable
 70
36
  0
LAYER
  5
10
100
AcDbSymbolTableRecord
100
AcDbLayerTableRecord
  2
0
 70
0
 62
7
  6
CONTINUOUS
370
-3
390
F
  0
LAYER
  5
1FA
100
AcDbSymbolTableRecord
100
AcDbLayerTableRecord
  2
DEFAULT_1
 70
0
 62
7
  6
CENTER
370
-3
390
F
  0
LAYER
  5
1FB
100
AcDbSymbolTableRecord
100
AcDbLayerTableRecord
  2
DEFAULT_2
 70
0
 62
8
  6
HIDDEN
370
-3
390
F
  0
LAYER
  5
1FC
100
AcDbSymbolTableRecord
100
AcDbLayerTableRecord
  2
DEFAULT_3
 70
0
 62
7
  6
PHANTOM
370
-3
390
F
  0
LAYER
  5
1FD
100
AcDbSymbolTableRecord
100
AcDbLayerTableRecord
  2
ALL_FEATURES
 70
0
 62
7
  6
CONTINUOUS
370
-3
390
F
  0
LAYER
  5
1FE
100
AcDbSymbolTableRecord
100
AcDbLayerTableRecord
  2
AXES_FEATURES
 70
0
 62
7
  6
CONTINUOUS
370
-3
390
F
  0
LAYER
  5
1FF
100
AcDbSymbolTableRecord
100
AcDbLayerTableRecord
  2
DEFAULT_COORDINATE_SYSTEM
 70
0
 62
7
  6
CONTINUOUS
370
-3
390
F
  0
LAYER
  5
200
100
AcDbSymbolTableRecord
100
AcDbLayerTableRecord
  2
DEFAULT_DATUM_AXES
 70
0
 62
7
  6
CONTINUOUS
370
-3
390
F
  0
LAYER
  5
201
100
AcDbSymbolTableRecord
100
AcDbLayerTableRecord
  2
DEFAULT_DATUM_PLANES
 70
0
 62
7
  6
CONTINUOUS
370
-3
390
F
  0
LAYER
  5
202
100
AcDbSymbolTableRecord
100
AcDbLayerTableRecord
  2
DIMENSIONS
 70
0
 62
7
  6
CONTINUOUS
370
-3
390
F
  0
ENDTAB
  0
TABLE
  2
STYLE
  5
3
100
AcDbSymbolTable
 70
1
  0
STYLE
  5
11
100
AcDbSymbolTableRecord
100
AcDbTextStyleTableRecord
  2
STANDARD
 70
0
 40
0.0
 41
0.8
 50
0.0
 71
0
 42
0.2
  3
txt
  4

  0
STYLE
  5
203
100
AcDbSymbolTableRecord
100
AcDbTextStyleTableRecord
  2
TEXTSTYLE_1
 70
0
 40
0.0
 41
0.8
 50
0.0
 71
0
 42
0.2
  3
gdt
  4

  0
ENDTAB
  0
TABLE
  2
VIEW
  5
6
100
AcDbSymbolTable
 70
0
  0
ENDTAB
  0
TABLE
  2
UCS
  5
7
100
AcDbSymbolTable
 70
0
  0
ENDTAB
  0
TABLE
  2
APPID
  5
9
100
AcDbSymbolTable
 70
1
  0
APPID
  5
204
100
AcDbSymbolTableRecord
100
AcDbRegAppTableRecord
  2
ACAD
 70
0
  0
ENDTAB
  0
TABLE
  2
BLOCK_RECORD
  5
1
100
AcDbSymbolTable
 70
0
  0
BLOCK_RECORD
  5
205
100
AcDbSymbolTableRecord
100
AcDbBlockTableRecord
  2
*Model_Space
  0
BLOCK_RECORD
  5
206
100
AcDbSymbolTableRecord
100
AcDbBlockTableRecord
  2
*Paper_Space
  0
BLOCK_RECORD
  5
207
100
AcDbSymbolTableRecord
100
AcDbBlockTableRecord
  2
_FILLED
  0
ENDTAB
  0
TABLE
  2
DIMSTYLE
  5
A
100
AcDbSymbolTable
 70
1
100
AcDbDimStyleTable
 71
0
  0
DIMSTYLE
105
208
100
AcDbSymbolTableRecord
100
AcDbDimStyleTableRecord
  2
STANDARD
 70
0
  3

  4

 40
1.0
 41
0.1
 42
0.0625
 43
0.38
 44
0.125
 45
0.0
 46
0.0
 47
0.001
 48
0.001
140
0.08
141
0.09
142
0.0
143
25.4
144
1.0
145
0.0
146
1.0
147
0.09
 71
1.0
 72
0.0
 73
1
 74
1
 75
0
 76
0
 77
0
 78
4
 79
1
170
1
171
2
172
0
173
0
174
0
175
0
176
0
177
0
178
0
270
2
179
3
271
3
272
3
273
2
274
2
275
0
280
0
281
0
282
0
283
1
284
4
285
0
286
0
287
3
288
0
340
11
278
46
341
207
342
207
343
207
344
207
  0
ENDTAB
  0
ENDSEC
  0
SECTION
  2
BLOCKS
  0
BLOCK
  5
20
100
AcDbEntity
  8
0
100
AcDbBlockBegin
  2
*Model_Space
 70
0
 10
0.0
 20
0.0
 30
0.0
  3
*Model_Space
  1

  0
ENDBLK
  5
21
100
AcDbEntity
  8
0
100
AcDbBlockEnd
  0
BLOCK
  5
1C
100
AcDbEntity
  8
0
100
AcDbBlockBegin
  2
*Paper_Space
 70
0
 10
0.0
 20
0.0
 30
0.0
  3
*Paper_Space
  1

  0
ENDBLK
  5
1D
100
AcDbEntity
  8
0
100
AcDbBlockEnd
  0
BLOCK
  5
209
100
AcDbEntity
  8
0
100
AcDbBlockBegin
  2
_FILLED
 70
64
 10
0.0
 20
0.0
  3
_FILLED
  1

  0
SOLID
  5
20A
100
AcDbEntity
  8
0
  6
BYBLOCK
 62
0
100
AcDbTrace
 10
0.0
 20
0.0
 11
-1.0
 21
0.2
 12
-1.0
 22
-0.2
 13
-1.0
 23
-0.2
  0
ENDBLK
  5
20B
100
AcDbEntity
  8
0
  6
BYBLOCK
 62
0
100
AcDbBlockEnd
  0
ENDSEC
  0
SECTION
  2
ENTITIES
  0
LINE
  5
20C
100
AcDbEntity
  8
0
100
AcDbLine
 62
7
  6
CONTINUOUS
 10
7.7999228578
 20
-2.805108196
 11
8.6749223502
 21
-2.805108196
  0
LINE
  5
20D
100
AcDbEntity
  8
0
100
AcDbLine
 62
9
  6
CONTINUOUS
 10
7.7999226038
 20
-1.365108196
 11
8.6749226038
 21
-1.365108196
  0
LINE
  5
20E
100
AcDbEntity
  8
0
100
AcDbLine
 62
7
  6
CONTINUOUS
 10
14.7974226038
 20
-0.552608196
 11
14.4224226038
 21
-0.552608196
  0
LINE
  5
20F
100
AcDbEntity
  8
0
100
AcDbLine
 62
7
  6
CONTINUOUS
 10
14.4224226038
 20
-0.052608196
 11
12.2974226038
 21
-0.052608196
  0
LINE
  5
210
100
AcDbEntity
  8
0
100
AcDbLine
 62
7
  6
CONTINUOUS
 10
7.2428325282
 20
17.8836025873
 11
6.6459758319
 21
17.286745891
  0
LINE
  5
211
100
AcDbEntity
  8
0
100
AcDbLine
 62
7
  6
CONTINUOUS
 10
6.7904497756
 20
17.00250155
 11
6.7657577365
 21
16.9778095109
  0
LINE
  5
212
100
AcDbEntity
  8
0
100
AcDbLine
 62
7
  6
CONTINUOUS
 10
6.8293417933
 20
16.9636095323
 11
6.8046497543
 21
16.9389174932
  0
LINE
  5
213
100
AcDbEntity
  8
0
100
AcDbLine
 62
7
  6
CONTINUOUS
 10
10.2374226038
 20
0.197391804
 11
12.2974226038
 21
0.197391804
  0
LINE
  5
214
100
AcDbEntity
  8
0
100
AcDbLine
 62
7
  6
CONTINUOUS
 10
6.9433674199
 20
16.8495839057
 11
6.9186753808
 21
16.8248918666
  0
LINE
  5
215
100
AcDbEntity
  8
0
100
AcDbLine
 62
7
  6
CONTINUOUS
 10
6.9152433575
 20
16.7902148139
 11
6.9049196111
 21
16.7798910675
  0
LINE
  5
216
100
AcDbEntity
  8
0
100
AcDbLine
 62
7
  6
CONTINUOUS
 10
6.9814803098
 20
16.7227168589
 11
6.9717870648
 21
16.7130236138
  0
LINE
  5
217
100
AcDbEntity
  8
0
100
AcDbLine
 62
7
  6
CONTINUOUS
 10
7.0511330355
 20
16.7235031843
 11
7.0355985493
 21
16.7079686981
  0
LINE
  5
218
100
AcDbEntity
  8
0
100
AcDbLine
 62
7
  6
CONTINUOUS
 10
7.1247559972
 20
16.6681953284
 11
7.1000639581
 21
16.6435032893
  0
LINE
  5
219
100
AcDbEntity
  8
0
100
AcDbLine
 62
7
  6
CONTINUOUS
 10
7.0864875027
 20
16.6272843342
 11
7.0720069235
 21
16.6128037551
  0
LINE
  5
21A
100
AcDbEntity
  8
0
100
AcDbLine
 62
7
  6
CONTINUOUS
 10
7.1106583107
 20
16.593538858
 11
7.1009650657
 21
16.5838456129
  0
LINE
  5
21B
100
AcDbEntity
  8
0
100
AcDbLine
 62
7
  6
CONTINUOUS
 10
7.08087269
 20
16.5357077539
 11
7.0760815031
 21
16.530916567
  0
LINE
  5
21C
100
AcDbEntity
  8
0
100
AcDbLine
 62
7
  6
CONTINUOUS
 10
7.2346780325
 20
16.5442710267
 11
7.2169871266
 21
16.5265801208
  0
LINE
  5
21D
100
AcDbEntity
  8
0
100
AcDbLine
 62
7
  6
CONTINUOUS
 10
7.2169736246
 20
16.4994144543
 11
7.2011849244
 21
16.4836257542
  0
LINE
  5
21E
100
AcDbEntity
  8
0
100
AcDbLine
 62
7
  6
CONTINUOUS
 10
7.179943911
 20
16.3730450273
 11
7.1612153506
 21
16.3543164669
  0
LINE
  5
21F
100
AcDbEntity
  8
0
100
AcDbLine
 62
7
  6
CONTINUOUS
 10
7.1974059682
 20
16.3551731223
 11
7.1788823317
 21
16.3366494858
  0
LINE
  5
220
100
AcDbEntity
  8
0
100
AcDbLine
 62
7
  6
CONTINUOUS
 10
7.3135127865
 20
16.4310227721
 11
7.2836503465
 21
16.4011603321
  0
LINE
  5
221
100
AcDbEntity
  8
0
100
AcDbLine
 62
7
  6
CONTINUOUS
 10
7.3611461935
 20
16.4318051321
 11
7.3364541544
 21
16.4071130931
  0
LINE
  5
222
100
AcDbEntity
  8
0
100
AcDbLine
 62
7
  6
CONTINUOUS
 10
7.2514243968
 20
16.2998818063
 11
7.233537204
 21
16.2819946135
  0
LINE
  5
223
100
AcDbEntity
  8
0
100
AcDbLine
 62
7
  6
CONTINUOUS
 10
7.3935634503
 20
16.3106337184
 11
7.3838702053
 21
16.3009404733
  0
LINE
  5
224
100
AcDbEntity
  8
0
100
AcDbLine
 62
7
  6
CONTINUOUS
 10
7.3384612008
 20
16.1864788928
 11
7.3337570628
 21
16.1817747547
  0
LINE
  5
225
100
AcDbEntity
  8
0
100
AcDbLine
 62
7
  6
CONTINUOUS
 10
7.4738799504
 20
16.3106925519
 11
7.4533773229
 21
16.2901899245
  0
LINE
  5
226
100
AcDbEntity
  8
0
100
AcDbLine
 62
7
  6
CONTINUOUS
 10
7.3485016574
 20
16.1744437634
 11
7.3447948558
 21
16.1707369617
  0
LWPOLYLINE
  5
227
100
AcDbEntity
  8
0
100
AcDbPolyline
 62
7
  6
CONTINUOUS
 90
14
 70
0
 10
7.3384589327
 20
16.1864797678
 10
7.3394859471
 20
16.1873915787
 10
7.3410405452
 20
16.1884211393
 10
7.3426914432
 20
16.1891697493
 10
7.3443594218
 20
16.1896328869
 10
7.3459338721
 20
16.1898312963
 10
7.3473287312
 20
16.1898219749
 10
7.3485181165
 20
16.1896743584
 10
7.3495308615
 20
16.1894408445
 10
7.3503628356
 20
16.1891664511
 10
7.3510209392
 20
16.1888881144
 10
7.3514819119
 20
16.1886534259
 10
7.3517501503
 20
16.188496359
 10
7.3518193909
 20
16.1884521628
  0
LINE
  5
228
100
AcDbEntity
  8
0
100
AcDbLine
 62
7
  6
CONTINUOUS
 10
10.2374226038
 20
1.072391804
 11
12.2974226038
 21
1.072391804
  0
LINE
  5
229
100
AcDbEntity
  8
0
100
AcDbLine
 62
7
  6
CONTINUOUS
 10
14.4224226038
 20
1.322391804
 11
12.2974226038
 21
1.322391804
  0
LINE
  5
22A
100
AcDbEntity
  8
0
100
AcDbLine
 62
7
  6
CONTINUOUS
 10
7.5349836731
 20
16.2050079371
 11
7.5073932073
 21
16.1774174713
  0
LINE
  5
22B
100
AcDbEntity
  8
0
100
AcDbLine
 62
7
  6
CONTINUOUS
 10
9.4044579583
 20
18.029973691
 11
8.739777584
 21
17.3652933167
  0
LINE
  5
22C
100
AcDbEntity
  8
0
100
AcDbLine
 62
7
  6
CONTINUOUS
 10
9.4149468117
 20
18.0194848376
 11
9.1674594383
 21
17.7719974642
  0
LINE
  5
22D
100
AcDbEntity
  8
0
100
AcDbLine
 62
7
  6
CONTINUOUS
 10
7.6364284075
 20
16.1565229181
 11
7.6117363684
 21
16.131830879
  0
LINE
  5
22E
100
AcDbEntity
  8
0
100
AcDbLine
 62
7
  6
CONTINUOUS
 10
7.6173063111
 20
16.0868908576
 11
7.6076130661
 21
16.0771976125
  0
LINE
  5
22F
100
AcDbEntity
  8
0
100
AcDbLine
 62
7
  6
CONTINUOUS
 10
10.0072664892
 20
18.4595410606
 11
9.7794877019
 21
18.2317622732
  0
LINE
  5
230
100
AcDbEntity
  8
0
100
AcDbLine
 62
7
  6
CONTINUOUS
 10
9.9284005587
 20
18.3616302958
 11
9.789010119
 21
18.2222398561
  0
LINE
  5
231
100
AcDbEntity
  8
0
100
AcDbLine
 62
7
  6
CONTINUOUS
 10
11.0227236069
 20
19.409590801
 11
10.2454207387
 21
18.6322879327
  0
LINE
  5
232
100
AcDbEntity
  8
0
100
AcDbLine
 62
7
  6
CONTINUOUS
 10
10.2145890009
 20
18.6014561949
 11
10.2081343686
 21
18.5950015627
  0
LINE
  5
233
100
AcDbEntity
  8
0
100
AcDbLine
 62
7
  6
CONTINUOUS
 10
10.1761301159
 20
18.56299731
 11
10.158356818
 21
18.545224012
  0
LINE
  5
234
100
AcDbEntity
  8
0
100
AcDbLine
 62
7
  6
CONTINUOUS
 10
10.1248903688
 20
18.5117575629
 11
10.108709327
 21
18.4955765211
  0
LINE
  5
235
100
AcDbEntity
  8
0
100
AcDbLine
 62
7
  6
CONTINUOUS
 10
10.0735205731
 20
18.4603877671
 11
10.0589006671
 21
18.4457678612
  0
LINE
  5
236
100
AcDbEntity
  8
0
100
AcDbLine
 62
7
  6
CONTINUOUS
 10
9.533532224
 20
17.9008994253
 11
9.2860448505
 21
17.6534120519
  0
LINE
  5
237
100
AcDbEntity
  8
0
100
AcDbLine
 62
7
  6
CONTINUOUS
 10
10.2394545027
 20
18.5947935038
 11
10.2520834298
 21
18.6074224309
  0
LINE
  5
238
100
AcDbEntity
  8
0
100
AcDbLine
 62
7
  6
CONTINUOUS
 10
10.2152325529
 20
18.5685408706
 11
10.202810292
 21
18.5561186097
  0
LINE
  5
239
100
AcDbEntity
  8
0
100
AcDbLine
 62
7
  6
CONTINUOUS
 10
10.1659894907
 20
18.5167651722
 11
10.1535681937
 21
18.5043438752
  0
LINE
  5
23A
100
AcDbEntity
  8
0
100
AcDbLine
 62
7
  6
CONTINUOUS
 10
10.1169713055
 20
18.464763819
 11
10.1045512624
 21
18.4523437759
  0
LINE
  5
23B
100
AcDbEntity
  8
0
100
AcDbLine
 62
7
  6
CONTINUOUS
 10
10.0676769244
 20
18.4130447879
 11
10.0607198431
 21
18.4060877067
  0
LINE
  5
23C
100
AcDbEntity
  8
0
100
AcDbLine
 62
7
  6
CONTINUOUS
 10
7.6119665103
 20
15.9308655481
 11
7.5983163899
 21
15.9172154277
  0
LINE
  5
23D
100
AcDbEntity
  8
0
100
AcDbLine
 62
7
  6
CONTINUOUS
 10
7.752438513
 20
16.0386866865
 11
7.728659537
 21
16.0149077105
  0
LINE
  5
23E
100
AcDbEntity
  8
0
100
AcDbLine
 62
7
  6
CONTINUOUS
 10
10.0165233424
 20
18.2735075121
 11
9.8771329027
 21
18.1341170724
  0
LINE
  5
23F
100
AcDbEntity
  8
0
100
AcDbLine
 62
7
  6
CONTINUOUS
 10
7.7820035831
 20
15.952922378
 11
7.7569459418
 21
15.9278647368
  0
LINE
  5
240
100
AcDbEntity
  8
0
100
AcDbLine
 62
7
  6
CONTINUOUS
 10
7.7074719427
 20
15.8259312663
 11
7.6985362486
 21
15.8169955689
  0
LINE
  5
241
100
AcDbEntity
  8
0
100
AcDbLine
 62
7
  6
CONTINUOUS
 10
7.7631220926
 20
15.7761585903
 11
7.7512476599
 21
15.7642841576
  0
LINE
  5
242
100
AcDbEntity
  8
0
100
AcDbLine
 62
7
  6
CONTINUOUS
 10
7.8796026371
 20
15.8500817145
 11
7.8571658006
 21
15.827644878
  0
LINE
  5
243
100
AcDbEntity
  8
0
100
AcDbLine
 62
7
  6
CONTINUOUS
 10
7.9318426114
 20
15.8611087143
 11
7.9071505723
 21
15.8364166752
  0
LINE
  5
244
100
AcDbEntity
  8
0
100
AcDbLine
 62
7
  6
CONTINUOUS
 10
7.8621760242
 20
15.6747728044
 11
7.8514675186
 21
15.6640642989
  0
LINE
  5
245
100
AcDbEntity
  8
0
100
AcDbLine
 62
7
  6
CONTINUOUS
 10
7.9172283044
 20
15.6184332652
 11
7.9071634284
 21
15.6083683891
  0
LINE
  5
246
100
AcDbEntity
  8
0
100
AcDbLine
 62
7
  6
CONTINUOUS
 10
8.0487657799
 20
15.7441855457
 11
8.0240737408
 21
15.7194935066
  0
LINE
  5
247
100
AcDbEntity
  8
0
100
AcDbLine
 62
7
  6
CONTINUOUS
 10
8.0377387802
 20
15.6919455715
 11
8.0153019437
 21
15.6695087349
  0
LWPOLYLINE
  5
248
100
AcDbEntity
  8
0
100
AcDbPolyline
 62
7
  6
CONTINUOUS
 90
9
 70
0
 10
7.7074709616
 20
15.8259324079
 10
7.7085963278
 20
15.8269099553
 10
7.710273984
 20
15.827941426
 10
7.7120318631
 20
15.828616336
 10
7.7136622251
 20
15.8289314586
 10
7.7149575098
 20
15.8289777944
 10
7.7158623423
 20
15.8288931959
 10
7.7164262504
 20
15.8287801196
 10
7.7166374868
 20
15.8287208654
  0
LWPOLYLINE
  5
249
100
AcDbEntity
  8
0
100
AcDbPolyline
 62
7
  6
CONTINUOUS
 90
9
 70
0
 10
8.0199005622
 20
15.5206652365
 10
8.0210566575
 20
15.5216646288
 10
8.0226457326
 20
15.5226391797
 10
8.0242590403
 20
15.523273349
 10
8.0257298926
 20
15.5235861162
 10
8.0268897183
 20
15.5236598602
 10
8.0276822829
 20
15.5236123816
 10
8.0281235397
 20
15.5235406986
 10
8.0282396561
 20
15.5235132383
  0
LWPOLYLINE
  5
24A
100
AcDbEntity
  8
0
100
AcDbPolyline
 62
7
  6
CONTINUOUS
 90
9
 70
0
 10
7.8621727989
 20
15.6747723437
 10
7.863365481
 20
15.6757983198
 10
7.865055765
 20
15.6768117181
 10
7.8667850798
 20
15.6774496251
 10
7.8683300741
 20
15.6777291611
 10
7.8694969162
 20
15.6777618622
 10
7.8702529013
 20
15.6776901336
 10
7.8706745918
 20
15.6776077169
 10
7.8707787098
 20
15.6775796617
  0
LINE
  5
24B
100
AcDbEntity
  8
0
100
AcDbLine
 62
7
  6
CONTINUOUS
 10
8.3209699252
 20
15.1598043052
 11
8.2510214013
 21
15.1271867728
  0
LINE
  5
24C
100
AcDbEntity
  8
0
100
AcDbLine
 62
7
  6
CONTINUOUS
 10
14.7974226038
 20
1.822391804
 11
14.4224226038
 21
1.822391804
  0
LINE
  5
24D
100
AcDbEntity
  8
0
100
AcDbLine
 62
7
  6
CONTINUOUS
 10
7.3499079636
 20
16.1385595948
 11
7.3148438385
 21
16.0633643357
  0
LINE
  5
24E
100
AcDbEntity
  8
0
100
AcDbLine
 62
7
  6
CONTINUOUS
 10
10.7826536463
 20
18.0520006839
 11
10.7826476317
 21
18.0519944992
  0
LINE
  5
24F
100
AcDbEntity
  8
0
100
AcDbLine
 62
7
  6
CONTINUOUS
 10
8.019901274
 20
15.5206665172
 11
8.0073832871
 21
15.5081485304
  0
LINE
  5
250
100
AcDbEntity
  8
0
100
AcDbLine
 62
7
  6
CONTINUOUS
 10
8.1405794437
 20
15.5943465175
 11
8.1155218024
 21
15.5692888762
  0
LINE
  5
251
100
AcDbEntity
  8
0
100
AcDbLine
 62
7
  6
CONTINUOUS
 10
8.2263437521
 20
15.5647814473
 11
8.2025647761
 21
15.5410024713
  0
LINE
  5
252
100
AcDbEntity
  8
0
100
AcDbLine
 62
7
  6
CONTINUOUS
 10
10.6140074562
 20
17.8919651312
 11
10.6264271518
 21
17.9043848267
  0
LINE
  5
253
100
AcDbEntity
  8
0
100
AcDbLine
 62
7
  6
CONTINUOUS
 10
10.6658456136
 20
17.9411474524
 11
10.678266369
 21
17.9535682078
  0
LINE
  5
254
100
AcDbEntity
  8
0
100
AcDbLine
 62
7
  6
CONTINUOUS
 10
10.7176537834
 20
17.9903523897
 11
10.7300755091
 21
18.0027741154
  0
LINE
  5
255
100
AcDbEntity
  8
0
100
AcDbLine
 62
7
  6
CONTINUOUS
 10
10.7695039638
 20
18.0395201982
 11
10.7819267232
 21
18.0519429576
  0
LINE
  5
256
100
AcDbEntity
  8
0
100
AcDbLine
 62
7
  6
CONTINUOUS
 10
10.7826476317
 20
18.0519944992
 11
10.7950794966
 21
18.0644263641
  0
LINE
  5
257
100
AcDbEntity
  8
0
100
AcDbLine
 62
7
  6
CONTINUOUS
 10
11.5972478666
 20
18.8350665413
 11
10.8199449984
 21
18.057763673
  0
LINE
  5
258
100
AcDbEntity
  8
0
100
AcDbLine
 62
7
  6
CONTINUOUS
 10
10.7763016711
 20
18.0141203457
 11
10.7577856511
 21
17.9956043257
  0
LINE
  5
259
100
AcDbEntity
  8
0
100
AcDbLine
 62
7
  6
CONTINUOUS
 10
10.7250186981
 20
17.9628373728
 11
10.7080285344
 21
17.945847209
  0
LINE
  5
25A
100
AcDbEntity
  8
0
100
AcDbLine
 62
7
  6
CONTINUOUS
 10
10.6737585339
 20
17.9115772086
 11
10.6582865541
 21
17.8961052287
  0
LINE
  5
25B
100
AcDbEntity
  8
0
100
AcDbLine
 62
7
  6
CONTINUOUS
 10
10.6224832631
 20
17.8603019377
 11
10.6144944376
 21
17.8523131122
  0
LINE
  5
25C
100
AcDbEntity
  8
0
100
AcDbLine
 62
7
  6
CONTINUOUS
 10
10.6471981262
 20
17.8196094236
 11
10.4194193389
 21
17.5918306363
  0
LINE
  5
25D
100
AcDbEntity
  8
0
100
AcDbLine
 62
7
  6
CONTINUOUS
 10
8.2745479232
 20
15.4296492455
 11
8.2648546782
 21
15.4199560004
  0
LINE
  5
25E
100
AcDbEntity
  8
0
100
AcDbLine
 62
7
  6
CONTINUOUS
 10
8.3441799837
 20
15.4487713419
 11
8.3194879447
 21
15.4240793028
  0
LINE
  5
25F
100
AcDbEntity
  8
0
100
AcDbLine
 62
7
  6
CONTINUOUS
 10
10.2176307566
 20
17.2168008926
 11
9.5529503823
 21
16.5521205183
  0
LINE
  5
260
100
AcDbEntity
  8
0
100
AcDbLine
 62
7
  6
CONTINUOUS
 10
8.3926650028
 20
15.3473266075
 11
8.3650745369
 21
15.3197361417
  0
LINE
  5
261
100
AcDbEntity
  8
0
100
AcDbLine
 62
7
  6
CONTINUOUS
 10
8.3215097212
 20
15.2046638012
 11
8.3161888688
 21
15.1993429487
  0
LINE
  5
262
100
AcDbEntity
  8
0
100
AcDbLine
 62
7
  6
CONTINUOUS
 10
8.4983496176
 20
15.2862228847
 11
8.4778469902
 21
15.2657202573
  0
LINE
  5
263
100
AcDbEntity
  8
0
100
AcDbLine
 62
7
  6
CONTINUOUS
 10
8.498290784
 20
15.2059063847
 11
8.488597539
 21
15.1962131396
  0
LINE
  5
264
100
AcDbEntity
  8
0
100
AcDbLine
 62
7
  6
CONTINUOUS
 10
8.4336777128
 20
15.1163920752
 11
8.4164087275
 21
15.09912309
  0
LINE
  5
265
100
AcDbEntity
  8
0
100
AcDbLine
 62
7
  6
CONTINUOUS
 10
8.6194621978
 20
15.1734891278
 11
8.5947701587
 21
15.1487970887
  0
LINE
  5
266
100
AcDbEntity
  8
0
100
AcDbLine
 62
7
  6
CONTINUOUS
 10
8.5114200544
 20
15.0404349335
 11
8.4932584692
 21
15.0222733483
  0
LINE
  5
267
100
AcDbEntity
  8
0
100
AcDbLine
 62
7
  6
CONTINUOUS
 10
8.6186798377
 20
15.1258557208
 11
8.5888173977
 21
15.0959932809
  0
LINE
  5
268
100
AcDbEntity
  8
0
100
AcDbLine
 62
7
  6
CONTINUOUS
 10
8.5536126637
 20
14.9992147988
 11
8.5349648412
 21
14.9805669763
  0
LINE
  5
269
100
AcDbEntity
  8
0
100
AcDbLine
 62
7
  6
CONTINUOUS
 10
8.5536123749
 20
14.9992153507
 11
8.5541553934
 21
14.9997255671
  0
LWPOLYLINE
  5
26A
100
AcDbEntity
  8
0
100
AcDbPolyline
 62
7
  6
CONTINUOUS
 90
13
 70
0
 10
8.511420871
 20
15.0404350653
 10
8.5123924918
 20
15.0413039926
 10
8.5139245129
 20
15.0423366572
 10
8.5155545754
 20
15.043096116
 10
8.5171978697
 20
15.0435737693
 10
8.5187157752
 20
15.0437881124
 10
8.5199946117
 20
15.043806911
 10
8.5210071896
 20
15.0437145206
 10
8.5217673051
 20
15.043577767
 10
8.5223161695
 20
15.0434390866
 10
8.5226862123
 20
15.0433227405
 10
8.5229063422
 20
15.0432420903
 10
8.5229858407
 20
15.043209744
  0
LWPOLYLINE
  5
26B
100
AcDbEntity
  8
0
100
AcDbPolyline
 62
7
  6
CONTINUOUS
 90
11
 70
0
 10
8.4336748821
 20
15.1163906374
 10
8.4347598326
 20
15.1173458274
 10
8.4363079788
 20
15.118350508
 10
8.4379208711
 20
15.1190613577
 10
8.4395028381
 20
15.1194835999
 10
8.4409111707
 20
15.1196519046
 10
8.4420382331
 20
15.1196464947
 10
8.4428576532
 20
15.1195582405
 10
8.4434136885
 20
15.1194505656
 10
8.4437219108
 20
15.1193691867
 10
8.4438165519
 20
15.1193390942
  0
LWPOLYLINE
  5
26C
100
AcDbEntity
  8
0
100
AcDbPolyline
 62
7
  6
CONTINUOUS
 90
16
 70
0
 10
8.5541553934
 20
14.9997255671
 10
8.5553675286
 20
15.0006601356
 10
8.5566528427
 20
15.0014114395
 10
8.5579781415
 20
15.0019788628
 10
8.5593167967
 20
15.0023690123
 10
8.5606242294
 20
15.0025903285
 10
8.5618544691
 20
15.0026629054
 10
8.5629981599
 20
15.0026135237
 10
8.5640298655
 20
15.0024709034
 10
8.5649368679
 20
15.0022653814
 10
8.5656782198
 20
15.0020375308
 10
8.566252993
 20
15.0018199975
 10
8.5666704073
 20
15.0016367424
 10
8.5669439832
 20
15.0015028981
 10
8.5670935255
 20
15.0014237243
 10
8.5671412267
 20
15.0013970809
  0
LINE
  5
26D
100
AcDbEntity
  8
0
100
AcDbLine
 62
7
  6
CONTINUOUS
 10
8.68707152
 20
15.0293165589
 11
8.6712828198
 21
15.0135278588
  0
LINE
  5
26E
100
AcDbEntity
  8
0
100
AcDbLine
 62
7
  6
CONTINUOUS
 10
8.7319280924
 20
15.0470209669
 11
8.7142371864
 21
15.029330061
  0
LINE
  5
26F
100
AcDbEntity
  8
0
100
AcDbLine
 62
7
  6
CONTINUOUS
 10
8.7233648195
 20
14.8932156243
 11
8.7185736326
 21
14.8884244375
  0
LINE
  5
270
100
AcDbEntity
  8
0
100
AcDbLine
 62
7
  6
CONTINUOUS
 10
8.7811959236
 20
14.9230012451
 11
8.7715026786
 21
14.913308
  0
LINE
  5
271
100
AcDbEntity
  8
0
100
AcDbLine
 62
7
  6
CONTINUOUS
 10
8.8149413999
 20
14.898830437
 11
8.8004608207
 21
14.8843498579
  0
LINE
  5
272
100
AcDbEntity
  8
0
100
AcDbLine
 62
7
  6
CONTINUOUS
 10
8.8558523941
 20
14.9370989315
 11
8.831160355
 21
14.9124068925
  0
LINE
  5
273
100
AcDbEntity
  8
0
100
AcDbLine
 62
7
  6
CONTINUOUS
 10
8.9111602499
 20
14.8634759698
 11
8.8956257638
 21
14.8479414837
  0
LINE
  5
274
100
AcDbEntity
  8
0
100
AcDbLine
 62
7
  6
CONTINUOUS
 10
8.9103739245
 20
14.7938232442
 11
8.9006806795
 21
14.7841299991
  0
LINE
  5
275
100
AcDbEntity
  8
0
100
AcDbLine
 62
7
  6
CONTINUOUS
 10
8.9778718796
 20
14.7275862918
 11
8.9675481332
 21
14.7172625454
  0
LINE
  5
276
100
AcDbEntity
  8
0
100
AcDbLine
 62
7
  6
CONTINUOUS
 10
9.0372409714
 20
14.7557103542
 11
9.0125489323
 21
14.7310183152
  0
LINE
  5
277
100
AcDbEntity
  8
0
100
AcDbLine
 62
7
  6
CONTINUOUS
 10
9.1512665979
 20
14.6416847277
 11
9.1265745588
 21
14.6169926886
  0
LINE
  5
278
100
AcDbEntity
  8
0
100
AcDbLine
 62
7
  6
CONTINUOUS
 10
9.3188050041
 20
14.4975927613
 11
9.2967960914
 21
14.4755838485
  0
LINE
  5
279
100
AcDbEntity
  8
0
100
AcDbLine
 62
7
  6
CONTINUOUS
 10
10.0712596529
 20
15.0551754625
 11
9.4744029567
 21
14.4583187663
  0
LINE
  5
27A
100
AcDbEntity
  8
0
100
AcDbLine
 62
7
  6
CONTINUOUS
 10
14.7974226038
 20
4.384891804
 11
14.6579593435
 21
4.384891804
  0
LINE
  5
27B
100
AcDbEntity
  8
0
100
AcDbLine
 62
7
  6
CONTINUOUS
 10
6.759992122
 20
16.9638900861
 11
6.759992122
 21
16.9523585008
  0
LINE
  5
27C
100
AcDbEntity
  8
0
100
AcDbLine
 62
7
  6
CONTINUOUS
 10
6.7988841397
 20
16.9249972236
 11
6.7988841397
 21
16.9134664465
  0
LINE
  5
27D
100
AcDbEntity
  8
0
100
AcDbLine
 62
7
  6
CONTINUOUS
 10
6.8991539965
 20
16.7659711996
 11
6.8991539965
 21
16.7544399576
  0
LINE
  5
27E
100
AcDbEntity
  8
0
100
AcDbLine
 62
7
  6
CONTINUOUS
 10
6.9129097663
 20
16.810971597
 11
6.9129097663
 21
16.7994408199
  0
LINE
  5
27F
100
AcDbEntity
  8
0
100
AcDbLine
 62
7
  6
CONTINUOUS
 10
6.9660214502
 20
16.6991037751
 11
6.9660214502
 21
16.6875725039
  0
LINE
  5
280
100
AcDbEntity
  8
0
100
AcDbLine
 62
7
  6
CONTINUOUS
 10
7.0942983436
 20
16.6295830197
 11
7.0942983436
 21
16.6180522426
  0
LINE
  5
281
100
AcDbEntity
  8
0
100
AcDbLine
 62
7
  6
CONTINUOUS
 10
7.0951994511
 20
16.5699257742
 11
7.0951994511
 21
16.558394503
  0
LINE
  5
282
100
AcDbEntity
  8
0
100
AcDbLine
 62
7
  6
CONTINUOUS
 10
7.1577559819
 20
16.3459647502
 11
7.1577559819
 21
16.3279105286
  0
LINE
  5
283
100
AcDbEntity
  8
0
100
AcDbLine
 62
7
  6
CONTINUOUS
 10
7.175422963
 20
16.3282977691
 11
7.175422963
 21
16.3102435014
  0
LINE
  5
284
100
AcDbEntity
  8
0
100
AcDbLine
 62
7
  6
CONTINUOUS
 10
7.2300778353
 20
16.2736428968
 11
7.2300778353
 21
16.2555886291
  0
LINE
  5
285
100
AcDbEntity
  8
0
100
AcDbLine
 62
7
  6
CONTINUOUS
 10
7.277884732
 20
16.3872404933
 11
7.277884732
 21
16.3757092222
  0
LINE
  5
286
100
AcDbEntity
  8
0
100
AcDbLine
 62
7
  6
CONTINUOUS
 10
7.3306885398
 20
16.3931928235
 11
7.3306885398
 21
16.3816620463
  0
LINE
  5
287
100
AcDbEntity
  8
0
100
AcDbLine
 62
7
  6
CONTINUOUS
 10
7.341335487
 20
16.162385245
 11
7.341335487
 21
16.1443309773
  0
LINE
  5
288
100
AcDbEntity
  8
0
100
AcDbLine
 62
7
  6
CONTINUOUS
 10
7.3729509498
 20
15.978785222
 11
7.3729509498
 21
15.9672539447
  0
LINE
  5
289
100
AcDbEntity
  8
0
100
AcDbLine
 62
7
  6
CONTINUOUS
 10
13.3924276343
 20
5.9140923074
 11
13.2564276343
 21
5.8825923074
  0
LINE
  5
28A
100
AcDbEntity
  8
0
100
AcDbLine
 62
7
  6
CONTINUOUS
 10
13.4894226038
 20
5.014891804
 11
13.3994226038
 21
5.014891804
  0
LINE
  5
28B
100
AcDbEntity
  8
0
100
AcDbLine
 62
7
  6
CONTINUOUS
 10
14.4844226038
 20
5.228891804
 11
14.3164226038
 21
5.228891804
  0
LINE
  5
28C
100
AcDbEntity
  8
0
100
AcDbLine
 62
7
  6
CONTINUOUS
 10
13.7254226038
 20
5.287891804
 11
14.3044226038
 21
5.287891804
  0
LINE
  5
28D
100
AcDbEntity
  8
0
100
AcDbLine
 62
7
  6
CONTINUOUS
 10
13.7254226038
 20
5.641891804
 11
14.3044226038
 21
5.641891804
  0
LINE
  5
28E
100
AcDbEntity
  8
0
100
AcDbLine
 62
7
  6
CONTINUOUS
 10
14.4844226038
 20
5.700891804
 11
14.3164226038
 21
5.700891804
  0
LINE
  5
28F
100
AcDbEntity
  8
0
100
AcDbLine
 62
7
  6
CONTINUOUS
 10
13.3924276343
 20
5.0156913007
 11
13.2564276343
 21
5.0471913007
  0
LINE
  5
290
100
AcDbEntity
  8
0
100
AcDbLine
 62
7
  6
CONTINUOUS
 10
7.5016275928
 20
16.1634976325
 11
7.5016275928
 21
16.1519663614
  0
LINE
  5
291
100
AcDbEntity
  8
0
100
AcDbLine
 62
7
  6
CONTINUOUS
 10
7.5514863306
 20
15.8002498388
 11
7.5514863306
 21
15.7887185638
  0
LINE
  5
292
100
AcDbEntity
  8
0
100
AcDbLine
 62
7
  6
CONTINUOUS
 10
7.5948570211
 20
15.9088637108
 11
7.5948570211
 21
15.8908094439
  0
LINE
  5
293
100
AcDbEntity
  8
0
100
AcDbLine
 62
7
  6
CONTINUOUS
 10
7.6059707539
 20
16.1179106094
 11
7.6059707539
 21
16.1063798323
  0
LINE
  5
294
100
AcDbEntity
  8
0
100
AcDbLine
 62
7
  6
CONTINUOUS
 10
7.7477882912
 20
15.7559324409
 11
7.7477882912
 21
15.7378781732
  0
LINE
  5
295
100
AcDbEntity
  8
0
100
AcDbLine
 62
7
  6
CONTINUOUS
 10
7.7511803273
 20
15.913944898
 11
7.7511803273
 21
15.9024136269
  0
LINE
  5
296
100
AcDbEntity
  8
0
100
AcDbLine
 62
7
  6
CONTINUOUS
 10
7.7999226038
 20
-2.805108196
 11
7.7999226038
 21
-1.365108196
  0
LINE
  5
297
100
AcDbEntity
  8
0
100
AcDbLine
 62
7
  6
CONTINUOUS
 10
7.8039734876
 20
15.5477626842
 11
7.8039734876
 21
15.5362314069
  0
LINE
  5
298
100
AcDbEntity
  8
0
100
AcDbLine
 62
7
  6
CONTINUOUS
 10
7.9013849577
 20
15.8224964058
 11
7.9013849577
 21
15.8109656285
  0
LINE
  5
299
100
AcDbEntity
  8
0
100
AcDbLine
 62
7
  6
CONTINUOUS
 10
7.9037040596
 20
15.6000166724
 11
7.9037040596
 21
15.5819624047
  0
LINE
  5
29A
100
AcDbEntity
  8
0
100
AcDbLine
 62
7
  6
CONTINUOUS
 10
7.9825088684
 20
15.363829265
 11
7.9825088684
 21
15.357696026
  0
LINE
  5
29B
100
AcDbEntity
  8
0
100
AcDbLine
 62
7
  6
CONTINUOUS
 10
8.0095363291
 20
15.6555888961
 11
8.0095363291
 21
15.644057625
  0
LINE
  5
29C
100
AcDbEntity
  8
0
100
AcDbLine
 62
7
  6
CONTINUOUS
 10
8.1967991616
 20
15.5270822017
 11
8.1967991616
 21
15.5155514246
  0
LINE
  5
29D
100
AcDbEntity
  8
0
100
AcDbLine
 62
7
  6
CONTINUOUS
 10
8.2590890636
 20
15.4060361617
 11
8.2590890636
 21
15.3945048905
  0
LINE
  5
29E
100
AcDbEntity
  8
0
100
AcDbLine
 62
7
  6
CONTINUOUS
 10
8.3127295
 20
15.190991232
 11
8.3127295
 21
15.1729369643
  0
LINE
  5
29F
100
AcDbEntity
  8
0
100
AcDbLine
 62
7
  6
CONTINUOUS
 10
13.4894226038
 20
5.914891804
 11
13.3994226038
 21
5.914891804
  0
LINE
  5
2A0
100
AcDbEntity
  8
0
100
AcDbLine
 62
7
  6
CONTINUOUS
 10
11.4589231247
 20
6.259891804
 11
11.903922083
 21
6.259891804
  0
LINE
  5
2A1
100
AcDbEntity
  8
0
100
AcDbLine
 62
7
  6
CONTINUOUS
 10
14.1094226038
 20
6.447391804
 11
14.4844226038
 21
6.447391804
  0
LINE
  5
2A2
100
AcDbEntity
  8
0
100
AcDbLine
 62
7
  6
CONTINUOUS
 10
8.4720813756
 20
15.2517999877
 11
8.4720813756
 21
15.2402692106
  0
LINE
  5
2A3
100
AcDbEntity
  8
0
100
AcDbLine
 62
7
  6
CONTINUOUS
 10
8.4828319244
 20
15.1822933009
 11
8.4828319244
 21
15.1707620297
  0
LINE
  5
2A4
100
AcDbEntity
  8
0
100
AcDbLine
 62
7
  6
CONTINUOUS
 10
8.6655172053
 20
14.99960802
 11
8.6655172053
 21
14.9880767489
  0
LINE
  5
2A5
100
AcDbEntity
  8
0
100
AcDbLine
 62
7
  6
CONTINUOUS
 10
8.6749226038
 20
-2.805108196
 11
8.6749226038
 21
-1.365108196
  0
LINE
  5
2A6
100
AcDbEntity
  8
0
100
AcDbLine
 62
7
  6
CONTINUOUS
 10
8.7084715719
 20
15.0154097914
 11
8.7084715719
 21
15.0038790143
  0
LINE
  5
2A7
100
AcDbEntity
  8
0
100
AcDbLine
 62
7
  6
CONTINUOUS
 10
8.7946952062
 20
14.8704300191
 11
8.7946952062
 21
14.858898748
  0
LINE
  5
2A8
100
AcDbEntity
  8
0
100
AcDbLine
 62
7
  6
CONTINUOUS
 10
8.8898601492
 20
14.8340212141
 11
8.8898601492
 21
14.822490437
  0
LINE
  5
2A9
100
AcDbEntity
  8
0
100
AcDbLine
 62
7
  6
CONTINUOUS
 10
9.0038857757
 20
14.7199955876
 11
9.0038857757
 21
14.7084648104
  0
LINE
  5
2AA
100
AcDbEntity
  8
0
100
AcDbLine
 62
7
  6
CONTINUOUS
 10
12.5414226038
 20
6.978641804
 11
12.9814226038
 21
6.978641804
  0
LINE
  5
2AB
100
AcDbEntity
  8
0
100
AcDbLine
 62
7
  6
CONTINUOUS
 10
13.0014226038
 20
6.978641804
 11
14.1094226038
 21
6.978641804
  0
LINE
  5
2AC
100
AcDbEntity
  8
0
100
AcDbLine
 62
7
  6
CONTINUOUS
 10
11.3814226038
 20
7.259891804
 11
11.4464226038
 21
7.259891804
  0
LINE
  5
2AD
100
AcDbEntity
  8
0
100
AcDbLine
 62
7
  6
CONTINUOUS
 10
11.9164226038
 20
7.259891804
 11
11.9814226038
 21
7.259891804
  0
LINE
  5
2AE
100
AcDbEntity
  8
0
100
AcDbLine
 62
7
  6
CONTINUOUS
 10
11.9814226038
 20
7.384891804
 11
12.5414226038
 21
7.384891804
  0
LINE
  5
2AF
100
AcDbEntity
  8
0
100
AcDbLine
 62
7
  6
CONTINUOUS
 10
13.0014226038
 20
7.434891804
 11
12.9814226038
 21
7.434891804
  0
LINE
  5
2B0
100
AcDbEntity
  8
0
100
AcDbLine
 62
7
  6
CONTINUOUS
 10
9.5141927789
 20
16.5722061086
 11
9.517498764
 21
15.7548875853
  0
LINE
  5
2B1
100
AcDbEntity
  8
0
100
AcDbLine
 62
7
  6
CONTINUOUS
 10
9.7244237768
 20
18.0988261984
 11
9.7244237768
 21
18.0255100336
  0
LINE
  5
2B2
100
AcDbEntity
  8
0
100
AcDbLine
 62
7
  6
CONTINUOUS
 10
10.1086580174
 20
18.4948655464
 11
10.108709327
 21
18.4955765211
  0
LINE
  5
2B3
100
AcDbEntity
  8
0
100
AcDbLine
 62
7
  6
CONTINUOUS
 10
10.0588497919
 20
18.445063846
 11
10.0589006671
 21
18.4457678612
  0
LINE
  5
2B4
100
AcDbEntity
  8
0
100
AcDbLine
 62
7
  6
CONTINUOUS
 10
10.1583057582
 20
18.5445175551
 11
10.158356818
 21
18.545224012
  0
LINE
  5
2B5
100
AcDbEntity
  8
0
100
AcDbLine
 62
7
  6
CONTINUOUS
 10
10.2081343686
 20
18.5950015627
 11
10.2080835026
 21
18.5942976789
  0
LINE
  5
2B6
100
AcDbEntity
  8
0
100
AcDbLine
 62
7
  6
CONTINUOUS
 10
10.6224832631
 20
17.8603019377
 11
10.6225374059
 21
17.8610508189
  0
LINE
  5
2B7
100
AcDbEntity
  8
0
100
AcDbLine
 62
7
  6
CONTINUOUS
 10
13.0014226038
 20
7.834891804
 11
12.9814226038
 21
7.834891804
  0
LINE
  5
2B8
100
AcDbEntity
  8
0
100
AcDbLine
 62
7
  6
CONTINUOUS
 10
11.9814226038
 20
7.884891804
 11
12.5414226038
 21
7.884891804
  0
LINE
  5
2B9
100
AcDbEntity
  8
0
100
AcDbLine
 62
7
  6
CONTINUOUS
 10
11.3814226038
 20
8.009891804
 11
11.4464226038
 21
8.009891804
  0
LINE
  5
2BA
100
AcDbEntity
  8
0
100
AcDbLine
 62
7
  6
CONTINUOUS
 10
11.9164226038
 20
8.009891804
 11
11.9814226038
 21
8.009891804
  0
LWPOLYLINE
  5
2BB
100
AcDbEntity
  8
0
100
AcDbPolyline
 62
7
  6
CONTINUOUS
 90
10
 70
0
 10
7.6148815655
 20
15.939130711
 10
7.6148445118
 20
15.9392452963
 10
7.6148711347
 20
15.9391303652
 10
7.6149415907
 20
15.9386867844
 10
7.6149870189
 20
15.9378865082
 10
7.6149104121
 20
15.9367254641
 10
7.614598586
 20
15.9352637284
 10
7.6139718485
 20
15.9336611906
 10
7.6130056646
 20
15.9320722772
 10
7.6119693593
 20
15.9308676931
  0
LWPOLYLINE
  5
2BC
100
AcDbEntity
  8
0
100
AcDbPolyline
 62
7
  6
CONTINUOUS
 90
9
 70
0
 10
7.1826286797
 20
16.3856031404
 10
7.1831302903
 20
16.383919789
 10
7.1833773798
 20
16.3821748468
 10
7.1833608479
 20
16.3804015628
 10
7.1830713258
 20
16.3786176622
 10
7.1825121402
 20
16.376896791
 10
7.1817028893
 20
16.3752934016
 10
7.1806688062
 20
16.3738398664
 10
7.1799432437
 20
16.3730457263
  0
LINE
  5
2BD
100
AcDbEntity
  8
0
100
AcDbLine
 62
9
  6
CONTINUOUS
 10
10.2374226038
 20
1.072391804
 11
10.2374226038
 21
0.197391804
  0
LINE
  5
2BE
100
AcDbEntity
  8
0
100
AcDbLine
 62
7
  6
CONTINUOUS
 10
10.6738131148
 20
17.9123317359
 11
10.6737585339
 21
17.9115772086
  0
LINE
  5
2BF
100
AcDbEntity
  8
0
100
AcDbLine
 62
7
  6
CONTINUOUS
 10
10.7250727325
 20
17.9635848353
 11
10.7250186981
 21
17.9628373728
  0
LINE
  5
2C0
100
AcDbEntity
  8
0
100
AcDbLine
 62
7
  6
CONTINUOUS
 10
10.7763558069
 20
18.0148691246
 11
10.7763016711
 21
18.0141203457
  0
LINE
  5
2C1
100
AcDbEntity
  8
0
100
AcDbLine
 62
7
  6
CONTINUOUS
 10
12.5414226038
 20
8.291141804
 11
12.9814226038
 21
8.291141804
  0
LINE
  5
2C2
100
AcDbEntity
  8
0
100
AcDbLine
 62
7
  6
CONTINUOUS
 10
13.0014226038
 20
8.291141804
 11
14.1094226038
 21
8.291141804
  0
LINE
  5
2C3
100
AcDbEntity
  8
0
100
AcDbLine
 62
7
  6
CONTINUOUS
 10
14.1094226038
 20
8.822391804
 11
14.4844226038
 21
8.822391804
  0
LINE
  5
2C4
100
AcDbEntity
  8
0
100
AcDbLine
 62
7
  6
CONTINUOUS
 10
11.4589231247
 20
9.009891804
 11
11.903922083
 21
9.009891804
  0
LINE
  5
2C5
100
AcDbEntity
  8
0
100
AcDbLine
 62
7
  6
CONTINUOUS
 10
13.7254226038
 20
5.689891804
 11
13.5114365629
 21
5.9057180636
  0
LINE
  5
2C6
100
AcDbEntity
  8
0
100
AcDbLine
 62
7
  6
CONTINUOUS
 10
7.1819216297
 20
16.3871239654
 11
7.1826286797
 21
16.3856031404
  0
LWPOLYLINE
  5
2C7
100
AcDbEntity
  8
0
100
AcDbPolyline
 62
7
  6
CONTINUOUS
 90
13
 70
0
 10
7.2543013711
 20
16.3108614666
 10
7.2542904948
 20
16.3108869727
 10
7.254330326
 20
16.3107789916
 10
7.2544186741
 20
16.3105019392
 10
7.2545386279
 20
16.3100361638
 10
7.2546652766
 20
16.309354691
 10
7.2547575572
 20
16.3084246529
 10
7.2547519489
 20
16.3072050491
 10
7.254558015
 20
16.3057167479
 10
7.2540979004
 20
16.3040739296
 10
7.253346709
 20
16.302428922
 10
7.2523139436
 20
16.3008801924
 10
7.251425618
 20
16.2998831334
  0
LWPOLYLINE
  5
2C8
100
AcDbEntity
  8
0
100
AcDbPolyline
 62
7
  6
CONTINUOUS
 90
10
 70
0
 10
7.9200389557
 20
15.6271758379
 10
7.9200250467
 20
15.6272141668
 10
7.9200730538
 20
15.6270373668
 10
7.9201661934
 20
15.6265440927
 10
7.9202364962
 20
15.6257052343
 10
7.9201842796
 20
15.6244837117
 10
7.9198788939
 20
15.622929801
 10
7.9192295879
 20
15.6212338916
 10
7.9182282959
 20
15.6195908913
 10
7.9172273693
 20
15.618432743
  0
LWPOLYLINE
  5
2C9
100
AcDbEntity
  8
0
100
AcDbPolyline
 62
7
  6
CONTINUOUS
 90
10
 70
0
 10
7.7659830938
 20
15.7844580664
 10
7.7659529734
 20
15.7845485769
 10
7.7659834215
 20
15.7844234125
 10
7.7660580006
 20
15.783978674
 10
7.7661095929
 20
15.7831848745
 10
7.7660417164
 20
15.7820250222
 10
7.7657355727
 20
15.780550543
 10
7.765106189
 20
15.7789293634
 10
7.7641348037
 20
15.7773334336
 10
7.7631198671
 20
15.7761558201
  0
LINE
  5
2CA
100
AcDbEntity
  8
0
100
AcDbLine
 62
7
  6
CONTINUOUS
 10
11.3814226038
 20
7.259891804
 11
11.3814226038
 21
8.009891804
  0
LINE
  5
2CB
100
AcDbEntity
  8
0
100
AcDbLine
 62
7
  6
CONTINUOUS
 10
11.4589226038
 20
9.009891804
 11
11.4589226038
 21
8.0021946209
  0
LINE
  5
2CC
100
AcDbEntity
  8
0
100
AcDbLine
 62
7
  6
CONTINUOUS
 10
11.4589226038
 20
6.259891804
 11
11.4589226038
 21
7.2675889872
  0
LWPOLYLINE
  5
2CD
100
AcDbEntity
  8
0
100
AcDbPolyline
 62
7
  6
CONTINUOUS
 90
17
 70
0
 10
7.1998849262
 20
16.3679069197
 10
7.1998737601
 20
16.3679277946
 10
7.1998988035
 20
16.367877666
 10
7.1999701875
 20
16.3677248414
 10
7.2000887218
 20
16.3674458341
 10
7.2002478714
 20
16.3670194058
 10
7.2004305177
 20
16.3664334226
 10
7.2006106515
 20
16.3656853168
 10
7.2007546122
 20
16.3647982998
 10
7.2008321515
 20
16.3637573835
 10
7.2008054456
 20
16.3625794346
 10
7.2006334172
 20
16.3612687367
 10
7.2002808317
 20
16.3598814713
 10
7.1997309457
 20
16.3584830917
 10
7.1989758415
 20
16.3571193822
 10
7.1980169449
 20
16.3558316309
 10
7.1974064884
 20
16.3551732504
  0
LINE
  5
2CE
100
AcDbEntity
  8
0
100
AcDbLine
 62
7
  6
CONTINUOUS
 10
11.9039226038
 20
9.009891804
 11
11.9039226038
 21
8.0021946209
  0
LINE
  5
2CF
100
AcDbEntity
  8
0
100
AcDbLine
 62
7
  6
CONTINUOUS
 10
11.9039226038
 20
6.259891804
 11
11.9039226038
 21
7.2675889872
  0
LINE
  5
2D0
100
AcDbEntity
  8
0
100
AcDbLine
 62
7
  6
CONTINUOUS
 10
11.9814226038
 20
7.259891804
 11
11.9814226038
 21
8.009891804
  0
LINE
  5
2D1
100
AcDbEntity
  8
0
100
AcDbLine
 62
7
  6
CONTINUOUS
 10
12.2974226038
 20
1.322391804
 11
12.2974226038
 21
-0.052608196
  0
LINE
  5
2D2
100
AcDbEntity
  8
0
100
AcDbLine
 62
7
  6
CONTINUOUS
 10
7.1812927573
 20
16.388136866
 11
7.1812289854
 21
16.3882210845
  0
LINE
  5
2D3
100
AcDbEntity
  8
0
100
AcDbLine
 62
7
  6
CONTINUOUS
 10
7.1810120155
 20
16.3885209985
 11
7.1819216297
 21
16.3871239654
  0
LWPOLYLINE
  5
2D4
100
AcDbEntity
  8
0
100
AcDbPolyline
 62
7
  6
CONTINUOUS
 90
14
 70
0
 10
8.3237970551
 20
15.2169930565
 10
8.3237982265
 20
15.2169910143
 10
8.3238647444
 20
15.2168709668
 10
8.3240119871
 20
15.2165693244
 10
8.3242151943
 20
15.2160750091
 10
8.3244352537
 20
15.2154010017
 10
8.3246392049
 20
15.214531456
 10
8.3247830739
 20
15.2134545509
 10
8.3248075344
 20
15.2121180141
 10
8.3246262428
 20
15.2105514267
 10
8.3241666172
 20
15.2088575532
 10
8.3234061345
 20
15.2071788452
 10
8.3223639586
 20
15.2056195
 10
8.3215087588
 20
15.2046622242
  0
LINE
  5
2D5
100
AcDbEntity
  8
0
100
AcDbLine
 62
7
  6
CONTINUOUS
 10
12.5414226038
 20
6.978641804
 11
12.5414226038
 21
8.291141804
  0
LINE
  5
2D6
100
AcDbEntity
  8
0
100
AcDbLine
 62
9
  6
CONTINUOUS
 10
12.5474226038
 20
19.228641804
 11
12.5474226038
 21
20.041141804
  0
LINE
  5
2D7
100
AcDbEntity
  8
0
100
AcDbLine
 62
7
  6
CONTINUOUS
 10
12.9814226038
 20
6.978641804
 11
12.9814226038
 21
8.291141804
  0
LINE
  5
2D8
100
AcDbEntity
  8
0
100
AcDbLine
 62
7
  6
CONTINUOUS
 10
13.0014226038
 20
6.978641804
 11
13.0014226038
 21
8.291141804
  0
LINE
  5
2D9
100
AcDbEntity
  8
0
100
AcDbLine
 62
7
  6
CONTINUOUS
 10
13.2324226038
 20
5.077391804
 11
13.2324226038
 21
5.852391804
  0
LINE
  5
2DA
100
AcDbEntity
  8
0
100
AcDbLine
 62
9
  6
CONTINUOUS
 10
13.2564276343
 20
5.0471913007
 11
13.2564276343
 21
5.8825923074
  0
LINE
  5
2DB
100
AcDbEntity
  8
0
100
AcDbLine
 62
7
  6
CONTINUOUS
 10
14.7974226038
 20
10.884891804
 11
14.6579593435
 21
10.884891804
  0
LINE
  5
2DC
100
AcDbEntity
  8
0
100
AcDbLine
 62
7
  6
CONTINUOUS
 10
7.378720284
 20
15.9533316814
 11
7.5314308284
 21
15.800621137
  0
LINE
  5
2DD
100
AcDbEntity
  8
0
100
AcDbLine
 62
7
  6
CONTINUOUS
 10
7.5572529797
 20
15.7747989858
 11
7.7099688945
 21
15.622083071
  0
LINE
  5
2DE
100
AcDbEntity
  8
0
100
AcDbLine
 62
7
  6
CONTINUOUS
 10
7.8097401495
 20
15.5223118159
 11
7.9624560385
 21
15.3695959269
  0
LINE
  5
2DF
100
AcDbEntity
  8
0
100
AcDbLine
 62
7
  6
CONTINUOUS
 10
7.9882781024
 20
15.3437738631
 11
8.1409888474
 21
15.1910631181
  0
LINE
  5
2E0
100
AcDbEntity
  8
0
100
AcDbLine
 62
9
  6
CONTINUOUS
 10
7.9763756295
 20
15.363829265
 11
7.8039734876
 21
15.5362314069
  0
LINE
  5
2E1
100
AcDbEntity
  8
0
100
AcDbLine
 62
9
  6
CONTINUOUS
 10
7.7238884725
 20
15.6163164219
 11
7.5514863306
 21
15.7887185638
  0
LINE
  5
2E2
100
AcDbEntity
  8
0
100
AcDbLine
 62
9
  6
CONTINUOUS
 10
7.5453530917
 20
15.7948518028
 11
7.3729509498
 21
15.9672539447
  0
LINE
  5
2E3
100
AcDbEntity
  8
0
100
AcDbLine
 62
9
  6
CONTINUOUS
 10
7.7308483877
 20
15.6163164219
 11
7.8039734876
 21
15.543191322
  0
LINE
  5
2E4
100
AcDbEntity
  8
0
100
AcDbLine
 62
9
  6
CONTINUOUS
 10
8.1664422853
 20
15.1852938841
 11
7.8039734876
 21
15.5477626842
  0
LINE
  5
2E5
100
AcDbEntity
  8
0
100
AcDbLine
 62
9
  6
CONTINUOUS
 10
7.7354197475
 20
15.6163164219
 11
7.3729509498
 21
15.978785222
  0
LINE
  5
2E6
100
AcDbEntity
  8
0
100
AcDbLine
 62
7
  6
CONTINUOUS
 10
7.3187652907
 20
16.0411255245
 11
8.2287825901
 21
15.131108225
  0
LINE
  5
2E7
100
AcDbEntity
  8
0
100
AcDbLine
 62
9
  6
CONTINUOUS
 10
8.2510214013
 20
15.1271867728
 11
7.3148438385
 21
16.0633643357
  0
LINE
  5
2E8
100
AcDbEntity
  8
0
100
AcDbLine
 62
9
  6
CONTINUOUS
 10
7.9825088684
 20
15.357696026
 11
8.1549110103
 21
15.1852938841
  0
LINE
  5
2E9
100
AcDbEntity
  8
0
100
AcDbLine
 62
7
  6
CONTINUOUS
 10
6.6733056714
 20
17.143092094
 11
6.6430927884
 21
17.1766469
  0
LINE
  5
2EA
100
AcDbEntity
  8
0
100
AcDbLine
 62
7
  6
CONTINUOUS
 10
10.2520834298
 20
18.6074224309
 11
10.2454207387
 21
18.6322879327
  0
LINE
  5
2EB
100
AcDbEntity
  8
0
100
AcDbLine
 62
7
  6
CONTINUOUS
 10
10.0674288093
 20
18.4129784544
 11
10.0674671565
 21
18.41283502
  0
LINE
  5
2EC
100
AcDbEntity
  8
0
100
AcDbLine
 62
7
  6
CONTINUOUS
 10
10.0588497919
 20
18.445063846
 11
10.0674288093
 21
18.4129784544
  0
LINE
  5
2ED
100
AcDbEntity
  8
0
100
AcDbLine
 62
7
  6
CONTINUOUS
 10
10.1167242107
 20
18.4646977586
 11
10.1167624001
 21
18.4645549136
  0
LINE
  5
2EE
100
AcDbEntity
  8
0
100
AcDbLine
 62
7
  6
CONTINUOUS
 10
10.1086580171
 20
18.4948655461
 11
10.1167242107
 21
18.4646977586
  0
LINE
  5
2EF
100
AcDbEntity
  8
0
100
AcDbLine
 62
7
  6
CONTINUOUS
 10
10.1657438746
 20
18.5166995046
 11
10.1657818361
 21
18.5165575176
  0
LINE
  5
2F0
100
AcDbEntity
  8
0
100
AcDbLine
 62
7
  6
CONTINUOUS
 10
10.1583057583
 20
18.5445175552
 11
10.1657438746
 21
18.5166995046
  0
LINE
  5
2F1
100
AcDbEntity
  8
0
100
AcDbLine
 62
7
  6
CONTINUOUS
 10
10.2149880725
 20
18.5684755048
 11
10.2150258589
 21
18.5683341766
  0
LINE
  5
2F2
100
AcDbEntity
  8
0
100
AcDbLine
 62
7
  6
CONTINUOUS
 10
10.2080835026
 20
18.5942976789
 11
10.2149880725
 21
18.5684755048
  0
LINE
  5
2F3
100
AcDbEntity
  8
0
100
AcDbLine
 62
7
  6
CONTINUOUS
 10
10.6225374059
 20
17.8610508189
 11
10.6142166586
 21
17.8921743336
  0
LINE
  5
2F4
100
AcDbEntity
  8
0
100
AcDbLine
 62
7
  6
CONTINUOUS
 10
10.6738131148
 20
17.9123317359
 11
10.6660537483
 21
17.9413555871
  0
LINE
  5
2F5
100
AcDbEntity
  8
0
100
AcDbLine
 62
7
  6
CONTINUOUS
 10
10.7250727325
 20
17.9635848353
 11
10.7178609586
 21
17.9905595649
  0
LINE
  5
2F6
100
AcDbEntity
  8
0
100
AcDbLine
 62
7
  6
CONTINUOUS
 10
10.7763558069
 20
18.0148691246
 11
10.769710109
 21
18.0397263434
  0
LINE
  5
2F7
100
AcDbEntity
  8
0
100
AcDbLine
 62
9
  6
CONTINUOUS
 10
13.3924276343
 20
5.0156913007
 11
13.3924276343
 21
5.9140923074
  0
LINE
  5
2F8
100
AcDbEntity
  8
0
100
AcDbLine
 62
9
  6
CONTINUOUS
 10
13.3994226038
 20
5.014891804
 11
13.3994226038
 21
5.914891804
  0
LINE
  5
2F9
100
AcDbEntity
  8
0
100
AcDbLine
 62
9
  6
CONTINUOUS
 10
13.4894226038
 20
5.014891804
 11
13.4894226038
 21
5.914891804
  0
LINE
  5
2FA
100
AcDbEntity
  8
0
100
AcDbLine
 62
9
  6
CONTINUOUS
 10
13.5114365629
 20
5.0240655445
 11
13.5114365629
 21
5.9057180636
  0
LINE
  5
2FB
100
AcDbEntity
  8
0
100
AcDbLine
 62
7
  6
CONTINUOUS
 10
13.7254226038
 20
5.2398923308
 11
13.7254226038
 21
5.6898912773
  0
LINE
  5
2FC
100
AcDbEntity
  8
0
100
AcDbLine
 62
7
  6
CONTINUOUS
 10
14.1094226038
 20
6.447391804
 11
14.1094226038
 21
8.822391804
  0
LINE
  5
2FD
100
AcDbEntity
  8
0
100
AcDbLine
 62
7
  6
CONTINUOUS
 10
14.3805655015
 20
20.0821067713
 11
14.3807533101
 21
20.0854583746
  0
LINE
  5
2FE
100
AcDbEntity
  8
0
100
AcDbLine
 62
7
  6
CONTINUOUS
 10
9.3307491597
 20
14.4856486058
 11
9.3643039657
 21
14.4554357227
  0
LINE
  5
2FF
100
AcDbEntity
  8
0
100
AcDbLine
 62
7
  6
CONTINUOUS
 10
7.1612141997
 20
16.3195600307
 11
7.2989964621
 21
16.1817777683
  0
LINE
  5
300
100
AcDbEntity
  8
0
100
AcDbLine
 62
7
  6
CONTINUOUS
 10
7.3447949568
 20
16.1359792736
 11
7.3474613708
 21
16.1333128596
  0
LINE
  5
301
100
AcDbEntity
  8
0
100
AcDbLine
 62
7
  6
CONTINUOUS
 10
7.5983174641
 20
15.8824567663
 11
7.6637775872
 21
15.8169966432
  0
LINE
  5
302
100
AcDbEntity
  8
0
100
AcDbLine
 62
7
  6
CONTINUOUS
 10
7.7512483428
 20
15.7295258876
 11
7.8167092487
 21
15.6640649817
  0
LINE
  5
303
100
AcDbEntity
  8
0
100
AcDbLine
 62
7
  6
CONTINUOUS
 10
7.9071639985
 20
15.5736102319
 11
7.9726251299
 21
15.5081491005
  0
LINE
  5
304
100
AcDbEntity
  8
0
100
AcDbLine
 62
7
  6
CONTINUOUS
 10
8.3930401431
 20
15.0877340873
 11
8.5002136226
 21
14.9805606078
  0
LINE
  5
305
100
AcDbEntity
  8
0
100
AcDbLine
 62
7
  6
CONTINUOUS
 10
8.3882179481
 20
15.0925562823
 11
8.3161900821
 21
15.1645841483
  0
LINE
  5
306
100
AcDbEntity
  8
0
100
AcDbLine
 62
9
  6
CONTINUOUS
 10
7.1764904966
 20
16.3091760199
 11
7.177685912
 21
16.3079805524
  0
LINE
  5
307
100
AcDbEntity
  8
0
100
AcDbLine
 62
9
  6
CONTINUOUS
 10
7.341335487
 20
16.1443309773
 11
7.349017174
 21
16.1366492903
  0
LINE
  5
308
100
AcDbEntity
  8
0
100
AcDbLine
 62
9
  6
CONTINUOUS
 10
7.9809773027
 20
15.5046891617
 11
7.9037040596
 21
15.5819624047
  0
LINE
  5
309
100
AcDbEntity
  8
0
100
AcDbLine
 62
9
  6
CONTINUOUS
 10
7.8250615342
 20
15.6606049301
 11
7.7477882912
 21
15.7378781732
  0
LINE
  5
30A
100
AcDbEntity
  8
0
100
AcDbLine
 62
9
  6
CONTINUOUS
 10
7.6721302649
 20
15.8135362002
 11
7.5948570211
 21
15.8908094439
  0
LINE
  5
30B
100
AcDbEntity
  8
0
100
AcDbLine
 62
9
  6
CONTINUOUS
 10
7.3073510784
 20
16.178315386
 11
7.177685912
 21
16.3079805524
  0
LINE
  5
30C
100
AcDbEntity
  8
0
100
AcDbLine
 62
9
  6
CONTINUOUS
 10
7.1764904959
 20
16.3091759685
 11
7.1577559819
 21
16.3279105286
  0
LINE
  5
30D
100
AcDbEntity
  8
0
100
AcDbLine
 62
9
  6
CONTINUOUS
 10
7.3499079636
 20
16.1385595948
 11
7.5948570211
 21
15.893610537
  0
LINE
  5
30E
100
AcDbEntity
  8
0
100
AcDbLine
 62
9
  6
CONTINUOUS
 10
7.674931358
 20
15.8135362002
 11
7.7477882912
 21
15.740679267
  0
LINE
  5
30F
100
AcDbEntity
  8
0
100
AcDbLine
 62
9
  6
CONTINUOUS
 10
7.827862628
 20
15.6606049301
 11
7.9037040596
 21
15.5847634985
  0
LINE
  5
310
100
AcDbEntity
  8
0
100
AcDbLine
 62
9
  6
CONTINUOUS
 10
7.9837783965
 20
15.5046891617
 11
8.3127295
 21
15.1757380605
  0
LINE
  5
311
100
AcDbEntity
  8
0
100
AcDbLine
 62
9
  6
CONTINUOUS
 10
7.341335487
 20
16.162385245
 11
7.3532714207
 21
16.1504493113
  0
LINE
  5
312
100
AcDbEntity
  8
0
100
AcDbLine
 62
9
  6
CONTINUOUS
 10
8.5266131245
 20
14.9771076076
 11
8.3127295
 21
15.190991232
  0
LINE
  5
313
100
AcDbEntity
  8
0
100
AcDbLine
 62
9
  6
CONTINUOUS
 10
7.9990315704
 20
15.5046891617
 11
7.9037040596
 21
15.6000166724
  0
LINE
  5
314
100
AcDbEntity
  8
0
100
AcDbLine
 62
9
  6
CONTINUOUS
 10
7.8431158019
 20
15.6606049301
 11
7.7477882912
 21
15.7559324409
  0
LINE
  5
315
100
AcDbEntity
  8
0
100
AcDbLine
 62
9
  6
CONTINUOUS
 10
7.6901845318
 20
15.8135362002
 11
7.5948570211
 21
15.9088637108
  0
LINE
  5
316
100
AcDbEntity
  8
0
100
AcDbLine
 62
9
  6
CONTINUOUS
 10
7.325405346
 20
16.178315386
 11
7.1577559819
 21
16.3459647502
  0
LINE
  5
317
100
AcDbEntity
  8
0
100
AcDbLine
 62
9
  6
CONTINUOUS
 10
8.5349648412
 20
14.9805669763
 11
8.3161888688
 21
15.1993429487
  0
LINE
  5
318
100
AcDbEntity
  8
0
100
AcDbLine
 62
9
  6
CONTINUOUS
 10
8.0073832871
 20
15.5081485304
 11
7.9071634284
 21
15.6083683891
  0
LINE
  5
319
100
AcDbEntity
  8
0
100
AcDbLine
 62
9
  6
CONTINUOUS
 10
7.8514675186
 20
15.6640642989
 11
7.7512476599
 21
15.7642841576
  0
LINE
  5
31A
100
AcDbEntity
  8
0
100
AcDbLine
 62
9
  6
CONTINUOUS
 10
7.6985362486
 20
15.8169955689
 11
7.5983163899
 21
15.9172154277
  0
LINE
  5
31B
100
AcDbEntity
  8
0
100
AcDbLine
 62
9
  6
CONTINUOUS
 10
7.352811573
 20
16.1627202445
 11
7.3447948558
 21
16.1707369617
  0
LINE
  5
31C
100
AcDbEntity
  8
0
100
AcDbLine
 62
9
  6
CONTINUOUS
 10
7.3337570628
 20
16.1817747547
 11
7.1612153506
 21
16.3543164669
  0
LINE
  5
31D
100
AcDbEntity
  8
0
100
AcDbLine
 62
7
  6
CONTINUOUS
 10
7.3447325042
 20
16.1800857402
 11
7.6029596033
 21
15.9218586411
  0
LINE
  5
31E
100
AcDbEntity
  8
0
100
AcDbLine
 62
7
  6
CONTINUOUS
 10
7.7031794621
 20
15.8216387824
 11
7.7558908733
 21
15.7689273711
  0
LINE
  5
31F
100
AcDbEntity
  8
0
100
AcDbLine
 62
7
  6
CONTINUOUS
 10
7.8561107321
 20
15.6687075123
 11
7.9118066418
 21
15.6130116026
  0
LINE
  5
320
100
AcDbEntity
  8
0
100
AcDbLine
 62
7
  6
CONTINUOUS
 10
8.0120265006
 20
15.5127917438
 11
8.3208320822
 21
15.2039861622
  0
LINE
  5
321
100
AcDbEntity
  8
0
100
AcDbLine
 62
7
  6
CONTINUOUS
 10
7.0725308167
 20
16.5440496272
 11
8.7317066928
 21
14.8848737511
  0
LINE
  5
322
100
AcDbEntity
  8
0
100
AcDbLine
 62
7
  6
CONTINUOUS
 10
8.8054528958
 20
14.8328246479
 11
7.0204817135
 21
16.6177958301
  0
LINE
  5
323
100
AcDbEntity
  8
0
100
AcDbLine
 62
7
  6
CONTINUOUS
 10
6.9049136352
 20
16.7405269647
 11
6.965775367
 21
16.6796652328
  0
LINE
  5
324
100
AcDbEntity
  8
0
100
AcDbLine
 62
7
  6
CONTINUOUS
 10
6.9717887165
 20
16.6736518834
 11
7.0326351931
 21
16.6128054068
  0
LINE
  5
325
100
AcDbEntity
  8
0
100
AcDbLine
 62
7
  6
CONTINUOUS
 10
7.1009661682
 20
16.5444744317
 11
7.1618137432
 21
16.4836268567
  0
LINE
  5
326
100
AcDbEntity
  8
0
100
AcDbLine
 62
7
  6
CONTINUOUS
 10
7.2836509915
 20
16.3617896083
 11
7.3444994815
 21
16.3009411183
  0
LINE
  5
327
100
AcDbEntity
  8
0
100
AcDbLine
 62
7
  6
CONTINUOUS
 10
7.5073944386
 20
16.1380461613
 11
7.5682417561
 21
16.0771988438
  0
LINE
  5
328
100
AcDbEntity
  8
0
100
AcDbLine
 62
7
  6
CONTINUOUS
 10
7.7569466531
 20
15.8884939468
 11
7.8177950106
 21
15.8276455893
  0
LINE
  5
329
100
AcDbEntity
  8
0
100
AcDbLine
 62
7
  6
CONTINUOUS
 10
8.0153026777
 20
15.6301379222
 11
8.0761509897
 21
15.5692896102
  0
LINE
  5
32A
100
AcDbEntity
  8
0
100
AcDbLine
 62
7
  6
CONTINUOUS
 10
8.2648559215
 20
15.3805846784
 11
8.3257032149
 21
15.319737385
  0
LINE
  5
32B
100
AcDbEntity
  8
0
100
AcDbLine
 62
7
  6
CONTINUOUS
 10
8.4885981383
 20
15.1568424616
 11
8.5494467197
 21
15.0959938802
  0
LINE
  5
32C
100
AcDbEntity
  8
0
100
AcDbLine
 62
7
  6
CONTINUOUS
 10
8.6712838079
 20
14.9741567919
 11
8.7321316117
 21
14.9133089881
  0
LINE
  5
32D
100
AcDbEntity
  8
0
100
AcDbLine
 62
7
  6
CONTINUOUS
 10
8.8004624764
 20
14.8449781234
 11
8.861308945
 21
14.7841316548
  0
LINE
  5
32E
100
AcDbEntity
  8
0
100
AcDbLine
 62
7
  6
CONTINUOUS
 10
8.8673224167
 20
14.7781181832
 11
8.9281839122
 21
14.7172566877
  0
LINE
  5
32F
100
AcDbEntity
  8
0
100
AcDbLine
 62
9
  6
CONTINUOUS
 10
8.7958295024
 20
14.8524388915
 11
8.7395917122
 21
14.9086766817
  0
LINE
  5
330
100
AcDbEntity
  8
0
100
AcDbLine
 62
9
  6
CONTINUOUS
 10
8.6666515015
 20
14.9816168924
 11
8.5569064313
 21
15.0913619625
  0
LINE
  5
331
100
AcDbEntity
  8
0
100
AcDbLine
 62
9
  6
CONTINUOUS
 10
8.4839662206
 20
15.1643021732
 11
8.3331635705
 21
15.3151048233
  0
LINE
  5
332
100
AcDbEntity
  8
0
100
AcDbLine
 62
9
  6
CONTINUOUS
 10
8.2602233598
 20
15.388045034
 11
8.083610836
 21
15.5646575578
  0
LINE
  5
333
100
AcDbEntity
  8
0
100
AcDbLine
 62
9
  6
CONTINUOUS
 10
8.0106706253
 20
15.6375977686
 11
7.8252548342
 21
15.8230135596
  0
LINE
  5
334
100
AcDbEntity
  8
0
100
AcDbLine
 62
9
  6
CONTINUOUS
 10
7.7523146235
 20
15.8959537704
 11
7.5757020997
 21
16.0725662942
  0
LINE
  5
335
100
AcDbEntity
  8
0
100
AcDbLine
 62
9
  6
CONTINUOUS
 10
7.502761889
 20
16.1455065049
 11
7.3519592389
 21
16.296309155
  0
LINE
  5
336
100
AcDbEntity
  8
0
100
AcDbLine
 62
9
  6
CONTINUOUS
 10
7.2790190282
 20
16.3692493657
 11
7.169273958
 21
16.4789944358
  0
LINE
  5
337
100
AcDbEntity
  8
0
100
AcDbLine
 62
9
  6
CONTINUOUS
 10
7.0963337473
 20
16.5519346465
 11
7.0400959571
 21
16.6081724367
  0
LINE
  5
338
100
AcDbEntity
  8
0
100
AcDbLine
 62
9
  6
CONTINUOUS
 10
8.7377308988
 20
14.9158635112
 11
8.7460515687
 21
14.9075423855
  0
LINE
  5
339
100
AcDbEntity
  8
0
100
AcDbLine
 62
9
  6
CONTINUOUS
 10
8.7377304901
 20
14.9158634641
 11
8.6655172053
 21
14.9880767489
  0
LINE
  5
33A
100
AcDbEntity
  8
0
100
AcDbLine
 62
9
  6
CONTINUOUS
 10
8.5633662878
 20
15.0902276663
 11
8.4828319244
 21
15.1707620297
  0
LINE
  5
33B
100
AcDbEntity
  8
0
100
AcDbLine
 62
9
  6
CONTINUOUS
 10
8.339623427
 20
15.3139705271
 11
8.2590890636
 21
15.3945048905
  0
LINE
  5
33C
100
AcDbEntity
  8
0
100
AcDbLine
 62
9
  6
CONTINUOUS
 10
8.0900706925
 20
15.5635232616
 11
8.0095363291
 21
15.644057625
  0
LINE
  5
33D
100
AcDbEntity
  8
0
100
AcDbLine
 62
9
  6
CONTINUOUS
 10
7.8317146907
 20
15.8218792635
 11
7.7511803273
 21
15.9024136269
  0
LINE
  5
33E
100
AcDbEntity
  8
0
100
AcDbLine
 62
9
  6
CONTINUOUS
 10
7.5821619562
 20
16.071431998
 11
7.5016275928
 21
16.1519663614
  0
LINE
  5
33F
100
AcDbEntity
  8
0
100
AcDbLine
 62
9
  6
CONTINUOUS
 10
7.3584190954
 20
16.2951748588
 11
7.277884732
 21
16.3757092222
  0
LINE
  5
340
100
AcDbEntity
  8
0
100
AcDbLine
 62
9
  6
CONTINUOUS
 10
7.1757338145
 20
16.4778601396
 11
7.0951994511
 21
16.558394503
  0
LINE
  5
341
100
AcDbEntity
  8
0
100
AcDbLine
 62
9
  6
CONTINUOUS
 10
7.0465558136
 20
16.6070381405
 11
6.8991539965
 21
16.7544399576
  0
LINE
  5
342
100
AcDbEntity
  8
0
100
AcDbLine
 62
9
  6
CONTINUOUS
 10
8.7575828398
 20
14.9075423855
 11
8.6655172053
 21
14.99960802
  0
LINE
  5
343
100
AcDbEntity
  8
0
100
AcDbLine
 62
9
  6
CONTINUOUS
 10
8.3511546982
 20
15.3139705271
 11
8.2590890636
 21
15.4060361617
  0
LINE
  5
344
100
AcDbEntity
  8
0
100
AcDbLine
 62
9
  6
CONTINUOUS
 10
7.8432459618
 20
15.8218792635
 11
7.7511803273
 21
15.913944898
  0
LINE
  5
345
100
AcDbEntity
  8
0
100
AcDbLine
 62
9
  6
CONTINUOUS
 10
7.3699503665
 20
16.2951748588
 11
7.277884732
 21
16.3872404933
  0
LINE
  5
346
100
AcDbEntity
  8
0
100
AcDbLine
 62
9
  6
CONTINUOUS
 10
7.1872650857
 20
16.4778601396
 11
7.1047119791
 21
16.5604132462
  0
LINE
  5
347
100
AcDbEntity
  8
0
100
AcDbLine
 62
9
  6
CONTINUOUS
 10
7.0580870848
 20
16.6070381405
 11
6.8991539965
 21
16.7659711996
  0
LINE
  5
348
100
AcDbEntity
  8
0
100
AcDbLine
 62
9
  6
CONTINUOUS
 10
8.9536282944
 20
14.7114969309
 11
8.7946952062
 21
14.8704300191
  0
LINE
  5
349
100
AcDbEntity
  8
0
100
AcDbLine
 62
9
  6
CONTINUOUS
 10
8.574897559
 20
15.0902276663
 11
8.4828319244
 21
15.1822933009
  0
LINE
  5
34A
100
AcDbEntity
  8
0
100
AcDbLine
 62
9
  6
CONTINUOUS
 10
8.1016019636
 20
15.5635232616
 11
8.0095363291
 21
15.6555888961
  0
LINE
  5
34B
100
AcDbEntity
  8
0
100
AcDbLine
 62
9
  6
CONTINUOUS
 10
7.5936932273
 20
16.071431998
 11
7.5016275928
 21
16.1634976325
  0
LINE
  5
34C
100
AcDbEntity
  8
0
100
AcDbLine
 62
9
  6
CONTINUOUS
 10
7.1047120218
 20
16.5604136174
 11
7.0951994511
 21
16.5699257742
  0
LINE
  5
34D
100
AcDbEntity
  8
0
100
AcDbLine
 62
9
  6
CONTINUOUS
 10
8.7968420201
 20
14.8792783535
 11
8.7664311742
 21
14.9096891994
  0
LINE
  5
34E
100
AcDbEntity
  8
0
100
AcDbLine
 62
9
  6
CONTINUOUS
 10
8.6676640192
 20
15.0084563544
 11
8.5837458934
 21
15.0923744802
  0
LINE
  5
34F
100
AcDbEntity
  8
0
100
AcDbLine
 62
9
  6
CONTINUOUS
 10
8.4849787384
 20
15.1911416353
 11
8.3600030326
 21
15.316117341
  0
LINE
  5
350
100
AcDbEntity
  8
0
100
AcDbLine
 62
9
  6
CONTINUOUS
 10
8.2612358776
 20
15.4148844961
 11
8.1104502981
 21
15.5656700756
  0
LINE
  5
351
100
AcDbEntity
  8
0
100
AcDbLine
 62
9
  6
CONTINUOUS
 10
8.011683143
 20
15.6644372306
 11
7.8520942962
 21
15.8240260774
  0
LINE
  5
352
100
AcDbEntity
  8
0
100
AcDbLine
 62
9
  6
CONTINUOUS
 10
7.7533271412
 20
15.9227932324
 11
7.6025415617
 21
16.0735788119
  0
LINE
  5
353
100
AcDbEntity
  8
0
100
AcDbLine
 62
9
  6
CONTINUOUS
 10
7.5037744067
 20
16.1723459669
 11
7.3787987009
 21
16.2973216727
  0
LINE
  5
354
100
AcDbEntity
  8
0
100
AcDbLine
 62
9
  6
CONTINUOUS
 10
7.2800315459
 20
16.3960888277
 11
7.1961134201
 21
16.4800069535
  0
LINE
  5
355
100
AcDbEntity
  8
0
100
AcDbLine
 62
9
  6
CONTINUOUS
 10
7.0973462651
 20
16.5787741086
 11
7.0669354192
 21
16.6091849545
  0
LINE
  5
356
100
AcDbEntity
  8
0
100
AcDbLine
 62
9
  6
CONTINUOUS
 10
8.9675481332
 20
14.7172625454
 11
8.8004608207
 21
14.8843498579
  0
LINE
  5
357
100
AcDbEntity
  8
0
100
AcDbLine
 62
9
  6
CONTINUOUS
 10
8.7715026786
 20
14.913308
 11
8.6712828198
 21
15.0135278588
  0
LINE
  5
358
100
AcDbEntity
  8
0
100
AcDbLine
 62
9
  6
CONTINUOUS
 10
8.5888173977
 20
15.0959932809
 11
8.488597539
 21
15.1962131396
  0
LINE
  5
359
100
AcDbEntity
  8
0
100
AcDbLine
 62
9
  6
CONTINUOUS
 10
8.3650745369
 20
15.3197361417
 11
8.2648546782
 21
15.4199560004
  0
LINE
  5
35A
100
AcDbEntity
  8
0
100
AcDbLine
 62
9
  6
CONTINUOUS
 10
8.1155218024
 20
15.5692888762
 11
8.0153019437
 21
15.6695087349
  0
LINE
  5
35B
100
AcDbEntity
  8
0
100
AcDbLine
 62
9
  6
CONTINUOUS
 10
7.8571658006
 20
15.827644878
 11
7.7569459418
 21
15.9278647368
  0
LINE
  5
35C
100
AcDbEntity
  8
0
100
AcDbLine
 62
9
  6
CONTINUOUS
 10
7.6076130661
 20
16.0771976125
 11
7.5073932073
 21
16.1774174713
  0
LINE
  5
35D
100
AcDbEntity
  8
0
100
AcDbLine
 62
9
  6
CONTINUOUS
 10
7.3838702053
 20
16.3009404733
 11
7.2836503465
 21
16.4011603321
  0
LINE
  5
35E
100
AcDbEntity
  8
0
100
AcDbLine
 62
9
  6
CONTINUOUS
 10
7.2011849244
 20
16.4836257542
 11
7.1009650657
 21
16.5838456129
  0
LINE
  5
35F
100
AcDbEntity
  8
0
100
AcDbLine
 62
9
  6
CONTINUOUS
 10
7.0720069235
 20
16.6128037551
 11
6.9049196111
 21
16.7798910675
  0
LINE
  5
360
100
AcDbEntity
  8
0
100
AcDbLine
 62
7
  6
CONTINUOUS
 10
7.0801392843
 20
16.6209361158
 11
7.1090974264
 21
16.5919779737
  0
LINE
  5
361
100
AcDbEntity
  8
0
100
AcDbLine
 62
7
  6
CONTINUOUS
 10
7.2093172852
 20
16.4917581149
 11
7.2917827073
 21
16.4092926928
  0
LINE
  5
362
100
AcDbEntity
  8
0
100
AcDbLine
 62
7
  6
CONTINUOUS
 10
7.392002566
 20
16.3090728341
 11
7.515525568
 21
16.185549832
  0
LINE
  5
363
100
AcDbEntity
  8
0
100
AcDbLine
 62
7
  6
CONTINUOUS
 10
7.6157454268
 20
16.0853299733
 11
7.7650783026
 21
15.9359970975
  0
LINE
  5
364
100
AcDbEntity
  8
0
100
AcDbLine
 62
7
  6
CONTINUOUS
 10
7.8652981613
 20
15.8357772387
 11
8.0234343044
 21
15.6776410957
  0
LINE
  5
365
100
AcDbEntity
  8
0
100
AcDbLine
 62
7
  6
CONTINUOUS
 10
8.1236541631
 20
15.5774212369
 11
8.2729870389
 21
15.4280883611
  0
LINE
  5
366
100
AcDbEntity
  8
0
100
AcDbLine
 62
7
  6
CONTINUOUS
 10
8.3732068977
 20
15.3278685024
 11
8.4967298997
 21
15.2043455004
  0
LINE
  5
367
100
AcDbEntity
  8
0
100
AcDbLine
 62
7
  6
CONTINUOUS
 10
8.5969497585
 20
15.1041256416
 11
8.6794151806
 21
15.0216602195
  0
LINE
  5
368
100
AcDbEntity
  8
0
100
AcDbLine
 62
7
  6
CONTINUOUS
 10
8.7796350393
 20
14.9214403608
 11
8.8085931815
 21
14.8924822186
  0
LINE
  5
369
100
AcDbEntity
  8
0
100
AcDbLine
 62
7
  6
CONTINUOUS
 10
6.7657579572
 20
16.9384392115
 11
6.8822066523
 21
16.8219905164
  0
LINE
  5
36A
100
AcDbEntity
  8
0
100
AcDbLine
 62
7
  6
CONTINUOUS
 10
6.9186789255
 20
16.7855182432
 11
6.9962249259
 21
16.7079722428
  0
LINE
  5
36B
100
AcDbEntity
  8
0
100
AcDbLine
 62
7
  6
CONTINUOUS
 10
7.1000643269
 20
16.6041328418
 11
7.1776166791
 21
16.5265804896
  0
LINE
  5
36C
100
AcDbEntity
  8
0
100
AcDbLine
 62
7
  6
CONTINUOUS
 10
7.3364546894
 20
16.3677424793
 11
7.4140067092
 21
16.2901904595
  0
LINE
  5
36D
100
AcDbEntity
  8
0
100
AcDbLine
 62
7
  6
CONTINUOUS
 10
7.6117375804
 20
16.0924595883
 11
7.6892882463
 21
16.0149089224
  0
LINE
  5
36E
100
AcDbEntity
  8
0
100
AcDbLine
 62
7
  6
CONTINUOUS
 10
7.9071518744
 20
15.7970452943
 11
7.98470236
 21
15.7194948087
  0
LINE
  5
36F
100
AcDbEntity
  8
0
100
AcDbLine
 62
7
  6
CONTINUOUS
 10
8.2025659223
 20
15.5016312464
 11
8.2801167197
 21
15.424080449
  0
LINE
  5
370
100
AcDbEntity
  8
0
100
AcDbLine
 62
7
  6
CONTINUOUS
 10
8.4778475049
 20
15.2263496638
 11
8.5553995652
 21
15.1487976035
  0
LINE
  5
371
100
AcDbEntity
  8
0
100
AcDbLine
 62
7
  6
CONTINUOUS
 10
8.7142375272
 20
14.9899596415
 11
8.7917899355
 21
14.9124072332
  0
LINE
  5
372
100
AcDbEntity
  8
0
100
AcDbLine
 62
7
  6
CONTINUOUS
 10
8.8956291473
 20
14.8085680215
 11
8.9731754701
 21
14.7310216987
  0
LINE
  5
373
100
AcDbEntity
  8
0
100
AcDbLine
 62
7
  6
CONTINUOUS
 10
9.0096477544
 20
14.6945494143
 11
9.087208116
 21
14.6169890527
  0
LINE
  5
374
100
AcDbEntity
  8
0
100
AcDbLine
 62
9
  6
CONTINUOUS
 10
9.1011235121
 20
14.6112270741
 11
9.0038857757
 21
14.7084648104
  0
LINE
  5
375
100
AcDbEntity
  8
0
100
AcDbLine
 62
9
  6
CONTINUOUS
 10
8.9870978856
 20
14.7252527006
 11
8.8898601492
 21
14.822490437
  0
LINE
  5
376
100
AcDbEntity
  8
0
100
AcDbLine
 62
9
  6
CONTINUOUS
 10
8.8057093083
 20
14.9066412779
 11
8.7084715719
 21
15.0038790143
  0
LINE
  5
377
100
AcDbEntity
  8
0
100
AcDbLine
 62
9
  6
CONTINUOUS
 10
8.569319112
 20
15.1430314742
 11
8.4720813756
 21
15.2402692106
  0
LINE
  5
378
100
AcDbEntity
  8
0
100
AcDbLine
 62
9
  6
CONTINUOUS
 10
8.2940368979
 20
15.4183136882
 11
8.1967991616
 21
15.5155514246
  0
LINE
  5
379
100
AcDbEntity
  8
0
100
AcDbLine
 62
9
  6
CONTINUOUS
 10
7.9986226941
 20
15.7137278921
 11
7.9013849577
 21
15.8109656285
  0
LINE
  5
37A
100
AcDbEntity
  8
0
100
AcDbLine
 62
9
  6
CONTINUOUS
 10
7.7032084903
 20
16.0091420959
 11
7.6059707539
 21
16.1063798323
  0
LINE
  5
37B
100
AcDbEntity
  8
0
100
AcDbLine
 62
9
  6
CONTINUOUS
 10
7.4279262762
 20
16.28442431
 11
7.3306885398
 21
16.3816620463
  0
LINE
  5
37C
100
AcDbEntity
  8
0
100
AcDbLine
 62
9
  6
CONTINUOUS
 10
7.1915360799
 20
16.5208145063
 11
7.0942983436
 21
16.6180522426
  0
LINE
  5
37D
100
AcDbEntity
  8
0
100
AcDbLine
 62
9
  6
CONTINUOUS
 10
7.0101475026
 20
16.7022030836
 11
6.9129097663
 21
16.7994408199
  0
LINE
  5
37E
100
AcDbEntity
  8
0
100
AcDbLine
 62
9
  6
CONTINUOUS
 10
6.8961218761
 20
16.8162287101
 11
6.759992122
 21
16.9523585008
  0
LINE
  5
37F
100
AcDbEntity
  8
0
100
AcDbLine
 62
9
  6
CONTINUOUS
 10
7.203066857
 20
16.5208145063
 11
7.1102271236
 21
16.6136542397
  0
LINE
  5
380
100
AcDbEntity
  8
0
100
AcDbLine
 62
9
  6
CONTINUOUS
 10
7.0216782797
 20
16.7022030836
 11
6.9201958751
 21
16.8036854882
  0
LINE
  5
381
100
AcDbEntity
  8
0
100
AcDbLine
 62
9
  6
CONTINUOUS
 10
6.759992122
 20
16.9638897345
 11
6.9076526532
 21
16.8162287101
  0
LINE
  5
382
100
AcDbEntity
  8
0
100
AcDbLine
 62
9
  6
CONTINUOUS
 10
9.1126542892
 20
14.6112270741
 11
9.0038857757
 21
14.7199955876
  0
LINE
  5
383
100
AcDbEntity
  8
0
100
AcDbLine
 62
9
  6
CONTINUOUS
 10
8.9986286627
 20
14.7252527006
 11
8.8898601492
 21
14.8340212141
  0
LINE
  5
384
100
AcDbEntity
  8
0
100
AcDbLine
 62
9
  6
CONTINUOUS
 10
8.8172400854
 20
14.9066412779
 11
8.7084715719
 21
15.0154097914
  0
LINE
  5
385
100
AcDbEntity
  8
0
100
AcDbLine
 62
9
  6
CONTINUOUS
 10
8.5808498891
 20
15.1430314742
 11
8.4720813756
 21
15.2517999877
  0
LINE
  5
386
100
AcDbEntity
  8
0
100
AcDbLine
 62
9
  6
CONTINUOUS
 10
8.3055676751
 20
15.4183136882
 11
8.1967991616
 21
15.5270822017
  0
LINE
  5
387
100
AcDbEntity
  8
0
100
AcDbLine
 62
9
  6
CONTINUOUS
 10
8.0101534714
 20
15.7137278921
 11
7.9013849577
 21
15.8224964058
  0
LINE
  5
388
100
AcDbEntity
  8
0
100
AcDbLine
 62
9
  6
CONTINUOUS
 10
7.7147392674
 20
16.0091420959
 11
7.6059707539
 21
16.1179106094
  0
LINE
  5
389
100
AcDbEntity
  8
0
100
AcDbLine
 62
9
  6
CONTINUOUS
 10
7.4394570533
 20
16.28442431
 11
7.3306885398
 21
16.3931928235
  0
LINE
  5
38A
100
AcDbEntity
  8
0
100
AcDbLine
 62
9
  6
CONTINUOUS
 10
7.1102272473
 20
16.6136549608
 11
7.0942983436
 21
16.6295830197
  0
LINE
  5
38B
100
AcDbEntity
  8
0
100
AcDbLine
 62
9
  6
CONTINUOUS
 10
6.9201959317
 20
16.8036862764
 11
6.9129097663
 21
16.810971597
  0
LINE
  5
38C
100
AcDbEntity
  8
0
100
AcDbLine
 62
9
  6
CONTINUOUS
 10
9.1265745588
 20
14.6169926886
 11
8.8956257638
 21
14.8479414837
  0
LINE
  5
38D
100
AcDbEntity
  8
0
100
AcDbLine
 62
9
  6
CONTINUOUS
 10
8.831160355
 20
14.9124068925
 11
8.7142371864
 21
15.029330061
  0
LINE
  5
38E
100
AcDbEntity
  8
0
100
AcDbLine
 62
9
  6
CONTINUOUS
 10
8.5947701587
 20
15.1487970887
 11
8.4778469902
 21
15.2657202573
  0
LINE
  5
38F
100
AcDbEntity
  8
0
100
AcDbLine
 62
9
  6
CONTINUOUS
 10
8.3194879447
 20
15.4240793028
 11
8.2025647761
 21
15.5410024713
  0
LINE
  5
390
100
AcDbEntity
  8
0
100
AcDbLine
 62
9
  6
CONTINUOUS
 10
8.0240737408
 20
15.7194935066
 11
7.9071505723
 21
15.8364166752
  0
LINE
  5
391
100
AcDbEntity
  8
0
100
AcDbLine
 62
9
  6
CONTINUOUS
 10
7.728659537
 20
16.0149077105
 11
7.6117363684
 21
16.131830879
  0
LINE
  5
392
100
AcDbEntity
  8
0
100
AcDbLine
 62
9
  6
CONTINUOUS
 10
7.4533773229
 20
16.2901899245
 11
7.3364541544
 21
16.4071130931
  0
LINE
  5
393
100
AcDbEntity
  8
0
100
AcDbLine
 62
9
  6
CONTINUOUS
 10
7.2169871266
 20
16.5265801208
 11
7.1000639581
 21
16.6435032893
  0
LINE
  5
394
100
AcDbEntity
  8
0
100
AcDbLine
 62
9
  6
CONTINUOUS
 10
7.0355985493
 20
16.7079686981
 11
6.7657577365
 21
16.9778095109
  0
LINE
  5
395
100
AcDbEntity
  8
0
100
AcDbLine
 62
7
  6
CONTINUOUS
 10
6.7415838148
 20
17.0513675108
 11
9.237431761
 21
14.5555195646
  0
LINE
  5
396
100
AcDbEntity
  8
0
100
AcDbLine
 62
7
  6
CONTINUOUS
 10
6.7400553966
 20
17.0532404728
 11
9.2389906461
 21
14.5543052233
  0
LINE
  5
397
100
AcDbEntity
  8
0
100
AcDbLine
 62
7
  6
CONTINUOUS
 10
9.3307491597
 20
14.4856486058
 11
6.6733056714
 21
17.143092094
  0
LINE
  5
398
100
AcDbEntity
  8
0
100
AcDbLine
 62
9
  6
CONTINUOUS
 10
6.6430927884
 20
17.1766469
 11
9.3643039657
 21
14.4554357227
  0
LINE
  5
399
100
AcDbEntity
  8
0
100
AcDbLine
 62
9
  6
CONTINUOUS
 10
6.6459758319
 20
17.286745891
 11
9.4744029567
 21
14.4583187663
  0
LINE
  5
39A
100
AcDbEntity
  8
0
100
AcDbLine
 62
9
  6
CONTINUOUS
 10
8.3127295
 20
15.1729369643
 11
8.508558853
 21
14.9771076076
  0
LINE
  5
39B
100
AcDbEntity
  8
0
100
AcDbLine
 62
7
  6
CONTINUOUS
 10
8.7185736326
 20
14.8884244375
 11
7.0760815031
 21
16.530916567
  0
LINE
  5
39C
100
AcDbEntity
  8
0
100
AcDbLine
 62
9
  6
CONTINUOUS
 10
8.7946952062
 20
14.858898748
 11
8.9420969935
 21
14.7114969309
  0
LINE
  5
39D
100
AcDbEntity
  8
0
100
AcDbLine
 62
7
  6
CONTINUOUS
 10
9.237431766
 20
14.5555195596
 11
9.2373086903
 21
14.555645366
  0
LINE
  5
39E
100
AcDbEntity
  8
0
100
AcDbLine
 62
7
  6
CONTINUOUS
 10
14.3805655015
 20
19.1876768367
 11
14.3807533101
 21
19.1843252335
  0
LINE
  5
39F
100
AcDbEntity
  8
0
100
AcDbLine
 62
7
  6
CONTINUOUS
 10
14.3044226038
 20
5.240891804
 11
14.3044226038
 21
5.6888915313
  0
LINE
  5
3A0
100
AcDbEntity
  8
0
100
AcDbLine
 62
9
  6
CONTINUOUS
 10
14.3164226038
 20
5.228891804
 11
14.3164226038
 21
5.700891804
  0
LINE
  5
3A1
100
AcDbEntity
  8
0
100
AcDbLine
 62
7
  6
CONTINUOUS
 10
14.3805655015
 20
20.0818769995
 11
14.3805655015
 21
19.1879066085
  0
LINE
  5
3A2
100
AcDbEntity
  8
0
100
AcDbLine
 62
9
  6
CONTINUOUS
 10
14.3807533101
 20
19.1843252335
 11
14.3807533101
 21
20.0854583746
  0
LINE
  5
3A3
100
AcDbEntity
  8
0
100
AcDbLine
 62
7
  6
CONTINUOUS
 10
14.4224226038
 20
1.822391804
 11
14.4224226038
 21
-0.552608196
  0
LINE
  5
3A4
100
AcDbEntity
  8
0
100
AcDbLine
 62
7
  6
CONTINUOUS
 10
14.4844226038
 20
4.5520483143
 11
14.4844226038
 21
10.7177352938
  0
LINE
  5
3A5
100
AcDbEntity
  8
0
100
AcDbLine
 62
9
  6
CONTINUOUS
 10
14.5170770795
 20
18.4814965916
 11
14.5170770795
 21
20.7882870165
  0
LINE
  5
3A6
100
AcDbEntity
  8
0
100
AcDbLine
 62
9
  6
CONTINUOUS
 10
14.5263596135
 20
4.4926736527
 11
14.5263596135
 21
10.7771099554
  0
LINE
  5
3A7
100
AcDbEntity
  8
0
100
AcDbLine
 62
9
  6
CONTINUOUS
 10
14.5652493566
 20
18.444891804
 11
14.5652493566
 21
20.824891804
  0
LINE
  5
3A8
100
AcDbEntity
  8
0
100
AcDbLine
 62
9
  6
CONTINUOUS
 10
14.5999402536
 20
4.4233401197
 11
14.5999402536
 21
10.8464434884
  0
LINE
  5
3A9
100
AcDbEntity
  8
0
100
AcDbLine
 62
9
  6
CONTINUOUS
 10
14.6579593435
 20
4.384891804
 11
14.6579593435
 21
10.884891804
  0
LINE
  5
3AA
100
AcDbEntity
  8
0
100
AcDbLine
 62
7
  6
CONTINUOUS
 10
14.7974226038
 20
10.884891804
 11
14.7974226038
 21
4.384891804
  0
LINE
  5
3AB
100
AcDbEntity
  8
0
100
AcDbLine
 62
7
  6
CONTINUOUS
 10
14.7974226038
 20
1.822391804
 11
14.7974226038
 21
-0.552608196
  0
LINE
  5
3AC
100
AcDbEntity
  8
0
100
AcDbLine
 62
7
  6
CONTINUOUS
 10
14.7974226038
 20
18.444891804
 11
14.7974226038
 21
20.824891804
  0
LINE
  5
3AD
100
AcDbEntity
  8
0
100
AcDbLine
 62
9
  6
CONTINUOUS
 10
10.0712596529
 20
15.0551754625
 11
7.2428325282
 21
17.8836025873
  0
LINE
  5
3AE
100
AcDbEntity
  8
0
100
AcDbLine
 62
7
  6
CONTINUOUS
 10
10.0712595597
 20
15.1683126408
 11
7.3559697065
 21
17.883602494
  0
LINE
  5
3AF
100
AcDbEntity
  8
0
100
AcDbLine
 62
9
  6
CONTINUOUS
 10
9.517498764
 20
15.7548875853
 11
7.9425446509
 21
17.3298416983
  0
LINE
  5
3B0
100
AcDbEntity
  8
0
100
AcDbLine
 62
7
  6
CONTINUOUS
 10
13.7254226038
 20
5.239891804
 11
13.5114365629
 21
5.0240655445
  0
LINE
  5
3B1
100
AcDbEntity
  8
0
100
AcDbLine
 62
9
  6
CONTINUOUS
 10
9.5141927789
 20
16.5722061086
 11
8.7598631742
 21
17.3265357133
  0
LINE
  5
3B2
100
AcDbEntity
  8
0
100
AcDbLine
 62
7
  6
CONTINUOUS
 10
9.5529501382
 20
16.5521207625
 11
8.7397778281
 21
17.3652930725
  0
LINE
  5
3B3
100
AcDbEntity
  8
0
100
AcDbLine
 62
7
  6
CONTINUOUS
 10
9.2860448506
 20
17.6534120519
 11
9.1674594383
 21
17.7719974642
  0
LINE
  5
3B4
100
AcDbEntity
  8
0
100
AcDbLine
 62
7
  6
CONTINUOUS
 10
9.1126542892
 20
14.6112270741
 11
9.1011235121
 21
14.6112270741
  0
LINE
  5
3B5
100
AcDbEntity
  8
0
100
AcDbLine
 62
7
  6
CONTINUOUS
 10
8.9536282944
 20
14.7114969309
 11
8.9420969935
 21
14.7114969309
  0
LINE
  5
3B6
100
AcDbEntity
  8
0
100
AcDbLine
 62
7
  6
CONTINUOUS
 10
8.9986286627
 20
14.7252527006
 11
8.9870978856
 21
14.7252527006
  0
LINE
  5
3B7
100
AcDbEntity
  8
0
100
AcDbLine
 62
7
  6
CONTINUOUS
 10
8.8867608407
 20
14.7783643846
 11
8.8752295696
 21
14.7783643846
  0
LINE
  5
3B8
100
AcDbEntity
  8
0
100
AcDbLine
 62
7
  6
CONTINUOUS
 10
8.8172400854
 20
14.9066412779
 11
8.8057093083
 21
14.9066412779
  0
LINE
  5
3B9
100
AcDbEntity
  8
0
100
AcDbLine
 62
7
  6
CONTINUOUS
 10
8.7575828398
 20
14.9075423855
 11
8.7460515687
 21
14.9075423855
  0
LINE
  5
3BA
100
AcDbEntity
  8
0
100
AcDbLine
 62
7
  6
CONTINUOUS
 10
10.2176305516
 20
17.2168010977
 11
9.4044581633
 21
18.029973486
  0
LINE
  5
3BB
100
AcDbEntity
  8
0
100
AcDbLine
 62
9
  6
CONTINUOUS
 10
10.1331671074
 20
17.456730631
 11
9.6443876967
 21
17.9455100417
  0
LINE
  5
3BC
100
AcDbEntity
  8
0
100
AcDbLine
 62
9
  6
CONTINUOUS
 10
10.2131670992
 20
17.5367667111
 11
9.7244237768
 21
18.0255100336
  0
LINE
  5
3BD
100
AcDbEntity
  8
0
100
AcDbLine
 62
9
  6
CONTINUOUS
 10
9.7244237768
 20
18.0988261984
 11
10.286483264
 21
17.5367667111
  0
LINE
  5
3BE
100
AcDbEntity
  8
0
100
AcDbLine
 62
9
  6
CONTINUOUS
 10
9.7794877019
 20
18.2317622732
 11
9.789010119
 21
18.2222398561
  0
LINE
  5
3BF
100
AcDbEntity
  8
0
100
AcDbLine
 62
9
  6
CONTINUOUS
 10
9.8771329027
 20
18.1341170724
 11
10.4194193389
 21
17.5918306363
  0
LINE
  5
3C0
100
AcDbEntity
  8
0
100
AcDbLine
 62
7
  6
CONTINUOUS
 10
8.5266131245
 20
14.9771076076
 11
8.508558853
 21
14.9771076076
  0
LINE
  5
3C1
100
AcDbEntity
  8
0
100
AcDbLine
 62
7
  6
CONTINUOUS
 10
8.4849067525
 20
15.0188139796
 11
8.4668524849
 21
15.0188139796
  0
LINE
  5
3C2
100
AcDbEntity
  8
0
100
AcDbLine
 62
7
  6
CONTINUOUS
 10
8.574897559
 20
15.0902276663
 11
8.5633662878
 21
15.0902276663
  0
LINE
  5
3C3
100
AcDbEntity
  8
0
100
AcDbLine
 62
7
  6
CONTINUOUS
 10
8.4080570108
 20
15.0956637213
 11
8.3900027431
 21
15.0956637213
  0
LINE
  5
3C4
100
AcDbEntity
  8
0
100
AcDbLine
 62
7
  6
CONTINUOUS
 10
8.5808498891
 20
15.1430314742
 11
8.569319112
 21
15.1430314742
  0
LINE
  5
3C5
100
AcDbEntity
  8
0
100
AcDbLine
 62
7
  6
CONTINUOUS
 10
8.1664422853
 20
15.1852938841
 11
8.1549110103
 21
15.1852938841
  0
LINE
  5
3C6
100
AcDbEntity
  8
0
100
AcDbLine
 62
7
  6
CONTINUOUS
 10
8.3511546982
 20
15.3139705271
 11
8.339623427
 21
15.3139705271
  0
LINE
  5
3C7
100
AcDbEntity
  8
0
100
AcDbLine
 62
7
  6
CONTINUOUS
 10
7.9879069068
 20
15.363829265
 11
7.9763756295
 21
15.363829265
  0
LINE
  5
3C8
100
AcDbEntity
  8
0
100
AcDbLine
 62
7
  6
CONTINUOUS
 10
8.3055676751
 20
15.4183136882
 11
8.2940368979
 21
15.4183136882
  0
LINE
  5
3C9
100
AcDbEntity
  8
0
100
AcDbLine
 62
7
  6
CONTINUOUS
 10
7.9990315704
 20
15.5046891617
 11
7.9809773027
 21
15.5046891617
  0
LINE
  5
3CA
100
AcDbEntity
  8
0
100
AcDbLine
 62
7
  6
CONTINUOUS
 10
8.1016019636
 20
15.5635232616
 11
8.0900706925
 21
15.5635232616
  0
LINE
  5
3CB
100
AcDbEntity
  8
0
100
AcDbLine
 62
7
  6
CONTINUOUS
 10
7.7354197475
 20
15.6163164219
 11
7.7238884725
 21
15.6163164219
  0
LINE
  5
3CC
100
AcDbEntity
  8
0
100
AcDbLine
 62
7
  6
CONTINUOUS
 10
7.8431158019
 20
15.6606049301
 11
7.8250615342
 21
15.6606049301
  0
LINE
  5
3CD
100
AcDbEntity
  8
0
100
AcDbLine
 62
7
  6
CONTINUOUS
 10
8.0101534714
 20
15.7137278921
 11
7.9986226941
 21
15.7137278921
  0
LINE
  5
3CE
100
AcDbEntity
  8
0
100
AcDbLine
 62
7
  6
CONTINUOUS
 10
9.9284005587
 20
18.3616302958
 11
10.0165233424
 21
18.2735075121
  0
LINE
  5
3CF
100
AcDbEntity
  8
0
100
AcDbLine
 62
7
  6
CONTINUOUS
 10
10.6471980396
 20
17.8196095102
 11
10.0072665758
 21
18.459540974
  0
LINE
  5
3D0
100
AcDbEntity
  8
0
100
AcDbLine
 62
7
  6
CONTINUOUS
 10
10.2145890009
 20
18.6014561949
 11
10.3049560993
 21
18.5110890965
  0
LINE
  5
3D1
100
AcDbEntity
  8
0
100
AcDbLine
 62
7
  6
CONTINUOUS
 10
10.7823604731
 20
18.0518875334
 11
10.2394545027
 21
18.5947935038
  0
LINE
  5
3D2
100
AcDbEntity
  8
0
100
AcDbLine
 62
7
  6
CONTINUOUS
 10
10.7950794966
 20
18.0644263641
 11
10.2520834298
 21
18.6074224309
  0
LINE
  5
3D3
100
AcDbEntity
  8
0
100
AcDbLine
 62
7
  6
CONTINUOUS
 10
10.8199449984
 20
18.057763673
 11
10.2454207387
 21
18.6322879327
  0
LINE
  5
3D4
100
AcDbEntity
  8
0
100
AcDbLine
 62
7
  6
CONTINUOUS
 10
7.5514863306
 20
15.7948518028
 11
7.5453530917
 21
15.7948518028
  0
LINE
  5
3D5
100
AcDbEntity
  8
0
100
AcDbLine
 62
7
  6
CONTINUOUS
 10
7.6901845318
 20
15.8135362002
 11
7.6721302649
 21
15.8135362002
  0
LINE
  5
3D6
100
AcDbEntity
  8
0
100
AcDbLine
 62
7
  6
CONTINUOUS
 10
7.8432459618
 20
15.8218792635
 11
7.8317146907
 21
15.8218792635
  0
LINE
  5
3D7
100
AcDbEntity
  8
0
100
AcDbLine
 62
7
  6
CONTINUOUS
 10
7.7147392674
 20
16.0091420959
 11
7.7032084903
 21
16.0091420959
  0
LINE
  5
3D8
100
AcDbEntity
  8
0
100
AcDbLine
 62
7
  6
CONTINUOUS
 10
7.5936932273
 20
16.071431998
 11
7.5821619562
 21
16.071431998
  0
LINE
  5
3D9
100
AcDbEntity
  8
0
100
AcDbLine
 62
7
  6
CONTINUOUS
 10
7.325405346
 20
16.178315386
 11
7.3073510784
 21
16.178315386
  0
LINE
  5
3DA
100
AcDbEntity
  8
0
100
AcDbLine
 62
7
  6
CONTINUOUS
 10
7.4394570533
 20
16.28442431
 11
7.4279262762
 21
16.28442431
  0
LINE
  5
3DB
100
AcDbEntity
  8
0
100
AcDbLine
 62
7
  6
CONTINUOUS
 10
7.3699503665
 20
16.2951748588
 11
7.3584190954
 21
16.2951748588
  0
LINE
  5
3DC
100
AcDbEntity
  8
0
100
AcDbLine
 62
7
  6
CONTINUOUS
 10
7.1872650857
 20
16.4778601396
 11
7.1757338145
 21
16.4778601396
  0
LINE
  5
3DD
100
AcDbEntity
  8
0
100
AcDbLine
 62
7
  6
CONTINUOUS
 10
7.203066857
 20
16.5208145063
 11
7.1915360799
 21
16.5208145063
  0
LINE
  5
3DE
100
AcDbEntity
  8
0
100
AcDbLine
 62
7
  6
CONTINUOUS
 10
7.0580870848
 20
16.6070381405
 11
7.0465558136
 21
16.6070381405
  0
LINE
  5
3DF
100
AcDbEntity
  8
0
100
AcDbLine
 62
9
  6
CONTINUOUS
 10
11.5972478666
 20
18.8350665413
 11
11.0227236069
 21
19.409590801
  0
LINE
  5
3E0
100
AcDbEntity
  8
0
100
AcDbLine
 62
7
  6
CONTINUOUS
 10
7.0216782797
 20
16.7022030836
 11
7.0101475026
 21
16.7022030836
  0
LINE
  5
3E1
100
AcDbEntity
  8
0
100
AcDbLine
 62
7
  6
CONTINUOUS
 10
6.9076526532
 20
16.8162287101
 11
6.8961218761
 21
16.8162287101
  0
LINE
  5
3E2
100
AcDbEntity
  8
0
100
AcDbLine
 62
7
  6
CONTINUOUS
 10
8.7598631742
 20
17.3265357133
 11
7.9425446509
 21
17.3298416983
  0
LINE
  5
3E3
100
AcDbEntity
  8
0
100
AcDbLine
 62
7
  6
CONTINUOUS
 10
10.657582766
 20
17.8960543677
 11
10.6582865541
 21
17.8961052287
  0
LINE
  5
3E4
100
AcDbEntity
  8
0
100
AcDbLine
 62
7
  6
CONTINUOUS
 10
10.7073305426
 20
17.9457967463
 11
10.7080285344
 21
17.945847209
  0
LINE
  5
3E5
100
AcDbEntity
  8
0
100
AcDbLine
 62
7
  6
CONTINUOUS
 10
10.7570804181
 20
17.9955533641
 11
10.7577856511
 21
17.9956043257
  0
LINE
  5
3E6
100
AcDbEntity
  8
0
100
AcDbLine
 62
7
  6
CONTINUOUS
 10
10.7823604731
 20
18.0518875334
 11
10.7821768072
 21
18.0518760957
  0
LINE
  5
3E7
100
AcDbEntity
  8
0
100
AcDbLine
 62
7
  6
CONTINUOUS
 10
10.286483264
 20
17.5367667111
 11
10.2131670992
 21
17.5367667111
  0
LINE
  5
3E8
100
AcDbEntity
  8
0
100
AcDbLine
 62
7
  6
CONTINUOUS
 10
10.6258557492
 20
17.904537593
 11
10.657582766
 21
17.8960543677
  0
LINE
  5
3E9
100
AcDbEntity
  8
0
100
AcDbLine
 62
7
  6
CONTINUOUS
 10
10.6776978461
 20
17.9537202096
 11
10.7073305422
 21
17.9457967459
  0
LINE
  5
3EA
100
AcDbEntity
  8
0
100
AcDbLine
 62
7
  6
CONTINUOUS
 10
10.7295096459
 20
18.0029254059
 11
10.7570804181
 21
17.9955533641
  0
LINE
  5
3EB
100
AcDbEntity
  8
0
100
AcDbLine
 62
7
  6
CONTINUOUS
 10
10.7813636602
 20
18.0520934969
 11
10.7821768072
 21
18.0518760956
  0
LINE
  5
3EC
100
AcDbEntity
  8
0
100
AcDbLine
 62
7
  6
CONTINUOUS
 10
10.1051216619
 20
18.4521912956
 11
10.0742631314
 21
18.4604413742
  0
LINE
  5
3ED
100
AcDbEntity
  8
0
100
AcDbLine
 62
7
  6
CONTINUOUS
 10
10.15413517
 20
18.5041923077
 11
10.1256364443
 21
18.5118115053
  0
LINE
  5
3EE
100
AcDbEntity
  8
0
100
AcDbLine
 62
7
  6
CONTINUOUS
 10
10.2033746348
 20
18.5559677443
 11
10.1768789309
 21
18.5630514456
  0
LINE
  5
3EF
100
AcDbEntity
  8
0
100
AcDbLine
 62
7
  6
CONTINUOUS
 10
10.7950794966
 20
18.0644263641
 11
10.8199449984
 21
18.057763673
  0
LINE
  5
3F0
100
AcDbEntity
  8
0
100
AcDbLine
 62
7
  6
CONTINUOUS
 10
10.2145890009
 20
18.6014561949
 11
10.2394545027
 21
18.5947935038
  0
LINE
  5
3F1
100
AcDbEntity
  8
0
100
AcDbLine
 62
7
  6
CONTINUOUS
 10
10.0742631317
 20
18.4604413745
 11
10.0735205731
 21
18.4603877671
  0
LINE
  5
3F2
100
AcDbEntity
  8
0
100
AcDbLine
 62
7
  6
CONTINUOUS
 10
10.1256364443
 20
18.5118115052
 11
10.1248903688
 21
18.5117575629
  0
LINE
  5
3F3
100
AcDbEntity
  8
0
100
AcDbLine
 62
7
  6
CONTINUOUS
 10
10.1768789309
 20
18.5630514456
 11
10.1761301159
 21
18.56299731
  0
LINE
  5
3F4
100
AcDbEntity
  8
0
100
AcDbLine
 62
7
  6
CONTINUOUS
 10
14.5652493566
 20
18.444891804
 11
14.7974226038
 21
18.444891804
  0
LINE
  5
3F5
100
AcDbEntity
  8
0
100
AcDbLine
 62
7
  6
CONTINUOUS
 10
14.3805655015
 20
19.228641804
 11
12.5474226038
 21
19.228641804
  0
LINE
  5
3F6
100
AcDbEntity
  8
0
100
AcDbLine
 62
7
  6
CONTINUOUS
 10
14.3805655015
 20
20.041141804
 11
12.5474226038
 21
20.041141804
  0
LINE
  5
3F7
100
AcDbEntity
  8
0
100
AcDbLine
 62
7
  6
CONTINUOUS
 10
14.5652493566
 20
20.824891804
 11
14.7974226038
 21
20.824891804
  0
ARC
  5
3F8
100
AcDbEntity
  8
0
100
AcDbCircle
 62
7
  6
CONTINUOUS
 10
10.2374226038
 20
-1.365108196
 40
2.4375
100
AcDbArc
 50
90.0
 51
180.0
  0
ARC
  5
3F9
100
AcDbEntity
  8
0
100
AcDbCircle
 62
7
  6
CONTINUOUS
 10
10.2374226038
 20
-1.365108196
 40
1.5625
100
AcDbArc
 50
90.0
 51
180.0
  0
CIRCLE
  5
3FA
100
AcDbEntity
  8
0
100
AcDbCircle
 62
7
  6
CONTINUOUS
 10
11.6814226038
 20
7.634891804
 40
0.235
  0
CIRCLE
  5
3FB
100
AcDbEntity
  8
0
100
AcDbCircle
 62
7
  6
CONTINUOUS
 10
11.6814226038
 20
7.634891804
 40
0.2225
  0
ARC
  5
3FC
100
AcDbEntity
  8
0
100
AcDbCircle
 62
9
  6
CONTINUOUS
 10
8.0581571764
 20
15.5785221239
 40
0.0632689699
100
AcDbArc
 50
240.2063496725
 51
240.7054986503
  0
ARC
  5
3FD
100
AcDbEntity
  8
0
100
AcDbCircle
 62
7
  6
CONTINUOUS
 10
8.0292213685
 20
15.6555893101
 40
0.0196850394
100
AcDbArc
 50
135.0
 51
180.0012049649
  0
ARC
  5
3FE
100
AcDbEntity
  8
0
100
AcDbCircle
 62
7
  6
CONTINUOUS
 10
8.1016023776
 20
15.583208301
 40
0.0196850394
100
AcDbArc
 50
269.9987950343
 51
315.0
  0
ARC
  5
3FF
100
AcDbEntity
  8
0
100
AcDbCircle
 62
7
  6
CONTINUOUS
 10
8.0900711485
 20
15.583208301
 40
0.0196850394
100
AcDbArc
 50
224.9971640206
 51
269.9986727936
  0
ARC
  5
400
100
AcDbEntity
  8
0
100
AcDbCircle
 62
7
  6
CONTINUOUS
 10
8.0292213685
 20
15.644058081
 40
0.0196850394
100
AcDbArc
 50
180.0013272064
 51
225.0028359794
  0
ARC
  5
401
100
AcDbEntity
  8
0
100
AcDbCircle
 62
7
  6
CONTINUOUS
 10
7.9763765108
 20
15.3835143043
 40
0.0196850394
100
AcDbArc
 50
224.9957407583
 51
269.9974348682
  0
ARC
  5
402
100
AcDbEntity
  8
0
100
AcDbCircle
 62
7
  6
CONTINUOUS
 10
7.9879077399
 20
15.3441442256
 40
0.0196850394
100
AcDbArc
 50
45.0039181287
 51
90.0024249216
  0
ARC
  5
403
100
AcDbEntity
  8
0
100
AcDbCircle
 62
7
  6
CONTINUOUS
 10
7.7842884482
 20
15.5477635173
 40
0.0196850394
100
AcDbArc
 50
359.9975750785
 51
44.9960818716
  0
ARC
  5
404
100
AcDbEntity
  8
0
100
AcDbCircle
 62
7
  6
CONTINUOUS
 10
7.8236585269
 20
15.5362322882
 40
0.0196850394
100
AcDbArc
 50
180.0025651318
 51
225.0042592417
  0
ARC
  5
405
100
AcDbEntity
  8
0
100
AcDbCircle
 62
7
  6
CONTINUOUS
 10
7.7238893538
 20
15.6360014613
 40
0.0196850394
100
AcDbArc
 50
224.9957979524
 51
269.9974348102
  0
ARC
  5
406
100
AcDbEntity
  8
0
100
AcDbCircle
 62
7
  6
CONTINUOUS
 10
7.7354205829
 20
15.5966313825
 40
0.0196850394
100
AcDbArc
 50
45.00392895
 51
90.0024317524
  0
ARC
  5
407
100
AcDbEntity
  8
0
100
AcDbCircle
 62
7
  6
CONTINUOUS
 10
8.0021939078
 20
15.3576969073
 40
0.0196850394
100
AcDbArc
 50
180.0025651901
 51
225.0137730366
  0
ARC
  5
408
100
AcDbEntity
  8
0
100
AcDbCircle
 62
7
  6
CONTINUOUS
 10
7.9809773549
 20
15.5165001853
 40
0.0118110236
100
AcDbArc
 50
224.9969396279
 51
269.9997468357
  0
ARC
  5
409
100
AcDbEntity
  8
0
100
AcDbCircle
 62
7
  6
CONTINUOUS
 10
7.9990316322
 20
15.5165001853
 40
0.0118110236
100
AcDbArc
 50
269.9997000107
 51
315.0
  0
ARC
  5
40A
100
AcDbEntity
  8
0
100
AcDbCircle
 62
7
  6
CONTINUOUS
 10
7.9155150833
 20
15.6000167343
 40
0.0118110236
100
AcDbArc
 50
135.0
 51
180.000299988
  0
ARC
  5
40B
100
AcDbEntity
  8
0
100
AcDbCircle
 62
7
  6
CONTINUOUS
 10
7.9155150833
 20
15.5819624569
 40
0.0118110236
100
AcDbArc
 50
180.0002531656
 51
225.0030603739
  0
ARC
  5
40C
100
AcDbEntity
  8
0
100
AcDbCircle
 62
7
  6
CONTINUOUS
 10
7.1659685028
 20
16.2443345994
 40
0.2419018856
100
AcDbArc
 50
43.7127245597
 51
44.9889486273
  0
ARC
  5
40D
100
AcDbEntity
  8
0
100
AcDbCircle
 62
7
  6
CONTINUOUS
 10
7.3142265788
 20
16.1551981607
 40
0.0393700787
100
AcDbArc
 50
334.9999170356
 51
39.208519173
  0
ARC
  5
40E
100
AcDbEntity
  8
0
100
AcDbCircle
 62
7
  6
CONTINUOUS
 10
7.3503735792
 20
16.3931936682
 40
0.0196850394
100
AcDbArc
 50
135.0
 51
180.0024588141
  0
ARC
  5
40F
100
AcDbEntity
  8
0
100
AcDbCircle
 62
7
  6
CONTINUOUS
 10
7.3503735792
 20
16.3816624391
 40
0.0196850394
100
AcDbArc
 50
180.00114329
 51
225.0021629974
  0
ARC
  5
410
100
AcDbEntity
  8
0
100
AcDbCircle
 62
7
  6
CONTINUOUS
 10
7.2975697713
 20
16.3872409073
 40
0.0196850394
100
AcDbArc
 50
135.0
 51
180.0012047956
  0
ARC
  5
411
100
AcDbEntity
  8
0
100
AcDbCircle
 62
7
  6
CONTINUOUS
 10
7.2975697713
 20
16.3757096782
 40
0.0196850394
100
AcDbArc
 50
180.0013272052
 51
225.0025932452
  0
ARC
  5
412
100
AcDbEntity
  8
0
100
AcDbCircle
 62
7
  6
CONTINUOUS
 10
7.3532659104
 20
15.9787860551
 40
0.0196850394
100
AcDbArc
 50
359.9975750784
 51
44.9960818714
  0
ARC
  5
413
100
AcDbEntity
  8
0
100
AcDbCircle
 62
7
  6
CONTINUOUS
 10
7.3326845567
 20
16.0550451081
 40
0.0196850394
100
AcDbArc
 50
155.0000948195
 51
225.0001398038
  0
ARC
  5
414
100
AcDbEntity
  8
0
100
AcDbCircle
 62
7
  6
CONTINUOUS
 10
7.3531465107
 20
16.1443310295
 40
0.0118110236
100
AcDbArc
 50
180.0002531639
 51
225.000523204
  0
ARC
  5
415
100
AcDbEntity
  8
0
100
AcDbCircle
 62
7
  6
CONTINUOUS
 10
7.3531465107
 20
16.1623853068
 40
0.0118110236
100
AcDbArc
 50
135.0
 51
180.0002999894
  0
ARC
  5
416
100
AcDbEntity
  8
0
100
AcDbCircle
 62
7
  6
CONTINUOUS
 10
7.1872339866
 20
16.3282978309
 40
0.0118110236
100
AcDbArc
 50
135.0
 51
180.0002999879
  0
ARC
  5
417
100
AcDbEntity
  8
0
100
AcDbCircle
 62
7
  6
CONTINUOUS
 10
7.1872339866
 20
16.3102435536
 40
0.0118110236
100
AcDbArc
 50
180.0002531652
 51
224.9682835358
  0
ARC
  5
418
100
AcDbEntity
  8
0
100
AcDbCircle
 62
7
  6
CONTINUOUS
 10
7.1695670055
 20
16.3279105347
 40
0.0118110236
100
AcDbArc
 50
180.0002531643
 51
224.9942252673
  0
ARC
  5
419
100
AcDbEntity
  8
0
100
AcDbCircle
 62
7
  6
CONTINUOUS
 10
7.1695670055
 20
16.345964812
 40
0.0118110236
100
AcDbArc
 50
135.0
 51
180.0002999892
  0
ARC
  5
41A
100
AcDbEntity
  8
0
100
AcDbCircle
 62
7
  6
CONTINUOUS
 10
7.3073511306
 20
16.1901264096
 40
0.0118110236
100
AcDbArc
 50
224.9811217111
 51
269.9997468346
  0
ARC
  5
41B
100
AcDbEntity
  8
0
100
AcDbCircle
 62
7
  6
CONTINUOUS
 10
7.3254054079
 20
16.1901264096
 40
0.0118110236
100
AcDbArc
 50
269.9997000108
 51
315.0
  0
ARC
  5
41C
100
AcDbEntity
  8
0
100
AcDbCircle
 62
7
  6
CONTINUOUS
 10
7.2418888589
 20
16.2736429586
 40
0.0118110236
100
AcDbArc
 50
135.0
 51
180.0002999885
  0
ARC
  5
41D
100
AcDbEntity
  8
0
100
AcDbCircle
 62
7
  6
CONTINUOUS
 10
7.2418888589
 20
16.2555886813
 40
0.0118110236
100
AcDbArc
 50
180.0002531654
 51
225.0188782889
  0
ARC
  5
41E
100
AcDbEntity
  8
0
100
AcDbCircle
 62
7
  6
CONTINUOUS
 10
6.7025443744
 20
17.2301773485
 40
0.08
100
AcDbArc
 50
135.0
 51
222.0
  0
ARC
  5
41F
100
AcDbEntity
  8
0
100
AcDbCircle
 62
7
  6
CONTINUOUS
 10
7.2030677018
 20
16.5404995456
 40
0.0196850394
100
AcDbArc
 50
269.9975411859
 51
315.0
  0
ARC
  5
420
100
AcDbEntity
  8
0
100
AcDbCircle
 62
7
  6
CONTINUOUS
 10
7.1139833829
 20
16.6295838645
 40
0.0196850394
100
AcDbArc
 50
135.0
 51
180.0024588136
  0
ARC
  5
421
100
AcDbEntity
  8
0
100
AcDbCircle
 62
7
  6
CONTINUOUS
 10
7.1139833829
 20
16.6180526354
 40
0.0196850394
100
AcDbArc
 50
180.0011432902
 51
225.0012648396
  0
ARC
  5
422
100
AcDbEntity
  8
0
100
AcDbCircle
 62
7
  6
CONTINUOUS
 10
7.1915364727
 20
16.5404995456
 40
0.0196850394
100
AcDbArc
 50
224.9987351605
 51
269.9988567098
  0
ARC
  5
423
100
AcDbEntity
  8
0
100
AcDbCircle
 62
7
  6
CONTINUOUS
 10
7.0216791245
 20
16.7218881229
 40
0.0196850394
100
AcDbArc
 50
269.9975411863
 51
315.0
  0
ARC
  5
424
100
AcDbEntity
  8
0
100
AcDbCircle
 62
7
  6
CONTINUOUS
 10
6.9325948056
 20
16.8109724418
 40
0.0196850394
100
AcDbArc
 50
135.0
 51
180.0024588143
  0
ARC
  5
425
100
AcDbEntity
  8
0
100
AcDbCircle
 62
7
  6
CONTINUOUS
 10
6.9325948056
 20
16.7994412127
 40
0.0196850394
100
AcDbArc
 50
180.0011432902
 51
225.0144914471
  0
ARC
  5
426
100
AcDbEntity
  8
0
100
AcDbCircle
 62
7
  6
CONTINUOUS
 10
7.0101478954
 20
16.7218881229
 40
0.0196850394
100
AcDbArc
 50
224.9855085529
 51
269.9988567098
  0
ARC
  5
427
100
AcDbEntity
  8
0
100
AcDbCircle
 62
7
  6
CONTINUOUS
 10
6.907653498
 20
16.8359137495
 40
0.0196850394
100
AcDbArc
 50
269.9975411863
 51
288.8750990227
  0
ARC
  5
428
100
AcDbEntity
  8
0
100
AcDbCircle
 62
7
  6
CONTINUOUS
 10
6.8185691791
 20
16.9249980684
 40
0.0196850394
100
AcDbArc
 50
135.0
 51
180.0024588147
  0
ARC
  5
429
100
AcDbEntity
  8
0
100
AcDbCircle
 62
7
  6
CONTINUOUS
 10
6.8185691791
 20
16.9134668393
 40
0.0196850394
100
AcDbArc
 50
180.0011432896
 51
224.9836676955
  0
ARC
  5
42A
100
AcDbEntity
  8
0
100
AcDbCircle
 62
7
  6
CONTINUOUS
 10
6.8961222689
 20
16.8359137495
 40
0.0196850394
100
AcDbArc
 50
225.0163323032
 51
269.9988567095
  0
ARC
  5
42B
100
AcDbEntity
  8
0
100
AcDbCircle
 62
7
  6
CONTINUOUS
 10
7.1148844905
 20
16.5699261881
 40
0.0196850394
100
AcDbArc
 50
135.0
 51
180.001204796
  0
ARC
  5
42C
100
AcDbEntity
  8
0
100
AcDbCircle
 62
7
  6
CONTINUOUS
 10
7.1872654996
 20
16.497545179
 40
0.0196850394
100
AcDbArc
 50
269.9987952046
 51
315.0
  0
ARC
  5
42D
100
AcDbEntity
  8
0
100
AcDbCircle
 62
7
  6
CONTINUOUS
 10
7.1757342705
 20
16.497545179
 40
0.0196850394
100
AcDbArc
 50
224.995801971
 51
269.9986727949
  0
ARC
  5
42E
100
AcDbEntity
  8
0
100
AcDbCircle
 62
7
  6
CONTINUOUS
 10
7.1148844905
 20
16.558394959
 40
0.0196850394
100
AcDbArc
 50
180.0013272051
 51
225.004198029
  0
ARC
  5
42F
100
AcDbEntity
  8
0
100
AcDbCircle
 62
7
  6
CONTINUOUS
 10
6.7796771613
 20
16.952358857
 40
0.0196850394
100
AcDbArc
 50
180.0010369649
 51
225.0009085171
  0
ARC
  5
430
100
AcDbEntity
  8
0
100
AcDbCircle
 62
7
  6
CONTINUOUS
 10
6.7796771613
 20
16.9638900861
 40
0.0196850394
100
AcDbArc
 50
135.0
 51
180.0010232871
  0
ARC
  5
431
100
AcDbEntity
  8
0
100
AcDbCircle
 62
7
  6
CONTINUOUS
 10
6.9188390359
 20
16.7659716427
 40
0.0196850394
100
AcDbArc
 50
135.0
 51
180.0012049649
  0
ARC
  5
432
100
AcDbEntity
  8
0
100
AcDbCircle
 62
7
  6
CONTINUOUS
 10
6.9796888159
 20
16.6935906336
 40
0.0196850394
100
AcDbArc
 50
225.0260206937
 51
237.5061691155
  0
ARC
  5
433
100
AcDbEntity
  8
0
100
AcDbCircle
 62
7
  6
CONTINUOUS
 10
6.9188390359
 20
16.7544404136
 40
0.0196850394
100
AcDbArc
 50
180.0013272064
 51
224.9739793063
  0
ARC
  5
434
100
AcDbEntity
  8
0
100
AcDbCircle
 62
7
  6
CONTINUOUS
 10
7.0465562696
 20
16.6267231799
 40
0.0196850394
100
AcDbArc
 50
224.9940651183
 51
269.998672795
  0
ARC
  5
435
100
AcDbEntity
  8
0
100
AcDbCircle
 62
7
  6
CONTINUOUS
 10
7.0580874987
 20
16.6267231799
 40
0.0196850394
100
AcDbArc
 50
269.9987952045
 51
315.0
  0
ARC
  5
436
100
AcDbEntity
  8
0
100
AcDbCircle
 62
7
  6
CONTINUOUS
 10
6.9857064896
 20
16.699104189
 40
0.0196850394
100
AcDbArc
 50
135.0
 51
180.0012047948
  0
ARC
  5
437
100
AcDbEntity
  8
0
100
AcDbCircle
 62
7
  6
CONTINUOUS
 10
6.9857064896
 20
16.6875729599
 40
0.0196850394
100
AcDbArc
 50
180.0013272052
 51
225.005934882
  0
ARC
  5
438
100
AcDbEntity
  8
0
100
AcDbCircle
 62
7
  6
CONTINUOUS
 10
7.0269432595
 20
16.6222956688
 40
0.0078740157
100
AcDbArc
 50
155.0083034809
 51
214.8534612382
  0
ARC
  5
439
100
AcDbEntity
  8
0
100
AcDbCircle
 62
7
  6
CONTINUOUS
 10
6.746825181
 20
17.0572616845
 40
0.0078740157
100
AcDbArc
 50
210.7100596427
 51
225.0
  0
ARC
  5
43A
100
AcDbEntity
  8
0
100
AcDbCircle
 62
9
  6
CONTINUOUS
 10
7.8216129607
 20
15.8154818375
 40
0.0643381802
100
AcDbArc
 50
210.0786507545
 51
210.3290881841
  0
ARC
  5
43B
100
AcDbEntity
  8
0
100
AcDbCircle
 62
9
  6
CONTINUOUS
 10
7.7482106175
 20
15.8782669532
 40
0.0593467481
100
AcDbArc
 50
236.2994234334
 51
237.5180824159
  0
ARC
  5
43C
100
AcDbEntity
  8
0
100
AcDbCircle
 62
9
  6
CONTINUOUS
 10
7.6659210498
 20
15.9661114355
 40
0.0583256336
100
AcDbArc
 50
207.8527212954
 51
209.0185541521
  0
ARC
  5
43D
100
AcDbEntity
  8
0
100
AcDbCircle
 62
9
  6
CONTINUOUS
 10
7.6606679737
 20
15.9633274974
 40
0.0523804622
100
AcDbArc
 50
207.5599609584
 51
207.8448634457
  0
ARC
  5
43E
100
AcDbEntity
  8
0
100
AcDbCircle
 62
7
  6
CONTINUOUS
 10
8.010154316
 20
15.7334129315
 40
0.0196850394
100
AcDbArc
 50
269.9975417674
 51
315.0
  0
ARC
  5
43F
100
AcDbEntity
  8
0
100
AcDbCircle
 62
7
  6
CONTINUOUS
 10
7.9210699971
 20
15.8224972503
 40
0.0196850394
100
AcDbArc
 50
135.0
 51
180.0024582326
  0
ARC
  5
440
100
AcDbEntity
  8
0
100
AcDbCircle
 62
7
  6
CONTINUOUS
 10
7.9210699971
 20
15.8109660213
 40
0.0196850394
100
AcDbArc
 50
180.0011432897
 51
225.0053597936
  0
ARC
  5
441
100
AcDbEntity
  8
0
100
AcDbCircle
 62
7
  6
CONTINUOUS
 10
7.9986230869
 20
15.7334129315
 40
0.0196850394
100
AcDbArc
 50
224.9946402064
 51
269.9988567103
  0
ARC
  5
442
100
AcDbEntity
  8
0
100
AcDbCircle
 62
7
  6
CONTINUOUS
 10
7.7147401122
 20
16.0288271353
 40
0.0196850394
100
AcDbArc
 50
269.9975411861
 51
315.0
  0
ARC
  5
443
100
AcDbEntity
  8
0
100
AcDbCircle
 62
7
  6
CONTINUOUS
 10
7.6256557933
 20
16.1179114542
 40
0.0196850394
100
AcDbArc
 50
135.0
 51
180.0024588139
  0
ARC
  5
444
100
AcDbEntity
  8
0
100
AcDbCircle
 62
7
  6
CONTINUOUS
 10
7.6256557933
 20
16.1063802251
 40
0.0196850394
100
AcDbArc
 50
180.0011432895
 51
225.0043827168
  0
ARC
  5
445
100
AcDbEntity
  8
0
100
AcDbCircle
 62
7
  6
CONTINUOUS
 10
7.7032088831
 20
16.0288271353
 40
0.0196850394
100
AcDbArc
 50
224.9956172817
 51
269.9988567095
  0
ARC
  5
446
100
AcDbEntity
  8
0
100
AcDbCircle
 62
7
  6
CONTINUOUS
 10
7.4394578981
 20
16.3041093493
 40
0.0196850394
100
AcDbArc
 50
269.9975411859
 51
315.0
  0
ARC
  5
447
100
AcDbEntity
  8
0
100
AcDbCircle
 62
7
  6
CONTINUOUS
 10
7.427926669
 20
16.3041093493
 40
0.0196850394
100
AcDbArc
 50
224.9978370026
 51
269.99885671
  0
ARC
  5
448
100
AcDbEntity
  8
0
100
AcDbCircle
 62
7
  6
CONTINUOUS
 10
7.5213126321
 20
16.1634980465
 40
0.0196850394
100
AcDbArc
 50
135.0
 51
180.0012047948
  0
ARC
  5
449
100
AcDbEntity
  8
0
100
AcDbCircle
 62
7
  6
CONTINUOUS
 10
7.5936936412
 20
16.0911170374
 40
0.0196850394
100
AcDbArc
 50
269.9987952044
 51
315.0
  0
ARC
  5
44A
100
AcDbEntity
  8
0
100
AcDbCircle
 62
7
  6
CONTINUOUS
 10
7.5821624121
 20
16.0911170374
 40
0.0196850394
100
AcDbArc
 50
224.9955585911
 51
269.998672795
  0
ARC
  5
44B
100
AcDbEntity
  8
0
100
AcDbCircle
 62
7
  6
CONTINUOUS
 10
7.5213126321
 20
16.1519668174
 40
0.0196850394
100
AcDbArc
 50
180.0013272057
 51
225.0044414099
  0
ARC
  5
44C
100
AcDbEntity
  8
0
100
AcDbCircle
 62
7
  6
CONTINUOUS
 10
7.3584195514
 20
16.3148598982
 40
0.0196850394
100
AcDbArc
 50
224.9974067548
 51
269.9986727948
  0
ARC
  5
44D
100
AcDbEntity
  8
0
100
AcDbCircle
 62
7
  6
CONTINUOUS
 10
7.3699507804
 20
16.3148598982
 40
0.0196850394
100
AcDbArc
 50
269.9987952051
 51
315.0
  0
ARC
  5
44E
100
AcDbEntity
  8
0
100
AcDbCircle
 62
7
  6
CONTINUOUS
 10
7.8317151467
 20
15.8415643028
 40
0.0196850394
100
AcDbArc
 50
224.9972613017
 51
269.9986727884
  0
ARC
  5
44F
100
AcDbEntity
  8
0
100
AcDbCircle
 62
7
  6
CONTINUOUS
 10
7.8432463758
 20
15.8415643028
 40
0.0196850394
100
AcDbArc
 50
269.9987952044
 51
315.0
  0
ARC
  5
450
100
AcDbEntity
  8
0
100
AcDbCircle
 62
7
  6
CONTINUOUS
 10
7.7708653667
 20
15.9139453119
 40
0.0196850394
100
AcDbArc
 50
135.0
 51
180.0012047956
  0
ARC
  5
451
100
AcDbEntity
  8
0
100
AcDbCircle
 62
7
  6
CONTINUOUS
 10
7.7708653667
 20
15.9024140828
 40
0.0196850394
100
AcDbArc
 50
180.0013272117
 51
225.0027386983
  0
ARC
  5
452
100
AcDbEntity
  8
0
100
AcDbCircle
 62
7
  6
CONTINUOUS
 10
7.5318012912
 20
15.8002506742
 40
0.0196850394
100
AcDbArc
 50
359.9975682479
 51
44.9960710504
  0
ARC
  5
453
100
AcDbEntity
  8
0
100
AcDbCircle
 62
7
  6
CONTINUOUS
 10
7.57117137
 20
15.7887194452
 40
0.0196850394
100
AcDbArc
 50
180.0025651901
 51
225.0042020481
  0
ARC
  5
454
100
AcDbEntity
  8
0
100
AcDbCircle
 62
7
  6
CONTINUOUS
 10
7.545353973
 20
15.8145368421
 40
0.0196850394
100
AcDbArc
 50
224.985816859
 51
269.9974348681
  0
ARC
  5
455
100
AcDbEntity
  8
0
100
AcDbCircle
 62
7
  6
CONTINUOUS
 10
7.3926359891
 20
15.967254826
 40
0.0196850394
100
AcDbArc
 50
180.0025651318
 51
225.0141831409
  0
ARC
  5
456
100
AcDbEntity
  8
0
100
AcDbCircle
 62
7
  6
CONTINUOUS
 10
7.8250615864
 20
15.6724159538
 40
0.0118110236
100
AcDbArc
 50
224.9957431737
 51
269.999746835
  0
ARC
  5
457
100
AcDbEntity
  8
0
100
AcDbCircle
 62
7
  6
CONTINUOUS
 10
7.8431158638
 20
15.6724159538
 40
0.0118110236
100
AcDbArc
 50
269.9997000112
 51
315.0
  0
ARC
  5
458
100
AcDbEntity
  8
0
100
AcDbCircle
 62
7
  6
CONTINUOUS
 10
7.7595993148
 20
15.7559325027
 40
0.0118110236
100
AcDbArc
 50
135.0
 51
180.0002999888
  0
ARC
  5
459
100
AcDbEntity
  8
0
100
AcDbCircle
 62
7
  6
CONTINUOUS
 10
7.7595993148
 20
15.7378782254
 40
0.0118110236
100
AcDbArc
 50
180.0002531649
 51
225.0042568262
  0
ARC
  5
45A
100
AcDbEntity
  8
0
100
AcDbCircle
 62
7
  6
CONTINUOUS
 10
7.6721303164
 20
15.8253472238
 40
0.0118110236
100
AcDbArc
 50
224.9929277631
 51
269.9997499651
  0
ARC
  5
45B
100
AcDbEntity
  8
0
100
AcDbCircle
 62
7
  6
CONTINUOUS
 10
7.6901845937
 20
15.8253472238
 40
0.0118110236
100
AcDbArc
 50
269.9996996385
 51
315.0
  0
ARC
  5
45C
100
AcDbEntity
  8
0
100
AcDbCircle
 62
7
  6
CONTINUOUS
 10
7.6066680447
 20
15.9088637728
 40
0.0118110236
100
AcDbArc
 50
135.0
 51
180.0003003629
  0
ARC
  5
45D
100
AcDbEntity
  8
0
100
AcDbCircle
 62
7
  6
CONTINUOUS
 10
7.6066680447
 20
15.8908094954
 40
0.0118110236
100
AcDbArc
 50
180.0002500349
 51
225.0070722369
  0
ARC
  5
45E
100
AcDbEntity
  8
0
100
AcDbCircle
 62
7
  6
CONTINUOUS
 10
8.4263813871
 20
14.9725725625
 40
0.2499269817
100
AcDbArc
 50
45.031542583
 51
46.2667451531
  0
ARC
  5
45F
100
AcDbEntity
  8
0
100
AcDbCircle
 62
7
  6
CONTINUOUS
 10
8.7281566113
 20
15.0154106362
 40
0.0196850394
100
AcDbArc
 50
135.0
 51
180.0024588136
  0
ARC
  5
460
100
AcDbEntity
  8
0
100
AcDbCircle
 62
7
  6
CONTINUOUS
 10
8.7281566113
 20
15.0038794071
 40
0.0196850394
100
AcDbArc
 50
180.0011432902
 51
225.0011603991
  0
ARC
  5
461
100
AcDbEntity
  8
0
100
AcDbCircle
 62
7
  6
CONTINUOUS
 10
8.5808507339
 20
15.1627165136
 40
0.0196850394
100
AcDbArc
 50
269.9975411863
 51
315.0
  0
ARC
  5
462
100
AcDbEntity
  8
0
100
AcDbCircle
 62
7
  6
CONTINUOUS
 10
8.491766415
 20
15.2518008325
 40
0.0196850394
100
AcDbArc
 50
135.0
 51
180.0024588143
  0
ARC
  5
463
100
AcDbEntity
  8
0
100
AcDbCircle
 62
7
  6
CONTINUOUS
 10
8.491766415
 20
15.2402696034
 40
0.0196850394
100
AcDbArc
 50
180.0011432902
 51
225.0020841975
  0
ARC
  5
464
100
AcDbEntity
  8
0
100
AcDbCircle
 62
7
  6
CONTINUOUS
 10
8.5693195048
 20
15.1627165136
 40
0.0196850394
100
AcDbArc
 50
224.9979158025
 51
269.9988567098
  0
ARC
  5
465
100
AcDbEntity
  8
0
100
AcDbCircle
 62
7
  6
CONTINUOUS
 10
8.3055685198
 20
15.4379987276
 40
0.0196850394
100
AcDbArc
 50
269.9975411863
 51
315.0
  0
ARC
  5
466
100
AcDbEntity
  8
0
100
AcDbCircle
 62
7
  6
CONTINUOUS
 10
8.2164842009
 20
15.5270830465
 40
0.0196850394
100
AcDbArc
 50
135.0
 51
180.0024588147
  0
ARC
  5
467
100
AcDbEntity
  8
0
100
AcDbCircle
 62
7
  6
CONTINUOUS
 10
8.2164842009
 20
15.5155518174
 40
0.0196850394
100
AcDbArc
 50
180.0011432896
 51
225.0041213298
  0
ARC
  5
468
100
AcDbEntity
  8
0
100
AcDbCircle
 62
7
  6
CONTINUOUS
 10
8.2940372907
 20
15.4379987276
 40
0.0196850394
100
AcDbArc
 50
224.9958786689
 51
269.9988567094
  0
ARC
  5
469
100
AcDbEntity
  8
0
100
AcDbCircle
 62
7
  6
CONTINUOUS
 10
8.5025169638
 20
15.1822937148
 40
0.0196850394
100
AcDbArc
 50
135.0
 51
180.0012047959
  0
ARC
  5
46A
100
AcDbEntity
  8
0
100
AcDbCircle
 62
7
  6
CONTINUOUS
 10
8.5748979729
 20
15.1099127057
 40
0.0196850394
100
AcDbArc
 50
269.9987952047
 51
315.0
  0
ARC
  5
46B
100
AcDbEntity
  8
0
100
AcDbCircle
 62
7
  6
CONTINUOUS
 10
8.5633667438
 20
15.1099127057
 40
0.0196850394
100
AcDbArc
 50
224.9976016178
 51
269.998672795
  0
ARC
  5
46C
100
AcDbEntity
  8
0
100
AcDbCircle
 62
7
  6
CONTINUOUS
 10
8.5025169638
 20
15.1707624857
 40
0.0196850394
100
AcDbArc
 50
180.0013272051
 51
225.0023983822
  0
ARC
  5
46D
100
AcDbEntity
  8
0
100
AcDbCircle
 62
7
  6
CONTINUOUS
 10
8.339623883
 20
15.3336555665
 40
0.0196850394
100
AcDbArc
 50
224.9955109889
 51
269.998672795
  0
ARC
  5
46E
100
AcDbEntity
  8
0
100
AcDbCircle
 62
7
  6
CONTINUOUS
 10
8.3511551121
 20
15.3336555665
 40
0.0196850394
100
AcDbArc
 50
269.9987952045
 51
315.0
  0
ARC
  5
46F
100
AcDbEntity
  8
0
100
AcDbCircle
 62
7
  6
CONTINUOUS
 10
8.278774103
 20
15.4060365756
 40
0.0196850394
100
AcDbArc
 50
135.0
 51
180.0012047948
  0
ARC
  5
470
100
AcDbEntity
  8
0
100
AcDbCircle
 62
7
  6
CONTINUOUS
 10
8.278774103
 20
15.3945053465
 40
0.0196850394
100
AcDbArc
 50
180.0013272052
 51
225.0044890114
  0
ARC
  5
471
100
AcDbEntity
  8
0
100
AcDbCircle
 62
7
  6
CONTINUOUS
 10
8.7460520247
 20
14.9272274249
 40
0.0196850394
100
AcDbArc
 50
224.9962839339
 51
269.9986727947
  0
ARC
  5
472
100
AcDbEntity
  8
0
100
AcDbCircle
 62
7
  6
CONTINUOUS
 10
8.7575832537
 20
14.9272274249
 40
0.0196850394
100
AcDbArc
 50
269.9987952051
 51
315.0
  0
ARC
  5
473
100
AcDbEntity
  8
0
100
AcDbCircle
 62
7
  6
CONTINUOUS
 10
8.6852022446
 20
14.999608434
 40
0.0196850394
100
AcDbArc
 50
135.0
 51
180.0012047956
  0
ARC
  5
474
100
AcDbEntity
  8
0
100
AcDbCircle
 62
7
  6
CONTINUOUS
 10
8.6852022446
 20
14.9880772049
 40
0.0196850394
100
AcDbArc
 50
180.0013272053
 51
225.0037160661
  0
ARC
  5
475
100
AcDbEntity
  8
0
100
AcDbCircle
 62
7
  6
CONTINUOUS
 10
8.1549118916
 20
15.2049789235
 40
0.0196850394
100
AcDbArc
 50
224.9862269639
 51
269.9974348102
  0
ARC
  5
476
100
AcDbEntity
  8
0
100
AcDbCircle
 62
7
  6
CONTINUOUS
 10
8.1664431207
 20
15.1656088447
 40
0.0196850394
100
AcDbArc
 50
45.00392895
 51
90.0024317524
  0
ARC
  5
477
100
AcDbEntity
  8
0
100
AcDbCircle
 62
7
  6
CONTINUOUS
 10
8.2427021737
 20
15.145027491
 40
0.0196850394
100
AcDbArc
 50
224.9998601962
 51
294.9999051805
  0
ARC
  5
478
100
AcDbEntity
  8
0
100
AcDbCircle
 62
7
  6
CONTINUOUS
 10
8.3900027953
 20
15.1074747449
 40
0.0118110236
100
AcDbArc
 50
224.9930395703
 51
269.9997466605
  0
ARC
  5
479
100
AcDbEntity
  8
0
100
AcDbCircle
 62
7
  6
CONTINUOUS
 10
8.4080570726
 20
15.1074747449
 40
0.0118110236
100
AcDbArc
 50
269.9997000109
 51
315.0
  0
ARC
  5
47A
100
AcDbEntity
  8
0
100
AcDbCircle
 62
7
  6
CONTINUOUS
 10
8.3245405237
 20
15.1909912938
 40
0.0118110236
100
AcDbArc
 50
135.0
 51
180.0002999879
  0
ARC
  5
47B
100
AcDbEntity
  8
0
100
AcDbCircle
 62
7
  6
CONTINUOUS
 10
8.3245405237
 20
15.1729370165
 40
0.0118110236
100
AcDbArc
 50
180.0002533395
 51
225.0069604297
  0
ARC
  5
47C
100
AcDbEntity
  8
0
100
AcDbCircle
 62
7
  6
CONTINUOUS
 10
8.508558909
 20
14.9889186312
 40
0.0118110236
100
AcDbArc
 50
225.0462226687
 51
269.9997468347
  0
ARC
  5
47D
100
AcDbEntity
  8
0
100
AcDbCircle
 62
7
  6
CONTINUOUS
 10
8.5266131863
 20
14.9889186312
 40
0.0118110236
100
AcDbArc
 50
269.9996999689
 51
315.0
  0
ARC
  5
47E
100
AcDbEntity
  8
0
100
AcDbCircle
 62
7
  6
CONTINUOUS
 10
8.466852537
 20
15.0306250032
 40
0.0118110236
100
AcDbArc
 50
224.9910551986
 51
269.9997472495
  0
ARC
  5
47F
100
AcDbEntity
  8
0
100
AcDbCircle
 62
7
  6
CONTINUOUS
 10
8.4849068143
 20
15.0306250032
 40
0.0118110236
100
AcDbArc
 50
269.9997000847
 51
315.0
  0
ARC
  5
480
100
AcDbEntity
  8
0
100
AcDbCircle
 62
7
  6
CONTINUOUS
 10
8.4013902654
 20
15.0960872748
 40
0.0118110236
100
AcDbArc
 50
182.2118786542
 51
225.0089448013
  0
ARC
  5
481
100
AcDbEntity
  8
0
100
AcDbCircle
 62
7
  6
CONTINUOUS
 10
8.3965713476
 20
15.1009061926
 40
0.0118110236
100
AcDbArc
 50
224.9897647201
 51
241.789681531
  0
ARC
  5
482
100
AcDbEntity
  8
0
100
AcDbCircle
 62
7
  6
CONTINUOUS
 10
9.4436121044
 20
14.6204720479
 40
0.5118110236
100
AcDbArc
 50
169.7367930276
 51
249.6710480593
  0
ARC
  5
483
100
AcDbEntity
  8
0
100
AcDbCircle
 62
7
  6
CONTINUOUS
 10
9.0376370572
 20
14.0805686065
 40
0.4724409449
100
AcDbArc
 50
34.4249168973
 51
56.7360171921
  0
ARC
  5
484
100
AcDbEntity
  8
0
100
AcDbCircle
 62
9
  6
CONTINUOUS
 10
9.443237963
 20
14.620081319
 40
0.4449234915
100
AcDbArc
 50
169.6239513332
 51
249.6673525545
  0
ARC
  5
485
100
AcDbEntity
  8
0
100
AcDbCircle
 62
7
  6
CONTINUOUS
 10
9.3136754696
 20
14.2697524295
 40
0.1377952756
100
AcDbArc
 50
249.6710480599
 51
34.4249168912
  0
ARC
  5
486
100
AcDbEntity
  8
0
100
AcDbCircle
 62
7
  6
CONTINUOUS
 10
9.4178344142
 20
14.5148873088
 40
0.08
100
AcDbArc
 50
228.0
 51
315.0
  0
ARC
  5
487
100
AcDbEntity
  8
0
100
AcDbCircle
 62
7
  6
CONTINUOUS
 10
9.112655134
 20
14.6309121134
 40
0.0196850394
100
AcDbArc
 50
269.9975411861
 51
315.0
  0
ARC
  5
488
100
AcDbEntity
  8
0
100
AcDbCircle
 62
7
  6
CONTINUOUS
 10
9.0235708151
 20
14.7199964323
 40
0.0196850394
100
AcDbArc
 50
161.1249009773
 51
180.0024588139
  0
ARC
  5
489
100
AcDbEntity
  8
0
100
AcDbCircle
 62
7
  6
CONTINUOUS
 10
9.0235708151
 20
14.7084652032
 40
0.0196850394
100
AcDbArc
 50
180.0011432895
 51
224.9843631221
  0
ARC
  5
48A
100
AcDbEntity
  8
0
100
AcDbCircle
 62
7
  6
CONTINUOUS
 10
9.1011239049
 20
14.6309121134
 40
0.0196850394
100
AcDbArc
 50
225.0156368764
 51
269.9988567094
  0
ARC
  5
48B
100
AcDbEntity
  8
0
100
AcDbCircle
 62
7
  6
CONTINUOUS
 10
8.9986295075
 20
14.74493774
 40
0.0196850394
100
AcDbArc
 50
269.9975411858
 51
315.0
  0
ARC
  5
48C
100
AcDbEntity
  8
0
100
AcDbCircle
 62
7
  6
CONTINUOUS
 10
8.9870982784
 20
14.74493774
 40
0.0196850394
100
AcDbArc
 50
224.9861615565
 51
269.99885671
  0
ARC
  5
48D
100
AcDbEntity
  8
0
100
AcDbCircle
 62
7
  6
CONTINUOUS
 10
8.8867612547
 20
14.7980494239
 40
0.0196850394
100
AcDbArc
 50
269.9987952044
 51
315.0
  0
ARC
  5
48E
100
AcDbEntity
  8
0
100
AcDbCircle
 62
7
  6
CONTINUOUS
 10
8.8752300256
 20
14.7980494239
 40
0.0196850394
100
AcDbArc
 50
224.9940609216
 51
269.998672795
  0
ARC
  5
48F
100
AcDbEntity
  8
0
100
AcDbCircle
 62
7
  6
CONTINUOUS
 10
8.9420974793
 20
14.7311819703
 40
0.0196850394
100
AcDbArc
 50
225.0254592584
 51
269.9986727884
  0
ARC
  5
490
100
AcDbEntity
  8
0
100
AcDbCircle
 62
7
  6
CONTINUOUS
 10
8.9536287083
 20
14.7311819703
 40
0.0196850394
100
AcDbArc
 50
269.9987952044
 51
315.0
  0
ARC
  5
491
100
AcDbEntity
  8
0
100
AcDbCircle
 62
7
  6
CONTINUOUS
 10
8.8812476992
 20
14.7920317503
 40
0.0196850394
100
AcDbArc
 50
212.4938308838
 51
224.9745407416
  0
ARC
  5
492
100
AcDbEntity
  8
0
100
AcDbCircle
 62
9
  6
CONTINUOUS
 10
9.2431008965
 20
14.561189452
 40
0.0080179026
100
AcDbArc
 50
225.0039089866
 51
239.160553402
  0
ARC
  5
493
100
AcDbEntity
  8
0
100
AcDbCircle
 62
7
  6
CONTINUOUS
 10
8.9095451886
 20
14.8340220589
 40
0.0196850394
100
AcDbArc
 50
135.0
 51
180.0024588142
  0
ARC
  5
494
100
AcDbEntity
  8
0
100
AcDbCircle
 62
7
  6
CONTINUOUS
 10
8.9095451886
 20
14.8224908298
 40
0.0196850394
100
AcDbArc
 50
180.00114329
 51
225.0138384435
  0
ARC
  5
495
100
AcDbEntity
  8
0
100
AcDbCircle
 62
7
  6
CONTINUOUS
 10
8.8172409302
 20
14.9263263173
 40
0.0196850394
100
AcDbArc
 50
269.9975411859
 51
315.0
  0
ARC
  5
496
100
AcDbEntity
  8
0
100
AcDbCircle
 62
7
  6
CONTINUOUS
 10
8.8057097011
 20
14.9263263173
 40
0.0196850394
100
AcDbArc
 50
224.9988396009
 51
269.9988567098
  0
ARC
  5
497
100
AcDbEntity
  8
0
100
AcDbCircle
 62
7
  6
CONTINUOUS
 10
8.8143802456
 20
14.870430433
 40
0.0196850394
100
AcDbArc
 50
135.0
 51
180.0012047948
  0
ARC
  5
498
100
AcDbEntity
  8
0
100
AcDbCircle
 62
7
  6
CONTINUOUS
 10
8.8143802456
 20
14.858899204
 40
0.0196850394
100
AcDbArc
 50
180.0013272057
 51
225.0059390794
  0
ARC
  5
499
100
AcDbEntity
  8
0
100
AcDbCircle
 62
7
  6
CONTINUOUS
 10
8.8099527344
 20
14.8392861938
 40
0.0078740157
100
AcDbArc
 50
235.1465387618
 51
294.9917022292
  0
ARC
  5
49A
100
AcDbEntity
  8
0
100
AcDbCircle
 62
7
  6
CONTINUOUS
 10
9.4341934334
 20
16.5718825179
 40
0.08
100
AcDbArc
 50
0.2317553725
 51
16.0449756281
  0
ARC
  5
49B
100
AcDbEntity
  8
0
100
AcDbCircle
 62
7
  6
CONTINUOUS
 10
8.7595395836
 20
17.2465363677
 40
0.08
100
AcDbArc
 50
73.9550243719
 51
89.7682446275
  0
ARC
  5
49C
100
AcDbEntity
  8
0
100
AcDbCircle
 62
7
  6
CONTINUOUS
 10
9.5974981095
 20
15.7552111759
 40
0.08
100
AcDbArc
 50
180.2317553725
 51
225.0
  0
ARC
  5
49D
100
AcDbEntity
  8
0
100
AcDbCircle
 62
7
  6
CONTINUOUS
 10
9.5672076915
 20
17.3795506259
 40
2.5590551181
100
AcDbArc
 50
222.3528405071
 51
227.6471594929
  0
ARC
  5
49E
100
AcDbEntity
  8
0
100
AcDbCircle
 62
7
  6
CONTINUOUS
 10
9.6441671571
 20
17.4565100915
 40
0.489
100
AcDbArc
 50
343.8720486571
 51
0.0258404644
  0
ARC
  5
49F
100
AcDbEntity
  8
0
100
AcDbCircle
 62
7
  6
CONTINUOUS
 10
9.6441671571
 20
17.4565100915
 40
0.489
100
AcDbArc
 50
89.9741595356
 51
106.1279513429
  0
ARC
  5
4A0
100
AcDbEntity
  8
0
100
AcDbCircle
 62
7
  6
CONTINUOUS
 10
9.6444237768
 20
18.0255100336
 40
0.08
100
AcDbArc
 50
269.9741595356
 51
360.0
  0
ARC
  5
4A1
100
AcDbEntity
  8
0
100
AcDbCircle
 62
7
  6
CONTINUOUS
 10
7.9428682416
 20
17.4098410439
 40
0.08
100
AcDbArc
 50
225.0
 51
269.7682446275
  0
ARC
  5
4A2
100
AcDbEntity
  8
0
100
AcDbCircle
 62
7
  6
CONTINUOUS
 10
7.2994010707
 20
17.8270340448
 40
0.08
100
AcDbArc
 50
45.0
 51
135.0
  0
ARC
  5
4A3
100
AcDbEntity
  8
0
100
AcDbCircle
 62
7
  6
CONTINUOUS
 10
10.0146911104
 20
15.111744005
 40
0.08
100
AcDbArc
 50
315.0
 51
45.0
  0
ARC
  5
4A4
100
AcDbEntity
  8
0
100
AcDbCircle
 62
9
  6
CONTINUOUS
 10
12.7694229508
 20
20.4909363911
 40
6.9265790663
100
AcDbArc
 50
239.2610109886
 51
240.0308013472
  0
ARC
  5
4A5
100
AcDbEntity
  8
0
100
AcDbCircle
 62
7
  6
CONTINUOUS
 10
12.5474226038
 20
17.884891804
 40
2.15625
100
AcDbArc
 50
90.0
 51
135.0
  0
ARC
  5
4A6
100
AcDbEntity
  8
0
100
AcDbCircle
 62
7
  6
CONTINUOUS
 10
12.5474226038
 20
17.884891804
 40
1.34375
100
AcDbArc
 50
90.0
 51
135.0
  0
ARC
  5
4A7
100
AcDbEntity
  8
0
100
AcDbCircle
 62
7
  6
CONTINUOUS
 10
10.286483264
 20
17.7247667111
 40
0.188
100
AcDbArc
 50
270.0
 51
315.0
  0
ARC
  5
4A8
100
AcDbEntity
  8
0
100
AcDbCircle
 62
7
  6
CONTINUOUS
 10
9.9124237768
 20
18.0988261984
 40
0.188
100
AcDbArc
 50
135.0
 51
180.0
  0
ARC
  5
4A9
100
AcDbEntity
  8
0
100
AcDbCircle
 62
7
  6
CONTINUOUS
 10
10.2131670992
 20
17.4567667111
 40
0.08
100
AcDbArc
 50
90.0
 51
180.0258404644
  0
ARC
  5
4AA
100
AcDbEntity
  8
0
100
AcDbCircle
 62
7
  6
CONTINUOUS
 10
14.4844226038
 20
4.3744570214
 40
0.1254347826
100
AcDbArc
 50
22.9364108859
 51
70.4680059554
  0
ARC
  5
4AB
100
AcDbEntity
  8
0
100
AcDbCircle
 62
7
  6
CONTINUOUS
 10
14.5474226038
 20
4.5520483143
 40
0.063
100
AcDbArc
 50
180.0
 51
250.4680059544
  0
ARC
  5
4AC
100
AcDbEntity
  8
0
100
AcDbCircle
 62
7
  6
CONTINUOUS
 10
14.6579593435
 20
4.447891804
 40
0.063
100
AcDbArc
 50
202.9364108859
 51
270.0
  0
ARC
  5
4AD
100
AcDbEntity
  8
0
100
AcDbCircle
 62
7
  6
CONTINUOUS
 10
13.2634226038
 20
5.077391804
 40
0.031
100
AcDbArc
 50
180.0
 51
256.9592389661
  0
ARC
  5
4AE
100
AcDbEntity
  8
0
100
AcDbCircle
 62
7
  6
CONTINUOUS
 10
13.2634226038
 20
5.852391804
 40
0.031
100
AcDbArc
 50
103.0407610339
 51
180.0
  0
ARC
  5
4AF
100
AcDbEntity
  8
0
100
AcDbCircle
 62
7
  6
CONTINUOUS
 10
13.3994226038
 20
5.045891804
 40
0.031
100
AcDbArc
 50
256.9592389661
 51
270.0
  0
ARC
  5
4B0
100
AcDbEntity
  8
0
100
AcDbCircle
 62
7
  6
CONTINUOUS
 10
13.4894226038
 20
5.045891804
 40
0.031
100
AcDbArc
 50
270.0
 51
315.2453073495
  0
ARC
  5
4B1
100
AcDbEntity
  8
0
100
AcDbCircle
 62
7
  6
CONTINUOUS
 10
13.3994226038
 20
5.883891804
 40
0.031
100
AcDbArc
 50
90.0
 51
103.0407610339
  0
ARC
  5
4B2
100
AcDbEntity
  8
0
100
AcDbCircle
 62
7
  6
CONTINUOUS
 10
13.4894226038
 20
5.883891804
 40
0.031
100
AcDbArc
 50
44.7546926505
 51
90.0
  0
ARC
  5
4B3
100
AcDbEntity
  8
0
100
AcDbCircle
 62
7
  6
CONTINUOUS
 10
14.3164226038
 20
5.240891804
 40
0.012
100
AcDbArc
 50
180.0
 51
270.0
  0
ARC
  5
4B4
100
AcDbEntity
  8
0
100
AcDbCircle
 62
7
  6
CONTINUOUS
 10
14.3164226038
 20
5.688891804
 40
0.012
100
AcDbArc
 50
90.0
 51
180.0
  0
ARC
  5
4B5
100
AcDbEntity
  8
0
100
AcDbCircle
 62
7
  6
CONTINUOUS
 10
12.8996784321
 20
20.7120409295
 40
7.1691060897
100
AcDbArc
 50
219.137747198
 51
219.2089918143
  0
ARC
  5
4B6
100
AcDbEntity
  8
0
100
AcDbCircle
 62
7
  6
CONTINUOUS
 10
12.8996784321
 20
20.7120409295
 40
7.1691060897
100
AcDbArc
 50
215.6769302766
 51
217.0935650954
  0
ARC
  5
4B7
100
AcDbEntity
  8
0
100
AcDbCircle
 62
7
  6
CONTINUOUS
 10
12.8996979952
 20
20.7120213664
 40
7.1691060897
100
AcDbArc
 50
232.7964862957
 51
234.3230697234
  0
ARC
  5
4B8
100
AcDbEntity
  8
0
100
AcDbCircle
 62
7
  6
CONTINUOUS
 10
12.8997033999
 20
20.7120658974
 40
7.1643816803
100
AcDbArc
 50
214.8532231336
 51
215.5750973652
  0
ARC
  5
4B9
100
AcDbEntity
  8
0
100
AcDbCircle
 62
7
  6
CONTINUOUS
 10
12.8997229631
 20
20.7120463343
 40
7.1643816803
100
AcDbArc
 50
234.4249026348
 51
235.1467768664
  0
ARC
  5
4BA
100
AcDbEntity
  8
0
100
AcDbCircle
 62
7
  6
CONTINUOUS
 10
12.8997033999
 20
20.7120658974
 40
7.1643816803
100
AcDbArc
 50
210.1944718959
 51
210.7102731828
  0
ARC
  5
4BB
100
AcDbEntity
  8
0
100
AcDbCircle
 62
7
  6
CONTINUOUS
 10
12.8993394013
 20
20.7118161307
 40
7.1633226514
100
AcDbArc
 50
239.270521551
 51
239.7914629
  0
ARC
  5
4BC
100
AcDbEntity
  8
0
100
AcDbCircle
 62
9
  6
CONTINUOUS
 10
12.903221718
 20
20.7179860844
 40
7.1507436036
100
AcDbArc
 50
238.2880417734
 51
238.6171785401
  0
ARC
  5
4BD
100
AcDbEntity
  8
0
100
AcDbCircle
 62
7
  6
CONTINUOUS
 10
18.8525820196
 20
19.5827178919
 40
4.5
100
AcDbArc
 50
164.4604045096
 51
173.5855182739
  0
ARC
  5
4BE
100
AcDbEntity
  8
0
100
AcDbCircle
 62
7
  6
CONTINUOUS
 10
18.8525820196
 20
19.6870657162
 40
4.5
100
AcDbArc
 50
186.4144817261
 51
195.5395954904
  0
ARC
  5
4BF
100
AcDbEntity
  8
0
100
AcDbCircle
 62
7
  6
CONTINUOUS
 10
14.4844226038
 20
10.8953265867
 40
0.1254347826
100
AcDbArc
 50
289.5319940446
 51
337.0635891141
  0
ARC
  5
4C0
100
AcDbEntity
  8
0
100
AcDbCircle
 62
7
  6
CONTINUOUS
 10
14.5474226038
 20
10.7177352938
 40
0.063
100
AcDbArc
 50
109.5319940456
 51
180.0
  0
ARC
  5
4C1
100
AcDbEntity
  8
0
100
AcDbCircle
 62
7
  6
CONTINUOUS
 10
14.6579593435
 20
10.821891804
 40
0.063
100
AcDbArc
 50
90.0
 51
157.0635891141
  0
ARC
  5
4C2
100
AcDbEntity
  8
0
100
AcDbCircle
 62
7
  6
CONTINUOUS
 10
14.5652493566
 20
18.494891804
 40
0.05
100
AcDbArc
 50
195.5395954904
 51
270.0
  0
ARC
  5
4C3
100
AcDbEntity
  8
0
100
AcDbCircle
 62
7
  6
CONTINUOUS
 10
14.5652493566
 20
20.774891804
 40
0.05
100
AcDbArc
 50
90.0
 51
164.4604045096
  0
SPLINE
  5
4C4
100
AcDbEntity
  8
0
100
AcDbSpline
 62
7
  6
CONTINUOUS
 70
0
 71
3
 72
18
 73
14
 74
0
 42
0.0000001
 43
0.0000001
 44
0.0000000001
 40
0.0
 40
0.0
 40
0.0
 40
0.0
 40
0.0939762084
 40
0.1870151234
 40
0.278272087
 40
0.367024528
 40
0.5345604116
 40
0.6122759802
 40
0.6851524067
 40
0.8136031203
 40
0.9135427483
 40
0.9777504746
 40
1.0
 40
1.0
 40
1.0
 40
1.0
 10
11.6814226038
 20
7.3426590201
 30
0.0
 10
11.6893309373
 20
7.3426590201
 30
0.0
 10
11.7050761043
 20
7.3420172107
 30
0.0
 10
11.7283462007
 20
7.3392063117
 30
0.0
 10
11.7509114025
 20
7.3347685668
 30
0.0
 10
11.7791879042
 20
7.3272331035
 30
0.0
 10
11.8056894866
 20
7.3177049316
 30
0.0
 10
11.830257257
 20
7.307061555
 30
0.0
 10
11.8514718929
 20
7.2969842721
 30
0.0
 10
11.8739142354
 20
7.2851682756
 30
0.0
 10
11.8952536477
 20
7.2728767874
 30
0.0
 10
11.9086602878
 20
7.264732465
 30
0.0
 10
11.9148360469
 20
7.260886044
 30
0.0
 10
11.9164226038
 20
7.259891804
 30
0.0
  0
SPLINE
  5
4C5
100
AcDbEntity
  8
0
100
AcDbSpline
 62
7
  6
CONTINUOUS
 70
0
 71
3
 72
18
 73
14
 74
0
 42
0.0000001
 43
0.0000001
 44
0.0000000001
 40
0.0
 40
0.0
 40
0.0
 40
0.0
 40
0.0939762084
 40
0.1870151235
 40
0.2782720871
 40
0.3670245281
 40
0.5345604116
 40
0.6122759803
 40
0.6851524067
 40
0.8136031203
 40
0.9135427483
 40
0.9777504746
 40
1.0
 40
1.0
 40
1.0
 40
1.0
 10
11.6814226038
 20
7.927124588
 30
0.0
 10
11.6735142704
 20
7.927124588
 30
0.0
 10
11.6577691033
 20
7.9277663974
 30
0.0
 10
11.6344990069
 20
7.9305772964
 30
0.0
 10
11.6119338052
 20
7.9350150412
 30
0.0
 10
11.5836573035
 20
7.9425505046
 30
0.0
 10
11.5571557211
 20
7.9520786765
 30
0.0
 10
11.5325879507
 20
7.9627220531
 30
0.0
 10
11.5113733148
 20
7.972799336
 30
0.0
 10
11.4889309723
 20
7.9846153325
 30
0.0
 10
11.46759156
 20
7.9969068207
 30
0.0
 10
11.4541849199
 20
8.0050511431
 30
0.0
 10
11.4480091608
 20
8.0088975641
 30
0.0
 10
11.4464226038
 20
8.009891804
 30
0.0
  0
LINE
  5
4C6
100
AcDbEntity
  8
0
100
AcDbLine
 62
7
  6
CONTINUOUS
 10
7.2007738132
 20
16.3628723441
 11
7.1979742491
 21
16.3664949459
  0
LINE
  5
4C7
100
AcDbEntity
  8
0
100
AcDbLine
 62
7
  6
CONTINUOUS
 10
7.1979742491
 20
16.3664949459
 11
7.1818305788
 21
16.3874312911
  0
LINE
  5
4C8
100
AcDbEntity
  8
0
100
AcDbLine
 62
7
  6
CONTINUOUS
 10
7.1818305788
 20
16.3874312911
 11
7.1812926385
 21
16.3881370229
  0
SPLINE
  5
4C9
100
AcDbEntity
  8
0
100
AcDbSpline
 62
7
  6
CONTINUOUS
 70
0
 71
3
 72
8
 73
4
 74
0
 42
0.0000001
 43
0.0000001
 44
0.0000000001
 40
0.0
 40
0.0
 40
0.0
 40
0.0
 40
1.0
 40
1.0
 40
1.0
 40
1.0
 10
7.1812289036
 20
16.3882211926
 30
0.0
 10
7.1812141126
 20
16.3882407796
 30
0.0
 10
7.1811993215
 20
16.3882603666
 30
0.0
 10
7.1811845304
 20
16.3882799537
 30
0.0
  0
LINE
  5
4CA
100
AcDbEntity
  8
0
100
AcDbLine
 62
7
  6
CONTINUOUS
 10
7.1811845304
 20
16.3882799537
 11
7.18102489
 21
16.388494511
  0
SPLINE
  5
4CB
100
AcDbEntity
  8
0
100
AcDbSpline
 62
7
  6
CONTINUOUS
 70
0
 71
3
 72
18
 73
14
 74
0
 42
0.0000001
 43
0.0000001
 44
0.0000000001
 40
0.0
 40
0.0
 40
0.0
 40
0.0
 40
0.0222495254
 40
0.0864572517
 40
0.1863968797
 40
0.3148475933
 40
0.3877240197
 40
0.4654395884
 40
0.6329754719
 40
0.7217279129
 40
0.8129848765
 40
0.9060237916
 40
1.0
 40
1.0
 40
1.0
 40
1.0
 10
11.4464226038
 20
7.259891804
 30
0.0
 10
11.4480091608
 20
7.260886044
 30
0.0
 10
11.4541849199
 20
7.264732465
 30
0.0
 10
11.46759156
 20
7.2728767874
 30
0.0
 10
11.4889309723
 20
7.2851682756
 30
0.0
 10
11.5113733148
 20
7.2969842721
 30
0.0
 10
11.5325879507
 20
7.307061555
 30
0.0
 10
11.5571557211
 20
7.3177049316
 30
0.0
 10
11.5836573035
 20
7.3272331035
 30
0.0
 10
11.6119338052
 20
7.3347685668
 30
0.0
 10
11.6344990069
 20
7.3392063117
 30
0.0
 10
11.6577691033
 20
7.3420172107
 30
0.0
 10
11.6735142704
 20
7.3426590201
 30
0.0
 10
11.6814226038
 20
7.3426590201
 30
0.0
  0
SPLINE
  5
4CC
100
AcDbEntity
  8
0
100
AcDbSpline
 62
7
  6
CONTINUOUS
 70
0
 71
3
 72
18
 73
14
 74
0
 42
0.0000001
 43
0.0000001
 44
0.0000000001
 40
0.0
 40
0.0
 40
0.0
 40
0.0
 40
0.0222495254
 40
0.0864572517
 40
0.1863968797
 40
0.3148475933
 40
0.3877240198
 40
0.4654395884
 40
0.632975472
 40
0.721727913
 40
0.8129848766
 40
0.9060237916
 40
1.0
 40
1.0
 40
1.0
 40
1.0
 10
11.9164226038
 20
8.009891804
 30
0.0
 10
11.9148360469
 20
8.0088975641
 30
0.0
 10
11.9086602878
 20
8.0050511431
 30
0.0
 10
11.8952536477
 20
7.9969068207
 30
0.0
 10
11.8739142354
 20
7.9846153325
 30
0.0
 10
11.8514718929
 20
7.972799336
 30
0.0
 10
11.830257257
 20
7.9627220531
 30
0.0
 10
11.8056894866
 20
7.9520786765
 30
0.0
 10
11.7791879042
 20
7.9425505046
 30
0.0
 10
11.7509114025
 20
7.9350150412
 30
0.0
 10
11.7283462007
 20
7.9305772964
 30
0.0
 10
11.7050761043
 20
7.9277663974
 30
0.0
 10
11.6893309373
 20
7.927124588
 30
0.0
 10
11.6814226038
 20
7.927124588
 30
0.0
  0
SPLINE
  5
4CD
100
AcDbEntity
  8
0
100
AcDbSpline
 62
7
  6
CONTINUOUS
 70
0
 71
3
 72
32
 73
28
 74
0
 42
0.0000001
 43
0.0000001
 44
0.0000000001
 40
0.0
 40
0.0
 40
0.0
 40
0.0
 40
0.172832838
 40
0.2610496304
 40
0.3488873961
 40
0.4351839697
 40
0.5188066188
 40
0.598659997
 40
0.6736934042
 40
0.7429104756
 40
0.8053780556
 40
0.8338099221
 40
0.8602401957
 40
0.884575903
 40
0.9067319791
 40
0.926631093
 40
0.944205547
 40
0.9594000288
 40
0.9721740991
 40
0.9776484007
 40
0.982514573
 40
0.9867780791
 40
0.9904501084
 40
0.9935510682
 40
0.9961191192
 40
0.9982253533
 40
1.0
 40
1.0
 40
1.0
 40
1.0
 10
7.036627319
 20
16.7087477175
 30
0.0
 10
7.0398699685
 20
16.7042672151
 30
0.0
 10
7.0447011762
 20
16.6974513707
 30
0.0
 10
7.0510399454
 20
16.6882605114
 30
0.0
 10
7.055746536
 20
16.6813082726
 30
0.0
 10
7.0603105606
 20
16.6744374543
 30
0.0
 10
7.0646718155
 20
16.667739072
 30
0.0
 10
7.068772828
 20
16.6613017741
 30
0.0
 10
7.0725592847
 20
16.6552111475
 30
0.0
 10
7.0759803202
 20
16.6495490607
 30
0.0
 10
7.0785633402
 20
16.6451235731
 30
0.0
 10
7.0804073865
 20
16.6418528922
 30
0.0
 10
7.0816272502
 20
16.6396313127
 30
0.0
 10
7.0827235413
 20
16.6375712061
 30
0.0
 10
7.0836921867
 20
16.635680188
 30
0.0
 10
7.0845295369
 20
16.6339653748
 30
0.0
 10
7.0852325272
 20
16.6324333123
 30
0.0
 10
7.0857984542
 20
16.6310899875
 30
0.0
 10
7.08617187
 20
16.6300864202
 30
0.0
 10
7.0863950652
 20
16.6293810516
 30
0.0
 10
7.0865179749
 20
16.6289299996
 30
0.0
 10
7.0866052685
 20
16.628529506
 30
0.0
 10
7.0866569315
 20
16.6281797652
 30
0.0
 10
7.0866730534
 20
16.6278806956
 30
0.0
 10
7.0866532837
 20
16.6276316102
 30
0.0
 10
7.0865969542
 20
16.6274312112
 30
0.0
 10
7.0865276609
 20
16.6273244896
 30
0.0
 10
7.0864875023
 20
16.6272843348
 30
0.0
  0
SPLINE
  5
4CE
100
AcDbEntity
  8
0
100
AcDbSpline
 62
7
  6
CONTINUOUS
 70
0
 71
3
 72
32
 73
28
 74
0
 42
0.0000001
 43
0.0000001
 44
0.0000000001
 40
0.0
 40
0.0
 40
0.0
 40
0.0
 40
0.0017746485
 40
0.003880912
 40
0.0064489943
 40
0.0095499473
 40
0.0132220133
 40
0.017485573
 40
0.0223517537
 40
0.0278260793
 40
0.0406002404
 40
0.0557947752
 40
0.0733692666
 40
0.0932684419
 40
0.1154245022
 40
0.1397602085
 40
0.1661904212
 40
0.1946221897
 40
0.2570894536
 40
0.3263061052
 40
0.4013391177
 40
0.4811922266
 40
0.5648147969
 40
0.6511115119
 40
0.7389495434
 40
0.8271666221
 40
1.0
 40
1.0
 40
1.0
 40
1.0
 10
8.8149414011
 20
14.8988304362
 30
0.0
 10
8.8149815552
 20
14.8988705955
 30
0.0
 10
8.8150882766
 20
14.8989398914
 30
0.0
 10
8.8152886786
 20
14.8989962174
 30
0.0
 10
8.8155377651
 20
14.8990159859
 30
0.0
 10
8.8158368364
 20
14.8989998671
 30
0.0
 10
8.8161865791
 20
14.8989482016
 30
0.0
 10
8.8165870747
 20
14.8988609056
 30
0.0
 10
8.8170381289
 20
14.8987379967
 30
0.0
 10
8.8177435001
 20
14.8985147999
 30
0.0
 10
8.8187470702
 20
14.8981413811
 30
0.0
 10
8.8200903981
 20
14.8975754525
 30
0.0
 10
8.8216224627
 20
14.8968724613
 30
0.0
 10
8.8233372748
 20
14.8960351096
 30
0.0
 10
8.8252282916
 20
14.8950664659
 30
0.0
 10
8.8272883924
 20
14.8939701765
 30
0.0
 10
8.8295099641
 20
14.8927503175
 30
0.0
 10
8.8327806267
 20
14.8909062815
 30
0.0
 10
8.8372060845
 20
14.8883232793
 30
0.0
 10
8.8428681321
 20
14.8849022686
 30
0.0
 10
8.8489587206
 20
14.8811158373
 30
0.0
 10
8.8553959894
 20
14.8770148453
 30
0.0
 10
8.8620943568
 20
14.8726536023
 30
0.0
 10
8.8689651742
 20
14.8680895804
 30
0.0
 10
8.8759174215
 20
14.863382986
 30
0.0
 10
8.8851082965
 20
14.8570442085
 30
0.0
 10
8.8919241527
 20
14.8522129941
 30
0.0
 10
8.8964046628
 20
14.8489703404
 30
0.0
  0
SPLINE
  5
4CF
100
AcDbEntity
  8
0
100
AcDbSpline
 62
7
  6
CONTINUOUS
 70
0
 71
3
 72
20
 73
16
 74
0
 42
0.0000001
 43
0.0000001
 44
0.0000000001
 40
0.0
 40
0.0
 40
0.0
 40
0.0
 40
0.0291328515
 40
0.0605984242
 40
0.0954193664
 40
0.1343296531
 40
0.1778325549
 40
0.2262579391
 40
0.2798196495
 40
0.3386460136
 40
0.4028052594
 40
0.4723246634
 40
0.6273667986
 40
0.8034611724
 40
1.0
 40
1.0
 40
1.0
 40
1.0
 10
8.7319281042
 20
15.0470209583
 30
0.0
 10
8.7320502589
 20
15.0471431097
 30
0.0
 10
8.7323350064
 20
15.0473677745
 30
0.0
 10
8.7328436065
 20
15.0476224908
 30
0.0
 10
8.7334422188
 20
15.0478061072
 30
0.0
 10
8.7341296046
 20
15.0479200596
 30
0.0
 10
8.7349052732
 20
15.0479653389
 30
0.0
 10
8.7357685137
 20
15.0479425073
 30
0.0
 10
8.7367183887
 20
15.0478518289
 30
0.0
 10
8.7377537056
 20
15.0476936021
 30
0.0
 10
8.7388731005
 20
15.0474681985
 30
0.0
 10
8.7405369846
 20
15.0470634387
 30
0.0
 10
8.7428144367
 20
15.0463813931
 30
0.0
 10
8.7457634256
 20
15.0453327755
 30
0.0
 10
8.7478144185
 20
15.0445090925
 30
0.0
 10
8.7488889975
 20
15.0440579859
 30
0.0
  0
SPLINE
  5
4D0
100
AcDbEntity
  8
0
100
AcDbSpline
 62
7
  6
CONTINUOUS
 70
0
 71
3
 72
24
 73
20
 74
0
 42
0.0000001
 43
0.0000001
 44
0.0000000001
 40
0.0
 40
0.0
 40
0.0
 40
0.0
 40
0.2100652685
 40
0.3980483463
 40
0.4830568305
 40
0.5617545553
 40
0.6339511648
 40
0.6994982464
 40
0.7583040842
 40
0.8103389036
 40
0.8556690825
 40
0.894492242
 40
0.9272219554
 40
0.9415433449
 40
0.9546785872
 40
0.9668208797
 40
0.9782169453
 40
0.9891651368
 40
1.0
 40
1.0
 40
1.0
 40
1.0
 10
8.6030091328
 20
15.1493948903
 30
0.0
 10
8.6044635789
 20
15.1479404442
 30
0.0
 10
8.6071819857
 20
15.1451464226
 30
0.0
 10
8.6103617363
 20
15.1416428844
 30
0.0
 10
8.612586848
 20
15.1390142506
 30
0.0
 10
8.6140330087
 20
15.1372126896
 30
0.0
 10
8.6153090038
 20
15.1355200464
 30
0.0
 10
8.616411073
 20
15.1339416589
 30
0.0
 10
8.6173363684
 20
15.1324824525
 30
0.0
 10
8.6180826801
 20
15.1311466692
 30
0.0
 10
8.6186488709
 20
15.1299375678
 30
0.0
 10
8.6190341509
 20
15.1288578174
 30
0.0
 10
8.6192118836
 20
15.1280317028
 30
0.0
 10
8.6192501484
 20
15.1274425847
 30
0.0
 10
8.6192311449
 20
15.1270543189
 30
0.0
 10
8.6191654899
 20
15.1267000042
 30
0.0
 10
8.6190526498
 20
15.1263800803
 30
0.0
 10
8.6188924857
 20
15.1260955072
 30
0.0
 10
8.6187548545
 20
15.1259307405
 30
0.0
 10
8.6186798374
 20
15.125855721
 30
0.0
  0
SPLINE
  5
4D1
100
AcDbEntity
  8
0
100
AcDbSpline
 62
7
  6
CONTINUOUS
 70
0
 71
3
 72
27
 73
23
 74
0
 42
0.0000001
 43
0.0000001
 44
0.0000000001
 40
0.0
 40
0.0
 40
0.0
 40
0.0
 40
0.193296704
 40
0.2862040051
 40
0.3756133549
 40
0.4608213654
 40
0.541180242
 40
0.6161022102
 40
0.6850696831
 40
0.74764306
 40
0.8034733417
 40
0.8523212037
 40
0.8740949132
 40
0.894101738
 40
0.9123636873
 40
0.928922027
 40
0.9438478833
 40
0.9572494494
 40
0.9692892346
 40
0.9802003003
 40
0.9903021513
 40
1.0
 40
1.0
 40
1.0
 40
1.0
 10
8.1057492036
 20
15.6466548196
 30
0.0
 10
8.1087044942
 20
15.6436995289
 30
0.0
 10
8.1130027533
 20
15.6392448844
 30
0.0
 10
8.1184645873
 20
15.6332338466
 30
0.0
 10
8.1222633245
 20
15.6288710484
 30
0.0
 10
8.125787524
 20
15.6246308447
 30
0.0
 10
8.1290089126
 20
15.6205483245
 30
0.0
 10
8.1319023993
 20
15.616656733
 30
0.0
 10
8.1344461855
 20
15.6129871829
 30
0.0
 10
8.1366221359
 20
15.6095682773
 30
0.0
 10
8.1384152581
 20
15.606426111
 30
0.0
 10
8.1396247549
 20
15.6039711071
 30
0.0
 10
8.140378043
 20
15.6021614692
 30
0.0
 10
8.1408185562
 20
15.6009396325
 30
0.0
 10
8.1411563345
 20
15.5998025101
 30
0.0
 10
8.1413908612
 20
15.5987517344
 30
0.0
 10
8.1415219658
 20
15.597788709
 30
0.0
 10
8.141549171
 20
15.5969143795
 30
0.0
 10
8.1414718
 20
15.5961295082
 30
0.0
 10
8.1412882514
 20
15.5954349378
 30
0.0
 10
8.1409966682
 20
15.5948333186
 30
0.0
 10
8.1407277139
 20
15.5944947857
 30
0.0
 10
8.1405794436
 20
15.5943465175
 30
0.0
  0
SPLINE
  5
4D2
100
AcDbEntity
  8
0
100
AcDbSpline
 62
7
  6
CONTINUOUS
 70
0
 71
3
 72
15
 73
11
 74
0
 42
0.0000001
 43
0.0000001
 44
0.0000000001
 40
0.0
 40
0.0
 40
0.0
 40
0.0
 40
0.1223485502
 40
0.2487686044
 40
0.377604891
 40
0.5071698312
 40
0.6357891382
 40
0.7618288747
 40
0.8837240605
 40
1.0
 40
1.0
 40
1.0
 40
1.0
 10
7.5721235692
 20
16.180280454
 30
0.0
 10
7.5739289079
 20
16.1784751152
 30
0.0
 10
7.5775533731
 20
16.1747578298
 30
0.0
 10
7.5829246747
 20
16.1689916288
 30
0.0
 10
7.5882703047
 20
16.1629982567
 30
0.0
 10
7.5935185356
 20
16.1568589472
 30
0.0
 10
7.5985999922
 20
16.1506561535
 30
0.0
 10
7.6034488072
 20
16.1444719441
 30
0.0
 10
7.6080034484
 20
16.1383868303
 30
0.0
 10
7.6108853187
 20
16.1343367746
 30
0.0
 10
7.6122647907
 20
16.132340644
 30
0.0
  0
SPLINE
  5
4D3
100
AcDbEntity
  8
0
100
AcDbSpline
 62
7
  6
CONTINUOUS
 70
0
 71
3
 72
22
 73
18
 74
0
 42
0.0000001
 43
0.0000001
 44
0.0000000001
 40
0.0
 40
0.0
 40
0.0
 40
0.0
 40
0.2080885343
 40
0.3946423277
 40
0.5579650625
 40
0.6304630356
 40
0.6966469941
 40
0.756400215
 40
0.8096397814
 40
0.8563345842
 40
0.896524383
 40
0.9303702283
 40
0.95824017
 40
0.9701710936
 40
0.9809516328
 40
0.9907985038
 40
1.0
 40
1.0
 40
1.0
 40
1.0
 10
7.2084939402
 20
16.5215389415
 30
0.0
 10
7.2093215404
 20
16.5200782893
 30
0.0
 10
7.2108628276
 20
16.5172919027
 30
0.0
 10
7.2129380159
 20
16.5132966071
 30
0.0
 10
7.2144085391
 20
16.5102214883
 30
0.0
 10
7.2153824073
 20
16.5079878077
 30
0.0
 10
7.2159823605
 20
16.5065032856
 30
0.0
 10
7.2164800133
 20
16.5051457553
 30
0.0
 10
7.2168740551
 20
16.5039186882
 30
0.0
 10
7.2171636023
 20
16.5028252726
 30
0.0
 10
7.2173481294
 20
16.501867733
 30
0.0
 10
7.2174273267
 20
16.501048085
 30
0.0
 10
7.217404378
 20
16.5004509456
 30
0.0
 10
7.2173227473
 20
16.5000501927
 30
0.0
 10
7.2172370486
 20
16.4998009163
 30
0.0
 10
7.2171233375
 20
16.4995875403
 30
0.0
 10
7.2170261087
 20
16.4994669594
 30
0.0
 10
7.2169736144
 20
16.4994144683
 30
0.0
  0
SPLINE
  5
4D4
100
AcDbEntity
  8
0
100
AcDbSpline
 62
7
  6
CONTINUOUS
 70
0
 71
3
 72
15
 73
11
 74
0
 42
0.0000001
 43
0.0000001
 44
0.0000000001
 40
0.0
 40
0.0
 40
0.0
 40
0.0
 40
0.3274536249
 40
0.4753195627
 40
0.6106121255
 40
0.7319394679
 40
0.8380175196
 40
0.9276965412
 40
0.9660735909
 40
1.0
 40
1.0
 40
1.0
 40
1.0
 10
6.9134818117
 20
16.8794651742
 30
0.0
 10
6.9159438343
 20
16.8753266866
 30
0.0
 10
6.9194797562
 20
16.8692966096
 30
0.0
 10
6.9239182151
 20
16.8614905904
 30
0.0
 10
6.9268050095
 20
16.8562896418
 30
0.0
 10
6.929335068
 20
16.8515939244
 30
0.0
 10
6.9314808902
 20
16.8474537996
 30
0.0
 10
6.9330000765
 20
16.844363408
 30
0.0
 10
6.9339972359
 20
16.8421999645
 30
0.0
 10
6.9344225264
 20
16.8412253131
 30
0.0
 10
6.9346155355
 20
16.840765245
 30
0.0
  0
SPLINE
  5
4D5
100
AcDbEntity
  8
0
100
AcDbSpline
 62
7
  6
CONTINUOUS
 70
0
 71
3
 72
24
 73
20
 74
0
 42
0.0000001
 43
0.0000001
 44
0.0000000001
 40
0.0
 40
0.0
 40
0.0
 40
0.0
 40
0.0108348615
 40
0.0217830477
 40
0.0331791093
 40
0.0453214154
 40
0.0584566532
 40
0.0727780285
 40
0.1055077621
 40
0.1443308975
 40
0.1896610961
 40
0.2416959026
 40
0.3005017518
 40
0.3660488297
 40
0.4382454328
 40
0.51694317
 40
0.6019516382
 40
0.7899347305
 40
1.0
 40
1.0
 40
1.0
 40
1.0
 10
7.3135127868
 20
16.4310227717
 30
0.0
 10
7.3135878065
 20
16.4310977884
 30
0.0
 10
7.3137525732
 20
16.4312354195
 30
0.0
 10
7.3140371457
 20
16.4313955843
 30
0.0
 10
7.3143570696
 20
16.4315084249
 30
0.0
 10
7.3147113845
 20
16.4315740785
 30
0.0
 10
7.3150996502
 20
16.4315930826
 30
0.0
 10
7.3156887684
 20
16.4315548186
 30
0.0
 10
7.3165148826
 20
16.4313770845
 30
0.0
 10
7.3175946335
 20
16.4309918058
 30
0.0
 10
7.3188037345
 20
16.4304256141
 30
0.0
 10
7.3201395182
 20
16.4296793031
 30
0.0
 10
7.3215987243
 20
16.4287540073
 30
0.0
 10
7.3231771119
 20
16.4276519382
 30
0.0
 10
7.3248697552
 20
16.4263759432
 30
0.0
 10
7.3266713159
 20
16.4249297824
 30
0.0
 10
7.32929995
 20
16.4227046708
 30
0.0
 10
7.3328034882
 20
16.4195249201
 30
0.0
 10
7.3355975099
 20
16.4168065133
 30
0.0
 10
7.337051956
 20
16.4153520672
 30
0.0
  0
SPLINE
  5
4D6
100
AcDbEntity
  8
0
100
AcDbSpline
 62
7
  6
CONTINUOUS
 70
0
 71
3
 72
24
 73
20
 74
0
 42
0.0000001
 43
0.0000001
 44
0.0000000001
 40
0.0
 40
0.0
 40
0.0
 40
0.0
 40
0.20759501
 40
0.3944881648
 40
0.4795412485
 40
0.558687997
 40
0.6317202157
 40
0.698449349
 40
0.7587134421
 40
0.8123839017
 40
0.8593754251
 40
0.8996707073
 40
0.9333553753
 40
0.9478041075
 40
0.9607305504
 40
0.9722323665
 40
0.9824548973
 40
0.991610511
 40
1.0
 40
1.0
 40
1.0
 40
1.0
 10
7.0402253531
 20
16.7527216328
 30
0.0
 10
7.0412623759
 20
16.7507846997
 30
0.0
 10
7.0431987383
 20
16.747085472
 30
0.0
 10
7.0454464928
 20
16.7425344124
 30
0.0
 10
7.0470144314
 20
16.7391654799
 30
0.0
 10
7.0480341106
 20
16.7368709689
 30
0.0
 10
7.048931996
 20
16.7347350279
 30
0.0
 10
7.0497052529
 20
16.7327640847
 30
0.0
 10
7.0503514606
 20
16.7309641874
 30
0.0
 10
7.0508685746
 20
16.7293409702
 30
0.0
 10
7.0512551214
 20
16.7278993136
 30
0.0
 10
7.0515098735
 20
16.7266437314
 30
0.0
 10
7.0516176149
 20
16.7257119784
 30
0.0
 10
7.0516272111
 20
16.72506528
 30
0.0
 10
7.0515999693
 20
16.7246541699
 30
0.0
 10
7.0515386632
 20
16.7242918167
 30
0.0
 10
7.0514427491
 20
16.7239781659
 30
0.0
 10
7.0513114597
 20
16.7237135411
 30
0.0
 10
7.0511958123
 20
16.7235659795
 30
0.0
 10
7.0511330266
 20
16.7235031975
 30
0.0
  0
SPLINE
  5
4D7
100
AcDbEntity
  8
0
100
AcDbSpline
 62
7
  6
CONTINUOUS
 70
0
 71
3
 72
20
 73
16
 74
0
 42
0.0000001
 43
0.0000001
 44
0.0000000001
 40
0.0
 40
0.0
 40
0.0
 40
0.0
 40
0.1965389374
 40
0.3726332944
 40
0.5276754098
 40
0.5971948187
 40
0.6613540732
 40
0.7201804313
 40
0.773742141
 40
0.8221674966
 40
0.8656703745
 40
0.9045806523
 40
0.9394015849
 40
0.9708671586
 40
1.0
 40
1.0
 40
1.0
 40
1.0
 10
7.2317150497
 20
16.5612319363
 30
0.0
 10
7.2321661567
 20
16.5601573564
 30
0.0
 10
7.2329898403
 20
16.5581063624
 30
0.0
 10
7.2340384583
 20
16.5551573723
 30
0.0
 10
7.2347205041
 20
16.5528799199
 30
0.0
 10
7.235125264
 20
16.5512160353
 30
0.0
 10
7.2353506677
 20
16.5500966401
 30
0.0
 10
7.2355088944
 20
16.5490613229
 30
0.0
 10
7.2355995731
 20
16.5481114479
 30
0.0
 10
7.2356224045
 20
16.5472482075
 30
0.0
 10
7.2355771251
 20
16.546472539
 30
0.0
 10
7.235463173
 20
16.5457851532
 30
0.0
 10
7.2352795562
 20
16.545186541
 30
0.0
 10
7.2350248404
 20
16.5446779406
 30
0.0
 10
7.2348001753
 20
16.5443931932
 30
0.0
 10
7.234678024
 20
16.5442710386
 30
0.0
  0
SPLINE
  5
4D8
100
AcDbEntity
  8
0
100
AcDbSpline
 62
7
  6
CONTINUOUS
 70
0
 71
3
 72
15
 73
11
 74
0
 42
0.0000001
 43
0.0000001
 44
0.0000000001
 40
0.0
 40
0.0
 40
0.0
 40
0.0
 40
0.0912275465
 40
0.1879434072
 40
0.2929848658
 40
0.4085064951
 40
0.5360640839
 40
0.6767280391
 40
0.8312215861
 40
1.0
 40
1.0
 40
1.0
 40
1.0
 10
8.4983496239
 20
15.2862228797
 30
0.0
 10
8.4985148212
 20
15.2863880679
 30
0.0
 10
8.4988921279
 20
15.2866929908
 30
0.0
 10
8.4995579027
 20
15.287046873
 30
0.0
 10
8.5003306936
 20
15.2873074677
 30
0.0
 10
8.5012082854
 20
15.2874761866
 30
0.0
 10
8.5021895183
 20
15.2875541424
 30
0.0
 10
8.5032731565
 20
15.2875420708
 30
0.0
 10
8.504457733
 20
15.2874403248
 30
0.0
 10
8.5052770727
 20
15.2873184132
 30
0.0
 10
8.5057028535
 20
15.28724413
 30
0.0
  0
SPLINE
  5
4D9
100
AcDbEntity
  8
0
100
AcDbSpline
 62
7
  6
CONTINUOUS
 70
0
 71
3
 72
27
 73
23
 74
0
 42
0.0000001
 43
0.0000001
 44
0.0000000001
 40
0.0
 40
0.0
 40
0.0
 40
0.0
 40
0.0096978401
 40
0.0197996823
 40
0.0307107602
 40
0.0427505378
 40
0.0561521226
 40
0.0710779788
 40
0.0876363265
 40
0.105898285
 40
0.1259051007
 40
0.1476788228
 40
0.1965266756
 40
0.2523569462
 40
0.3149303164
 40
0.383897789
 40
0.4588197603
 40
0.5391786414
 40
0.6243866481
 40
0.7137959989
 40
0.8067032838
 40
1.0
 40
1.0
 40
1.0
 40
1.0
 10
7.7820035831
 20
15.952922378
 30
0.0
 10
7.782151852
 20
15.9530706475
 30
0.0
 10
7.782490384
 20
15.9533396016
 30
0.0
 10
7.7830920023
 20
15.953631187
 30
0.0
 10
7.7837865735
 20
15.9538147325
 30
0.0
 10
7.7845714448
 20
15.9538921067
 30
0.0
 10
7.7854457747
 20
15.9538648991
 30
0.0
 10
7.7864088007
 20
15.9537337958
 30
0.0
 10
7.7874595767
 20
15.9534992686
 30
0.0
 10
7.7885966992
 20
15.9531614899
 30
0.0
 10
7.7898185363
 20
15.9527209773
 30
0.0
 10
7.7916281736
 20
15.951967688
 30
0.0
 10
7.7940831776
 20
15.9507581919
 30
0.0
 10
7.7972253434
 20
15.9489650699
 30
0.0
 10
7.8006442488
 20
15.9467891199
 30
0.0
 10
7.8043137988
 20
15.9442453337
 30
0.0
 10
7.8082053903
 20
15.9413518468
 30
0.0
 10
7.8122879106
 20
15.9381304582
 30
0.0
 10
7.8165281143
 20
15.9346062587
 30
0.0
 10
7.8208909122
 20
15.9308075216
 30
0.0
 10
7.8269019499
 20
15.9253456878
 30
0.0
 10
7.8313565944
 20
15.9210474287
 30
0.0
 10
7.8343118852
 20
15.9180921379
 30
0.0
  0
SPLINE
  5
4DA
100
AcDbEntity
  8
0
100
AcDbSpline
 62
7
  6
CONTINUOUS
 70
0
 71
3
 72
15
 73
11
 74
0
 42
0.0000001
 43
0.0000001
 44
0.0000000001
 40
0.0
 40
0.0
 40
0.0
 40
0.0
 40
0.1687784908
 40
0.3232721021
 40
0.4639360262
 40
0.5914935662
 40
0.7070151674
 40
0.8120566068
 40
0.9087724682
 40
1.0
 40
1.0
 40
1.0
 40
1.0
 10
7.474901195
 20
16.3180457909
 30
0.0
 10
7.4749754784
 20
16.3176200097
 30
0.0
 10
7.47509739
 20
16.3168006694
 30
0.0
 10
7.4751991365
 20
16.3156160922
 30
0.0
 10
7.4752112081
 20
16.3145324536
 30
0.0
 10
7.4751332523
 20
16.3135512206
 30
0.0
 10
7.4749645336
 20
16.3126736286
 30
0.0
 10
7.4747039387
 20
16.3119008376
 30
0.0
 10
7.4743500567
 20
16.3112350623
 30
0.0
 10
7.4740451335
 20
16.3108577557
 30
0.0
 10
7.4738799452
 20
16.3106925584
 30
0.0
  0
LINE
  5
4DB
100
AcDbEntity
  8
0
100
AcDbLine
 62
7
  6
CONTINUOUS
 10
7.7532111371
 20
16.0397360831
 11
7.7524385128
 21
16.0386866867
  0
SPLINE
  5
4DC
100
AcDbEntity
  8
0
100
AcDbSpline
 62
7
  6
CONTINUOUS
 70
0
 71
3
 72
15
 73
11
 74
0
 42
0.0000001
 43
0.0000001
 44
0.0000000001
 40
0.0
 40
0.0
 40
0.0
 40
0.0
 40
0.1162750465
 40
0.2381697403
 40
0.3642093174
 40
0.4928287322
 40
0.6223939577
 40
0.7512306357
 40
0.8776511086
 40
1.0
 40
1.0
 40
1.0
 40
1.0
 10
8.3199965796
 20
15.4246085059
 30
0.0
 10
8.3219927457
 20
15.4232290245
 30
0.0
 10
8.32604288
 20
15.4203471264
 30
0.0
 10
8.3321281181
 20
15.4157924265
 30
0.0
 10
8.3383124684
 20
15.4109435301
 30
0.0
 10
8.3445154136
 20
15.4058619732
 30
0.0
 10
8.3506548797
 20
15.4006136274
 30
0.0
 10
8.3566484073
 20
15.3952678727
 30
0.0
 10
8.3624147568
 20
15.3898964416
 30
0.0
 10
8.3661321363
 20
15.3862718869
 30
0.0
 10
8.3679375196
 20
15.3844665035
 30
0.0
  0
SPLINE
  5
4DD
100
AcDbEntity
  8
0
100
AcDbSpline
 62
7
  6
CONTINUOUS
 70
0
 71
3
 72
22
 73
18
 74
0
 42
0.0000001
 43
0.0000001
 44
0.0000000001
 40
0.0
 40
0.0
 40
0.0
 40
0.0
 40
0.0092013915
 40
0.0190481064
 40
0.0298285653
 40
0.041759505
 40
0.0696293715
 40
0.1034753797
 40
0.143665246
 40
0.1903603206
 40
0.2436000169
 40
0.3033534987
 40
0.3695375503
 40
0.4420356544
 40
0.6053583126
 40
0.7919118114
 40
1.0
 40
1.0
 40
1.0
 40
1.0
 10
8.6870715346
 20
15.0293165483
 30
0.0
 10
8.6871240279
 20
15.0293690436
 30
0.0
 10
8.6872446134
 20
15.0294662735
 30
0.0
 10
8.6874579945
 20
15.0295799912
 30
0.0
 10
8.6877072813
 20
15.0296656897
 30
0.0
 10
8.6881080518
 20
15.0297473151
 30
0.0
 10
8.6887052174
 20
15.0297702623
 30
0.0
 10
8.6895249006
 20
15.0296910474
 30
0.0
 10
8.6904824837
 20
15.0295065056
 30
0.0
 10
8.6915759463
 20
15.0292169319
 30
0.0
 10
8.6928030684
 20
15.028822864
 30
0.0
 10
8.694160656
 20
15.0283251768
 30
0.0
 10
8.6956452416
 20
15.0277251879
 30
0.0
 10
8.6978790121
 20
15.0267512626
 30
0.0
 10
8.7009542529
 20
15.0252806616
 30
0.0
 10
8.7049497039
 20
15.0232053679
 30
0.0
 10
8.7077361983
 20
15.0216640053
 30
0.0
 10
8.709196907
 20
15.0208363648
 30
0.0
  0
LINE
  5
4DE
100
AcDbEntity
  8
0
100
AcDbLine
 62
7
  6
CONTINUOUS
 10
8.2263437523
 20
15.5647814472
 11
8.2273931405
 21
15.5655540671
  0
SPLINE
  5
4DF
100
AcDbEntity
  8
0
100
AcDbSpline
 62
9
  6
CONTINUOUS
 70
0
 71
3
 72
36
 73
32
 74
0
 42
0.0000001
 43
0.0000001
 44
0.0000000001
 40
0.0
 40
0.0
 40
0.0
 40
0.0
 40
0.0019765143
 40
0.0031070121
 40
0.0043672869
 40
0.0073444254
 40
0.0110055609
 40
0.0153966462
 40
0.0205398961
 40
0.0264448774
 40
0.0331141759
 40
0.0487287426
 40
0.0673266213
 40
0.088814144
 40
0.1130727929
 40
0.1399639527
 40
0.1693318664
 40
0.2010056601
 40
0.2348005934
 40
0.307953177
 40
0.3870844969
 40
0.4703406262
 40
0.5557551549
 40
0.6412862571
 40
0.7248605781
 40
0.8044230694
 40
0.8779943199
 40
0.9119511348
 40
0.9437328541
 40
0.9731445193
 40
1.0
 40
1.0
 40
1.0
 40
1.0
 10
8.3215097758
 20
15.2046638355
 30
0.0
 10
8.3215703901
 20
15.2047244399
 30
0.0
 10
8.3216895704
 20
15.2047967138
 30
0.0
 10
8.3218709857
 20
15.2048517046
 30
0.0
 10
8.3221015896
 20
15.2048885451
 30
0.0
 10
8.3224461099
 20
15.2048842766
 30
0.0
 10
8.3229199193
 20
15.2048134885
 30
0.0
 10
8.3234761086
 20
15.2046761647
 30
0.0
 10
8.3241142603
 20
15.2044724258
 30
0.0
 10
8.3248338413
 20
15.204202332
 30
0.0
 10
8.3259609409
 20
15.2037284074
 30
0.0
 10
8.3275613663
 20
15.2029635536
 30
0.0
 10
8.3296970099
 20
15.2018341311
 30
0.0
 10
8.3321234472
 20
15.2004555192
 30
0.0
 10
8.3348256589
 20
15.1988362378
 30
0.0
 10
8.3377870038
 20
15.1969858017
 30
0.0
 10
8.3409893958
 20
15.1949152343
 30
0.0
 10
8.3444135224
 20
15.1926368954
 30
0.0
 10
8.3493800103
 20
15.1892496033
 30
0.0
 10
8.3559758605
 20
15.1845997148
 30
0.0
 10
8.3642259056
 20
15.1785762794
 30
0.0
 10
8.3728109057
 20
15.1721118386
 30
0.0
 10
8.3815258892
 20
15.1653604148
 30
0.0
 10
8.3901602629
 20
15.1584840201
 30
0.0
 10
8.3985022135
 20
15.1516494132
 30
0.0
 10
8.4063449105
 20
15.1450256098
 30
0.0
 10
8.4124549332
 20
15.1396866336
 30
0.0
 10
8.4169414576
 20
15.1356405568
 30
0.0
 10
8.4199733895
 20
15.1328414537
 30
0.0
 10
8.4227433152
 20
15.1302130545
 30
0.0
 10
8.4244856607
 20
15.1285044974
 30
0.0
 10
8.4253087207
 20
15.1276805227
 30
0.0
  0
SPLINE
  5
4E0
100
AcDbEntity
  8
0
100
AcDbSpline
 62
9
  6
CONTINUOUS
 70
0
 71
3
 72
38
 73
34
 74
0
 42
0.0000001
 43
0.0000001
 44
0.0000000001
 40
0.0
 40
0.0
 40
0.0
 40
0.0
 40
0.0217516161
 40
0.0465967237
 40
0.0743611602
 40
0.1048513172
 40
0.1378500475
 40
0.1731227441
 40
0.249473188
 40
0.3317516045
 40
0.4176692477
 40
0.5048723747
 40
0.5910061093
 40
0.6737696692
 40
0.7509650821
 40
0.8205419632
 40
0.8518840483
 40
0.8806419416
 40
0.9066213528
 40
0.9296463833
 40
0.9495622174
 40
0.9583127667
 40
0.9662400533
 40
0.9733325424
 40
0.979582175
 40
0.9849842056
 40
0.9895395346
 40
0.993259194
 40
0.9961720856
 40
0.9973479301
 40
0.9983568268
 40
0.9992264385
 40
1.0
 40
1.0
 40
1.0
 40
1.0
 10
7.2579277961
 20
16.2950614473
 30
0.0
 10
7.2586244201
 20
16.2943657606
 30
0.0
 10
7.2600953459
 20
16.2928539943
 30
0.0
 10
7.2623935755
 20
16.2903949114
 30
0.0
 10
7.2649187873
 20
16.2876072473
 30
0.0
 10
7.2676529477
 20
16.2845114076
 30
0.0
 10
7.2705762744
 20
16.2811295942
 30
0.0
 10
7.2748116356
 20
16.2761385676
 30
0.0
 10
7.2804076065
 20
16.2693773001
 30
0.0
 10
7.2873495556
 20
16.2607559095
 30
0.0
 10
7.2944930737
 20
16.2516672173
 30
0.0
 10
7.3016409205
 20
16.2423609321
 30
0.0
 10
7.3086000015
 20
16.2330905553
 30
0.0
 10
7.3151834632
 20
16.2241054845
 30
0.0
 10
7.3212158969
 20
16.2156467323
 30
0.0
 10
7.3257973825
 20
16.2090128024
 30
0.0
 10
7.3290596824
 20
16.2041334329
 30
0.0
 10
7.331187547
 20
16.2008696171
 30
0.0
 10
7.3330685867
 20
16.1978946143
 30
0.0
 10
7.3346897637
 20
16.19522933
 30
0.0
 10
7.3358610125
 20
16.1932035996
 30
0.0
 10
7.3366550149
 20
16.1917499463
 30
0.0
 10
7.3371527095
 20
16.190796009
 30
0.0
 10
7.33757795
 20
16.1899322161
 30
0.0
 10
7.3379300994
 20
16.1891601786
 30
0.0
 10
7.3382087081
 20
16.188481376
 30
0.0
 10
7.3384137585
 20
16.1878967643
 30
0.0
 10
7.3385451136
 20
16.1874072999
 30
0.0
 10
7.3385978456
 20
16.1870560559
 30
0.0
 10
7.3385954428
 20
16.186824812
 30
0.0
 10
7.3385746369
 20
16.1866875217
 30
0.0
 10
7.3385343061
 20
16.1865735006
 30
0.0
 10
7.3384917613
 20
16.1865110477
 30
0.0
 10
7.3384677097
 20
16.1864856035
 30
0.0
  0
SPLINE
  5
4E1
100
AcDbEntity
  8
0
100
AcDbSpline
 62
9
  6
CONTINUOUS
 70
0
 71
3
 72
17
 73
13
 74
0
 42
0.0000001
 43
0.0000001
 44
0.0000000001
 40
0.0
 40
0.0
 40
0.0
 40
0.0
 40
0.0628699528
 40
0.1243887177
 40
0.2431386653
 40
0.3552009493
 40
0.4643963066
 40
0.5835544582
 40
0.7137160051
 40
0.8534219455
 40
0.9260774503
 40
1.0
 40
1.0
 40
1.0
 40
1.0
 10
7.2598098063
 20
16.3097209233
 30
0.0
 10
7.260008288
 20
16.3094491286
 30
0.0
 10
7.260372696
 20
16.3088899445
 30
0.0
 10
7.2609647218
 20
16.3077287104
 30
0.0
 10
7.2614626036
 20
16.3062338063
 30
0.0
 10
7.2617168595
 20
16.3044228066
 30
0.0
 10
7.2616699963
 20
16.302593518
 30
0.0
 10
7.261313112
 20
16.300699139
 30
0.0
 10
7.2605926268
 20
16.2987348566
 30
0.0
 10
7.259671339
 20
16.2971379659
 30
0.0
 10
7.2587414162
 20
16.2959179345
 30
0.0
 10
7.2582105743
 20
16.2953382973
 30
0.0
 10
7.2579306579
 20
16.2950585835
 30
0.0
  0
SPLINE
  5
4E2
100
AcDbEntity
  8
0
100
AcDbSpline
 62
9
  6
CONTINUOUS
 70
0
 71
3
 72
20
 73
16
 74
0
 42
0.0000001
 43
0.0000001
 44
0.0000000001
 40
0.0
 40
0.0
 40
0.0
 40
0.0
 40
0.1843203772
 40
0.3593360898
 40
0.5207820912
 40
0.6646581879
 40
0.7288569652
 40
0.7873397435
 40
0.8397308331
 40
0.8856919964
 40
0.924926543
 40
0.9571816318
 40
0.9822550963
 40
0.9920505199
 40
1.0
 40
1.0
 40
1.0
 40
1.0
 10
8.5068771948
 20
15.0358723271
 30
0.0
 10
8.5097603327
 20
15.0337106729
 30
0.0
 10
8.5153739881
 20
15.0294870368
 30
0.0
 10
8.5234874804
 20
15.0233362081
 30
0.0
 10
8.5309470068
 20
15.0176317008
 30
0.0
 10
8.5366631127
 20
15.0132140008
 30
0.0
 10
8.5407698394
 20
15.010005865
 30
0.0
 10
8.543458599
 20
15.0078879481
 30
0.0
 10
8.5458580181
 20
15.0059789647
 30
0.0
 10
8.5479526043
 20
15.004291334
 30
0.0
 10
8.5497290367
 20
15.0028363467
 30
0.0
 10
8.5511756052
 20
15.0016233261
 30
0.0
 10
8.5521664711
 20
15.0007626431
 30
0.0
 10
8.5527835516
 20
15.0001969324
 30
0.0
 10
8.5530335299
 20
14.999956282
 30
0.0
 10
8.5531431396
 20
14.9998461038
 30
0.0
  0
SPLINE
  5
4E3
100
AcDbEntity
  8
0
100
AcDbSpline
 62
9
  6
CONTINUOUS
 70
0
 71
3
 72
19
 73
15
 74
0
 42
0.0000001
 43
0.0000001
 44
0.0000000001
 40
0.0
 40
0.0
 40
0.0
 40
0.0
 40
0.1339794636
 40
0.2786361001
 40
0.4273729019
 40
0.5733468114
 40
0.7097287158
 40
0.7722674117
 40
0.8300115032
 40
0.882255665
 40
0.9283607619
 40
0.967764651
 40
0.9848053837
 40
1.0
 40
1.0
 40
1.0
 40
1.0
 10
8.4264204142
 20
15.1091711211
 30
0.0
 10
8.4302199631
 20
15.1064912595
 30
0.0
 10
8.4380740143
 20
15.1008500233
 30
0.0
 10
8.450005694
 20
15.0920402538
 30
0.0
 10
8.462162919
 20
15.0828369594
 30
0.0
 10
8.4739827589
 20
15.0736655634
 30
0.0
 10
8.4833430427
 20
15.0662054281
 30
0.0
 10
8.4902397691
 20
15.0605685823
 30
0.0
 10
8.4948402839
 20
15.0567366346
 30
0.0
 10
8.4989642421
 20
15.0532240737
 30
0.0
 10
8.5025608429
 20
15.0500746177
 30
0.0
 10
8.5051960369
 20
15.047682231
 30
0.0
 10
8.5070011405
 20
15.0459726045
 30
0.0
 10
8.5078003156
 20
15.0451896993
 30
0.0
 10
8.5081727903
 20
15.0448164531
 30
0.0
  0
SPLINE
  5
4E4
100
AcDbEntity
  8
0
100
AcDbSpline
 62
9
  6
CONTINUOUS
 70
0
 71
3
 72
27
 73
23
 74
0
 42
0.0000001
 43
0.0000001
 44
0.0000000001
 40
0.0
 40
0.0
 40
0.0
 40
0.0
 40
0.007284162
 40
0.0152021113
 40
0.0242719389
 40
0.0348363474
 40
0.0471049654
 40
0.0611997412
 40
0.0771904761
 40
0.0951108393
 40
0.1149730883
 40
0.1367711898
 40
0.1860905733
 40
0.242821967
 40
0.3065942383
 40
0.376943145
 40
0.4533244672
 40
0.5351237994
 40
0.6216645141
 40
0.7122168192
 40
0.8060032054
 40
1.0
 40
1.0
 40
1.0
 40
1.0
 10
7.7631222144
 20
15.7761586951
 30
0.0
 10
7.7632379025
 20
15.7762743726
 30
0.0
 10
7.7635205485
 20
15.7764772904
 30
0.0
 10
7.7640424839
 20
15.7766541072
 30
0.0
 10
7.7646621873
 20
15.7767156133
 30
0.0
 10
7.7653794009
 20
15.7766664474
 30
0.0
 10
7.7661951434
 20
15.7765083519
 30
0.0
 10
7.767109354
 20
15.7762418071
 30
0.0
 10
7.7681210457
 20
15.7758669594
 30
0.0
 10
7.7692286912
 20
15.7753843044
 30
0.0
 10
7.7704302823
 20
15.7747944934
 30
0.0
 10
7.7722298581
 20
15.7738257401
 30
0.0
 10
7.7746907561
 20
15.772343028
 30
0.0
 10
7.7778657051
 20
15.7702277574
 30
0.0
 10
7.7813463034
 20
15.767724545
 30
0.0
 10
7.7851032906
 20
15.7648535777
 30
0.0
 10
7.7891046699
 20
15.7616382752
 30
0.0
 10
7.7933159415
 20
15.7581056808
 30
0.0
 10
7.7977004842
 20
15.7542860722
 30
0.0
 10
7.8022197802
 20
15.7502126297
 30
0.0
 10
7.8084420471
 20
15.7444254337
 30
0.0
 10
7.8130749575
 20
15.7399166464
 30
0.0
 10
7.816154721
 20
15.7368345224
 30
0.0
  0
SPLINE
  5
4E5
100
AcDbEntity
  8
0
100
AcDbSpline
 62
9
  6
CONTINUOUS
 70
0
 71
3
 72
19
 73
15
 74
0
 42
0.0000001
 43
0.0000001
 44
0.0000000001
 40
0.0
 40
0.0
 40
0.0
 40
0.0
 40
0.0106676834
 40
0.0231422564
 40
0.0534103441
 40
0.0905686709
 40
0.1343152649
 40
0.1842879769
 40
0.2400729224
 40
0.3671936767
 40
0.511525819
 40
0.6684320219
 40
0.8329605431
 40
1.0
 40
1.0
 40
1.0
 40
1.0
 10
7.198995586
 20
16.3539936574
 30
0.0
 10
7.1991866243
 20
16.3538030124
 30
0.0
 10
7.1995947731
 20
16.353383129
 30
0.0
 10
7.2005170115
 20
16.3523954195
 30
0.0
 10
7.2018613534
 20
16.3508854161
 30
0.0
 10
7.203693934
 20
16.34875162
 30
0.0
 10
7.2058192555
 20
16.3462124328
 30
0.0
 10
7.2082196151
 20
16.3432891802
 30
0.0
 10
7.2119243492
 20
16.3387078376
 30
0.0
 10
7.2170685413
 20
16.3322206732
 30
0.0
 10
7.2237269315
 20
16.3236697771
 30
0.0
 10
7.2308988703
 20
16.3143196745
 30
0.0
 10
7.2383582254
 20
16.3044663427
 30
0.0
 10
7.2433817043
 20
16.297748107
 30
0.0
 10
7.2459023313
 20
16.2943560339
 30
0.0
  0
SPLINE
  5
4E6
100
AcDbEntity
  8
0
100
AcDbSpline
 62
9
  6
CONTINUOUS
 70
0
 71
3
 72
18
 73
14
 74
0
 42
0.0000001
 43
0.0000001
 44
0.0000000001
 40
0.0
 40
0.0
 40
0.0
 40
0.0
 40
0.0660386436
 40
0.1303706161
 40
0.2534471669
 40
0.3679482105
 40
0.4778801871
 40
0.5961027596
 40
0.72349333
 40
0.7903169016
 40
0.858905337
 40
0.9288991056
 40
1.0
 40
1.0
 40
1.0
 40
1.0
 10
7.2002627908
 20
16.3692679388
 30
0.0
 10
7.2004835477
 20
16.3689739858
 30
0.0
 10
7.2008914587
 20
16.3683719832
 30
0.0
 10
7.2015658457
 20
16.3671307828
 30
0.0
 10
7.2021590136
 20
16.3655473789
 30
0.0
 10
7.2025151425
 20
16.3636371088
 30
0.0
 10
7.2025562307
 20
16.3617220785
 30
0.0
 10
7.2022758778
 20
16.359753718
 30
0.0
 10
7.2017348092
 20
16.3580900467
 30
0.0
 10
7.2010968976
 20
16.3567715808
 30
0.0
 10
7.2005043326
 20
16.3557916115
 30
0.0
 10
7.1998077201
 20
16.35485289
 30
0.0
 10
7.1992786943
 20
16.3542702881
 30
0.0
 10
7.1989987125
 20
16.353990529
 30
0.0
  0
SPLINE
  5
4E7
100
AcDbEntity
  8
0
100
AcDbSpline
 62
9
  6
CONTINUOUS
 70
0
 71
3
 72
27
 73
23
 74
0
 42
0.0000001
 43
0.0000001
 44
0.0000000001
 40
0.0
 40
0.0
 40
0.0
 40
0.0
 40
0.0077501767
 40
0.0159686367
 40
0.0251283237
 40
0.0355723723
 40
0.047528417
 40
0.0611415623
 40
0.0765041241
 40
0.0936706355
 40
0.1126725284
 40
0.1335244546
 40
0.1807675894
 40
0.2353142714
 40
0.2969636319
 40
0.3654334013
 40
0.4403754066
 40
0.5213844088
 40
0.608005028
 40
0.6997368819
 40
0.7960335846
 40
1.0
 40
1.0
 40
1.0
 40
1.0
 10
7.6119690232
 20
15.9308680349
 30
0.0
 10
7.6120606594
 20
15.9309592018
 30
0.0
 10
7.6122772637
 20
15.9311210057
 30
0.0
 10
7.6126714466
 20
15.9312748768
 30
0.0
 10
7.6131331341
 20
15.9313451088
 30
0.0
 10
7.6136612969
 20
15.9313344638
 30
0.0
 10
7.6142564559
 20
15.9312445113
 30
0.0
 10
7.6149188345
 20
15.9310757372
 30
0.0
 10
7.6156481748
 20
15.9308282378
 30
0.0
 10
7.6164438683
 20
15.93050221
 30
0.0
 10
7.6173050248
 20
15.9300979006
 30
0.0
 10
7.6185934914
 20
15.9294263225
 30
0.0
 10
7.6203553933
 20
15.9283844896
 30
0.0
 10
7.6226303138
 20
15.9268813267
 30
0.0
 10
7.6251327201
 20
15.9250846414
 30
0.0
 10
7.6278479203
 20
15.923004274
 30
0.0
 10
7.6307598007
 20
15.9206518851
 30
0.0
 10
7.6338508538
 20
15.9180411998
 30
0.0
 10
7.6371023033
 20
15.9151877173
 30
0.0
 10
7.6404942096
 20
15.9121087377
 30
0.0
 10
7.6452679808
 20
15.9076413262
 30
0.0
 10
7.6488504077
 20
15.9041407822
 30
0.0
 10
7.6512549168
 20
15.9017343266
 30
0.0
  0
SPLINE
  5
4E8
100
AcDbEntity
  8
0
100
AcDbSpline
 62
9
  6
CONTINUOUS
 70
0
 71
3
 72
29
 73
25
 74
0
 42
0.0000001
 43
0.0000001
 44
0.0000000001
 40
0.0
 40
0.0
 40
0.0
 40
0.0
 40
0.0033163131
 40
0.0067543533
 40
0.0143444453
 40
0.0233654008
 40
0.034148678
 40
0.0468744173
 40
0.0616336508
 40
0.0784673087
 40
0.0973826468
 40
0.1183663518
 40
0.1413880065
 40
0.1664055349
 40
0.1933657289
 40
0.2528563469
 40
0.3192759749
 40
0.3919293477
 40
0.4700272762
 40
0.5526988651
 40
0.6390030518
 40
0.7279407179
 40
0.8184700898
 40
1.0
 40
1.0
 40
1.0
 40
1.0
 10
7.9172282032
 20
15.6184331591
 30
0.0
 10
7.9172945957
 20
15.6184995574
 30
0.0
 10
7.9174428764
 20
15.6186223382
 30
0.0
 10
7.9177984986
 20
15.618822333
 30
0.0
 10
7.9183548169
 20
15.6189719883
 30
0.0
 10
7.9191342482
 20
15.6189951668
 30
0.0
 10
7.9200504203
 20
15.6188765107
 30
0.0
 10
7.9211039137
 20
15.6186164529
 30
0.0
 10
7.9222941646
 20
15.6182157284
 30
0.0
 10
7.9236187151
 20
15.6176746574
 30
0.0
 10
7.9250744166
 20
15.6169943296
 30
0.0
 10
7.9266573909
 20
15.6161761766
 30
0.0
 10
7.9283633871
 20
15.6152222426
 30
0.0
 10
7.9301877034
 20
15.6141349679
 30
0.0
 10
7.932859967
 20
15.6124552642
 30
0.0
 10
7.9364509021
 20
15.6100367661
 30
0.0
 10
7.941012033
 20
15.6067486335
 30
0.0
 10
7.9459037036
 20
15.6030218986
 30
0.0
 10
7.9510689957
 20
15.5988980449
 30
0.0
 10
7.9564474626
 20
15.5944240927
 30
0.0
 10
7.9619762034
 20
15.5896528502
 30
0.0
 10
7.9675896191
 20
15.5846408134
 30
0.0
 10
7.9751028354
 20
15.5777104691
 30
0.0
 10
7.980639667
 20
15.5723524858
 30
0.0
 10
7.9842725945
 20
15.5687166488
 30
0.0
  0
SPLINE
  5
4E9
100
AcDbEntity
  8
0
100
AcDbSpline
 62
7
  6
CONTINUOUS
 70
0
 71
3
 72
32
 73
28
 74
0
 42
0.0000001
 43
0.0000001
 44
0.0000000001
 40
0.0
 40
0.0
 40
0.0
 40
0.0
 40
0.2231975939
 40
0.3256304655
 40
0.4215971206
 40
0.5108474522
 40
0.5931519055
 40
0.6682992592
 40
0.7360973386
 40
0.7963742595
 40
0.8489795296
 40
0.8723648754
 40
0.893786395
 40
0.9132327489
 40
0.9306937113
 40
0.9461621475
 40
0.9596338193
 40
0.9711082797
 40
0.980592756
 40
0.9845945252
 40
0.9881077407
 40
0.9911395744
 40
0.9937015543
 40
0.9958131903
 40
0.9975099407
 40
0.9988608054
 40
1.0
 40
1.0
 40
1.0
 40
1.0
 10
10.3049560993
 20
18.5110890965
 30
0.0
 10
10.2979446424
 20
18.5175893653
 30
0.0
 10
10.2876994831
 20
18.527055721
 30
0.0
 10
10.274389062
 20
18.5392619545
 30
0.0
 10
10.2652834084
 20
18.5475637118
 30
0.0
 10
10.2567883635
 20
18.5552553247
 30
0.0
 10
10.2489250472
 20
18.5623157868
 30
0.0
 10
10.2417129009
 20
18.5687258367
 30
0.0
 10
10.2351697456
 20
18.5744679889
 30
0.0
 10
10.2293116365
 20
18.5795264369
 30
0.0
 10
10.2248539417
 20
18.5832953394
 30
0.0
 10
10.2216374881
 20
18.5859537647
 30
0.0
 10
10.2195007813
 20
18.5876888226
 30
0.0
 10
10.2175447564
 20
18.5892436018
 30
0.0
 10
10.2157705546
 20
18.5906170437
 30
0.0
 10
10.214179245
 20
18.5918082536
 30
0.0
 10
10.2127717965
 20
18.5928166634
 30
0.0
 10
10.2115489769
 20
18.5936416612
 30
0.0
 10
10.2106394932
 20
18.5942048933
 30
0.0
 10
10.2100026505
 20
18.5945583322
 30
0.0
 10
10.2095991114
 20
18.5947618185
 30
0.0
 10
10.209241954
 20
18.594919332
 30
0.0
 10
10.2089309735
 20
18.5950310427
 30
0.0
 10
10.2086655716
 20
18.5950973535
 30
0.0
 10
10.2084443776
 20
18.5951181894
 30
0.0
 10
10.2082641688
 20
18.5950925056
 30
0.0
 10
10.2081688852
 20
18.5950360589
 30
0.0
 10
10.2081343807
 20
18.5950015506
 30
0.0
  0
SPLINE
  5
4EA
100
AcDbEntity
  8
0
100
AcDbSpline
 62
7
  6
CONTINUOUS
 70
0
 71
3
 72
48
 73
44
 74
0
 42
0.0000001
 43
0.0000001
 44
0.0000000001
 40
0.0
 40
0.0
 40
0.0
 40
0.0
 40
0.0292401059
 40
0.0608104441
 40
0.094528822
 40
0.1301996017
 40
0.2065620104
 40
0.2881305648
 40
0.3730176788
 40
0.4592593718
 40
0.5448609174
 40
0.6278431678
 40
0.6677491834
 40
0.7062885232
 40
0.7432384373
 40
0.7783854198
 40
0.8115265013
 40
0.8424704806
 40
0.8710389747
 40
0.8970675674
 40
0.9204068497
 40
0.940923377
 40
0.9500860991
 40
0.9585008783
 40
0.9661561188
 40
0.9730413053
 40
0.9791474929
 40
0.9844670427
 40
0.9868300429
 40
0.9889943867
 40
0.9909597678
 40
0.9927261046
 40
0.9942935412
 40
0.9956626542
 40
0.9968347734
 40
0.9978123159
 40
0.9985998161
 40
0.9989251382
 40
0.9992072275
 40
0.9994492105
 40
0.9996560535
 40
0.9998356765
 40
1.0
 40
1.0
 40
1.0
 40
1.0
 10
10.1243748617
 20
18.3424326881
 30
0.0
 10
10.1291719663
 20
18.3380617816
 30
0.0
 10
10.1391290273
 20
18.3289502891
 30
0.0
 10
10.1545611413
 20
18.3147365984
 30
0.0
 10
10.1710036454
 20
18.2995132719
 30
0.0
 10
10.1946949591
 20
18.2774862013
 30
0.0
 10
10.2260892318
 20
18.2481472556
 30
0.0
 10
10.2653869979
 20
18.2112673918
 30
0.0
 10
10.3062368699
 20
18.1728372862
 30
0.0
 10
10.3477202695
 20
18.1337742784
 30
0.0
 10
10.3889042764
 20
18.0950100289
 30
0.0
 10
10.422629014
 20
18.0633255766
 30
0.0
 10
10.4487740387
 20
18.0388283438
 30
0.0
 10
10.4674836591
 20
18.0213381095
 30
0.0
 10
10.4854457248
 20
18.0045949525
 30
0.0
 10
10.5025597656
 20
17.9886992515
 30
0.0
 10
10.5187302077
 20
17.9737464239
 30
0.0
 10
10.5338669299
 20
17.9598263761
 30
0.0
 10
10.5478857862
 20
17.9470229835
 30
0.0
 10
10.5607090125
 20
17.9354134927
 30
0.0
 10
10.572265827
 20
17.9250682835
 30
0.0
 10
10.5810914564
 20
17.9172848168
 30
0.0
 10
10.5874772576
 20
17.9117434198
 30
0.0
 10
10.5917299791
 20
17.9080994293
 30
0.0
 10
10.595623816
 20
17.9048136897
 30
0.0
 10
10.599153554
 20
17.9018912411
 30
0.0
 10
10.6023144522
 20
17.8993366053
 30
0.0
 10
10.6047239698
 20
17.8974494634
 30
0.0
 10
10.6064663703
 20
17.8961301384
 30
0.0
 10
10.6076261609
 20
17.8952747892
 30
0.0
 10
10.6086910329
 20
17.8945140783
 30
0.0
 10
10.6096606604
 20
17.8938482682
 30
0.0
 10
10.6105347448
 20
17.8932775315
 30
0.0
 10
10.6113130304
 20
17.8928019939
 30
0.0
 10
10.6119953978
 20
17.8924214445
 30
0.0
 10
10.6125817584
 20
17.8921358448
 30
0.0
 10
10.6130147387
 20
17.8919662947
 30
0.0
 10
10.6133135133
 20
17.8918840226
 30
0.0
 10
10.6134993119
 20
17.891850244
 30
0.0
 10
10.6136617334
 20
17.8918402778
 30
0.0
 10
10.6138013373
 20
17.8918545406
 30
0.0
 10
10.6139183867
 20
17.8918940781
 30
0.0
 10
10.6139816677
 20
17.8919393418
 30
0.0
 10
10.614007456
 20
17.8919651314
 30
0.0
  0
SPLINE
  5
4EB
100
AcDbEntity
  8
0
100
AcDbSpline
 62
7
  6
CONTINUOUS
 70
0
 71
3
 72
22
 73
18
 74
0
 42
0.0000001
 43
0.0000001
 44
0.0000000001
 40
0.0
 40
0.0
 40
0.0
 40
0.0
 40
0.0454616914
 40
0.0912728087
 40
0.1377804355
 40
0.1853588375
 40
0.2344028924
 40
0.2853403157
 40
0.3386384841
 40
0.3948082169
 40
0.4544027566
 40
0.5180049477
 40
0.5861917368
 40
0.6594564812
 40
0.7380636853
 40
0.8218210392
 40
1.0
 40
1.0
 40
1.0
 40
1.0
 10
9.7770636989
 20
18.1221706523
 30
0.0
 10
9.7758670478
 20
18.1233673034
 30
0.0
 10
9.7735837993
 20
18.1258925271
 30
0.0
 10
9.7705385043
 20
18.1300296986
 30
0.0
 10
9.767883065
 20
18.1345197902
 30
0.0
 10
9.7656393912
 20
18.1393621359
 30
0.0
 10
9.7638355373
 20
18.1445600732
 30
0.0
 10
9.7625071185
 20
18.1501187501
 30
0.0
 10
9.7616980827
 20
18.1560445591
 30
0.0
 10
9.7614623105
 20
18.1623435819
 30
0.0
 10
9.7618647994
 20
18.1690189422
 30
0.0
 10
9.7629822253
 20
18.1760662852
 30
0.0
 10
9.7649017434
 20
18.1834664206
 30
0.0
 10
9.7677151967
 20
18.1911730324
 30
0.0
 10
9.7715074227
 20
18.1990985279
 30
0.0
 10
9.7780609377
 20
18.209965744
 30
0.0
 10
9.7843200593
 20
18.2175497963
 30
0.0
 10
9.789010119
 20
18.2222398561
 30
0.0
  0
SPLINE
  5
4EC
100
AcDbEntity
  8
0
100
AcDbSpline
 62
7
  6
CONTINUOUS
 70
0
 71
3
 72
22
 73
18
 74
0
 42
0.0000001
 43
0.0000001
 44
0.0000000001
 40
0.0
 40
0.0
 40
0.0
 40
0.0
 40
0.1781796248
 40
0.2619372031
 40
0.3405444824
 40
0.4138090654
 40
0.4819956572
 40
0.5455976882
 40
0.6051921592
 40
0.6613618151
 40
0.7146599134
 40
0.7655972948
 40
0.8146413082
 40
0.8622196613
 40
0.9087272262
 40
0.9545383035
 40
1.0
 40
1.0
 40
1.0
 40
1.0
 10
9.8771329027
 20
18.1341170724
 30
0.0
 10
9.8724428254
 20
18.1294269952
 30
0.0
 10
9.8648587447
 20
18.1231678546
 30
0.0
 10
9.8539914916
 20
18.1166143313
 30
0.0
 10
9.8460659877
 20
18.1128221109
 30
0.0
 10
9.8383593825
 20
18.1100086701
 30
0.0
 10
9.830959264
 20
18.1080891643
 30
0.0
 10
9.8239119358
 20
18.106971747
 30
0.0
 10
9.8172365867
 20
18.1065692625
 30
0.0
 10
9.8109375721
 20
18.1068050377
 30
0.0
 10
9.8050117706
 20
18.1076140765
 30
0.0
 10
9.7994531001
 20
18.1089424974
 30
0.0
 10
9.7942551685
 20
18.1107463526
 30
0.0
 10
9.7894128271
 20
18.1129900221
 30
0.0
 10
9.7849227423
 20
18.1156454619
 30
0.0
 10
9.7807855726
 20
18.118690753
 30
0.0
 10
9.7782603502
 20
18.1209740011
 30
0.0
 10
9.7770636989
 20
18.1221706523
 30
0.0
  0
SPLINE
  5
4ED
100
AcDbEntity
  8
0
100
AcDbSpline
 62
7
  6
CONTINUOUS
 70
0
 71
3
 72
65
 73
61
 74
0
 42
0.0000001
 43
0.0000001
 44
0.0000000001
 40
0.0
 40
0.0
 40
0.0
 40
0.0
 40
0.0001742897
 40
0.0003762175
 40
0.0006243142
 40
0.0009287743
 40
0.0012950996
 40
0.0017264158
 40
0.0022245911
 40
0.0027907838
 40
0.0041298709
 40
0.0057474109
 40
0.0076448395
 40
0.0098224491
 40
0.0122800024
 40
0.0150167168
 40
0.0180314554
 40
0.0213229087
 40
0.0287290205
 40
0.0372196325
 40
0.0467761418
 40
0.0573771982
 40
0.0689988998
 40
0.0816148318
 40
0.0951961435
 40
0.1097117522
 40
0.1414106579
 40
0.1764203005
 40
0.2144187279
 40
0.255056027
 40
0.2979579448
 40
0.3427291612
 40
0.3889570818
 40
0.4362156439
 40
0.4840692116
 40
0.5320766976
 40
0.5797955366
 40
0.6267858872
 40
0.6726145873
 40
0.7168592904
 40
0.7591122259
 40
0.798984169
 40
0.8361078406
 40
0.8701416061
 40
0.9007724292
 40
0.9277191812
 40
0.9397325679
 40
0.9507353759
 40
0.9607026636
 40
0.9696120362
 40
0.9774438627
 40
0.9841813922
 40
0.9871354463
 40
0.9898112149
 40
0.9922076054
 40
0.9943239604
 40
0.9961601433
 40
0.9977166214
 40
0.9989951956
 40
1.0
 40
1.0
 40
1.0
 40
1.0
 10
10.7763016711
 20
18.0141203457
 30
0.0
 10
10.7762682711
 20
18.0140869458
 30
0.0
 10
10.7761789901
 20
18.0140311189
 30
0.0
 10
10.7760104494
 20
18.0139989249
 30
0.0
 10
10.7758050431
 20
18.0140087722
 30
0.0
 10
10.7755605101
 20
18.0140592302
 30
0.0
 10
10.7752756007
 20
18.0141501202
 30
0.0
 10
10.7749497506
 20
18.0142817154
 30
0.0
 10
10.7745827375
 20
18.0144541537
 30
0.0
 10
10.7740054119
 20
18.0147560923
 30
0.0
 10
10.7731829062
 20
18.0152419326
 30
0.0
 10
10.7720794588
 20
18.0159585402
 30
0.0
 10
10.7708118093
 20
18.0168381847
 30
0.0
 10
10.7693805575
 20
18.0178804245
 30
0.0
 10
10.7677864728
 20
18.0190848794
 30
0.0
 10
10.7660303881
 20
18.0204508589
 30
0.0
 10
10.7641132108
 20
18.0219775454
 30
0.0
 10
10.7612281798
 20
18.0243200007
 30
0.0
 10
10.7572313279
 20
18.0276470905
 30
0.0
 10
10.7519803043
 20
18.0321206185
 30
0.0
 10
10.7461146871
 20
18.0372074314
 30
0.0
 10
10.7396471998
 20
18.0428950459
 30
0.0
 10
10.7325919817
 20
18.0491696499
 30
0.0
 10
10.7249644825
 20
18.0560159696
 30
0.0
 10
10.7167814416
 20
18.0634173599
 30
0.0
 10
10.7047978478
 20
18.074326506
 30
0.0
 10
10.6885816837
 20
18.0892127859
 30
0.0
 10
10.6677534537
 20
18.1084854409
 30
0.0
 10
10.6452102456
 20
18.1294712209
 30
0.0
 10
10.6211530029
 20
18.1519695719
 30
0.0
 10
10.5957966878
 20
18.1757659882
 30
0.0
 10
10.5693681466
 20
18.2006338953
 30
0.0
 10
10.5421041017
 20
18.2263367951
 30
0.0
 10
10.51424896
 20
18.2526304577
 30
0.0
 10
10.486052563
 20
18.279265191
 30
0.0
 10
10.4577679029
 20
18.3059881409
 30
0.0
 10
10.429648774
 20
18.3325456464
 30
0.0
 10
10.4019474578
 20
18.3586855656
 30
0.0
 10
10.3749123779
 20
18.3841596325
 30
0.0
 10
10.3487858411
 20
18.4087257292
 30
0.0
 10
10.3238017774
 20
18.432150159
 30
0.0
 10
10.300183643
 20
18.4542097974
 30
0.0
 10
10.2781423029
 20
18.4746941798
 30
0.0
 10
10.2578742686
 20
18.4934075766
 30
0.0
 10
10.2395595933
 20
18.5101705405
 30
0.0
 10
10.225572709
 20
18.5228225809
 30
0.0
 10
10.2154718221
 20
18.5318403728
 30
0.0
 10
10.2087729453
 20
18.5377590237
 30
0.0
 10
10.2026705866
 20
18.5430820956
 30
0.0
 10
10.1971780511
 20
18.5477966465
 30
0.0
 10
10.1923072154
 20
18.5518911084
 30
0.0
 10
10.1886303998
 20
18.5548972699
 30
0.0
 10
10.1860036746
 20
18.556979255
 30
0.0
 10
10.1842829205
 20
18.5583099662
 30
0.0
 10
10.182724372
 20
18.5594790013
 30
0.0
 10
10.1813288222
 20
18.5604857317
 30
0.0
 10
10.1800970408
 20
18.561329695
 30
0.0
 10
10.1790295289
 20
18.5620109297
 30
0.0
 10
10.178126878
 20
18.5625293638
 30
0.0
 10
10.1775690388
 20
18.5628000391
 30
0.0
 10
10.1773164504
 20
18.5629017947
 30
0.0
  0
LINE
  5
4EE
100
AcDbEntity
  8
0
100
AcDbLine
 62
7
  6
CONTINUOUS
 10
10.1773164504
 20
18.5629017947
 11
10.1768789555
 21
18.563051421
  0
SPLINE
  5
4EF
100
AcDbEntity
  8
0
100
AcDbSpline
 62
7
  6
CONTINUOUS
 70
0
 71
3
 72
64
 73
60
 74
0
 42
0.0000001
 43
0.0000001
 44
0.0000000001
 40
0.0
 40
0.0
 40
0.0
 40
0.0
 40
0.0001695231
 40
0.0003673563
 40
0.0006121402
 40
0.0009139169
 40
0.0012780263
 40
0.001707474
 40
0.0022040447
 40
0.0027688385
 40
0.0041055977
 40
0.0057212602
 40
0.0076171385
 40
0.0097934477
 40
0.0122498995
 40
0.0149856756
 40
0.0179996134
 40
0.0212903838
 40
0.0286954305
 40
0.0371853074
 40
0.0467413558
 40
0.0573421863
 40
0.0689638678
 40
0.0815799634
 40
0.0951616047
 40
0.1096776944
 40
0.1413779679
 40
0.1763894504
 40
0.2143901212
 40
0.2550300048
 40
0.2979347928
 40
0.3427091091
 40
0.388940307
 40
0.4362022705
 40
0.4840593121
 40
0.5320702908
 40
0.5797925901
 40
0.6267863148
 40
0.6726182497
 40
0.716865995
 40
0.7591217243
 40
0.7989961568
 40
0.8361219536
 40
0.8701574138
 40
0.9007894273
 40
0.9277367721
 40
0.939750192
 40
0.950752832
 40
0.9607197234
 40
0.9696284357
 40
0.9774592883
 40
0.9841954565
 40
0.9898233116
 40
0.9922185185
 40
0.9943334754
 40
0.9961679882
 40
0.9977224366
 40
0.9989984794
 40
1.0
 40
1.0
 40
1.0
 40
1.0
 10
10.158356818
 20
18.545224012
 30
0.0
 10
10.1583893014
 20
18.5452564954
 30
0.0
 10
10.1584770241
 20
18.5453104339
 30
0.0
 10
10.1586427639
 20
18.5453395172
 30
0.0
 10
10.1588452114
 20
18.5453267844
 30
0.0
 10
10.1590868261
 20
18.5452735191
 30
0.0
 10
10.1593688555
 20
18.5451798553
 30
0.0
 10
10.1596918558
 20
18.5450454881
 30
0.0
 10
10.1600560361
 20
18.5448702745
 30
0.0
 10
10.1606295287
 20
18.5445643217
 30
0.0
 10
10.161447235
 20
18.5440736226
 30
0.0
 10
10.162545063
 20
18.5433515199
 30
0.0
 10
10.1638071042
 20
18.5424663522
 30
0.0
 10
10.1652327546
 20
18.5414185668
 30
0.0
 10
10.1668212403
 20
18.5402085533
 30
0.0
 10
10.1685717272
 20
18.5388370057
 30
0.0
 10
10.1704833067
 20
18.5373047441
 30
0.0
 10
10.1733606315
 20
18.5349544871
 30
0.0
 10
10.1773479345
 20
18.5316177994
 30
0.0
 10
10.1825878133
 20
18.5271331887
 30
0.0
 10
10.1884422788
 20
18.5220352705
 30
0.0
 10
10.1948986079
 20
18.5163365326
 30
0.0
 10
10.2019426626
 20
18.5100507934
 30
0.0
 10
10.209558994
 20
18.5031933291
 30
0.0
 10
10.2177308625
 20
18.4957807864
 30
0.0
 10
10.2296991428
 20
18.4848562696
 30
0.0
 10
10.2458963263
 20
18.4699509836
 30
0.0
 10
10.2667023002
 20
18.4506561305
 30
0.0
 10
10.2892232172
 20
18.4296481073
 30
0.0
 10
10.3132581335
 20
18.4071274691
 30
0.0
 10
10.3385920867
 20
18.3833087242
 30
0.0
 10
10.3649982294
 20
18.3584184463
 30
0.0
 10
10.3922398364
 20
18.332693132
 30
0.0
 10
10.4200724988
 20
18.3063770085
 30
0.0
 10
10.4482463711
 20
18.2797197648
 30
0.0
 10
10.4765084632
 20
18.2529742571
 30
0.0
 10
10.5046049838
 20
18.2263941501
 30
0.0
 10
10.5322836544
 20
18.2002315894
 30
0.0
 10
10.5592960545
 20
18.1747348453
 30
0.0
 10
10.5853998805
 20
18.1501460405
 30
0.0
 10
10.6103612062
 20
18.1266988773
 30
0.0
 10
10.6339565804
 20
18.1046164878
 30
0.0
 10
10.6559751431
 20
18.0841093454
 30
0.0
 10
10.6762203926
 20
18.065373196
 30
0.0
 10
10.6945122818
 20
18.0485874995
 30
0.0
 10
10.7084795943
 20
18.035915827
 30
0.0
 10
10.7185646166
 20
18.0268820565
 30
0.0
 10
10.7252520065
 20
18.0209519428
 30
0.0
 10
10.7313428679
 20
18.0156173984
 30
0.0
 10
10.7368239436
 20
18.0108914621
 30
0.0
 10
10.7416832137
 20
18.006785434
 30
0.0
 10
10.7459102182
 20
18.0033093823
 30
0.0
 10
10.7490458537
 20
18.000825912
 30
0.0
 10
10.7512367254
 20
17.9991681561
 30
0.0
 10
10.7526265126
 20
17.9981557319
 30
0.0
 10
10.7538525045
 20
17.9973060708
 30
0.0
 10
10.754914208
 20
17.9966191814
 30
0.0
 10
10.7558110203
 20
17.9960951469
 30
0.0
 10
10.7563648133
 20
17.9958200709
 30
0.0
 10
10.7566154525
 20
17.9957159695
 30
0.0
  0
LINE
  5
4F0
100
AcDbEntity
  8
0
100
AcDbLine
 62
7
  6
CONTINUOUS
 10
10.7566154525
 20
17.9957159695
 11
10.7570803917
 21
17.9955533905
  0
SPLINE
  5
4F1
100
AcDbEntity
  8
0
100
AcDbSpline
 62
7
  6
CONTINUOUS
 70
0
 71
3
 72
65
 73
61
 74
0
 42
0.0000001
 43
0.0000001
 44
0.0000000001
 40
0.0
 40
0.0
 40
0.0
 40
0.0
 40
0.0001741388
 40
0.0003759355
 40
0.0006239251
 40
0.0009282977
 40
0.0012945503
 40
0.0017258049
 40
0.002223927
 40
0.0027900731
 40
0.0041290825
 40
0.0057465595
 40
0.0076439363
 40
0.0098215025
 40
0.0122790191
 40
0.0150157025
 40
0.0180304152
 40
0.0213218469
 40
0.0287279273
 40
0.0372185215
 40
0.0467750229
 40
0.0573760804
 40
0.0689977928
 40
0.0816137455
 40
0.0951950849
 40
0.1097107266
 40
0.1414097185
 40
0.1764194735
 40
0.2144180297
 40
0.2550554821
 40
0.2979575605
 40
0.3427289615
 40
0.388957062
 40
0.4362158254
 40
0.4840695811
 40
0.5320772649
 40
0.5797962891
 40
0.626786818
 40
0.672615686
 40
0.7168605364
 40
0.7591136047
 40
0.7989856497
 40
0.836109401
 40
0.8701432053
 40
0.9007740345
 40
0.9277207431
 40
0.9397340897
 40
0.950736845
 40
0.9607040637
 40
0.9696133479
 40
0.9774450654
 40
0.9841824613
 40
0.9871364371
 40
0.989812118
 40
0.9922084096
 40
0.9943246522
 40
0.9961607057
 40
0.9977170322
 40
0.9989954239
 40
1.0
 40
1.0
 40
1.0
 40
1.0
 10
10.7250186981
 20
17.9628373728
 30
0.0
 10
10.7249853272
 20
17.9628040019
 30
0.0
 10
10.7248960962
 20
17.9627482349
 30
0.0
 10
10.7247276447
 20
17.9627161399
 30
0.0
 10
10.7245223334
 20
17.9627260804
 30
0.0
 10
10.724277895
 20
17.9627766296
 30
0.0
 10
10.7239930798
 20
17.9628676105
 30
0.0
 10
10.7236673238
 20
17.9629992972
 30
0.0
 10
10.7233004048
 20
17.9631718278
 30
0.0
 10
10.7227232076
 20
17.9634739008
 30
0.0
 10
10.7219008646
 20
17.9639599059
 30
0.0
 10
10.7207976104
 20
17.9646767027
 30
0.0
 10
10.7195301565
 20
17.9655565401
 30
0.0
 10
10.7180991029
 20
17.9665989763
 30
0.0
 10
10.7165052191
 20
17.9678036309
 30
0.0
 10
10.7147493381
 20
17.9691698132
 30
0.0
 10
10.7128323673
 20
17.9706967056
 30
0.0
 10
10.7099476243
 20
17.9730394531
 30
0.0
 10
10.7059511365
 20
17.9763669105
 30
0.0
 10
10.7007005486
 20
17.9808408742
 30
0.0
 10
10.6948353786
 20
17.9859281349
 30
0.0
 10
10.6883683497
 20
17.9916162091
 30
0.0
 10
10.6813136007
 20
17.9978912848
 30
0.0
 10
10.6736865812
 20
18.0047380885
 30
0.0
 10
10.6655040309
 20
18.0121399744
 30
0.0
 10
10.653521125
 20
18.0230498186
 30
0.0
 10
10.6373058418
 20
18.0379369929
 30
0.0
 10
10.6164786862
 20
18.0572107373
 30
0.0
 10
10.5939365949
 20
18.0781976547
 30
0.0
 10
10.5698805129
 20
18.100697189
 30
0.0
 10
10.5445253996
 20
18.1244948371
 30
0.0
 10
10.5180981051
 20
18.1493640203
 30
0.0
 10
10.4908353475
 20
18.1750682445
 30
0.0
 10
10.4629815392
 20
18.2013632742
 30
0.0
 10
10.4347865174
 20
18.2279994215
 30
0.0
 10
10.4065032789
 20
18.2547238269
 30
0.0
 10
10.3783856157
 20
18.281282833
 30
0.0
 10
10.350685808
 20
18.3074242918
 30
0.0
 10
10.3236522723
 20
18.3328999301
 30
0.0
 10
10.2975273088
 20
18.3574676235
 30
0.0
 10
10.2725448433
 20
18.3808936665
 30
0.0
 10
10.2489283237
 20
18.4029549291
 30
0.0
 10
10.2268886118
 20
18.4234409367
 30
0.0
 10
10.2066222102
 20
18.4421559542
 30
0.0
 10
10.1883091682
 20
18.4589205244
 30
0.0
 10
10.174323679
 20
18.4715739386
 30
0.0
 10
10.1642239157
 20
18.4805928347
 30
0.0
 10
10.1575258491
 20
18.4865122706
 30
0.0
 10
10.1514242956
 20
18.4918361189
 30
0.0
 10
10.1459325599
 20
18.4965514362
 30
0.0
 10
10.1410625172
 20
18.5006466533
 30
0.0
 10
10.1373863756
 20
18.5036534637
 30
0.0
 10
10.1347601902
 20
18.5057359724
 30
0.0
 10
10.1330398254
 20
18.5070670521
 30
0.0
 10
10.131481664
 20
18.508236452
 30
0.0
 10
10.1300864993
 20
18.5092435432
 30
0.0
 10
10.1288551009
 20
18.5100878629
 30
0.0
 10
10.1277879709
 20
18.5107694486
 30
0.0
 10
10.126885701
 20
18.5112882273
 30
0.0
 10
10.1263281234
 20
18.5115591718
 30
0.0
 10
10.1260756605
 20
18.5116610698
 30
0.0
  0
LINE
  5
4F2
100
AcDbEntity
  8
0
100
AcDbLine
 62
7
  6
CONTINUOUS
 10
10.1260756605
 20
18.5116610698
 11
10.125636469
 21
18.5118114806
  0
SPLINE
  5
4F3
100
AcDbEntity
  8
0
100
AcDbSpline
 62
7
  6
CONTINUOUS
 70
0
 71
3
 72
64
 73
60
 74
0
 42
0.0000001
 43
0.0000001
 44
0.0000000001
 40
0.0
 40
0.0
 40
0.0
 40
0.0
 40
0.0001699697
 40
0.0003681705
 40
0.0006132392
 40
0.0009152369
 40
0.0012795211
 40
0.00170911
 40
0.0022057967
 40
0.0027706872
 40
0.0041075965
 40
0.0057233687
 40
0.0076193284
 40
0.0097956983
 40
0.0122521949
 40
0.0149880037
 40
0.0180019646
 40
0.0212927505
 40
0.0286978114
 40
0.0371876876
 40
0.0467437241
 40
0.0573445362
 40
0.0689661978
 40
0.0815822754
 40
0.0951639001
 40
0.1096799745
 40
0.1413802342
 40
0.176391732
 40
0.2143924431
 40
0.2550324069
 40
0.2979372987
 40
0.3427117609
 40
0.3889431181
 40
0.4362052779
 40
0.484062516
 40
0.5320737116
 40
0.5797962204
 40
0.6267901496
 40
0.6726222754
 40
0.7168701826
 40
0.7591260464
 40
0.7990005642
 40
0.8361263992
 40
0.8701618277
 40
0.900793739
 40
0.9277408869
 40
0.9397541692
 40
0.9507566427
 40
0.9607233327
 40
0.9696318022
 40
0.9774623645
 40
0.984198184
 40
0.9898256128
 40
0.9922205676
 40
0.9943352387
 40
0.996169423
 40
0.9977234861
 40
0.9989990641
 40
1.0
 40
1.0
 40
1.0
 40
1.0
 10
10.108709327
 20
18.4955765211
 30
0.0
 10
10.1087418958
 20
18.4956090899
 30
0.0
 10
10.1088297584
 20
18.4956632045
 30
0.0
 10
10.1089957513
 20
18.4956925692
 30
0.0
 10
10.1091984542
 20
18.4956800839
 30
0.0
 10
10.1094403088
 20
18.4956270495
 30
0.0
 10
10.1097225635
 20
18.4955336039
 30
0.0
 10
10.1100457756
 20
18.4953994453
 30
0.0
 10
10.1104101557
 20
18.4952244312
 30
0.0
 10
10.1109839023
 20
18.4949187541
 30
0.0
 10
10.1118018996
 20
18.4944283605
 30
0.0
 10
10.1129000305
 20
18.4937065654
 30
0.0
 10
10.1141623338
 20
18.4928216704
 30
0.0
 10
10.1155882064
 20
18.4917741226
 30
0.0
 10
10.1171768754
 20
18.4905643111
 30
0.0
 10
10.1189275074
 20
18.4891929299
 30
0.0
 10
10.1208391943
 20
18.4876607992
 30
0.0
 10
10.1237166135
 20
18.4853106774
 30
0.0
 10
10.1277039356
 20
18.4819740574
 30
0.0
 10
10.1329437002
 20
18.4774893886
 30
0.0
 10
10.138797915
 20
18.4723912802
 30
0.0
 10
10.1452538613
 20
18.4666922229
 30
0.0
 10
10.152297406
 20
18.4604060373
 30
0.0
 10
10.1599131046
 20
18.4535480028
 30
0.0
 10
10.1680842213
 20
18.44613477
 30
0.0
 10
10.1800513125
 20
18.4352091426
 30
0.0
 10
10.1962467297
 20
18.4203021772
 30
0.0
 10
10.2170502353
 20
18.4010049475
 30
0.0
 10
10.2395683139
 20
18.3799941541
 30
0.0
 10
10.2636000524
 20
18.357470384
 30
0.0
 10
10.2889305238
 20
18.3336481726
 30
0.0
 10
10.3153329079
 20
18.3087541287
 30
0.0
 10
10.3425705155
 20
18.2830247764
 30
0.0
 10
10.3703989626
 20
18.2567043806
 30
0.0
 10
10.3985684391
 20
18.2300426593
 30
0.0
 10
10.4268259752
 20
18.2032925017
 30
0.0
 10
10.4549178061
 20
18.1767075965
 30
0.0
 10
10.4825916746
 20
18.1505401185
 30
0.0
 10
10.509599184
 20
18.1250383653
 30
0.0
 10
10.5356980548
 20
18.1004444868
 30
0.0
 10
10.5606543827
 20
18.076992215
 30
0.0
 10
10.5842447419
 20
18.0549047081
 30
0.0
 10
10.6062582941
 20
18.0343924705
 30
0.0
 10
10.6264985644
 20
18.0156512752
 30
0.0
 10
10.6447855285
 20
17.9988606126
 30
0.0
 10
10.658748678
 20
17.9861847347
 30
0.0
 10
10.668830383
 20
17.9771476129
 30
0.0
 10
10.6755153996
 20
17.9712151285
 30
0.0
 10
10.6816039202
 20
17.9658782534
 30
0.0
 10
10.6870826904
 20
17.9611500306
 30
0.0
 10
10.6919396944
 20
17.9570417658
 30
0.0
 10
10.6961644758
 20
17.9535635316
 30
0.0
 10
10.6992982329
 20
17.9510781926
 30
0.0
 10
10.7014876095
 20
17.9494189301
 30
0.0
 10
10.7028763315
 20
17.9484054665
 30
0.0
 10
10.7041012702
 20
17.9475547842
 30
0.0
 10
10.7051619301
 20
17.9468668938
 30
0.0
 10
10.7060577078
 20
17.9463418822
 30
0.0
 10
10.7066107913
 20
17.9460660499
 30
0.0
 10
10.7068610903
 20
17.9459615488
 30
0.0
  0
LINE
  5
4F4
100
AcDbEntity
  8
0
100
AcDbLine
 62
7
  6
CONTINUOUS
 10
10.7068610903
 20
17.9459615488
 11
10.7073305156
 21
17.9457967727
  0
SPLINE
  5
4F5
100
AcDbEntity
  8
0
100
AcDbSpline
 62
7
  6
CONTINUOUS
 70
0
 71
3
 72
64
 73
60
 74
0
 42
0.0000001
 43
0.0000001
 44
0.0000000001
 40
0.0
 40
0.0
 40
0.0
 40
0.0
 40
0.0001692376
 40
0.0003668251
 40
0.0006114098
 40
0.0009130248
 40
0.0012770001
 40
0.0017063342
 40
0.0022028069
 40
0.0027675148
 40
0.00410413
 40
0.005719675
 40
0.0076154552
 40
0.0097916812
 40
0.0122480615
 40
0.0149837759
 40
0.0179976602
 40
0.0212883842
 40
0.0286933563
 40
0.0371831786
 40
0.0467391892
 40
0.0573399963
 40
0.0689616672
 40
0.0815777635
 40
0.0951594162
 40
0.1096755269
 40
0.1413758677
 40
0.1763874475
 40
0.2143882409
 40
0.2550282681
 40
0.2979332174
 40
0.3427077079
 40
0.38893909
 40
0.4362012434
 40
0.4840584774
 40
0.5320696473
 40
0.5797921344
 40
0.6267860397
 40
0.6726181455
 40
0.7168660495
 40
0.7591219224
 40
0.7989964814
 40
0.8361223851
 40
0.8701579296
 40
0.9007900034
 40
0.9277373806
 40
0.9397508053
 40
0.9507534418
 40
0.9607203204
 40
0.9696290093
 40
0.9774598267
 40
0.9841959454
 40
0.9898237332
 40
0.9922188977
 40
0.9943338048
 40
0.9961682587
 40
0.9977226362
 40
0.9989985915
 40
1.0
 40
1.0
 40
1.0
 40
1.0
 10
10.0589006671
 20
18.4457678612
 30
0.0
 10
10.0589330956
 20
18.4458002897
 30
0.0
 10
10.0590207251
 20
18.4458541148
 30
0.0
 10
10.059186296
 20
18.4458830103
 30
0.0
 10
10.0593885641
 20
18.4458701029
 30
0.0
 10
10.0596300012
 20
18.4458166667
 30
0.0
 10
10.0599118546
 20
18.4457228331
 30
0.0
 10
10.0602346797
 20
18.4455882953
 30
0.0
 10
10.060598685
 20
18.44541291
 30
0.0
 10
10.0611719393
 20
18.4451067077
 30
0.0
 10
10.0619893453
 20
18.4446157043
 30
0.0
 10
10.0630868189
 20
18.443893254
 30
0.0
 10
10.0643485032
 20
18.4430077338
 30
0.0
 10
10.0657737943
 20
18.4419595917
 30
0.0
 10
10.0673619179
 20
18.4407492175
 30
0.0
 10
10.0691120403
 20
18.4393773059
 30
0.0
 10
10.0710232526
 20
18.4378446771
 30
0.0
 10
10.0739000682
 20
18.4354939027
 30
0.0
 10
10.077886734
 20
18.4321565714
 30
0.0
 10
10.0831258609
 20
18.4276712082
 30
0.0
 10
10.0889795662
 20
18.4225725275
 30
0.0
 10
10.0954351279
 20
18.4168730184
 30
0.0
 10
10.1024784088
 20
18.4105865003
 30
0.0
 10
10.1100939609
 20
18.4037282506
 30
0.0
 10
10.1182650455
 20
18.3963149168
 30
0.0
 10
10.1302322464
 20
18.385389304
 30
0.0
 10
10.146428085
 20
18.3704826536
 30
0.0
 10
10.1672324778
 20
18.3511862009
 30
0.0
 10
10.1897518135
 20
18.3301765758
 30
0.0
 10
10.2137851547
 20
18.3076543404
 30
0.0
 10
10.2391175451
 20
18.2838340107
 30
0.0
 10
10.2655221434
 20
18.2589421673
 30
0.0
 10
10.2927622307
 20
18.2332153141
 30
0.0
 10
10.3205934039
 20
18.2068976853
 30
0.0
 10
10.3487658241
 20
18.1802389773
 30
0.0
 10
10.3770265025
 20
18.153492048
 30
0.0
 10
10.4051216475
 20
18.1269105621
 30
0.0
 10
10.4327989809
 20
18.1007466654
 30
0.0
 10
10.4598100821
 20
18.0752486283
 30
0.0
 10
10.4859126478
 20
18.0506585734
 30
0.0
 10
10.5108727522
 20
18.0272102032
 30
0.0
 10
10.5344669441
 20
18.0051266495
 30
0.0
 10
10.5564843642
 20
17.9846183862
 30
0.0
 10
10.5767285113
 20
17.9658811589
 30
0.0
 10
10.5950193388
 20
17.9490944277
 30
0.0
 10
10.6089857743
 20
17.9364218973
 30
0.0
 10
10.6190701088
 20
17.9273874521
 30
0.0
 10
10.6257570112
 20
17.9214568643
 30
0.0
 10
10.6318473958
 20
17.9161218565
 30
0.0
 10
10.6373280052
 20
17.9113954676
 30
0.0
 10
10.6421868199
 20
17.9072889983
 30
0.0
 10
10.6464133799
 20
17.9038125167
 30
0.0
 10
10.6495486412
 20
17.9013286786
 30
0.0
 10
10.6517392156
 20
17.899670626
 30
0.0
 10
10.6531287914
 20
17.8986579968
 30
0.0
 10
10.6543545744
 20
17.897808134
 30
0.0
 10
10.655416071
 20
17.8971210466
 30
0.0
 10
10.6563126781
 20
17.8965968184
 30
0.0
 10
10.6568663303
 20
17.8963215921
 30
0.0
 10
10.657116902
 20
17.8962174111
 30
0.0
  0
LINE
  5
4F6
100
AcDbEntity
  8
0
100
AcDbLine
 62
7
  6
CONTINUOUS
 10
10.657116902
 20
17.8962174111
 11
10.6575827395
 21
17.8960543942
  0
SPLINE
  5
4F7
100
AcDbEntity
  8
0
100
AcDbSpline
 62
7
  6
CONTINUOUS
 70
0
 71
3
 72
64
 73
60
 74
0
 42
0.0000001
 43
0.0000001
 44
0.0000000001
 40
0.0
 40
0.0
 40
0.0
 40
0.0
 40
0.0001749515
 40
0.0003774551
 40
0.0006260238
 40
0.0009308708
 40
0.0012975192
 40
0.0017291108
 40
0.0022275251
 40
0.0027939284
 40
0.0041333719
 40
0.0057512061
 40
0.0076488839
 40
0.0098267082
 40
0.0122844489
 40
0.0150213282
 40
0.0180362131
 40
0.0213277965
 40
0.0287341276
 40
0.037224914
 40
0.0467815606
 40
0.0573827226
 40
0.069004502
 40
0.0816204871
 40
0.0952018299
 40
0.1097174497
 40
0.1414163241
 40
0.1764258748
 40
0.2144241606
 40
0.2550612779
 40
0.2979629834
 40
0.3427339656
 40
0.3889616386
 40
0.4362199478
 40
0.4840732648
 40
0.5320805088
 40
0.5797991207
 40
0.6267892636
 40
0.6726177789
 40
0.7168623225
 40
0.7591151241
 40
0.7989869576
 40
0.8361105406
 40
0.8701442323
 40
0.9007749872
 40
0.927721663
 40
0.9397350023
 40
0.9507377524
 40
0.9607049671
 40
0.9696142455
 40
0.9774459486
 40
0.984183313
 40
0.9898128076
 40
0.9922090528
 40
0.9943252332
 40
0.9961612031
 40
0.9977174159
 40
0.9989956501
 40
1.0
 40
1.0
 40
1.0
 40
1.0
 10
10.6737585339
 20
17.9115772086
 30
0.0
 10
10.6737250069
 20
17.9115436815
 30
0.0
 10
10.6736355075
 20
17.9114875937
 30
0.0
 10
10.6734665775
 20
17.9114549666
 30
0.0
 10
10.673260756
 20
17.9114644062
 30
0.0
 10
10.6730158094
 20
17.9115144645
 30
0.0
 10
10.6727304883
 20
17.9116049565
 30
0.0
 10
10.6724042278
 20
17.9117361508
 30
0.0
 10
10.6720368036
 20
17.9119081849
 30
0.0
 10
10.6714589175
 20
17.9122095348
 30
0.0
 10
10.6706357024
 20
17.9126946535
 30
0.0
 10
10.6695314138
 20
17.9134104334
 30
0.0
 10
10.6682629142
 20
17.9142892349
 30
0.0
 10
10.6668308033
 20
17.9153306176
 30
0.0
 10
10.6652358502
 20
17.916534203
 30
0.0
 10
10.6634788881
 20
17.9178993014
 30
0.0
 10
10.6615608246
 20
17.919425096
 30
0.0
 10
10.6586745616
 20
17.9217662905
 30
0.0
 10
10.6546761616
 20
17.925091804
 30
0.0
 10
10.6494233034
 20
17.9295634792
 30
0.0
 10
10.6435558252
 20
17.9346484065
 30
0.0
 10
10.6370864539
 20
17.9403341064
 30
0.0
 10
10.6300293321
 20
17.9466067707
 30
0.0
 10
10.6223999126
 20
17.9534511298
 30
0.0
 10
10.6142149381
 20
17.9608505417
 30
0.0
 10
10.6022286809
 20
17.9717569433
 30
0.0
 10
10.5860091991
 20
17.9866398043
 30
0.0
 10
10.5651770787
 20
18.0059084569
 30
0.0
 10
10.5426299978
 20
18.0268902442
 30
0.0
 10
10.5185689234
 20
18.0493846403
 30
0.0
 10
10.4932088416
 20
18.0731771681
 30
0.0
 10
10.4667766219
 20
18.0980412809
 30
0.0
 10
10.43950901
 20
18.1237405086
 30
0.0
 10
10.4116504359
 20
18.1500306491
 30
0.0
 10
10.3834507647
 20
18.1766620375
 30
0.0
 10
10.3551630119
 20
18.2033818468
 30
0.0
 10
10.3270409958
 20
18.2299364427
 30
0.0
 10
10.2993370221
 20
18.2560737093
 30
0.0
 10
10.272299539
 20
18.2815454061
 30
0.0
 10
10.2461708784
 20
18.3061094401
 30
0.0
 10
10.2211849959
 20
18.3295321386
 30
0.0
 10
10.1975653737
 20
18.3515904004
 30
0.0
 10
10.1755229034
 20
18.3720737833
 30
0.0
 10
10.1552541228
 20
18.390786578
 30
0.0
 10
10.1369391129
 20
18.4075493585
 30
0.0
 10
10.1229523103
 20
18.420201616
 30
0.0
 10
10.1128517498
 20
18.4292198496
 30
0.0
 10
10.1061532301
 20
18.4351389283
 30
0.0
 10
10.1000513648
 20
18.4404625696
 30
0.0
 10
10.0945594156
 20
18.4451777421
 30
0.0
 10
10.0896894089
 20
18.449273162
 30
0.0
 10
10.0854518088
 20
18.4527387727
 30
0.0
 10
10.0823071563
 20
18.4552132163
 30
0.0
 10
10.0801090592
 20
18.4568636227
 30
0.0
 10
10.0787140992
 20
18.4578709443
 30
0.0
 10
10.077482967
 20
18.458715558
 30
0.0
 10
10.0764161406
 20
18.4593974657
 30
0.0
 10
10.0755142185
 20
18.4599166003
 30
0.0
 10
10.0749569052
 20
18.4601878549
 30
0.0
 10
10.0747045758
 20
18.4602899285
 30
0.0
  0
LINE
  5
4F8
100
AcDbEntity
  8
0
100
AcDbLine
 62
7
  6
CONTINUOUS
 10
10.0747045758
 20
18.4602899285
 11
10.0742631562
 21
18.4604413493
  0
SPLINE
  5
4F9
100
AcDbEntity
  8
0
100
AcDbSpline
 62
7
  6
CONTINUOUS
 70
0
 71
3
 72
35
 73
31
 74
0
 42
0.0000001
 43
0.0000001
 44
0.0000000001
 40
0.0
 40
0.0
 40
0.0
 40
0.0
 40
0.2188913241
 40
0.3202583627
 40
0.4157294847
 40
0.5049482996
 40
0.5875829881
 40
0.6633264169
 40
0.7318979213
 40
0.7930445082
 40
0.8465423829
 40
0.8703617188
 40
0.8921991008
 40
0.912035903
 40
0.929855717
 40
0.9456449223
 40
0.9593932503
 40
0.9710943889
 40
0.9761773183
 40
0.9807491934
 40
0.9848117491
 40
0.9883681992
 40
0.9914237774
 40
0.9939872621
 40
0.9960743526
 40
0.9977153752
 40
0.9983878617
 40
0.9989779364
 40
0.9995059481
 40
1.0
 40
1.0
 40
1.0
 40
1.0
 10
10.4875894104
 20
17.9792181394
 30
0.0
 10
10.4972024715
 20
17.9702418429
 30
0.0
 10
10.5112844722
 20
17.9571270561
 30
0.0
 10
10.5296156601
 20
17.940157932
 30
0.0
 10
10.5422567079
 20
17.9285116637
 30
0.0
 10
10.5541008798
 20
17.9176616928
 30
0.0
 10
10.5651056693
 20
17.9076503843
 30
0.0
 10
10.5752317002
 20
17.8985168912
 30
0.0
 10
10.5844427957
 20
17.8902969705
 30
0.0
 10
10.592706248
 20
17.8830230146
 30
0.0
 10
10.5989998567
 20
17.8775813072
 30
0.0
 10
10.603543663
 20
17.8737277223
 30
0.0
 10
10.6065637537
 20
17.8712046909
 30
0.0
 10
10.6093275977
 20
17.868937402
 30
0.0
 10
10.6118328229
 20
17.8669281267
 30
0.0
 10
10.6140772389
 20
17.865178743
 30
0.0
 10
10.6160589324
 20
17.8636909598
 30
0.0
 10
10.6175524535
 20
17.8626250243
 30
0.0
 10
10.6186169363
 20
17.8619083108
 30
0.0
 10
10.6193105356
 20
17.8614628889
 30
0.0
 10
10.619937443
 20
17.8610838006
 30
0.0
 10
10.6204976042
 20
17.8607710151
 30
0.0
 10
10.6209909535
 20
17.8605244285
 30
0.0
 10
10.6214178016
 20
17.8603436428
 30
0.0
 10
10.6217783496
 20
17.8602283962
 30
0.0
 10
10.6220408113
 20
17.8601832139
 30
0.0
 10
10.6222158045
 20
17.8601866801
 30
0.0
 10
10.6223222223
 20
17.860206248
 30
0.0
 10
10.6224125764
 20
17.8602434131
 30
0.0
 10
10.6224622714
 20
17.8602809473
 30
0.0
 10
10.6224832629
 20
17.8603019379
 30
0.0
  0
SPLINE
  5
4FA
100
AcDbEntity
  8
0
100
AcDbSpline
 62
9
  6
CONTINUOUS
 70
0
 71
3
 72
27
 73
23
 74
0
 42
0.0000001
 43
0.0000001
 44
0.0000000001
 40
0.0
 40
0.0
 40
0.0
 40
0.0
 40
0.1978371834
 40
0.2926026987
 40
0.3836241782
 40
0.4702105486
 40
0.551718676
 40
0.6275553956
 40
0.6971865396
 40
0.7601433096
 40
0.8160311044
 40
0.8645442476
 40
0.8859734908
 40
0.9054985542
 40
0.9231226804
 40
0.9388639791
 40
0.9527656347
 40
0.9649052451
 40
0.9754145908
 40
0.9845113568
 40
0.9925391968
 40
1.0
 40
1.0
 40
1.0
 40
1.0
 10
7.9842725945
 20
15.5687166488
 30
0.0
 10
7.9871228762
 20
15.5658681896
 30
0.0
 10
7.9912834339
 20
15.5615994803
 30
0.0
 10
7.9966124146
 20
15.5558845226
 30
0.0
 10
8.0003326381
 20
15.5517685979
 30
0.0
 10
8.0038050526
 20
15.54779367
 30
0.0
 10
8.0070033345
 20
15.5439910376
 30
0.0
 10
8.0099032553
 20
15.5403899872
 30
0.0
 10
8.0124827228
 20
15.537017603
 30
0.0
 10
8.0147231709
 20
15.5338993529
 30
0.0
 10
8.0166092544
 20
15.5310588719
 30
0.0
 10
8.0179257072
 20
15.52885805
 30
0.0
 10
8.0187814258
 20
15.527248737
 30
0.0
 10
8.0193001325
 20
15.5261738369
 30
0.0
 10
8.0197222921
 20
15.5251821796
 30
0.0
 10
8.0200473433
 20
15.5242752409
 30
0.0
 10
8.0202750439
 20
15.5234542207
 30
0.0
 10
8.02040519
 20
15.5227197287
 30
0.0
 10
8.0204372896
 20
15.5220716994
 30
0.0
 10
8.0203696779
 20
15.5215092787
 30
0.0
 10
8.0201982595
 20
15.5210332107
 30
0.0
 10
8.0200088269
 20
15.5207740846
 30
0.0
 10
8.0199013766
 20
15.5206666249
 30
0.0
  0
SPLINE
  5
4FB
100
AcDbEntity
  8
0
100
AcDbSpline
 62
9
  6
CONTINUOUS
 70
0
 71
3
 72
18
 73
14
 74
0
 42
0.0000001
 43
0.0000001
 44
0.0000000001
 40
0.0
 40
0.0
 40
0.0
 40
0.0
 40
0.0232899084
 40
0.0527204734
 40
0.0881093485
 40
0.1288001602
 40
0.1738524016
 40
0.2220412088
 40
0.3299695598
 40
0.4631796377
 40
0.6224385591
 40
0.8039477882
 40
1.0
 40
1.0
 40
1.0
 40
1.0
 10
7.9937331032
 20
15.5757996801
 30
0.0
 10
7.9936406963
 20
15.5758076638
 30
0.0
 10
7.9934287986
 20
15.5757868059
 30
0.0
 10
7.9930912963
 20
15.5756886736
 30
0.0
 10
7.9927027146
 20
15.5755268771
 30
0.0
 10
7.9922724124
 20
15.5753082348
 30
0.0
 10
7.9918104909
 20
15.5750411349
 30
0.0
 10
7.991133582
 20
15.5746123172
 30
0.0
 10
7.9901915988
 20
15.573947614
 30
0.0
 10
7.9889327686
 20
15.5729681613
 30
0.0
 10
7.9874897796
 20
15.5717505523
 30
0.0
 10
7.9859053397
 20
15.5703147045
 30
0.0
 10
7.9848246921
 20
15.5692687276
 30
0.0
 10
7.9842726472
 20
15.5687165963
 30
0.0
  0
SPLINE
  5
4FC
100
AcDbEntity
  8
0
100
AcDbSpline
 62
9
  6
CONTINUOUS
 70
0
 71
3
 72
30
 73
26
 74
0
 42
0.0000001
 43
0.0000001
 44
0.0000000001
 40
0.0
 40
0.0
 40
0.0
 40
0.0
 40
0.1720452795
 40
0.3476280164
 40
0.4336615048
 40
0.5169213632
 40
0.5962723421
 40
0.6706515174
 40
0.7390838124
 40
0.80069619
 40
0.8287049861
 40
0.8547360382
 40
0.8787164617
 40
0.9005849935
 40
0.9202919205
 40
0.9378043669
 40
0.9531096573
 40
0.9662261383
 40
0.9772211919
 40
0.9819703234
 40
0.9862582378
 40
0.9901306036
 40
0.9936506782
 40
0.9969040592
 40
1.0
 40
1.0
 40
1.0
 40
1.0
 10
7.6512549183
 20
15.9017343252
 30
0.0
 10
7.6551428705
 20
15.8978489302
 30
0.0
 10
7.662847425
 20
15.8898460157
 30
0.0
 10
7.6721247179
 20
15.8795523952
 30
0.0
 10
7.6792934363
 20
15.8711844602
 30
0.0
 10
7.6843536674
 20
15.8650602788
 30
0.0
 10
7.6890636871
 20
15.8591314954
 30
0.0
 10
7.6933602504
 20
15.8534811346
 30
0.0
 10
7.6971852176
 20
15.8481864987
 30
0.0
 10
7.7000220441
 20
15.8440078362
 30
0.0
 10
7.7020092613
 20
15.8408925431
 30
0.0
 10
7.7033045548
 20
15.8387626312
 30
0.0
 10
7.7044487017
 20
15.8367711682
 30
0.0
 10
7.7054381175
 20
15.8349247857
 30
0.0
 10
7.7062697847
 20
15.8332295268
 30
0.0
 10
7.7069413602
 20
15.8316909672
 30
0.0
 10
7.7074512769
 20
15.8303136794
 30
0.0
 10
7.7077982578
 20
15.829101756
 30
0.0
 10
7.7079591414
 20
15.8281907972
 30
0.0
 10
7.707993832
 20
15.8275509691
 30
0.0
 10
7.707976598
 20
15.8271381228
 30
0.0
 10
7.7079173277
 20
15.8267686423
 30
0.0
 10
7.7078153287
 20
15.8264426634
 30
0.0
 10
7.7076698775
 20
15.8261609433
 30
0.0
 10
7.7075418156
 20
15.8260014216
 30
0.0
 10
7.7074720057
 20
15.825931351
 30
0.0
  0
SPLINE
  5
4FD
100
AcDbEntity
  8
0
100
AcDbSpline
 62
9
  6
CONTINUOUS
 70
0
 71
3
 72
17
 73
13
 74
0
 42
0.0000001
 43
0.0000001
 44
0.0000000001
 40
0.0
 40
0.0
 40
0.0
 40
0.0
 40
0.0686898004
 40
0.1087667831
 40
0.1524889118
 40
0.1992823019
 40
0.2482164163
 40
0.3553923169
 40
0.485268725
 40
0.6388307073
 40
0.812725316
 40
1.0
 40
1.0
 40
1.0
 40
1.0
 10
7.6572402393
 20
15.9122904497
 30
0.0
 10
7.6573450399
 20
15.912023776
 30
0.0
 10
7.6573914907
 20
15.911555994
 30
0.0
 10
7.65732047
 20
15.9109248842
 30
0.0
 10
7.6571999344
 20
15.9103921151
 30
0.0
 10
7.657022564
 20
15.9098377222
 30
0.0
 10
7.656710578
 20
15.9090503417
 30
0.0
 10
7.6561760731
 20
15.9079815024
 30
0.0
 10
7.6553246037
 20
15.9065904945
 30
0.0
 10
7.6542096769
 20
15.9050404914
 30
0.0
 10
7.6528405761
 20
15.9033846711
 30
0.0
 10
7.6518084386
 20
15.9022855634
 30
0.0
 10
7.6512559888
 20
15.9017332526
 30
0.0
  0
SPLINE
  5
4FE
100
AcDbEntity
  8
0
100
AcDbSpline
 62
9
  6
CONTINUOUS
 70
0
 71
3
 72
28
 73
24
 74
0
 42
0.0000001
 43
0.0000001
 44
0.0000000001
 40
0.0
 40
0.0
 40
0.0
 40
0.0
 40
0.1862823008
 40
0.3676295112
 40
0.4540388314
 40
0.5363899772
 40
0.6138416958
 40
0.6856204159
 40
0.7510301752
 40
0.8094642269
 40
0.8359051356
 40
0.8604225552
 40
0.8829731628
 40
0.9035239075
 40
0.9220542837
 40
0.9385600205
 40
0.9530592789
 40
0.965603275
 40
0.976295823
 40
0.985328252
 40
0.9930381803
 40
0.9965716666
 40
1.0
 40
1.0
 40
1.0
 40
1.0
 10
7.8161547225
 20
15.7368345209
 30
0.0
 10
7.8196118117
 20
15.7333795869
 30
0.0
 10
7.8263279242
 20
15.726453922
 30
0.0
 10
7.8343564998
 20
15.7176501212
 30
0.0
 10
7.8403708464
 20
15.7107063736
 30
0.0
 10
7.8445102156
 20
15.7057463622
 30
0.0
 10
7.8483070852
 20
15.7010020871
 30
0.0
 10
7.8517224935
 20
15.6965236364
 30
0.0
 10
7.8547224829
 20
15.6923582111
 30
0.0
 10
7.8569197836
 20
15.6890828174
 30
0.0
 10
7.8584390418
 20
15.6866474448
 30
0.0
 10
7.8594189047
 20
15.684985955
 30
0.0
 10
7.8602755507
 20
15.6834320122
 30
0.0
 10
7.8610070378
 20
15.6819894404
 30
0.0
 10
7.861611823
 20
15.6806617287
 30
0.0
 10
7.8620887535
 20
15.6794519473
 30
0.0
 10
7.862437062
 20
15.6783626045
 30
0.0
 10
7.8626564403
 20
15.6773954998
 30
0.0
 10
7.8627462835
 20
15.6765509315
 30
0.0
 10
7.8627057038
 20
15.675828225
 30
0.0
 10
7.862552254
 20
15.6753110184
 30
0.0
 10
7.8623575388
 20
15.6749771127
 30
0.0
 10
7.8622395069
 20
15.6748362971
 30
0.0
 10
7.8621758995
 20
15.6747726958
 30
0.0
  0
SPLINE
  5
4FF
100
AcDbEntity
  8
0
100
AcDbSpline
 62
9
  6
CONTINUOUS
 70
0
 71
3
 72
19
 73
15
 74
0
 42
0.0000001
 43
0.0000001
 44
0.0000000001
 40
0.0
 40
0.0
 40
0.0
 40
0.0
 40
0.0086491231
 40
0.0192499492
 40
0.0461163474
 40
0.0798859625
 40
0.1196036538
 40
0.1641537364
 40
0.2121877309
 40
0.3205518074
 40
0.4550701705
 40
0.616453131
 40
0.8007503215
 40
1.0
 40
1.0
 40
1.0
 40
1.0
 10
7.8238603598
 20
15.7456703697
 30
0.0
 10
7.8238513423
 20
15.7456376976
 30
0.0
 10
7.8238254348
 20
15.7455666186
 30
0.0
 10
7.8237486218
 20
15.7454029184
 30
0.0
 10
7.8236065814
 20
15.7451620342
 30
0.0
 10
7.8233870947
 20
15.7448356675
 30
0.0
 10
7.8231138529
 20
15.7444622948
 30
0.0
 10
7.8227963588
 20
15.744052378
 30
0.0
 10
7.822301711
 20
15.743439601
 30
0.0
 10
7.8215640572
 20
15.742570187
 30
0.0
 10
7.820512099
 20
15.7413855214
 30
0.0
 10
7.8192360273
 20
15.7400023602
 30
0.0
 10
7.8177617087
 20
15.7384574056
 30
0.0
 10
7.8167071351
 20
15.7373863392
 30
0.0
 10
7.8161550032
 20
15.7368342382
 30
0.0
  0
SPLINE
  5
500
100
AcDbEntity
  8
0
100
AcDbSpline
 62
9
  6
CONTINUOUS
 70
0
 71
3
 72
19
 73
15
 74
0
 42
0.0000001
 43
0.0000001
 44
0.0000000001
 40
0.0
 40
0.0
 40
0.0
 40
0.0
 40
0.2232647877
 40
0.418021055
 40
0.5838597295
 40
0.7206652251
 40
0.778225077
 40
0.8286265759
 40
0.871987212
 40
0.9085070987
 40
0.9385422233
 40
0.9627667383
 40
0.9824760174
 40
1.0
 40
1.0
 40
1.0
 40
1.0
 10
8.5081727909
 20
15.0448164525
 30
0.0
 10
8.5084680867
 20
15.0445216212
 30
0.0
 10
8.5090161106
 20
15.0439646915
 30
0.0
 10
8.5097625388
 20
15.0431684623
 30
0.0
 10
8.5103758961
 20
15.042469644
 30
0.0
 10
8.5107971097
 20
15.0419439125
 30
0.0
 10
8.511063262
 20
15.0415716898
 30
0.0
 10
8.5112172268
 20
15.0413343026
 30
0.0
 10
8.5113374518
 20
15.0411223363
 30
0.0
 10
8.5114240699
 20
15.0409357187
 30
0.0
 10
8.5114772821
 20
15.0407740261
 30
0.0
 10
8.5114970809
 20
15.0406361764
 30
0.0
 10
8.5114816439
 20
15.0405200705
 30
0.0
 10
8.5114436164
 20
15.0404586279
 30
0.0
 10
8.5114205211
 20
15.0404354044
 30
0.0
  0
SPLINE
  5
501
100
AcDbEntity
  8
0
100
AcDbSpline
 62
9
  6
CONTINUOUS
 70
0
 71
3
 72
18
 73
14
 74
0
 42
0.0000001
 43
0.0000001
 44
0.0000000001
 40
0.0
 40
0.0
 40
0.0
 40
0.0
 40
0.0177060521
 40
0.0375010797
 40
0.0617058714
 40
0.0916292229
 40
0.1279620857
 40
0.1710852162
 40
0.2784824291
 40
0.414838433
 40
0.580515546
 40
0.7755833329
 40
1.0
 40
1.0
 40
1.0
 40
1.0
 10
7.1974062968
 20
16.3551734135
 30
0.0
 10
7.19741484
 20
16.3551818633
 30
0.0
 10
7.1974372477
 20
16.3551958131
 30
0.0
 10
7.1974795289
 20
16.3552017488
 30
0.0
 10
7.1975296028
 20
16.3551948547
 30
0.0
 10
7.1975881885
 20
16.3551758363
 30
0.0
 10
7.197655704
 20
16.3551447098
 30
0.0
 10
7.1977661345
 20
16.3550821716
 30
0.0
 10
7.1979260765
 20
16.3549705773
 30
0.0
 10
7.1981428045
 20
16.3547965665
 30
0.0
 10
7.1983959664
 20
16.3545734432
 30
0.0
 10
7.1986853504
 20
16.3543014313
 30
0.0
 10
7.1988880704
 20
16.3541015254
 30
0.0
 10
7.1989955857
 20
16.3539936577
 30
0.0
  0
LINE
  5
502
100
AcDbEntity
  8
0
100
AcDbLine
 62
9
  6
CONTINUOUS
 10
8.5531431399
 20
14.9998461036
 11
8.5536128176
 21
14.9992149545
  0
LINE
  5
503
100
AcDbEntity
  8
0
100
AcDbLine
 62
9
  6
CONTINUOUS
 10
7.1799439098
 20
16.3730450198
 11
7.1945959245
 21
16.3531671683
  0
LINE
  5
504
100
AcDbEntity
  8
0
100
AcDbLine
 62
9
  6
CONTINUOUS
 10
7.1945959245
 20
16.3531671683
 11
7.194906683
 21
16.3527471084
  0
SPLINE
  5
505
100
AcDbEntity
  8
0
100
AcDbSpline
 62
9
  6
CONTINUOUS
 70
0
 71
3
 72
18
 73
14
 74
0
 42
0.0000001
 43
0.0000001
 44
0.0000000001
 40
0.0
 40
0.0
 40
0.0
 40
0.0
 40
0.0666239453
 40
0.1314775879
 40
0.2553635582
 40
0.3703302889
 40
0.4804134509
 40
0.5984745692
 40
0.725355114
 40
0.7917994049
 40
0.8599388618
 40
0.9294313754
 40
1.0
 40
1.0
 40
1.0
 40
1.0
 10
8.5685373039
 20
15.0009934097
 30
0.0
 10
8.5682390247
 20
15.0012185143
 30
0.0
 10
8.5676286537
 20
15.0016349124
 30
0.0
 10
8.5663718139
 20
15.0023253503
 30
0.0
 10
8.5647711135
 20
15.0029370178
 30
0.0
 10
8.5628415444
 20
15.0033129805
 30
0.0
 10
8.5609098723
 20
15.0033712244
 30
0.0
 10
8.5589271075
 20
15.0031058058
 30
0.0
 10
8.5572524232
 20
15.0025743098
 30
0.0
 10
8.5559272724
 20
15.0019418853
 30
0.0
 10
8.5549438467
 20
15.0013526004
 30
0.0
 10
8.5540029047
 20
15.0006579848
 30
0.0
 10
8.5534197059
 20
15.0001292999
 30
0.0
 10
8.5531399374
 20
14.9998493041
 30
0.0
  0
SPLINE
  5
506
100
AcDbEntity
  8
0
100
AcDbSpline
 62
9
  6
CONTINUOUS
 70
0
 71
3
 72
19
 73
15
 74
0
 42
0.0000001
 43
0.0000001
 44
0.0000000001
 40
0.0
 40
0.0
 40
0.0
 40
0.0
 40
0.0174161731
 40
0.0371090389
 40
0.0614049365
 40
0.0915761469
 40
0.1282723875
 40
0.1718404187
 40
0.2224704433
 40
0.2802547731
 40
0.4174141507
 40
0.5833465668
 40
0.777751217
 40
1.0
 40
1.0
 40
1.0
 40
1.0
 10
7.2514256502
 20
16.299883037
 30
0.0
 10
7.2514599766
 20
16.299917011
 30
0.0
 10
7.2515512332
 20
16.2999727275
 30
0.0
 10
7.2517235094
 20
16.2999942929
 30
0.0
 10
7.2519283608
 20
16.2999636866
 30
0.0
 10
7.2521689653
 20
16.2998835035
 30
0.0
 10
7.2524468635
 20
16.2997537666
 30
0.0
 10
7.2527625991
 20
16.2995741362
 30
0.0
 10
7.253116188
 20
16.2993444541
 30
0.0
 10
7.2536701848
 20
16.2989481281
 30
0.0
 10
7.2544518223
 20
16.2983221988
 30
0.0
 10
7.2554893568
 20
16.2974125287
 30
0.0
 10
7.2566686466
 20
16.2963079738
 30
0.0
 10
7.2574923575
 20
16.2954976068
 30
0.0
 10
7.2579277955
 20
16.295061448
 30
0.0
  0
SPLINE
  5
507
100
AcDbEntity
  8
0
100
AcDbSpline
 62
9
  6
CONTINUOUS
 70
0
 71
3
 72
25
 73
21
 74
0
 42
0.0000001
 43
0.0000001
 44
0.0000000001
 40
0.0
 40
0.0
 40
0.0
 40
0.0
 40
0.2200486035
 40
0.4137311775
 40
0.5003253158
 40
0.5799416115
 40
0.6524950129
 40
0.7179161866
 40
0.7761686846
 40
0.8272603647
 40
0.8501384005
 40
0.8712552742
 40
0.8906341343
 40
0.899682079
 40
0.9083084466
 40
0.9387102902
 40
0.9630920517
 40
0.9827033246
 40
0.9914552983
 40
1.0
 40
1.0
 40
1.0
 40
1.0
 10
8.4253087216
 20
15.1276805218
 30
0.0
 10
8.4260578574
 20
15.1269321686
 30
0.0
 10
8.4274532703
 20
15.1255119049
 30
0.0
 10
8.4290974104
 20
15.1237526053
 30
0.0
 10
8.4302471697
 20
15.1224573949
 30
0.0
 10
8.4309931621
 20
15.1215834594
 30
0.0
 10
8.431654532
 20
15.1207715813
 30
0.0
 10
8.4322303362
 20
15.1200230074
 30
0.0
 10
8.4327197799
 20
15.1193388993
 30
0.0
 10
8.4330671376
 20
15.1188054429
 30
0.0
 10
8.4332992071
 20
15.118411014
 30
0.0
 10
8.4334447411
 20
15.1181429454
 30
0.0
 10
8.4335499658
 20
15.1179289243
 30
0.0
 10
8.4336226606
 20
15.1177660841
 30
0.0
 10
8.4337112385
 20
15.1175523912
 30
0.0
 10
8.4338095447
 20
15.1172623724
 30
0.0
 10
8.4338662695
 20
15.1169066686
 30
0.0
 10
8.4338356372
 20
15.1166487768
 30
0.0
 10
8.4337591212
 20
15.1164869333
 30
0.0
 10
8.433706752
 20
15.1164211322
 30
0.0
 10
8.4336776753
 20
15.1163920599
 30
0.0
  0
SPLINE
  5
508
100
AcDbEntity
  8
0
100
AcDbSpline
 62
9
  6
CONTINUOUS
 70
0
 71
3
 72
18
 73
14
 74
0
 42
0.0000001
 43
0.0000001
 44
0.0000000001
 40
0.0
 40
0.0
 40
0.0
 40
0.0
 40
0.0594638757
 40
0.1179780154
 40
0.2321701401
 40
0.3417352349
 40
0.4502412492
 40
0.5704421316
 40
0.7034975847
 40
0.7744400046
 40
0.8478606909
 40
0.9232188152
 40
1.0
 40
1.0
 40
1.0
 40
1.0
 10
8.4393692579
 20
15.1301614298
 30
0.0
 10
8.4391189967
 20
15.1303382332
 30
0.0
 10
8.438601343
 20
15.1306602575
 30
0.0
 10
8.4375175915
 20
15.1311718572
 30
0.0
 10
8.4361086458
 20
15.1315760236
 30
0.0
 10
8.4343950668
 20
15.1317308277
 30
0.0
 10
8.4326498216
 20
15.1315983093
 30
0.0
 10
8.4308285219
 20
15.1311674658
 30
0.0
 10
8.429275662
 20
15.1305311916
 30
0.0
 10
8.4280240357
 20
15.1298380978
 30
0.0
 10
8.4270789075
 20
15.1292124169
 30
0.0
 10
8.4261624803
 20
15.1284955855
 30
0.0
 10
8.4255857713
 20
15.1279630041
 30
0.0
 10
8.425306097
 20
15.1276831444
 30
0.0
  0
SPLINE
  5
509
100
AcDbEntity
  8
0
100
AcDbSpline
 62
9
  6
CONTINUOUS
 70
0
 71
3
 72
30
 73
26
 74
0
 42
0.0000001
 43
0.0000001
 44
0.0000000001
 40
0.0
 40
0.0
 40
0.0
 40
0.0
 40
0.1037847211
 40
0.1935715443
 40
0.2693061377
 40
0.3309947669
 40
0.3565978169
 40
0.3787387222
 40
0.3974766341
 40
0.412927743
 40
0.425321302
 40
0.4351189195
 40
0.4432548957
 40
0.451284163
 40
0.4608159497
 40
0.4728643321
 40
0.4879372824
 40
0.506287426
 40
0.5280448278
 40
0.553279065
 40
0.6143060009
 40
0.6895162188
 40
0.7789306307
 40
0.8824852774
 40
1.0
 40
1.0
 40
1.0
 40
1.0
 10
8.5223471011
 20
15.0433904139
 30
0.0
 10
8.5226924757
 20
15.0431860015
 30
0.0
 10
8.5233400089
 20
15.0428103757
 30
0.0
 10
8.5242533652
 20
15.0423097638
 30
0.0
 10
8.5250374798
 20
15.0419130265
 30
0.0
 10
8.5256129478
 20
15.0416544865
 30
0.0
 10
8.5260086304
 20
15.0415040902
 30
0.0
 10
8.5262533537
 20
15.0414248662
 30
0.0
 10
8.5264648682
 20
15.041371907
 30
0.0
 10
8.5266434148
 20
15.041345081
 30
0.0
 10
8.5267896731
 20
15.041344498
 30
0.0
 10
8.5269056727
 20
15.0413708625
 30
0.0
 10
8.5269909412
 20
15.0414306528
 30
0.0
 10
8.5270347378
 20
15.0415241698
 30
0.0
 10
8.5270377858
 20
15.0416405702
 30
0.0
 10
8.5270072438
 20
15.0417797318
 30
0.0
 10
8.5269436267
 20
15.0419441489
 30
0.0
 10
8.5268468649
 20
15.0421345871
 30
0.0
 10
8.5267167272
 20
15.0423513508
 30
0.0
 10
8.5264833127
 20
15.0426979168
 30
0.0
 10
8.52610328
 20
15.0431939631
 30
0.0
 10
8.5255403224
 20
15.0438608698
 30
0.0
 10
8.5248450042
 20
15.0446304963
 30
0.0
 10
8.5240183819
 20
15.045501362
 30
0.0
 10
8.5234181709
 20
15.0461101576
 30
0.0
 10
8.52309684
 20
15.0464314827
 30
0.0
  0
LINE
  5
50A
100
AcDbEntity
  8
0
100
AcDbLine
 62
9
  6
CONTINUOUS
 10
8.5685363522
 20
15.0009919704
 11
8.5658036645
 21
15.0034698034
  0
SPLINE
  5
50B
100
AcDbEntity
  8
0
100
AcDbSpline
 62
9
  6
CONTINUOUS
 70
0
 71
3
 72
15
 73
11
 74
0
 42
0.0000001
 43
0.0000001
 44
0.0000000001
 40
0.0
 40
0.0
 40
0.0
 40
0.0
 40
0.0312256841
 40
0.0677565892
 40
0.1558596173
 40
0.2625171588
 40
0.3856921284
 40
0.5234542965
 40
0.6736238051
 40
1.0
 40
1.0
 40
1.0
 40
1.0
 10
8.5658036645
 20
15.0034698034
 30
0.0
 10
8.5653029403
 20
15.0039029913
 30
0.0
 10
8.5642106602
 20
15.0048363086
 30
0.0
 10
8.5616814627
 20
15.0069635116
 30
0.0
 10
8.5578998157
 20
15.010086253
 30
0.0
 10
8.5526713858
 20
15.014341895
 30
0.0
 10
8.5466010763
 20
15.0192310635
 30
0.0
 10
8.5397898437
 20
15.02467103
 30
0.0
 10
8.5295832405
 20
15.0327637416
 30
0.0
 10
8.5216375203
 20
15.0390062086
 30
0.0
 10
8.5161858808
 20
15.043268992
 30
0.0
  0
SPLINE
  5
50C
100
AcDbEntity
  8
0
100
AcDbSpline
 62
9
  6
CONTINUOUS
 70
0
 71
3
 72
30
 73
26
 74
0
 42
0.0000001
 43
0.0000001
 44
0.0000000001
 40
0.0
 40
0.0
 40
0.0
 40
0.0
 40
0.1354054216
 40
0.2570915561
 40
0.3649861846
 40
0.4590232781
 40
0.5391479205
 40
0.6053420552
 40
0.6576374685
 40
0.678609166
 40
0.6961683647
 40
0.7103775689
 40
0.7213634379
 40
0.7294142309
 40
0.7352768921
 40
0.7407032954
 40
0.7477835843
 40
0.7576077829
 40
0.7705958273
 40
0.7869284685
 40
0.8067014168
 40
0.8299746685
 40
0.8567894339
 40
0.9211583612
 40
1.0
 40
1.0
 40
1.0
 40
1.0
 10
8.566834534
 20
15.0015482107
 30
0.0
 10
8.5669691008
 20
15.001458558
 30
0.0
 10
8.5672251957
 20
15.0012892264
 30
0.0
 10
8.5675909096
 20
15.001052101
 30
0.0
 10
8.5679175114
 20
15.0008454943
 30
0.0
 10
8.568204742
 20
15.000669549
 30
0.0
 10
8.5684523584
 20
15.0005243363
 30
0.0
 10
8.5686601613
 20
15.0004099544
 30
0.0
 10
8.5688092134
 20
15.0003354383
 30
0.0
 10
8.5689087858
 20
15.0002923604
 30
0.0
 10
8.5689677968
 20
15.0002702467
 30
0.0
 10
8.5690167944
 20
15.0002557132
 30
0.0
 10
8.5690560615
 20
15.0002488261
 30
0.0
 10
8.5690859553
 20
15.0002490413
 30
0.0
 10
8.5691085861
 20
15.0002586463
 30
0.0
 10
8.569118173
 20
15.0002802429
 30
0.0
 10
8.5691144129
 20
15.0003073045
 30
0.0
 10
8.5691016919
 20
15.0003407139
 30
0.0
 10
8.569079053
 20
15.0003817674
 30
0.0
 10
8.5690465865
 20
15.0004306086
 30
0.0
 10
8.5690040218
 20
15.0004873628
 30
0.0
 10
8.5689513158
 20
15.0005520482
 30
0.0
 10
8.5688617936
 20
15.0006553535
 30
0.0
 10
8.5687233251
 20
15.0008039252
 30
0.0
 10
8.5686031447
 20
15.0009256152
 30
0.0
 10
8.5685363522
 20
15.0009919704
 30
0.0
  0
SPLINE
  5
50D
100
AcDbEntity
  8
0
100
AcDbSpline
 62
9
  6
CONTINUOUS
 70
0
 71
3
 72
19
 73
15
 74
0
 42
0.0000001
 43
0.0000001
 44
0.0000000001
 40
0.0
 40
0.0
 40
0.0
 40
0.0
 40
0.1403334483
 40
0.2880352133
 40
0.437133038
 40
0.5815340228
 40
0.715224628
 40
0.7763462998
 40
0.8327765923
 40
0.883912062
 40
0.929195444
 40
0.9680634039
 40
0.984939608
 40
1.0
 40
1.0
 40
1.0
 40
1.0
 10
8.435749849
 20
15.118031589
 30
0.0
 10
8.439972939
 20
15.1148531072
 30
0.0
 10
8.448600882
 20
15.1082760498
 30
0.0
 10
8.4615935048
 20
15.0981629998
 30
0.0
 10
8.4746089064
 20
15.0878309802
 30
0.0
 10
8.4871119732
 20
15.077703593
 30
0.0
 10
8.4969507751
 20
15.0695525399
 30
0.0
 10
8.5041755249
 20
15.0634410177
 30
0.0
 10
8.508993888
 20
15.0592995998
 30
0.0
 10
8.5133245632
 20
15.0555062967
 30
0.0
 10
8.5171184009
 20
15.0521045258
 30
0.0
 10
8.5199125058
 20
15.0495211084
 30
0.0
 10
8.5218392306
 20
15.0476772267
 30
0.0
 10
8.5226965356
 20
15.0468333751
 30
0.0
 10
8.52309684
 20
15.0464314827
 30
0.0
  0
SPLINE
  5
50E
100
AcDbEntity
  8
0
100
AcDbSpline
 62
9
  6
CONTINUOUS
 70
0
 71
3
 72
18
 73
14
 74
0
 42
0.0000001
 43
0.0000001
 44
0.0000000001
 40
0.0
 40
0.0
 40
0.0
 40
0.0
 40
0.0642726629
 40
0.1270345053
 40
0.2476878736
 40
0.360812653
 40
0.4703114412
 40
0.5890331218
 40
0.7179563567
 40
0.785911753
 40
0.8558363302
 40
0.9273191895
 40
1.0
 40
1.0
 40
1.0
 40
1.0
 10
8.5230977385
 20
15.0464328179
 30
0.0
 10
8.5228163786
 20
15.0466409484
 30
0.0
 10
8.5222387149
 20
15.0470242046
 30
0.0
 10
8.521042963
 20
15.0476519303
 30
0.0
 10
8.5195098026
 20
15.0481911729
 30
0.0
 10
8.5176557823
 20
15.0484895457
 30
0.0
 10
8.5157893061
 20
15.0484806976
 30
0.0
 10
8.5138630216
 20
15.0481569323
 30
0.0
 10
8.5122313692
 20
15.0475881768
 30
0.0
 10
8.51093228
 20
15.0469343344
 30
0.0
 10
8.5099623495
 20
15.0463322259
 30
0.0
 10
8.50903006
 20
15.045629792
 30
0.0
 10
8.5084491707
 20
15.0450997562
 30
0.0
 10
8.5081694331
 20
15.0448198084
 30
0.0
  0
LINE
  5
50F
100
AcDbEntity
  8
0
100
AcDbLine
 62
9
  6
CONTINUOUS
 10
9.2290543617
 20
14.5375083838
 11
9.238990661
 21
14.5543053117
  0
LINE
  5
510
100
AcDbEntity
  8
0
100
AcDbLine
 62
7
  6
CONTINUOUS
 10
9.3175407055
 20
14.4988930403
 11
9.3093521457
 21
14.4904756529
  0
SPLINE
  5
511
100
AcDbEntity
  8
0
100
AcDbSpline
 62
9
  6
CONTINUOUS
 70
0
 71
3
 72
17
 73
13
 74
0
 42
0.0000001
 43
0.0000001
 44
0.0000000001
 40
0.0
 40
0.0
 40
0.0
 40
0.0
 40
0.1249605335
 40
0.2499257054
 40
0.3748894168
 40
0.4998537303
 40
0.6248194216
 40
0.7497876556
 40
0.8123429441
 40
0.8748923299
 40
0.9374520763
 40
1.0
 40
1.0
 40
1.0
 40
1.0
 10
9.2187499109
 20
14.5741841733
 30
0.0
 10
9.217932161
 20
14.5726383386
 30
0.0
 10
9.2165908788
 20
14.5693811433
 30
0.0
 10
9.2155316331
 20
14.5642122509
 30
0.0
 10
9.2154682414
 20
14.5589337929
 30
0.0
 10
9.2164066959
 20
14.5537393208
 30
0.0
 10
9.2183122604
 20
14.5488174809
 30
0.0
 10
9.2206489005
 20
14.5450872153
 30
0.0
 10
9.222908174
 20
14.5424088603
 30
0.0
 10
9.2247880344
 20
14.5405686876
 30
0.0
 10
9.2268349701
 20
14.5389173703
 30
0.0
 10
9.2283002139
 20
14.5379527382
 30
0.0
 10
9.2290548872
 20
14.5375092238
 30
0.0
  0
LINE
  5
512
100
AcDbEntity
  8
0
100
AcDbLine
 62
7
  6
CONTINUOUS
 10
9.3093586571
 20
14.4904819885
 11
9.2463968854
 21
14.4274973488
  0
SPLINE
  5
513
100
AcDbEntity
  8
0
100
AcDbSpline
 62
9
  6
CONTINUOUS
 70
0
 71
3
 72
15
 73
11
 74
0
 42
0.0000001
 43
0.0000001
 44
0.0000000001
 40
0.0
 40
0.0
 40
0.0
 40
0.0
 40
0.1249987931
 40
0.2499998989
 40
0.3749994324
 40
0.4999996606
 40
0.6250002125
 40
0.7499995608
 40
0.8750010944
 40
1.0
 40
1.0
 40
1.0
 40
1.0
 10
9.2463968854
 20
14.4274973488
 30
0.0
 10
9.2525991748
 20
14.4237832325
 30
0.0
 10
9.2647998628
 20
14.4160082289
 30
0.0
 10
9.2824343482
 20
14.4033656359
 30
0.0
 10
9.2993652738
 20
14.3897944136
 30
0.0
 10
9.3155456852
 20
14.3753368991
 30
0.0
 10
9.3309299973
 20
14.3600350447
 30
0.0
 10
9.3454750737
 20
14.3439330003
 30
0.0
 10
9.3591378325
 20
14.3270768572
 30
0.0
 10
9.3676337289
 20
14.3153671744
 30
0.0
 10
9.3717182271
 20
14.3094022753
 30
0.0
  0
SPLINE
  5
514
100
AcDbEntity
  8
0
100
AcDbSpline
 62
9
  6
CONTINUOUS
 70
0
 71
3
 72
27
 73
23
 74
0
 42
0.0000001
 43
0.0000001
 44
0.0000000001
 40
0.0
 40
0.0
 40
0.0
 40
0.0
 40
0.0312672478
 40
0.0625377111
 40
0.0938053081
 40
0.1250743165
 40
0.1875633821
 40
0.2500518452
 40
0.3125396778
 40
0.3750271792
 40
0.4375145162
 40
0.5000016736
 40
0.5624887395
 40
0.6249758125
 40
0.6874629026
 40
0.7499502184
 40
0.8124381083
 40
0.8749266004
 40
0.9061953425
 40
0.9374626924
 40
0.9687329378
 40
1.0
 40
1.0
 40
1.0
 40
1.0
 10
9.3717182271
 20
14.3094022753
 30
0.0
 10
9.372777079
 20
14.3078676875
 30
0.0
 10
9.3747682807
 20
14.3047089294
 30
0.0
 10
9.3773646803
 20
14.2997482655
 30
0.0
 10
9.379558909
 20
14.2945961986
 30
0.0
 10
9.3819312732
 20
14.2875219008
 30
0.0
 10
9.3838435075
 20
14.278360864
 30
0.0
 10
9.3843905278
 20
14.2671502649
 30
0.0
 10
9.3831588837
 20
14.2559927057
 30
0.0
 10
9.3801915853
 20
14.2451673496
 30
0.0
 10
9.3755556286
 20
14.2349447311
 30
0.0
 10
9.3693740576
 20
14.2255755055
 30
0.0
 10
9.3617924406
 20
14.2172982509
 30
0.0
 10
9.3530067192
 20
14.210312257
 30
0.0
 10
9.3432300345
 20
14.2047979075
 30
0.0
 10
9.3327084615
 20
14.2008860579
 30
0.0
 10
9.3217022787
 20
14.1986863987
 30
0.0
 10
9.3123514473
 20
14.1983100254
 30
0.0
 10
9.3049124541
 20
14.1988881461
 30
0.0
 10
9.2993811834
 20
14.199761643
 30
0.0
 10
9.2939376136
 20
14.2010718301
 30
0.0
 10
9.2903890675
 20
14.202233845
 30
0.0
 10
9.2886428343
 20
14.20288711
 30
0.0
  0
SPLINE
  5
515
100
AcDbEntity
  8
0
100
AcDbSpline
 62
9
  6
CONTINUOUS
 70
0
 71
3
 72
30
 73
26
 74
0
 42
0.0000001
 43
0.0000001
 44
0.0000000001
 40
0.0
 40
0.0
 40
0.0
 40
0.0
 40
0.1299950905
 40
0.2462461053
 40
0.3489011351
 40
0.4378642845
 40
0.5130699822
 40
0.5746374883
 40
0.6003851291
 40
0.6228345448
 40
0.642063383
 40
0.6581985553
 40
0.6714611429
 40
0.6822547756
 40
0.6913161613
 40
0.6998394888
 40
0.709221161
 40
0.720530564
 40
0.7343833726
 40
0.7511047699
 40
0.7708715307
 40
0.7937909078
 40
0.8493210698
 40
0.9180116158
 40
1.0
 40
1.0
 40
1.0
 40
1.0
 10
7.2598083837
 20
16.309719939
 30
0.0
 10
7.2593875573
 20
16.3101429036
 30
0.0
 10
7.2585848571
 20
16.3109386393
 30
0.0
 10
7.2574283749
 20
16.3120464697
 30
0.0
 10
7.2563879256
 20
16.3130027813
 30
0.0
 10
7.2554643769
 20
16.3138073953
 30
0.0
 10
7.2546589403
 20
16.314459481
 30
0.0
 10
7.2540559865
 20
16.314899685
 30
0.0
 10
7.2536313721
 20
16.31517113
 30
0.0
 10
7.2533622255
 20
16.3153242383
 30
0.0
 10
7.2531229464
 20
16.3154395694
 30
0.0
 10
7.2529132707
 20
16.3155173573
 30
0.0
 10
7.2527324576
 20
16.3155577483
 30
0.0
 10
7.2525789584
 20
16.3155604165
 30
0.0
 10
7.2524513431
 20
16.3155214966
 30
0.0
 10
7.2523560005
 20
16.3154365908
 30
0.0
 10
7.2522985412
 20
16.3153124195
 30
0.0
 10
7.2522741376
 20
16.3151545158
 30
0.0
 10
7.2522796423
 20
16.3149616627
 30
0.0
 10
7.2523145019
 20
16.3147328642
 30
0.0
 10
7.2523786547
 20
16.3144675996
 30
0.0
 10
7.2525124176
 20
16.3140368759
 30
0.0
 10
7.2527607063
 20
16.3134079831
 30
0.0
 10
7.2531587814
 20
16.3125490385
 30
0.0
 10
7.2534752192
 20
16.3119338768
 30
0.0
 10
7.2536519526
 20
16.3116016493
 30
0.0
  0
LINE
  5
516
100
AcDbEntity
  8
0
100
AcDbLine
 62
9
  6
CONTINUOUS
 10
7.2536519526
 20
16.3116016493
 11
7.2544811477
 21
16.3101084945
  0
SPLINE
  5
517
100
AcDbEntity
  8
0
100
AcDbSpline
 62
9
  6
CONTINUOUS
 70
0
 71
3
 72
52
 73
48
 74
0
 42
0.0000001
 43
0.0000001
 44
0.0000000001
 40
0.0
 40
0.0
 40
0.0
 40
0.0
 40
0.0082988579
 40
0.0154950149
 40
0.0215670314
 40
0.0265438101
 40
0.0286318594
 40
0.0304569618
 40
0.0320244693
 40
0.0333438016
 40
0.0344326136
 40
0.035322825
 40
0.0360715577
 40
0.0367708026
 40
0.037530312
 40
0.038438215
 40
0.0395478522
 40
0.0408886763
 40
0.0424770526
 40
0.0443225266
 40
0.0488052323
 40
0.0543625903
 40
0.0610020773
 40
0.0687205938
 40
0.0775077398
 40
0.087342114
 40
0.0981964332
 40
0.1100450848
 40
0.1228621041
 40
0.1512757497
 40
0.1831720144
 40
0.2182799021
 40
0.2563149558
 40
0.2969378771
 40
0.3397795612
 40
0.3844727288
 40
0.4306289296
 40
0.5256884219
 40
0.621632385
 40
0.7150547482
 40
0.8025986849
 40
0.8431809685
 40
0.8811474469
 40
0.9161363711
 40
0.9478126367
 40
0.975868899
 40
1.0
 40
1.0
 40
1.0
 40
1.0
 10
7.3511069931
 20
16.1888238335
 30
0.0
 10
7.3514381432
 20
16.1885156767
 30
0.0
 10
7.3520618646
 20
16.1879460773
 30
0.0
 10
7.3529509461
 20
16.1871766687
 30
0.0
 10
7.3537268212
 20
16.1865541803
 30
0.0
 10
7.3543077519
 20
16.186134548
 30
0.0
 10
7.3547173697
 20
16.1858753715
 30
0.0
 10
7.3549778227
 20
16.1857287134
 30
0.0
 10
7.3552098485
 20
16.1856179791
 30
0.0
 10
7.3554136554
 20
16.1855430824
 30
0.0
 10
7.3555898892
 20
16.1855038971
 30
0.0
 10
7.3557399346
 20
16.1855007015
 30
0.0
 10
7.3558651483
 20
16.1855367405
 30
0.0
 10
7.3559602882
 20
16.1856161676
 30
0.0
 10
7.3560197188
 20
16.185733681
 30
0.0
 10
7.3560470498
 20
16.1858838676
 30
0.0
 10
7.3560453932
 20
16.1860676266
 30
0.0
 10
7.3560152582
 20
16.1862861068
 30
0.0
 10
7.3559566743
 20
16.1865399394
 30
0.0
 10
7.3558319492
 20
16.1869532722
 30
0.0
 10
7.3555970391
 20
16.1875578946
 30
0.0
 10
7.3552179047
 20
16.1883845086
 30
0.0
 10
7.3547243077
 20
16.1893516282
 30
0.0
 10
7.354116889
 20
16.1904575078
 30
0.0
 10
7.3533965589
 20
16.1916995813
 30
0.0
 10
7.3525653296
 20
16.1930745799
 30
0.0
 10
7.3516256037
 20
16.1945787452
 30
0.0
 10
7.350579817
 20
16.1962081625
 30
0.0
 10
7.3489918904
 20
16.198626731
 30
0.0
 10
7.3467589673
 20
16.2019287718
 30
0.0
 10
7.3437879033
 20
16.206197759
 30
0.0
 10
7.3404657724
 20
16.2108609288
 30
0.0
 10
7.3368205128
 20
16.2158775668
 30
0.0
 10
7.3328843179
 20
16.2212036052
 30
0.0
 10
7.3286925723
 20
16.2267918203
 30
0.0
 10
7.3242819053
 20
16.2325926496
 30
0.0
 10
7.3180994554
 20
16.2406216517
 30
0.0
 10
7.3101247923
 20
16.2507960969
 30
0.0
 10
7.3004296806
 20
16.2628943682
 30
0.0
 10
7.2908606501
 20
16.2745675398
 30
0.0
 10
7.2830921538
 20
16.2838137066
 30
0.0
 10
7.2771920428
 20
16.2906804745
 30
0.0
 10
7.2731206206
 20
16.2953413828
 30
0.0
 10
7.2693277722
 20
16.2996007351
 30
0.0
 10
7.2658502691
 20
16.303417208
 30
0.0
 10
7.2627234646
 20
16.306751928
 30
0.0
 10
7.2607394959
 20
16.3087908988
 30
0.0
 10
7.2598083837
 20
16.309719939
 30
0.0
  0
SPLINE
  5
518
100
AcDbEntity
  8
0
100
AcDbSpline
 62
9
  6
CONTINUOUS
 70
0
 71
3
 72
41
 73
37
 74
0
 42
0.0000001
 43
0.0000001
 44
0.0000000001
 40
0.0
 40
0.0
 40
0.0
 40
0.0
 40
0.1036162414
 40
0.2076772668
 40
0.3103200665
 40
0.4097297526
 40
0.5041456424
 40
0.5919245083
 40
0.6715740598
 40
0.7079352984
 40
0.7417917159
 40
0.7730091532
 40
0.8014676435
 40
0.8270676024
 40
0.8497311193
 40
0.8693974886
 40
0.8780990556
 40
0.8860476948
 40
0.8932503476
 40
0.8997216801
 40
0.9054846816
 40
0.9105747883
 40
0.9150469815
 40
0.9189841719
 40
0.9225092021
 40
0.9257933814
 40
0.9290474525
 40
0.9324883372
 40
0.9363002488
 40
0.9406189354
 40
0.9455372733
 40
0.9511173025
 40
0.9574005753
 40
0.9644140751
 40
0.9806896607
 40
1.0
 40
1.0
 40
1.0
 40
1.0
 10
7.9937309374
 20
15.5757973854
 30
0.0
 10
7.9911390869
 20
15.5783906574
 30
0.0
 10
7.9858974194
 20
15.5835417116
 30
0.0
 10
7.9779373864
 20
15.5911062317
 30
0.0
 10
7.969960867
 20
15.5984351868
 30
0.0
 10
7.9621127538
 20
15.6053971413
 30
0.0
 10
7.9545334529
 20
15.6118670197
 30
0.0
 10
7.9473586351
 20
15.6177306031
 30
0.0
 10
7.9416615253
 20
15.6221530318
 30
0.0
 10
7.9373949002
 20
15.62530269
 30
0.0
 10
7.9344691287
 20
15.6273821687
 30
0.0
 10
7.9317317986
 20
15.6292429437
 30
0.0
 10
7.9291947383
 20
15.6308771411
 30
0.0
 10
7.9268688161
 20
15.6322782257
 30
0.0
 10
7.9247642097
 20
15.6334406724
 30
0.0
 10
7.9231421569
 20
15.6342367826
 30
0.0
 10
7.9219605333
 20
15.634742582
 30
0.0
 10
7.9211716778
 20
15.6350434894
 30
0.0
 10
7.9204441686
 20
15.6352815464
 30
0.0
 10
7.9197785642
 20
15.6354566845
 30
0.0
 10
7.9191752026
 20
15.6355688973
 30
0.0
 10
7.9186341602
 20
15.6356180857
 30
0.0
 10
7.9181552256
 20
15.6356040062
 30
0.0
 10
7.9177380205
 20
15.6355257106
 30
0.0
 10
7.9173828983
 20
15.635381063
 30
0.0
 10
7.9170926773
 20
15.63516771
 30
0.0
 10
7.9168722284
 20
15.6348864228
 30
0.0
 10
7.9167236456
 20
15.634541815
 30
0.0
 10
7.9166447734
 20
15.6341375435
 30
0.0
 10
7.9166331836
 20
15.6336743181
 30
0.0
 10
7.9166876848
 20
15.6331517527
 30
0.0
 10
7.9168079525
 20
15.6325694713
 30
0.0
 10
7.9169939833
 20
15.6319273862
 30
0.0
 10
7.9173479101
 20
15.6309420736
 30
0.0
 10
7.917968312
 20
15.6295660205
 30
0.0
 10
7.9185631491
 20
15.6284554391
 30
0.0
 10
7.9188996623
 20
15.6278607574
 30
0.0
  0
LINE
  5
519
100
AcDbEntity
  8
0
100
AcDbLine
 62
9
  6
CONTINUOUS
 10
7.9188996623
 20
15.6278607574
 11
7.9201947073
 21
15.6257017214
  0
SPLINE
  5
51A
100
AcDbEntity
  8
0
100
AcDbSpline
 62
9
  6
CONTINUOUS
 70
0
 71
3
 72
41
 73
37
 74
0
 42
0.0000001
 43
0.0000001
 44
0.0000000001
 40
0.0
 40
0.0
 40
0.0
 40
0.0
 40
0.025219849
 40
0.0474436633
 40
0.0666572029
 40
0.0829101927
 40
0.0899607814
 40
0.096320937
 40
0.10202427
 40
0.1071197727
 40
0.1116787502
 40
0.1158035226
 40
0.1196351996
 40
0.1233495398
 40
0.1271382326
 40
0.1311817066
 40
0.1356278414
 40
0.1405869754
 40
0.1461374955
 40
0.1523341124
 40
0.1592150072
 40
0.1668070095
 40
0.1841881838
 40
0.2045679204
 40
0.2279657908
 40
0.2543572393
 40
0.2836942359
 40
0.3159104686
 40
0.3509166678
 40
0.3886122282
 40
0.4716078179
 40
0.5638244676
 40
0.6640899994
 40
0.7711549239
 40
0.8836193882
 40
1.0
 40
1.0
 40
1.0
 40
1.0
 10
8.027199748
 20
15.5233442282
 30
0.0
 10
8.0277895566
 20
15.5230133891
 30
0.0
 10
8.0289095606
 20
15.5224092711
 30
0.0
 10
8.0305195485
 20
15.5216310982
 30
0.0
 10
8.0319500372
 20
15.5210397615
 30
0.0
 10
8.0330362094
 20
15.5206867634
 30
0.0
 10
8.0338118834
 20
15.5205083404
 30
0.0
 10
8.0343186784
 20
15.520428507
 30
0.0
 10
8.0347783534
 20
15.5203961665
 30
0.0
 10
8.0351908662
 20
15.5204116496
 30
0.0
 10
8.0355562135
 20
15.5204755635
 30
0.0
 10
8.035874092
 20
15.5205891515
 30
0.0
 10
8.0361432617
 20
15.5207536803
 30
0.0
 10
8.0363614465
 20
15.5209692846
 30
0.0
 10
8.0365266881
 20
15.5212342043
 30
0.0
 10
8.0366389789
 20
15.521545913
 30
0.0
 10
8.036699709
 20
15.5219029194
 30
0.0
 10
8.0367100704
 20
15.5223048903
 30
0.0
 10
8.0366707116
 20
15.522751892
 30
0.0
 10
8.0365818801
 20
15.5232439866
 30
0.0
 10
8.0364436752
 20
15.5237811411
 30
0.0
 10
8.036181334
 20
15.5245944407
 30
0.0
 10
8.0357196803
 20
15.525721326
 30
0.0
 10
8.0349939439
 20
15.527192868
 30
0.0
 10
8.0340742023
 20
15.5288351101
 30
0.0
 10
8.0329629882
 20
15.5306431114
 30
0.0
 10
8.0316632079
 20
15.5326111861
 30
0.0
 10
8.0301786781
 20
15.5347328542
 30
0.0
 10
8.0285142002
 20
15.5370012295
 30
0.0
 10
8.025979509
 20
15.5403189777
 30
0.0
 10
8.0223970061
 20
15.5447653055
 30
0.0
 10
8.017614
 20
15.5503953427
 30
0.0
 10
8.0122809728
 20
15.5564024101
 30
0.0
 10
8.0064664052
 20
15.5627057784
 30
0.0
 10
8.000246366
 20
15.569221108
 30
0.0
 10
7.9959387704
 20
15.5735918795
 30
0.0
 10
7.9937309374
 20
15.5757973854
 30
0.0
  0
SPLINE
  5
51B
100
AcDbEntity
  8
0
100
AcDbSpline
 62
9
  6
CONTINUOUS
 70
0
 71
3
 72
51
 73
47
 74
0
 42
0.0000001
 43
0.0000001
 44
0.0000000001
 40
0.0
 40
0.0
 40
0.0
 40
0.0
 40
0.0299522403
 40
0.0632891745
 40
0.0996610953
 40
0.138715027
 40
0.2234680284
 40
0.3146670707
 40
0.4093558264
 40
0.5044353908
 40
0.5511497893
 40
0.5968099693
 40
0.6410545558
 40
0.6835329779
 40
0.7238980925
 40
0.7618175764
 40
0.7969855094
 40
0.8291121884
 40
0.8579550094
 40
0.8833212033
 40
0.8946505698
 40
0.9050528048
 40
0.9145043351
 40
0.9229808962
 40
0.9304581293
 40
0.9369152415
 40
0.9423405217
 40
0.9467405122
 40
0.9485716758
 40
0.9501701313
 40
0.9515516645
 40
0.9527398207
 40
0.9537705841
 40
0.9546974799
 40
0.9555918801
 40
0.9565316346
 40
0.9575836924
 40
0.9587957748
 40
0.9601988716
 40
0.9618130396
 40
0.9657207482
 40
0.9705819347
 40
0.9764190955
 40
0.9832454387
 40
0.9910958689
 40
1.0
 40
1.0
 40
1.0
 40
1.0
 10
8.4393682727
 20
15.13016005
 30
0.0
 10
8.4382547339
 20
15.1312773751
 30
0.0
 10
8.4358748153
 20
15.1336113957
 30
0.0
 10
8.4320699086
 20
15.137227125
 30
0.0
 10
8.4278663138
 20
15.1411184562
 30
0.0
 10
8.4216132177
 20
15.1467811797
 30
0.0
 10
8.4131092624
 20
15.1542590301
 30
0.0
 10
8.402261996
 20
15.163506369
 30
0.0
 10
8.3908674881
 20
15.1729478673
 30
0.0
 10
8.3811697273
 20
15.1807632518
 30
0.0
 10
8.3734193621
 20
15.186878658
 30
0.0
 10
8.3677389084
 20
15.1912949766
 30
0.0
 10
8.3622026261
 20
15.195532948
 30
0.0
 10
8.356855224
 20
15.1995585393
 30
0.0
 10
8.3517402758
 20
15.2033386508
 30
0.0
 10
8.3468998372
 20
15.206841942
 30
0.0
 10
8.342374206
 20
15.2100395971
 30
0.0
 10
8.3382000274
 20
15.2129055673
 30
0.0
 10
8.3344099797
 20
15.2154179822
 30
0.0
 10
8.3314948809
 20
15.2172669033
 30
0.0
 10
8.3293730747
 20
15.218551802
 30
0.0
 10
8.3279549556
 20
15.2193802433
 30
0.0
 10
8.3266524989
 20
15.2201083317
 30
0.0
 10
8.3254694781
 20
15.220733722
 30
0.0
 10
8.3244098202
 20
15.2212540098
 30
0.0
 10
8.323477199
 20
15.2216670614
 30
0.0
 10
8.3226749347
 20
15.2219711542
 30
0.0
 10
8.3220842526
 20
15.2221430422
 30
0.0
 10
8.3216784768
 20
15.2222183633
 30
0.0
 10
8.3214260068
 20
15.2222438538
 30
0.0
 10
8.3212059328
 20
15.2222421683
 30
0.0
 10
8.3210176578
 20
15.2222131076
 30
0.0
 10
8.3208606907
 20
15.2221558514
 30
0.0
 10
8.3207357679
 20
15.2220687982
 30
0.0
 10
8.3206456514
 20
15.2219517363
 30
0.0
 10
8.3205918921
 20
15.2218075095
 30
0.0
 10
8.3205729273
 20
15.2216385752
 30
0.0
 10
8.3205869401
 20
15.2214451576
 30
0.0
 10
8.3206331274
 20
15.2212267391
 30
0.0
 10
8.3207449359
 20
15.2208790933
 30
0.0
 10
8.3209748245
 20
15.2203811051
 30
0.0
 10
8.3213609675
 20
15.2197152144
 30
0.0
 10
8.3218744271
 20
15.2189476558
 30
0.0
 10
8.3225160191
 20
15.218078082
 30
0.0
 10
8.3232892146
 20
15.2171059419
 30
0.0
 10
8.3238583919
 20
15.2164315173
 30
0.0
 10
8.324164605
 20
15.2160763526
 30
0.0
  0
LINE
  5
51C
100
AcDbEntity
  8
0
100
AcDbLine
 62
9
  6
CONTINUOUS
 10
8.442856561
 20
15.1195054534
 11
8.4442746947
 21
15.1187437034
  0
SPLINE
  5
51D
100
AcDbEntity
  8
0
100
AcDbSpline
 62
9
  6
CONTINUOUS
 70
0
 71
3
 72
31
 73
27
 74
0
 42
0.0000001
 43
0.0000001
 44
0.0000000001
 40
0.0
 40
0.0
 40
0.0
 40
0.0
 40
0.0722733498
 40
0.1317657976
 40
0.1567272663
 40
0.178536473
 40
0.1972581664
 40
0.2130105155
 40
0.2260084547
 40
0.2366495658
 40
0.2456683066
 40
0.2542348899
 40
0.2636819545
 40
0.275029258
 40
0.2888753
 40
0.3055448629
 40
0.3252178484
 40
0.3479988708
 40
0.373951279
 40
0.4031137606
 40
0.4711102318
 40
0.5519755875
 40
0.6455485388
 40
0.7515925732
 40
0.8698370504
 40
1.0
 40
1.0
 40
1.0
 40
1.0
 10
8.4442746947
 20
15.1187437034
 30
0.0
 10
8.4447480815
 20
15.1184987695
 30
0.0
 10
8.4456188544
 20
15.1180668809
 30
0.0
 10
8.4466802773
 20
15.1176068572
 30
0.0
 10
8.4474180077
 20
15.1173416806
 30
0.0
 10
8.4478808571
 20
15.1172026348
 30
0.0
 10
8.4482862156
 20
15.117111282
 30
0.0
 10
8.4486343236
 20
15.1170675206
 30
0.0
 10
8.4489261054
 20
15.1170715221
 30
0.0
 10
8.4491635927
 20
15.1171247346
 30
0.0
 10
8.4493467244
 20
15.1172338345
 30
0.0
 10
8.4494643283
 20
15.1174021126
 30
0.0
 10
8.4495111998
 20
15.1176177392
 30
0.0
 10
8.4494957912
 20
15.1178746843
 30
0.0
 10
8.4494221127
 20
15.1181756262
 30
0.0
 10
8.4492905685
 20
15.118522257
 30
0.0
 10
8.449100957
 20
15.1189153284
 30
0.0
 10
8.448853004
 20
15.1193549628
 30
0.0
 10
8.4485465691
 20
15.1198410816
 30
0.0
 10
8.4480329186
 20
15.1205899434
 30
0.0
 10
8.4472387932
 20
15.1216362766
 30
0.0
 10
8.4460997736
 20
15.1230147848
 30
0.0
 10
8.4447335809
 20
15.1245682578
 30
0.0
 10
8.4431441618
 20
15.1262915018
 30
0.0
 10
8.4413357189
 20
15.1281791365
 30
0.0
 10
8.4400476188
 20
15.1294818637
 30
0.0
 10
8.4393682727
 20
15.13016005
 30
0.0
  0
SPLINE
  5
51E
100
AcDbEntity
  8
0
100
AcDbSpline
 62
9
  6
CONTINUOUS
 70
0
 71
3
 72
38
 73
34
 74
0
 42
0.0000001
 43
0.0000001
 44
0.0000000001
 40
0.0
 40
0.0
 40
0.0
 40
0.0
 40
0.1208704986
 40
0.2359384128
 40
0.3440260468
 40
0.4440897418
 40
0.535166741
 40
0.6164482514
 40
0.6531952653
 40
0.6872172032
 40
0.718415203
 40
0.746698404
 40
0.7719969988
 40
0.7942771543
 40
0.8135721576
 40
0.8299551571
 40
0.8435599258
 40
0.8546363239
 40
0.8593750587
 40
0.863694095
 40
0.8677202299
 40
0.8716091224
 40
0.8755326449
 40
0.879658096
 40
0.8841295094
 40
0.8890599919
 40
0.8945336441
 40
0.9006113588
 40
0.914734376
 40
0.9316627864
 40
0.9514988443
 40
0.9742804147
 40
1.0
 40
1.0
 40
1.0
 40
1.0
 10
7.6572389792
 20
15.9122893435
 30
0.0
 10
7.6553505641
 20
15.9141825441
 30
0.0
 10
7.6516359629
 20
15.917849831
 30
0.0
 10
7.6461372818
 20
15.9231123966
 30
0.0
 10
7.6408865415
 20
15.9279668496
 30
0.0
 10
7.6359399183
 20
15.9323667583
 30
0.0
 10
7.6313468928
 20
15.9362696808
 30
0.0
 10
7.627740849
 20
15.9391687145
 30
0.0
 10
7.6250632317
 20
15.9412050793
 30
0.0
 10
7.6232399223
 20
15.9425336301
 30
0.0
 10
7.6215388674
 20
15.9437110692
 30
0.0
 10
7.6199656589
 20
15.9447328529
 30
0.0
 10
7.6185254392
 20
15.9455953823
 30
0.0
 10
7.6172217111
 20
15.9462961542
 30
0.0
 10
7.6160573024
 20
15.946835185
 30
0.0
 10
7.6150328767
 20
15.947213435
 30
0.0
 10
7.6141489502
 20
15.9474318696
 30
0.0
 10
7.6134945341
 20
15.9474834282
 30
0.0
 10
7.6130508883
 20
15.9474293254
 30
0.0
 10
7.6127713315
 20
15.9473488682
 30
0.0
 10
7.6125282022
 20
15.9472258649
 30
0.0
 10
7.6123229041
 20
15.947059958
 30
0.0
 10
7.612156897
 20
15.9468520045
 30
0.0
 10
7.6120306275
 20
15.9466035943
 30
0.0
 10
7.6119434886
 20
15.9463159591
 30
0.0
 10
7.6118947096
 20
15.9459895557
 30
0.0
 10
7.6118837394
 20
15.9456244077
 30
0.0
 10
7.6119213604
 20
15.9450569722
 30
0.0
 10
7.6120745441
 20
15.9442472601
 30
0.0
 10
7.6123974339
 20
15.9431675853
 30
0.0
 10
7.6128684925
 20
15.9419363028
 30
0.0
 10
7.6134870457
 20
15.9405562115
 30
0.0
 10
7.6139680187
 20
15.9395967111
 30
0.0
 10
7.6142312734
 20
15.9390922815
 30
0.0
  0
SPLINE
  5
51F
100
AcDbEntity
  8
0
100
AcDbSpline
 62
9
  6
CONTINUOUS
 70
0
 71
3
 72
42
 73
38
 74
0
 42
0.0000001
 43
0.0000001
 44
0.0000000001
 40
0.0
 40
0.0
 40
0.0
 40
0.0
 40
0.0197417447
 40
0.0284032024
 40
0.0362623926
 40
0.0433262759
 40
0.0496077464
 40
0.0551312832
 40
0.0599369826
 40
0.0640878739
 40
0.0676839212
 40
0.0708789656
 40
0.0738902358
 40
0.076976034
 40
0.0803795901
 40
0.0842854762
 40
0.0888170931
 40
0.0940501031
 40
0.1000269391
 40
0.1067718901
 40
0.1142990367
 40
0.1226159484
 40
0.1317256131
 40
0.1523179338
 40
0.1760382971
 40
0.2027914624
 40
0.2324550598
 40
0.2648952479
 40
0.2999703912
 40
0.337523288
 40
0.4193126471
 40
0.5086287346
 40
0.6036385164
 40
0.702359075
 40
0.8027433639
 40
0.9026797006
 40
1.0
 40
1.0
 40
1.0
 40
1.0
 10
7.7163394311
 20
15.8282043525
 30
0.0
 10
7.7170044041
 20
15.8277815482
 30
0.0
 10
7.7179748072
 20
15.8271936615
 30
0.0
 10
7.7192498737
 20
15.8265080362
 30
0.0
 10
7.7200963573
 20
15.8260954119
 30
0.0
 10
7.720874605
 20
15.8257616483
 30
0.0
 10
7.7215840139
 20
15.8255069721
 30
0.0
 10
7.7222242171
 20
15.8253313405
 30
0.0
 10
7.7227953163
 20
15.8252346142
 30
0.0
 10
7.7232979997
 20
15.8252170971
 30
0.0
 10
7.7237332655
 20
15.8252802662
 30
0.0
 10
7.7241006481
 20
15.8254279805
 30
0.0
 10
7.7243943386
 20
15.8256639885
 30
0.0
 10
7.7246067558
 20
15.8259846492
 30
0.0
 10
7.7247377619
 20
15.8263823577
 30
0.0
 10
7.7247917213
 20
15.8268543158
 30
0.0
 10
7.7247709767
 20
15.8274011115
 30
0.0
 10
7.7246765878
 20
15.8280232988
 30
0.0
 10
7.7245092403
 20
15.8287208351
 30
0.0
 10
7.7242692532
 20
15.8294931118
 30
0.0
 10
7.7239568887
 20
15.8303392823
 30
0.0
 10
7.7235724414
 20
15.8312584127
 30
0.0
 10
7.7229375981
 20
15.8326370724
 30
0.0
 10
7.7219573705
 20
15.834532017
 30
0.0
 10
7.7205464891
 20
15.8369935722
 30
0.0
 10
7.7188637679
 20
15.8397145044
 30
0.0
 10
7.7169181352
 20
15.8426804092
 30
0.0
 10
7.7147190414
 20
15.8458760995
 30
0.0
 10
7.7122767165
 20
15.849285709
 30
0.0
 10
7.7086051813
 20
15.8542368258
 30
0.0
 10
7.7034963729
 20
15.8608160304
 30
0.0
 10
7.6967866174
 20
15.8690516943
 30
0.0
 10
7.6894729689
 20
15.8776639799
 30
0.0
 10
7.6817103515
 20
15.8864718608
 30
0.0
 10
7.6736623895
 20
15.8952879627
 30
0.0
 10
7.6654996973
 20
15.9039211199
 30
0.0
 10
7.6599873009
 20
15.9095440011
 30
0.0
 10
7.6572389792
 20
15.9122893435
 30
0.0
  0
SPLINE
  5
520
100
AcDbEntity
  8
0
100
AcDbSpline
 62
9
  6
CONTINUOUS
 70
0
 71
3
 72
30
 73
26
 74
0
 42
0.0000001
 43
0.0000001
 44
0.0000000001
 40
0.0
 40
0.0
 40
0.0
 40
0.0
 40
0.1008307472
 40
0.1861729108
 40
0.256415305
 40
0.2859960467
 40
0.3119200854
 40
0.3342211415
 40
0.3529543111
 40
0.368215598
 40
0.3801878705
 40
0.3960164333
 40
0.4027790627
 40
0.4111065757
 40
0.4220815346
 40
0.4361773162
 40
0.4536067858
 40
0.4744757906
 40
0.4988402181
 40
0.5267303921
 40
0.5931397236
 40
0.6737427436
 40
0.7684847111
 40
0.8772783665
 40
1.0
 40
1.0
 40
1.0
 40
1.0
 10
7.2002613501
 20
16.3692669726
 30
0.0
 10
7.2001202241
 20
16.3694094939
 30
0.0
 10
7.199857426
 20
16.3696704705
 30
0.0
 10
7.1994869262
 20
16.3700211014
 30
0.0
 10
7.1992112142
 20
16.3702655069
 30
0.0
 10
7.1990176834
 20
16.3704240464
 30
0.0
 10
7.1988948719
 20
16.3705182461
 30
0.0
 10
7.1987857225
 20
16.3705948113
 30
0.0
 10
7.1986907207
 20
16.3706537974
 30
0.0
 10
7.1986083562
 20
16.3706954239
 30
0.0
 10
7.1985297602
 20
16.3707243134
 30
0.0
 10
7.1984506344
 20
16.3707292875
 30
0.0
 10
7.1984088759
 20
16.3706790387
 30
0.0
 10
7.198398297
 20
16.370627214
 30
0.0
 10
7.1984007846
 20
16.3705605634
 30
0.0
 10
7.1984165476
 20
16.3704772719
 30
0.0
 10
7.1984453774
 20
16.370377034
 30
0.0
 10
7.1984874967
 20
16.3702596467
 30
0.0
 10
7.1985429136
 20
16.3701251216
 30
0.0
 10
7.1986404422
 20
16.3699101265
 30
0.0
 10
7.1987974269
 20
16.3695994965
 30
0.0
 10
7.1990288207
 20
16.3691778763
 30
0.0
 10
7.1993128285
 20
16.3686891548
 30
0.0
 10
7.1996490719
 20
16.3681340365
 30
0.0
 10
7.1998932188
 20
16.3677435353
 30
0.0
 10
7.2000237294
 20
16.3675372351
 30
0.0
  0
SPLINE
  5
521
100
AcDbEntity
  8
0
100
AcDbSpline
 62
9
  6
CONTINUOUS
 70
0
 71
3
 72
17
 73
13
 74
0
 42
0.0000001
 43
0.0000001
 44
0.0000000001
 40
0.0
 40
0.0
 40
0.0
 40
0.0
 40
0.1614191206
 40
0.3200136987
 40
0.4717181582
 40
0.6125954022
 40
0.7389472343
 40
0.8474460992
 40
0.8941075238
 40
0.9352810974
 40
0.9706697636
 40
1.0
 40
1.0
 40
1.0
 40
1.0
 10
7.2538647096
 20
16.3035552154
 30
0.0
 10
7.2511349723
 20
16.3070657395
 30
0.0
 10
7.245707057
 20
16.3140127754
 30
0.0
 10
7.2376583376
 20
16.3242156638
 30
0.0
 10
7.2299114556
 20
16.3339356775
 30
0.0
 10
7.2226675908
 20
16.3429205294
 30
0.0
 10
7.2161166127
 20
16.3509347753
 30
0.0
 10
7.2111570242
 20
16.3568972406
 30
0.0
 10
7.2076580239
 20
16.3610218713
 30
0.0
 10
7.2054415261
 20
16.3635931367
 30
0.0
 10
7.2035140049
 20
16.3657829313
 30
0.0
 10
7.2023168345
 20
16.3671043349
 30
0.0
 10
7.2017670415
 20
16.3676964686
 30
0.0
  0
LINE
  5
522
100
AcDbEntity
  8
0
100
AcDbLine
 62
9
  6
CONTINUOUS
 10
7.2017670415
 20
16.3676964686
 11
7.2002613501
 21
16.3692669726
  0
SPLINE
  5
523
100
AcDbEntity
  8
0
100
AcDbSpline
 62
7
  6
CONTINUOUS
 70
0
 71
3
 72
40
 73
36
 74
0
 42
0.0000001
 43
0.0000001
 44
0.0000000001
 40
0.0
 40
0.0
 40
0.0
 40
0.0
 40
0.096239905
 40
0.191704015
 40
0.2855326817
 40
0.3768742915
 40
0.4648840665
 40
0.5487297119
 40
0.6275970184
 40
0.7006979196
 40
0.7672780396
 40
0.7978988374
 40
0.8266275929
 40
0.8533841081
 40
0.8780935252
 40
0.9006846741
 40
0.9210919786
 40
0.939254098
 40
0.9551198249
 40
0.9621770653
 40
0.9686425781
 40
0.9745101518
 40
0.9797735806
 40
0.9844273522
 40
0.988471812
 40
0.9919103118
 40
0.994746287
 40
0.9959393015
 40
0.9969815006
 40
0.9978713075
 40
0.9986072056
 40
0.9991878178
 40
0.9996121171
 40
0.9998802606
 40
1.0
 40
1.0
 40
1.0
 40
1.0
 10
9.2464333261
 20
14.4275107638
 30
0.0
 10
9.2480122882
 20
14.4290909094
 30
0.0
 10
9.25116372
 20
14.4322322388
 30
0.0
 10
9.2558758639
 20
14.4368926834
 30
0.0
 10
9.2605250105
 20
14.4414550717
 30
0.0
 10
9.2650677379
 20
14.4458788056
 30
0.0
 10
9.2694605825
 20
14.4501242569
 30
0.0
 10
9.2736602303
 20
14.4541529107
 30
0.0
 10
9.2776239101
 20
14.4579276113
 30
0.0
 10
9.281309831
 20
14.4614128204
 30
0.0
 10
9.2841915733
 20
14.4641185344
 30
0.0
 10
9.2863279088
 20
14.4661134663
 30
0.0
 10
9.2877911012
 20
14.4674749045
 30
0.0
 10
9.2891561637
 20
14.4687403772
 30
0.0
 10
9.2904189774
 20
14.4699065943
 30
0.0
 10
9.2915756701
 20
14.4709704995
 30
0.0
 10
9.2926226157
 20
14.4719292336
 30
0.0
 10
9.2935565343
 20
14.4727802451
 30
0.0
 10
9.2942632556
 20
14.4734205207
 30
0.0
 10
9.2947700511
 20
14.4738771051
 30
0.0
 10
9.2951050563
 20
14.4741776616
 30
0.0
 10
9.2954097346
 20
14.474449671
 30
0.0
 10
9.295683758
 20
14.4746928718
 30
0.0
 10
9.2959269138
 20
14.4749070993
 30
0.0
 10
9.2961391381
 20
14.4750923563
 30
0.0
 10
9.2963205138
 20
14.4752487827
 30
0.0
 10
9.2964526863
 20
14.4753609244
 30
0.0
 10
9.296543168
 20
14.4754362018
 30
0.0
 10
9.2965993138
 20
14.4754821529
 30
0.0
 10
9.2966476223
 20
14.4755208198
 30
0.0
 10
9.2966881903
 20
14.4755523018
 30
0.0
 10
9.2967204185
 20
14.4755760851
 30
0.0
 10
9.2967454672
 20
14.4755932995
 30
0.0
 10
9.296760624
 20
14.4756016757
 30
0.0
 10
9.2967706675
 20
14.475606072
 30
0.0
 10
9.2967729917
 20
14.4756045481
 30
0.0
  0
SPLINE
  5
524
100
AcDbEntity
  8
0
100
AcDbSpline
 62
9
  6
CONTINUOUS
 70
0
 71
3
 72
42
 73
38
 74
0
 42
0.0000001
 43
0.0000001
 44
0.0000000001
 40
0.0
 40
0.0
 40
0.0
 40
0.0
 40
0.1136344523
 40
0.2243840622
 40
0.3306085773
 40
0.4308009731
 40
0.5235918495
 40
0.6077501887
 40
0.6461884727
 40
0.6819819371
 40
0.7149871372
 40
0.7451122502
 40
0.7723008768
 40
0.7965081604
 40
0.8177030748
 40
0.8358792197
 40
0.8438497374
 40
0.8510894099
 40
0.8576176916
 40
0.8634638899
 40
0.8686711491
 40
0.8733031398
 40
0.8774530353
 40
0.8812525951
 40
0.8848751466
 40
0.8885214332
 40
0.8923885219
 40
0.8966425679
 40
0.9014076247
 40
0.9067700567
 40
0.9127887637
 40
0.9195035588
 40
0.9269413
 40
0.9351202188
 40
0.9537342699
 40
0.9753701715
 40
1.0
 40
1.0
 40
1.0
 40
1.0
 10
7.8238591376
 20
15.745669185
 30
0.0
 10
7.8215022108
 20
15.7480317387
 30
0.0
 10
7.8168077977
 20
15.7526567424
 30
0.0
 10
7.8097795949
 20
15.7593561044
 30
0.0
 10
7.8029260068
 20
15.7656645549
 30
0.0
 10
7.7963497402
 20
15.7714933816
 30
0.0
 10
7.7901448697
 20
15.7767615215
 30
0.0
 10
7.7852228794
 20
15.7807360679
 30
0.0
 10
7.7815338063
 20
15.7835697227
 30
0.0
 10
7.779001193
 20
15.7854419613
 30
0.0
 10
7.7766281281
 20
15.7871182806
 30
0.0
 10
7.7744231568
 20
15.7885932174
 30
0.0
 10
7.7723933856
 20
15.7898635382
 30
0.0
 10
7.7705448102
 20
15.7909266639
 30
0.0
 10
7.7688832539
 20
15.7917800888
 30
0.0
 10
7.7676079974
 20
15.7923376741
 30
0.0
 10
7.7666845777
 20
15.7926683687
 30
0.0
 10
7.7660725765
 20
15.7928513591
 30
0.0
 10
7.7655106952
 20
15.7929804156
 30
0.0
 10
7.7649991475
 20
15.7930554248
 30
0.0
 10
7.7645379994
 20
15.7930761837
 30
0.0
 10
7.7641271791
 20
15.7930421675
 30
0.0
 10
7.7637667332
 20
15.7929522772
 30
0.0
 10
7.7634575691
 20
15.7928047288
 30
0.0
 10
7.7632024069
 20
15.7925981708
 30
0.0
 10
7.7630042718
 20
15.7923340301
 30
0.0
 10
7.7628639425
 20
15.7920154083
 30
0.0
 10
7.7627801687
 20
15.7916444456
 30
0.0
 10
7.7627513247
 20
15.7912217826
 30
0.0
 10
7.7627764452
 20
15.790747372
 30
0.0
 10
7.7628551392
 20
15.7902211527
 30
0.0
 10
7.7629872592
 20
15.7896432223
 30
0.0
 10
7.7631727031
 20
15.7890138073
 30
0.0
 10
7.7635057955
 20
15.7880649509
 30
0.0
 10
7.7640641732
 20
15.7867553536
 30
0.0
 10
7.7649148382
 20
15.7850496462
 30
0.0
 10
7.7655761586
 20
15.7838622119
 30
0.0
 10
7.7659386737
 20
15.7832362921
 30
0.0
  0
LINE
  5
525
100
AcDbEntity
  8
0
100
AcDbLine
 62
9
  6
CONTINUOUS
 10
7.8692396484
 20
15.6777270807
 11
7.8716587623
 21
15.6763292567
  0
SPLINE
  5
526
100
AcDbEntity
  8
0
100
AcDbSpline
 62
9
  6
CONTINUOUS
 70
0
 71
3
 72
40
 73
36
 74
0
 42
0.0000001
 43
0.0000001
 44
0.0000000001
 40
0.0
 40
0.0
 40
0.0
 40
0.0
 40
0.0195685555
 40
0.0362050129
 40
0.0434383347
 40
0.0499621772
 40
0.0557974338
 40
0.0609777995
 40
0.0655552775
 40
0.0696106156
 40
0.0732645138
 40
0.0766797408
 40
0.0800523473
 40
0.0835844465
 40
0.0874525034
 40
0.0917915136
 40
0.0966970496
 40
0.1022348548
 40
0.1084492606
 40
0.115367339
 40
0.131370834
 40
0.1503105413
 40
0.1721825465
 40
0.1969549992
 40
0.2245758753
 40
0.2549736871
 40
0.2880487405
 40
0.3236840579
 40
0.4021063922
 40
0.4890546246
 40
0.5831598773
 40
0.6829163785
 40
0.786766994
 40
0.8930431026
 40
1.0
 40
1.0
 40
1.0
 40
1.0
 10
7.8716587623
 20
15.6763292567
 30
0.0
 10
7.8722255113
 20
15.6760235341
 30
0.0
 10
7.8732875278
 20
15.6754821902
 30
0.0
 10
7.8746030071
 20
15.6749182975
 30
0.0
 10
7.8755496009
 20
15.6745939013
 30
0.0
 10
7.87617129
 20
15.6744213257
 30
0.0
 10
7.8767378913
 20
15.6743080195
 30
0.0
 10
7.8772491241
 20
15.6742542827
 30
0.0
 10
7.8777049949
 20
15.6742606438
 30
0.0
 10
7.8781056442
 20
15.6743282443
 30
0.0
 10
7.8784507559
 20
15.6744584941
 30
0.0
 10
7.8787382907
 20
15.6746529791
 30
0.0
 10
7.8789646848
 20
15.6749110089
 30
0.0
 10
7.8791280779
 20
15.675229111
 30
0.0
 10
7.8792296442
 20
15.675604181
 30
0.0
 10
7.8792712723
 20
15.6760352481
 30
0.0
 10
7.8792540605
 20
15.6765224733
 30
0.0
 10
7.8791783545
 20
15.6770661436
 30
0.0
 10
7.8790442473
 20
15.6776662716
 30
0.0
 10
7.8787742893
 20
15.678586825
 30
0.0
 10
7.8782789993
 20
15.679874483
 30
0.0
 10
7.8774847784
 20
15.6815680788
 30
0.0
 10
7.8764658929
 20
15.6834715648
 30
0.0
 10
7.8752254528
 20
15.685577822
 30
0.0
 10
7.8737668426
 20
15.6878793844
 30
0.0
 10
7.8720946158
 20
15.690367628
 30
0.0
 10
7.8702149282
 20
15.6930331424
 30
0.0
 10
7.8673486648
 20
15.6969356301
 30
0.0
 10
7.8632965888
 20
15.7021651623
 30
0.0
 10
7.8578910971
 20
15.7087759145
 30
0.0
 10
7.8518848049
 20
15.7157992686
 30
0.0
 10
7.8453756549
 20
15.7231219186
 30
0.0
 10
7.8384670774
 20
15.7306232274
 30
0.0
 10
7.8312708385
 20
15.7381796594
 30
0.0
 10
7.8263491939
 20
15.7431816793
 30
0.0
 10
7.8238591376
 20
15.745669185
 30
0.0
  0
LINE
  5
527
100
AcDbEntity
  8
0
100
AcDbLine
 62
9
  6
CONTINUOUS
 10
9.37171811
 20
14.3094021951
 11
9.4273381945
 21
14.3476515474
  0
LINE
  5
528
100
AcDbEntity
  8
0
100
AcDbLine
 62
9
  6
CONTINUOUS
 10
9.0026514858
 20
14.7257157687
 11
9.0044057325
 21
14.7243445571
  0
SPLINE
  5
529
100
AcDbEntity
  8
0
100
AcDbSpline
 62
9
  6
CONTINUOUS
 70
0
 71
3
 72
41
 73
37
 74
0
 42
0.0000001
 43
0.0000001
 44
0.0000000001
 40
0.0
 40
0.0
 40
0.0
 40
0.0
 40
0.0982574924
 40
0.1955042138
 40
0.2908087574
 40
0.3832656166
 40
0.471991983
 40
0.5561425287
 40
0.6349148435
 40
0.7075580363
 40
0.7733795763
 40
0.8035336469
 40
0.8317520018
 40
0.8579681361
 40
0.8821188746
 40
0.9041471507
 40
0.9240001138
 40
0.9416305763
 40
0.9569966087
 40
0.9638185685
 40
0.9700613191
 40
0.9757210903
 40
0.9807941539
 40
0.9852775357
 40
0.9891689569
 40
0.9924661819
 40
0.9951670129
 40
0.996293219
 40
0.9972698294
 40
0.9980967981
 40
0.9987741121
 40
0.999301829
 40
0.9996801879
 40
0.9999100829
 40
0.9999707554
 40
1.0
 40
1.0
 40
1.0
 40
1.0
 10
9.2886429909
 20
14.2028875326
 30
0.0
 10
9.287887508
 20
14.2008481821
 30
0.0
 10
9.2863850322
 20
14.1967901934
 30
0.0
 10
9.2841522905
 20
14.1907532134
 30
0.0
 10
9.2819662694
 20
14.1848358426
 30
0.0
 10
9.2798478277
 20
14.1790945497
 30
0.0
 10
9.2778171423
 20
14.1735840245
 30
0.0
 10
9.2758935767
 20
14.1683568243
 30
0.0
 10
9.2740954595
 20
14.1634627767
 30
0.0
 10
9.2724399278
 20
14.1589485442
 30
0.0
 10
9.2711573773
 20
14.1554437047
 30
0.0
 10
9.2702144834
 20
14.152861621
 30
0.0
 10
9.2695731639
 20
14.1511026394
 30
0.0
 10
9.2689783017
 20
14.1494681513
 30
0.0
 10
9.26843131
 20
14.1479620415
 30
0.0
 10
9.2679334936
 20
14.146587913
 30
0.0
 10
9.2674860328
 20
14.145349038
 30
0.0
 10
9.2670899917
 20
14.1442483746
 30
0.0
 10
9.2667928778
 20
14.1434186416
 30
0.0
 10
9.2665817006
 20
14.1428258602
 30
0.0
 10
9.2664431086
 20
14.1424352805
 30
0.0
 10
9.2663179931
 20
14.1420809933
 30
0.0
 10
9.2662064302
 20
14.1417632186
 30
0.0
 10
9.2661084838
 20
14.1414821461
 30
0.0
 10
9.2660242015
 20
14.1412379369
 30
0.0
 10
9.2659536299
 20
14.1410307348
 30
0.0
 10
9.265903634
 20
14.1408811848
 30
0.0
 10
9.2658706409
 20
14.140780109
 30
0.0
 10
9.2658508867
 20
14.1407183488
 30
0.0
 10
9.265834579
 20
14.1406659003
 30
0.0
 10
9.2658217075
 20
14.1406228439
 30
0.0
 10
9.2658122644
 20
14.1405889904
 30
0.0
 10
9.2658061792
 20
14.1405648188
 30
0.0
 10
9.2658034469
 20
14.1405498531
 30
0.0
 10
9.2658030484
 20
14.1405431578
 30
0.0
 10
9.265803721
 20
14.1405408387
 30
0.0
 10
9.265804328
 20
14.1405406139
 30
0.0
  0
SPLINE
  5
52A
100
AcDbEntity
  8
0
100
AcDbSpline
 62
7
  6
CONTINUOUS
 70
0
 71
3
 72
27
 73
23
 74
0
 42
0.0000001
 43
0.0000001
 44
0.0000000001
 40
0.0
 40
0.0
 40
0.0
 40
0.0
 40
0.0103262735
 40
0.0208904947
 40
0.0320560777
 40
0.0441308373
 40
0.057357711
 40
0.071917557
 40
0.0879416152
 40
0.1055242019
 40
0.1247291552
 40
0.1455997249
 40
0.1924240938
 40
0.2460831336
 40
0.306510597
 40
0.3735421629
 40
0.446935441
 40
0.5263810609
 40
0.6115150614
 40
0.7019232338
 40
0.7971424417
 40
1.0
 40
1.0
 40
1.0
 40
1.0
 10
7.5349836852
 20
16.2050079232
 30
0.0
 10
7.5350961797
 20
16.2051204183
 30
0.0
 10
7.5353471124
 20
16.2053259627
 30
0.0
 10
7.5357859555
 20
16.20555874
 30
0.0
 10
7.5362850961
 20
16.2057161341
 30
0.0
 10
7.5368427794
 20
16.2057988633
 30
0.0
 10
7.5374583269
 20
16.2058077539
 30
0.0
 10
7.5381313347
 20
16.2057434209
 30
0.0
 10
7.5388614552
 20
16.2056061614
 30
0.0
 10
7.5396481543
 20
16.2053960523
 30
0.0
 10
7.5404907934
 20
16.2051133358
 30
0.0
 10
7.541736123
 20
16.2046204167
 30
0.0
 10
7.5434243672
 20
16.2038119468
 30
0.0
 10
7.5455850421
 20
16.202593963
 30
0.0
 10
7.5479416345
 20
16.2010977302
 30
0.0
 10
7.5504822278
 20
16.1993298389
 30
0.0
 10
7.5531936732
 20
16.1972983987
 30
0.0
 10
7.5560615201
 20
16.1950134867
 30
0.0
 10
7.5590701668
 20
16.1924868514
 30
0.0
 10
7.5622029962
 20
16.1897319527
 30
0.0
 10
7.5666160584
 20
16.1856883181
 30
0.0
 10
7.569913631
 20
16.1824903922
 30
0.0
 10
7.5721235692
 20
16.1802804539
 30
0.0
  0
SPLINE
  5
52B
100
AcDbEntity
  8
0
100
AcDbSpline
 62
7
  6
CONTINUOUS
 70
0
 71
3
 72
15
 73
11
 74
0
 42
0.0000001
 43
0.0000001
 44
0.0000000001
 40
0.0
 40
0.0
 40
0.0
 40
0.0
 40
0.0339275073
 40
0.0723054873
 40
0.1619858937
 40
0.2680646742
 40
0.3893921736
 40
0.5246843338
 40
0.6725493592
 40
1.0
 40
1.0
 40
1.0
 40
1.0
 10
9.0284227345
 20
14.746958292
 30
0.0
 10
9.0288828109
 20
14.7467652746
 30
0.0
 10
9.0298574762
 20
14.7463399696
 30
0.0
 10
9.0320209372
 20
14.7453427882
 30
0.0
 10
9.0351113312
 20
14.7438235882
 30
0.0
 10
9.0392514375
 20
14.741677765
 30
0.0
 10
9.0439471082
 20
14.739147724
 30
0.0
 10
9.0491479846
 20
14.7362609643
 30
0.0
 10
9.0569538642
 20
14.73182258
 30
0.0
 10
9.0629838275
 20
14.7282867238
 30
0.0
 10
9.0671222336
 20
14.7258247498
 30
0.0
  0
SPLINE
  5
52C
100
AcDbEntity
  8
0
100
AcDbSpline
 62
7
  6
CONTINUOUS
 70
0
 71
3
 72
28
 73
24
 74
0
 42
0.0000001
 43
0.0000001
 44
0.0000000001
 40
0.0
 40
0.0
 40
0.0
 40
0.0
 40
0.008937478
 40
0.0185023213
 40
0.0291560046
 40
0.0412268463
 40
0.0549289423
 40
0.070396217
 40
0.0877057722
 40
0.106898082
 40
0.1279852319
 40
0.1509609732
 40
0.175802289
 40
0.2024752111
 40
0.2611200595
 40
0.3264354511
 40
0.3978352612
 40
0.474629343
 40
0.5560356893
 40
0.6411927314
 40
0.7291699534
 40
0.8189836679
 40
1.0
 40
1.0
 40
1.0
 40
1.0
 10
8.0377387924
 20
15.6919455599
 30
0.0
 10
8.0379156995
 20
15.6921224641
 30
0.0
 10
8.0383339982
 20
15.6924396133
 30
0.0
 10
8.0390924398
 20
15.6927586978
 30
0.0
 10
8.039984228
 20
15.6929339076
 30
0.0
 10
8.0410065566
 20
15.6929689723
 30
0.0
 10
8.0421586548
 20
15.6928663912
 30
0.0
 10
8.0434390651
 20
15.692626883
 30
0.0
 10
8.0448456096
 20
15.6922511512
 30
0.0
 10
8.046375276
 20
15.6917397517
 30
0.0
 10
8.0480245734
 20
15.6910937469
 30
0.0
 10
8.0497894299
 20
15.690314361
 30
0.0
 10
8.0516655077
 20
15.6894033833
 30
0.0
 10
8.0543961278
 20
15.6879698465
 30
0.0
 10
8.0580454715
 20
15.685853701
 30
0.0
 10
8.0626551427
 20
15.6829091308
 30
0.0
 10
8.0675744698
 20
15.6795129487
 30
0.0
 10
8.0727496229
 20
15.6757002787
 30
0.0
 10
8.0781228482
 20
15.6715116358
 30
0.0
 10
8.0836329059
 20
15.6669930613
 30
0.0
 10
8.0892160392
 20
15.6621955074
 30
0.0
 10
8.0966885694
 20
15.6554834429
 30
0.0
 10
8.1021662223
 20
15.6502378009
 30
0.0
 10
8.1057492036
 20
15.6466548196
 30
0.0
  0
LINE
  5
52D
100
AcDbEntity
  8
0
100
AcDbLine
 62
9
  6
CONTINUOUS
 10
10.7826473909
 20
18.0519943142
 11
10.7824601331
 21
18.051899298
  0
LINE
  5
52E
100
AcDbEntity
  8
0
100
AcDbLine
 62
9
  6
CONTINUOUS
 10
10.7824601331
 20
18.051899298
 11
10.7823604731
 21
18.0518875334
  0
SPLINE
  5
52F
100
AcDbEntity
  8
0
100
AcDbSpline
 62
7
  6
CONTINUOUS
 70
0
 71
3
 72
42
 73
38
 74
0
 42
0.0000001
 43
0.0000001
 44
0.0000000001
 40
0.0
 40
0.0
 40
0.0
 40
0.0
 40
0.0001757967
 40
0.00039619
 40
0.0009753783
 40
0.0017429179
 40
0.0027005501
 40
0.0038489085
 40
0.0051881708
 40
0.0067182246
 40
0.0084386767
 40
0.0124487216
 40
0.0172133207
 40
0.0227259719
 40
0.0289790663
 40
0.0359639218
 40
0.0436707893
 40
0.0520890654
 40
0.0612070646
 40
0.0814915025
 40
0.1044136137
 40
0.1298496214
 40
0.1576633237
 40
0.1877068529
 40
0.2198216318
 40
0.2538392937
 40
0.2895825592
 40
0.3268663096
 40
0.3654985808
 40
0.4460125555
 40
0.5294910196
 40
0.6142580312
 40
0.6986292351
 40
0.7809452093
 40
0.8596034215
 40
0.9330885062
 40
1.0
 40
1.0
 40
1.0
 40
1.0
 10
10.7821767961
 20
18.0518760693
 30
0.0
 10
10.7821392998
 20
18.0518860963
 30
0.0
 10
10.7820567266
 20
18.0519157634
 30
0.0
 10
10.7818613707
 20
18.0520066802
 30
0.0
 10
10.7815623192
 20
18.0521818956
 30
0.0
 10
10.7811390549
 20
18.0524642828
 30
0.0
 10
10.7806251085
 20
18.0528365291
 30
0.0
 10
10.7800206738
 20
18.0532984147
 30
0.0
 10
10.7793260273
 20
18.0538501496
 30
0.0
 10
10.7785414408
 20
18.0544915409
 30
0.0
 10
10.7773116041
 20
18.0555198076
 30
0.0
 10
10.7755542456
 20
18.0570302749
 30
0.0
 10
10.7731860073
 20
18.0591141065
 30
0.0
 10
10.770466721
 20
18.0615484609
 30
0.0
 10
10.7674001689
 20
18.064329699
 30
0.0
 10
10.7639906217
 20
18.0674537832
 30
0.0
 10
10.7602427313
 20
18.0709161596
 30
0.0
 10
10.7561615855
 20
18.0747118115
 30
0.0
 10
10.7500629211
 20
18.0804157584
 30
0.0
 10
10.74165407
 20
18.0883375954
 30
0.0
 10
10.7306582711
 20
18.0987674063
 30
0.0
 10
10.7184867015
 20
18.110373133
 30
0.0
 10
10.705203198
 20
18.1230911024
 30
0.0
 10
10.6908770266
 20
18.1368522568
 30
0.0
 10
10.6755824134
 20
18.1515824786
 30
0.0
 10
10.6593981547
 20
18.1672030567
 30
0.0
 10
10.6424071717
 20
18.1836311308
 30
0.0
 10
10.6246960504
 20
18.2007801472
 30
0.0
 10
10.5998976259
 20
18.224819772
 30
0.0
 10
10.567798283
 20
18.2559813353
 30
0.0
 10
10.5284119027
 20
18.2942600902
 30
0.0
 10
10.4884249188
 20
18.3331427949
 30
0.0
 10
10.4486212678
 20
18.3718458713
 30
0.0
 10
10.4097734469
 20
18.4095972255
 30
0.0
 10
10.3726276164
 20
18.4456511819
 30
0.0
 10
10.3378895593
 20
18.4793025065
 30
0.0
 10
10.3155938188
 20
18.5008378435
 30
0.0
 10
10.3049560993
 20
18.5110890965
 30
0.0
  0
SPLINE
  5
530
100
AcDbEntity
  8
0
100
AcDbSpline
 62
7
  6
CONTINUOUS
 70
0
 71
3
 72
66
 73
62
 74
0
 42
0.0000001
 43
0.0000001
 44
0.0000000001
 40
0.0
 40
0.0
 40
0.0
 40
0.0
 40
0.0001804762
 40
0.0003869817
 40
0.0006375396
 40
0.0009424362
 40
0.001307373
 40
0.0017356441
 40
0.0022292544
 40
0.0027894557
 40
0.0041125005
 40
0.005708851
 40
0.0075802059
 40
0.0097269979
 40
0.0121490758
 40
0.014845809
 40
0.0178161105
 40
0.0210587304
 40
0.0283544172
 40
0.036718042
 40
0.0461316495
 40
0.0565746265
 40
0.06802383
 40
0.0804536049
 40
0.0938360289
 40
0.1081410086
 40
0.1393872999
 40
0.1739100655
 40
0.2113968524
 40
0.2515081802
 40
0.2938806765
 40
0.3381304383
 40
0.3838566086
 40
0.4306449166
 40
0.4780716053
 40
0.5257071623
 40
0.5731202767
 40
0.6198818022
 40
0.6655685349
 40
0.7097672056
 40
0.7520781078
 40
0.7921188095
 40
0.8295276114
 40
0.8639668835
 40
0.8951261189
 40
0.9093869034
 40
0.9227250703
 40
0.935110678
 40
0.9465162533
 40
0.9569161442
 40
0.9662874577
 40
0.9746116955
 40
0.9818651222
 40
0.9850856952
 40
0.9880395396
 40
0.9907295207
 40
0.9931436188
 40
0.9952604025
 40
0.9970681205
 40
0.9986202896
 40
1.0
 40
1.0
 40
1.0
 40
1.0
 10
10.2152325535
 20
18.5685408699
 30
0.0
 10
10.2152651254
 20
18.5685734444
 30
0.0
 10
10.2153506655
 20
18.5686284903
 30
0.0
 10
10.2155117956
 20
18.5686637309
 30
0.0
 10
10.215707385
 20
18.5686596449
 30
0.0
 10
10.2159391966
 20
18.5686177575
 30
0.0
 10
10.2162083793
 20
18.5685383216
 30
0.0
 10
10.2165154718
 20
18.568421142
 30
0.0
 10
10.2168607032
 20
18.5682660956
 30
0.0
 10
10.2174026724
 20
18.5679931302
 30
0.0
 10
10.2181736657
 20
18.5675511276
 30
0.0
 10
10.2192065954
 20
18.566896261
 30
0.0
 10
10.2203917538
 20
18.5660902536
 30
0.0
 10
10.221728604
 20
18.5651335084
 30
0.0
 10
10.2232164556
 20
18.5640263584
 30
0.0
 10
10.2248545374
 20
18.5627694199
 30
0.0
 10
10.226642026
 20
18.5613634437
 30
0.0
 10
10.2293307418
 20
18.5592048032
 30
0.0
 10
10.2330538176
 20
18.5561360438
 30
0.0
 10
10.2379429712
 20
18.5520064361
 30
0.0
 10
10.2434025103
 20
18.5473076848
 30
0.0
 10
10.2494208021
 20
18.5420511877
 30
0.0
 10
10.2559849101
 20
18.5362495613
 30
0.0
 10
10.263080709
 20
18.5299167665
 30
0.0
 10
10.2706929005
 20
18.523068006
 30
0.0
 10
10.2818413049
 20
18.512969043
 30
0.0
 10
10.296928331
 20
18.4991808884
 30
0.0
 10
10.3163084908
 20
18.4813197883
 30
0.0
 10
10.3372906838
 20
18.4618583491
 30
0.0
 10
10.3596911843
 20
18.4409799056
 30
0.0
 10
10.3833134257
 20
18.4188805906
 30
0.0
 10
10.4079498842
 20
18.3957676602
 30
0.0
 10
10.4333839052
 20
18.3718575538
 30
0.0
 10
10.4593916838
 20
18.3473739086
 30
0.0
 10
10.4857442669
 20
18.322545533
 30
0.0
 10
10.5122096413
 20
18.2976043124
 30
0.0
 10
10.538554825
 20
18.2727831043
 30
0.0
 10
10.5645479697
 20
18.2483136276
 30
0.0
 10
10.5899604698
 20
18.2244243445
 30
0.0
 10
10.614569009
 20
18.2013384047
 30
0.0
 10
10.6381575844
 20
18.1792715911
 30
0.0
 10
10.6605194508
 20
18.1584303889
 30
0.0
 10
10.6814589381
 20
18.1390100242
 30
0.0
 10
10.7007933116
 20
18.1211928495
 30
0.0
 10
10.7158407357
 20
18.1074426109
 30
0.0
 10
10.7269567362
 20
18.0973746027
 30
0.0
 10
10.7345443937
 20
18.0905491832
 30
0.0
 10
10.7416157112
 20
18.0842395774
 30
0.0
 10
10.7481555611
 20
18.0784609478
 30
0.0
 10
10.7541499126
 20
18.0732271002
 30
0.0
 10
10.7595859021
 20
18.0685498003
 30
0.0
 10
10.7644526241
 20
18.0644426586
 30
0.0
 10
10.7681558279
 20
18.0613914208
 30
0.0
 10
10.7708281703
 20
18.0592453167
 30
0.0
 10
10.7726073632
 20
18.0578474535
 30
0.0
 10
10.774242457
 20
18.0565996878
 30
0.0
 10
10.7757243185
 20
18.0555036372
 30
0.0
 10
10.7770398608
 20
18.0545618145
 30
0.0
 10
10.7781881974
 20
18.0537644873
 30
0.0
 10
10.7792054954
 20
18.0531091059
 30
0.0
 10
10.7798612935
 20
18.0527464618
 30
0.0
 10
10.7801777001
 20
18.052591849
 30
0.0
  0
LINE
  5
531
100
AcDbEntity
  8
0
100
AcDbLine
 62
7
  6
CONTINUOUS
 10
10.7801777001
 20
18.052591849
 11
10.7816699974
 21
18.0520115047
  0
SPLINE
  5
532
100
AcDbEntity
  8
0
100
AcDbSpline
 62
7
  6
CONTINUOUS
 70
0
 71
3
 72
63
 73
59
 74
0
 42
0.0000001
 43
0.0000001
 44
0.0000000001
 40
0.0
 40
0.0
 40
0.0
 40
0.0
 40
0.0001807999
 40
0.0003873028
 40
0.0006373896
 40
0.0009413294
 40
0.0013048435
 40
0.0017312404
 40
0.0022225109
 40
0.0027799175
 40
0.0040960781
 40
0.0056839014
 40
0.007545033
 40
0.0096799725
 40
0.0120886322
 40
0.01477032
 40
0.0177240289
 40
0.0209485487
 40
0.0282034727
 40
0.036520535
 40
0.0458820218
 40
0.0562675313
 40
0.0676542143
 40
0.0800167888
 40
0.1075569156
 40
0.1386413868
 40
0.1729910087
 40
0.2102968561
 40
0.2502232506
 40
0.2924107086
 40
0.3364794583
 40
0.3820327075
 40
0.4286603426
 40
0.4759426775
 40
0.5234541083
 40
0.5707671543
 40
0.6174561154
 40
0.6631010929
 40
0.7072916272
 40
0.749630556
 40
0.7897374406
 40
0.8272521854
 40
0.8618381896
 40
0.8931854637
 40
0.9210136688
 40
0.9335292258
 40
0.9450746501
 40
0.9556244402
 40
0.965155395
 40
0.9736468705
 40
0.981080901
 40
0.9874423535
 40
0.9902170882
 40
0.9927196139
 40
0.9949492004
 40
0.9969054346
 40
0.9985886315
 40
1.0
 40
1.0
 40
1.0
 40
1.0
 10
10.1659894941
 20
18.5167651688
 30
0.0
 10
10.1660219558
 20
18.5167976257
 30
0.0
 10
10.1661069794
 20
18.5168525575
 30
0.0
 10
10.1662670666
 20
18.5168882355
 30
0.0
 10
10.1664612781
 20
18.5168849757
 30
0.0
 10
10.1666913103
 20
18.5168443049
 30
0.0
 10
10.1669582988
 20
18.5167664807
 30
0.0
 10
10.1672627728
 20
18.5166513204
 30
0.0
 10
10.1676049616
 20
18.5164987198
 30
0.0
 10
10.1681419813
 20
18.5162298336
 30
0.0
 10
10.168905774
 20
18.5157939916
 30
0.0
 10
10.1699288396
 20
18.5151477787
 30
0.0
 10
10.1711024756
 20
18.5143520995
 30
0.0
 10
10.1724261437
 20
18.5134073314
 30
0.0
 10
10.1738991626
 20
18.5123137952
 30
0.0
 10
10.1755207882
 20
18.5110721078
 30
0.0
 10
10.1772902002
 20
18.5096829956
 30
0.0
 10
10.1799515883
 20
18.5075499937
 30
0.0
 10
10.1836366229
 20
18.5045172095
 30
0.0
 10
10.1884755777
 20
18.5004353952
 30
0.0
 10
10.1938789288
 20
18.4957904273
 30
0.0
 10
10.1998352305
 20
18.4905935076
 30
0.0
 10
10.2063317945
 20
18.4848570581
 30
0.0
 10
10.2160510632
 20
18.4761902229
 30
0.0
 10
10.229428385
 20
18.4641115177
 30
0.0
 10
10.2468590034
 20
18.4481926265
 30
0.0
 10
10.2660456708
 20
18.430520138
 30
0.0
 10
10.2868218766
 20
18.4112600215
 30
0.0
 10
10.3090067618
 20
18.3905924807
 30
0.0
 10
10.3324069519
 20
18.3687105372
 30
0.0
 10
10.3568181759
 20
18.3458181709
 30
0.0
 10
10.3820271438
 20
18.3221284664
 30
0.0
 10
10.4078134363
 20
18.2978616723
 30
0.0
 10
10.4339514885
 20
18.2732432118
 30
0.0
 10
10.4602126315
 20
18.2485016261
 30
0.0
 10
10.4863671216
 20
18.2238665359
 30
0.0
 10
10.5121862352
 20
18.1995665377
 30
0.0
 10
10.5374442914
 20
18.1758271722
 30
0.0
 10
10.5619207088
 20
18.1528688559
 30
0.0
 10
10.5854019507
 20
18.130904919
 30
0.0
 10
10.6076834616
 20
18.1101396425
 30
0.0
 10
10.6285714785
 20
18.0907664399
 30
0.0
 10
10.6478846966
 20
18.0729659888
 30
0.0
 10
10.6654560676
 20
18.0569048208
 30
0.0
 10
10.6789589443
 20
18.0446985221
 30
0.0
 10
10.6887850758
 20
18.0359227179
 30
0.0
 10
10.695366772
 20
18.0301001007
 30
0.0
 10
10.7014111923
 20
18.0248139906
 30
0.0
 10
10.7069055581
 20
18.0200770103
 30
0.0
 10
10.7118382187
 20
18.0159003362
 30
0.0
 10
10.7161988588
 20
18.0122939767
 30
0.0
 10
10.7194821355
 20
18.0096629372
 30
0.0
 10
10.7218199638
 20
18.0078554083
 30
0.0
 10
10.7233438325
 20
18.0067105075
 30
0.0
 10
10.7247188595
 20
18.0057138474
 30
0.0
 10
10.7259444021
 20
18.0048658974
 30
0.0
 10
10.7270198172
 20
18.0041670098
 30
0.0
 10
10.7276954004
 20
18.0037650993
 30
0.0
 10
10.7280091041
 20
18.003591899
 30
0.0
  0
LINE
  5
533
100
AcDbEntity
  8
0
100
AcDbLine
 62
7
  6
CONTINUOUS
 10
10.7280091041
 20
18.003591899
 11
10.7295096385
 21
18.0029254134
  0
SPLINE
  5
534
100
AcDbEntity
  8
0
100
AcDbSpline
 62
7
  6
CONTINUOUS
 70
0
 71
3
 72
67
 73
63
 74
0
 42
0.0000001
 43
0.0000001
 44
0.0000000001
 40
0.0
 40
0.0
 40
0.0
 40
0.0
 40
0.0001845799
 40
0.0003959301
 40
0.0006525735
 40
0.0009650717
 40
0.0013392459
 40
0.0017784353
 40
0.0022846672
 40
0.0028592357
 40
0.0042163984
 40
0.0058540174
 40
0.0077737019
 40
0.0099760109
 40
0.012460659
 40
0.0152269169
 40
0.0182737667
 40
0.0215997504
 40
0.0290823881
 40
0.0376591287
 40
0.0473111115
 40
0.0580165842
 40
0.0697510766
 40
0.0824876297
 40
0.096196867
 40
0.1108470059
 40
0.1428318868
 40
0.1781451762
 40
0.216458334
 40
0.2574146717
 40
0.3006328055
 40
0.3457102032
 40
0.3922270359
 40
0.4397501263
 40
0.4878369241
 40
0.5360398166
 40
0.5839100974
 40
0.6310023809
 40
0.6768785845
 40
0.7211121264
 40
0.7632918844
 40
0.8030260169
 40
0.8399456778
 40
0.8737084957
 40
0.9040017849
 40
0.9177585935
 40
0.930545814
 40
0.9423340666
 40
0.9530964475
 40
0.9628085277
 40
0.9714484962
 40
0.9789974558
 40
0.9854395963
 40
0.9882416455
 40
0.9907627929
 40
0.9930022035
 40
0.9949596064
 40
0.9966354047
 40
0.9980309597
 40
0.9991497369
 40
0.999607667
 40
1.0
 40
1.0
 40
1.0
 40
1.0
 10
10.1169713198
 20
18.4647638047
 30
0.0
 10
10.1170043583
 20
18.4647968418
 30
0.0
 10
10.1170912053
 20
18.464852639
 30
0.0
 10
10.11725483
 20
18.4648881622
 30
0.0
 10
10.1174535089
 20
18.4648836765
 30
0.0
 10
10.1176890553
 20
18.4648407162
 30
0.0
 10
10.1179626365
 20
18.4647595495
 30
0.0
 10
10.1182747905
 20
18.4646399868
 30
0.0
 10
10.118625746
 20
18.4644819099
 30
0.0
 10
10.1191767733
 20
18.4642037112
 30
0.0
 10
10.1199607191
 20
18.4637534013
 30
0.0
 10
10.1210110744
 20
18.463086449
 30
0.0
 10
10.1222163119
 20
18.4622657526
 30
0.0
 10
10.1235758364
 20
18.4612917039
 30
0.0
 10
10.1250889506
 20
18.4601646849
 30
0.0
 10
10.1267548531
 20
18.4588853415
 30
0.0
 10
10.1285726614
 20
18.4574544424
 30
0.0
 10
10.1313068596
 20
18.4552578291
 30
0.0
 10
10.1350926562
 20
18.4521356019
 30
0.0
 10
10.1400638062
 20
18.4479347769
 30
0.0
 10
10.1456141807
 20
18.4431559795
 30
0.0
 10
10.1517316337
 20
18.4378111256
 30
0.0
 10
10.1584026558
 20
18.431913407
 30
0.0
 10
10.1656124979
 20
18.4254773974
 30
0.0
 10
10.1733451864
 20
18.4185189692
 30
0.0
 10
10.184665149
 20
18.40826316
 30
0.0
 10
10.1999768355
 20
18.3942685316
 30
0.0
 10
10.2196347466
 20
18.3761511523
 30
0.0
 10
10.2409004918
 20
18.3564276367
 30
0.0
 10
10.263582673
 20
18.3352889863
 30
0.0
 10
10.2874766973
 20
18.3129393412
 30
0.0
 10
10.3123667991
 20
18.2895941972
 30
0.0
 10
10.3380279925
 20
18.265478312
 30
0.0
 10
10.3642281743
 20
18.2408236143
 30
0.0
 10
10.3907302909
 20
18.2158670048
 30
0.0
 10
10.4172945228
 20
18.1908481648
 30
0.0
 10
10.4436805457
 20
18.166007283
 30
0.0
 10
10.4696497343
 20
18.1415828431
 30
0.0
 10
10.4949674046
 20
18.1178093662
 30
0.0
 10
10.5194049772
 20
18.0949152432
 30
0.0
 10
10.5427420946
 20
18.0731205774
 30
0.0
 10
10.5647686713
 20
18.0526351472
 30
0.0
 10
10.5852867715
 20
18.0336563567
 30
0.0
 10
10.604112568
 20
18.0163675719
 30
0.0
 10
10.6186830577
 20
18.0031136438
 30
0.0
 10
10.6293748787
 20
17.9934867547
 30
0.0
 10
10.6366112716
 20
17.9870227131
 30
0.0
 10
10.6433104873
 20
17.9810952313
 30
0.0
 10
10.6494578153
 20
17.9757188731
 30
0.0
 10
10.6550397866
 20
17.97090687
 30
0.0
 10
10.6600441698
 20
17.9666709672
 30
0.0
 10
10.6644601501
 20
17.9630216586
 30
0.0
 10
10.6677794544
 20
17.9603656328
 30
0.0
 10
10.6701378308
 20
17.9585468641
 30
0.0
 10
10.6716703368
 20
17.9573995485
 30
0.0
 10
10.6730496641
 20
17.9564047588
 30
0.0
 10
10.6742751109
 20
17.9555630404
 30
0.0
 10
10.675346079
 20
17.954874429
 30
0.0
 10
10.6762621182
 20
17.9543392262
 30
0.0
 10
10.676934786
 20
17.9539998646
 30
0.0
 10
10.6773969211
 20
17.9538124976
 30
0.0
 10
10.6776019046
 20
17.9537458592
 30
0.0
 10
10.6776978461
 20
17.9537202097
 30
0.0
  0
LINE
  5
535
100
AcDbEntity
  8
0
100
AcDbLine
 62
7
  6
CONTINUOUS
 10
10.2033746437
 20
18.5559677354
 11
10.2048127741
 21
18.5553351318
  0
SPLINE
  5
536
100
AcDbEntity
  8
0
100
AcDbSpline
 62
7
  6
CONTINUOUS
 70
0
 71
3
 72
64
 73
60
 74
0
 42
0.0000001
 43
0.0000001
 44
0.0000000001
 40
0.0
 40
0.0
 40
0.0
 40
0.0
 40
0.001390614
 40
0.0030539015
 40
0.0049911535
 40
0.007202725
 40
0.0096882219
 40
0.012446923
 40
0.0187792874
 40
0.026188166
 40
0.0346583305
 40
0.0441716956
 40
0.0547074892
 40
0.0662423675
 40
0.0787506567
 40
0.1065734003
 40
0.1379260589
 40
0.1725266002
 40
0.2100633169
 40
0.2501978637
 40
0.2925683863
 40
0.3367928347
 40
0.3824724131
 40
0.4291953212
 40
0.4765403096
 40
0.5240806903
 40
0.571388048
 40
0.6180361786
 40
0.6636049683
 40
0.7076841082
 40
0.7498768929
 40
0.7898037562
 40
0.8271057419
 40
0.8614477455
 40
0.8925216899
 40
0.9067449298
 40
0.9200492848
 40
0.9324051203
 40
0.9437849444
 40
0.9541635905
 40
0.9635183352
 40
0.9718289069
 40
0.9790777227
 40
0.9822993658
 40
0.9852503307
 40
0.9879294171
 40
0.9903356319
 40
0.9924682862
 40
0.9943272949
 40
0.9959131589
 40
0.9972275042
 40
0.997784046
 40
0.998274472
 40
0.9987000335
 40
0.9990627029
 40
0.9993657619
 40
0.9996148981
 40
0.9998203478
 40
1.0
 40
1.0
 40
1.0
 40
1.0
 10
10.2048127741
 20
18.5553351318
 30
0.0
 10
10.2051241182
 20
18.5551649669
 30
0.0
 10
10.2057953662
 20
18.5547684524
 30
0.0
 10
10.2068647252
 20
18.5540765709
 30
0.0
 10
10.2080855143
 20
18.5532343531
 30
0.0
 10
10.2094570827
 20
18.5522421468
 30
0.0
 10
10.2109787827
 20
18.551100416
 30
0.0
 10
10.2133163988
 20
18.5492947277
 30
0.0
 10
10.2166024729
 20
18.546662687
 30
0.0
 10
10.2209700662
 20
18.5430512245
 30
0.0
 10
10.2259145704
 20
18.5388645362
 30
0.0
 10
10.2314255491
 20
18.534112745
 30
0.0
 10
10.2374912167
 20
18.5288071502
 30
0.0
 10
10.2440986486
 20
18.5229605169
 30
0.0
 10
10.2539677129
 20
18.5141442345
 30
0.0
 10
10.2675340873
 20
18.5018772111
 30
0.0
 10
10.2851924872
 20
18.4857319063
 30
0.0
 10
10.3046061633
 20
18.467833697
 30
0.0
 10
10.3256063122
 20
18.448350864
 30
0.0
 10
10.3480097914
 20
18.4274659146
 30
0.0
 10
10.3716209602
 20
18.4053741369
 30
0.0
 10
10.3962333519
 20
18.3822817199
 30
0.0
 10
10.421631551
 20
18.358403872
 30
0.0
 10
10.4475931089
 20
18.3339628752
 30
0.0
 10
10.4738905699
 20
18.3091860453
 30
0.0
 10
10.5002934932
 20
18.2843036949
 30
0.0
 10
10.5265705491
 20
18.2595470313
 30
0.0
 10
10.5524915892
 20
18.2351460756
 30
0.0
 10
10.5778297173
 20
18.2113275815
 30
0.0
 10
10.6023633342
 20
18.1883129804
 30
0.0
 10
10.6258781152
 20
18.1663163845
 30
0.0
 10
10.6481689439
 20
18.145542644
 30
0.0
 10
10.6690416971
 20
18.1261854481
 30
0.0
 10
10.6883150986
 20
18.1084256907
 30
0.0
 10
10.7033158661
 20
18.0947190389
 30
0.0
 10
10.714398373
 20
18.0846820124
 30
0.0
 10
10.7219641819
 20
18.0778766402
 30
0.0
 10
10.7290159956
 20
18.0715847794
 30
0.0
 10
10.735538773
 20
18.0658213805
 30
0.0
 10
10.7415186342
 20
18.0606001551
 30
0.0
 10
10.7469428738
 20
18.0559334893
 30
0.0
 10
10.751800071
 20
18.0518325734
 30
0.0
 10
10.7554986557
 20
18.0487854611
 30
0.0
 10
10.7581695785
 20
18.0466422673
 30
0.0
 10
10.7599451737
 20
18.0452464781
 30
0.0
 10
10.7615723404
 20
18.0439987431
 30
0.0
 10
10.7630502613
 20
18.0428997841
 30
0.0
 10
10.7643781973
 20
18.0419502138
 30
0.0
 10
10.7655554713
 20
18.0411503491
 30
0.0
 10
10.7665815482
 20
18.0405005614
 30
0.0
 10
10.7673474648
 20
18.0400621
 30
0.0
 10
10.7678858844
 20
18.0397914131
 30
0.0
 10
10.7682288851
 20
18.0396376995
 30
0.0
 10
10.7685340169
 20
18.039521573
 30
0.0
 10
10.7688015082
 20
18.0394429266
 30
0.0
 10
10.7690318901
 20
18.039401572
 30
0.0
 10
10.7692263053
 20
18.0393977577
 30
0.0
 10
10.7693864923
 20
18.0394329992
 30
0.0
 10
10.7694715448
 20
18.0394877927
 30
0.0
 10
10.7695039596
 20
18.0395202024
 30
0.0
  0
LINE
  5
537
100
AcDbEntity
  8
0
100
AcDbLine
 62
7
  6
CONTINUOUS
 10
10.1541351821
 20
18.5041922957
 11
10.1547101114
 21
18.5039866678
  0
SPLINE
  5
538
100
AcDbEntity
  8
0
100
AcDbSpline
 62
7
  6
CONTINUOUS
 70
0
 71
3
 72
64
 73
60
 74
0
 42
0.0000001
 43
0.0000001
 44
0.0000000001
 40
0.0
 40
0.0
 40
0.0
 40
0.0
 40
0.0010960154
 40
0.0024653638
 40
0.0041115459
 40
0.0060360983
 40
0.008239345
 40
0.0107210548
 40
0.0165164897
 40
0.0234128141
 40
0.0313961966
 40
0.0404496201
 40
0.0505531805
 40
0.0616842074
 40
0.0738175589
 40
0.1009787781
 40
0.1317891107
 40
0.1659666838
 40
0.2031982759
 40
0.2431423961
 40
0.2854326531
 40
0.3296809127
 40
0.3754812432
 40
0.4224133434
 40
0.4700466855
 40
0.5179443221
 40
0.565666979
 40
0.6127770883
 40
0.6588427885
 40
0.7034419492
 40
0.746165973
 40
0.7866237012
 40
0.8244448123
 40
0.8592835453
 40
0.8908216235
 40
0.9052618387
 40
0.9187716205
 40
0.9313203285
 40
0.9428795808
 40
0.9534233048
 40
0.9629279553
 40
0.9713726157
 40
0.9787390681
 40
0.9820131132
 40
0.9850122207
 40
0.9877350757
 40
0.99018058
 40
0.9923481352
 40
0.9942375292
 40
0.9958492207
 40
0.9971849415
 40
0.9977504719
 40
0.9982487404
 40
0.9986810284
 40
0.9990493575
 40
0.9993570401
 40
0.9996098184
 40
0.9998180678
 40
1.0
 40
1.0
 40
1.0
 40
1.0
 10
10.1547101114
 20
18.5039866678
 30
0.0
 10
10.1549662705
 20
18.5038769907
 30
0.0
 10
10.1555278088
 20
18.5035964074
 30
0.0
 10
10.1564318654
 20
18.5030710836
 30
0.0
 10
10.1574898221
 20
18.502393581
 30
0.0
 10
10.1587011056
 20
18.5015640077
 30
0.0
 10
10.1600652209
 20
18.5005825004
 30
0.0
 10
10.1621996205
 20
18.4989872954
 30
0.0
 10
10.1652379204
 20
18.4966095023
 30
0.0
 10
10.1693160074
 20
18.493292674
 30
0.0
 10
10.1739834232
 20
18.4893886361
 30
0.0
 10
10.1792301865
 20
18.4849069933
 30
0.0
 10
10.1850448705
 20
18.4798585119
 30
0.0
 10
10.1914148938
 20
18.4742555698
 30
0.0
 10
10.2009965649
 20
18.4657378921
 30
0.0
 10
10.2142385841
 20
18.4538075774
 30
0.0
 10
10.2315498741
 20
18.4380216464
 30
0.0
 10
10.2506745688
 20
18.4204249897
 30
0.0
 10
10.2714435826
 20
18.4011861118
 30
0.0
 10
10.2936726982
 20
18.3804884984
 30
0.0
 10
10.3171644581
 20
18.3585292172
 30
0.0
 10
10.3417099093
 20
18.3355169131
 30
0.0
 10
10.3670904769
 20
18.3116699323
 30
0.0
 10
10.3930800112
 20
18.2872142469
 30
0.0
 10
10.4194468127
 20
18.262381404
 30
0.0
 10
10.4459557878
 20
18.2374063631
 30
0.0
 10
10.4723705824
 20
18.2125253488
 30
0.0
 10
10.4984557538
 20
18.1879736721
 30
0.0
 10
10.523978927
 20
18.1639835604
 30
0.0
 10
10.548712912
 20
18.140782034
 30
0.0
 10
10.5724377929
 20
18.1185887898
 30
0.0
 10
10.5949429132
 20
18.0976142151
 30
0.0
 10
10.6160287919
 20
18.0780573543
 30
0.0
 10
10.6355089948
 20
18.060104246
 30
0.0
 10
10.6506760349
 20
18.0462427203
 30
0.0
 10
10.6618848609
 20
18.0360885883
 30
0.0
 10
10.6695390351
 20
18.0292016415
 30
0.0
 10
10.6766742851
 20
18.0228331355
 30
0.0
 10
10.6832751143
 20
18.0169984683
 30
0.0
 10
10.6893272203
 20
18.0117117758
 30
0.0
 10
10.6948175149
 20
18.0069858298
 30
0.0
 10
10.6997342338
 20
18.002832159
 30
0.0
 10
10.7034782675
 20
17.9997454013
 30
0.0
 10
10.7061820929
 20
17.9975740307
 30
0.0
 10
10.7079795942
 20
17.9961597315
 30
0.0
 10
10.709626824
 20
17.9948953225
 30
0.0
 10
10.711122953
 20
17.9937815624
 30
0.0
 10
10.7124671955
 20
17.9928190636
 30
0.0
 10
10.7136588676
 20
17.9920081715
 30
0.0
 10
10.714697425
 20
17.9913492892
 30
0.0
 10
10.715472577
 20
17.9909045108
 30
0.0
 10
10.7160174397
 20
17.9906297814
 30
0.0
 10
10.7163644867
 20
17.9904737154
 30
0.0
 10
10.7166731735
 20
17.9903557279
 30
0.0
 10
10.7169437341
 20
17.990275692
 30
0.0
 10
10.717176709
 20
17.9902334128
 30
0.0
 10
10.7173732508
 20
17.9902291441
 30
0.0
 10
10.7175351439
 20
17.9902644208
 30
0.0
 10
10.7176210737
 20
17.9903196858
 30
0.0
 10
10.7176537778
 20
17.9903523954
 30
0.0
  0
LINE
  5
539
100
AcDbEntity
  8
0
100
AcDbLine
 62
7
  6
CONTINUOUS
 10
10.1051216671
 20
18.4521912903
 11
10.1067608649
 21
18.4514488647
  0
SPLINE
  5
53A
100
AcDbEntity
  8
0
100
AcDbSpline
 62
7
  6
CONTINUOUS
 70
0
 71
3
 72
63
 73
59
 74
0
 42
0.0000001
 43
0.0000001
 44
0.0000000001
 40
0.0
 40
0.0
 40
0.0
 40
0.0
 40
0.0014593961
 40
0.003190726
 40
0.0051950095
 40
0.0074724464
 40
0.0100225419
 40
0.0128445008
 40
0.0192991649
 40
0.0268244485
 40
0.0354048868
 40
0.0450222147
 40
0.0556555068
 40
0.0672812982
 40
0.0798738273
 40
0.1078447688
 40
0.1393184241
 40
0.1740128379
 40
0.2116167814
 40
0.2517926637
 40
0.2941797328
 40
0.3383973234
 40
0.3840482783
 40
0.4307227067
 40
0.47800145
 40
0.5254601217
 40
0.5726727279
 40
0.6192156384
 40
0.6646713376
 40
0.7086322141
 40
0.7507042185
 40
0.7905104118
 40
0.8276944368
 40
0.8619235936
 40
0.8928921592
 40
0.9203239375
 40
0.9326360929
 40
0.9439753299
 40
0.9543167409
 40
0.9636377587
 40
0.9719182643
 40
0.9791409116
 40
0.9823509623
 40
0.9852913921
 40
0.9879609449
 40
0.9903587204
 40
0.9924840473
 40
0.9943368097
 40
0.9959176235
 40
0.9972281338
 40
0.997783222
 40
0.9982725358
 40
0.9986973575
 40
0.9990596923
 40
0.9993628347
 40
0.9996125087
 40
0.9998189736
 40
1.0
 40
1.0
 40
1.0
 40
1.0
 10
10.1067608649
 20
18.4514488647
 30
0.0
 10
10.1070819533
 20
18.4512679724
 30
0.0
 10
10.1077720578
 20
18.4508513668
 30
0.0
 10
10.1088690378
 20
18.4501315623
 30
0.0
 10
10.1101151668
 20
18.4492635949
 30
0.0
 10
10.1115097869
 20
18.4482478494
 30
0.0
 10
10.1130522371
 20
18.4470848307
 30
0.0
 10
10.1154126186
 20
18.4452549101
 30
0.0
 10
10.1187215813
 20
18.4425986564
 30
0.0
 10
10.1231099707
 20
18.4389653851
 30
0.0
 10
10.1280660064
 20
18.43476607
 30
0.0
 10
10.1335792792
 20
18.4300108202
 30
0.0
 10
10.1396380633
 20
18.4247109077
 30
0.0
 10
10.1462295103
 20
18.4188790296
 30
0.0
 10
10.1560591016
 20
18.4100999756
 30
0.0
 10
10.1695545248
 20
18.3979014526
 30
0.0
 10
10.187102769
 20
18.3818639187
 30
0.0
 10
10.2063737886
 20
18.3641059126
 30
0.0
 10
10.2272007492
 20
18.3447937534
 30
0.0
 10
10.2494028109
 20
18.3241076635
 30
0.0
 10
10.2727869201
 20
18.3022403481
 30
0.0
 10
10.2971494663
 20
18.2793951433
 30
0.0
 10
10.3222781257
 20
18.2557841678
 30
0.0
 10
10.3479537385
 20
18.2316264142
 30
0.0
 10
10.3739523082
 20
18.2071457395
 30
0.0
 10
10.4000469748
 20
18.1825688748
 30
0.0
 10
10.4260100846
 20
18.1581233507
 30
0.0
 10
10.4516152056
 20
18.1340354706
 30
0.0
 10
10.4766391748
 20
18.1105282562
 30
0.0
 10
10.5008640839
 20
18.0878194446
 30
0.0
 10
10.5240792332
 20
18.0661195296
 30
0.0
 10
10.5460830066
 20
18.0456298396
 30
0.0
 10
10.5666846639
 20
18.0265407587
 30
0.0
 10
10.5857059832
 20
18.0090298616
 30
0.0
 10
10.6029829853
 20
17.9932605845
 30
0.0
 10
10.6162406868
 20
17.9812979012
 30
0.0
 10
10.6258719055
 20
17.9727160624
 30
0.0
 10
10.6323088854
 20
17.967036893
 30
0.0
 10
10.6382102501
 20
17.9618925426
 30
0.0
 10
10.6435635461
 20
17.9572952013
 30
0.0
 10
10.6483575574
 20
17.9532558523
 30
0.0
 10
10.6520083785
 20
17.9502550918
 30
0.0
 10
10.6546451006
 20
17.9481449558
 30
0.0
 10
10.6563981173
 20
17.9467709117
 30
0.0
 10
10.6580047741
 20
17.9455428661
 30
0.0
 10
10.6594642588
 20
17.9444615176
 30
0.0
 10
10.6607758454
 20
17.9435274628
 30
0.0
 10
10.6619388848
 20
17.9427410226
 30
0.0
 10
10.6629528375
 20
17.9421025426
 30
0.0
 10
10.6637099401
 20
17.9416721694
 30
0.0
 10
10.6642423422
 20
17.941406892
 30
0.0
 10
10.6645816651
 20
17.9412564521
 30
0.0
 10
10.6648836621
 20
17.9411430672
 30
0.0
 10
10.6651485587
 20
17.9410666278
 30
0.0
 10
10.6653768793
 20
17.9410269743
 30
0.0
 10
10.6655697404
 20
17.9410243796
 30
0.0
 10
10.6657287819
 20
17.9410603657
 30
0.0
 10
10.6658132743
 20
17.9411151421
 30
0.0
 10
10.6658456009
 20
17.9411474651
 30
0.0
  0
SPLINE
  5
53B
100
AcDbEntity
  8
0
100
AcDbSpline
 62
7
  6
CONTINUOUS
 70
0
 71
3
 72
27
 73
23
 74
0
 42
0.0000001
 43
0.0000001
 44
0.0000000001
 40
0.0
 40
0.0
 40
0.0
 40
0.0
 40
0.2028575428
 40
0.2980767552
 40
0.3884849386
 40
0.4736189387
 40
0.5530645573
 40
0.6264578315
 40
0.6934894063
 40
0.7539168654
 40
0.8075758947
 40
0.8544002762
 40
0.8752708364
 40
0.8944758071
 40
0.912058387
 40
0.9280824456
 40
0.9426423066
 40
0.9558691682
 40
0.9679439303
 40
0.9791095181
 40
0.9896737302
 40
1.0
 40
1.0
 40
1.0
 40
1.0
 10
8.3679375196
 20
15.3844665035
 30
0.0
 10
8.3701474577
 20
15.3822565655
 30
0.0
 10
8.3733453835
 20
15.378958993
 30
0.0
 10
8.3773890181
 20
15.3745459308
 30
0.0
 10
8.380143917
 20
15.3714131013
 30
0.0
 10
8.3826705524
 20
15.3684044545
 30
0.0
 10
8.3849554642
 20
15.3655366076
 30
0.0
 10
8.3869869044
 20
15.3628251621
 30
0.0
 10
8.3887547959
 20
15.360284569
 30
0.0
 10
8.3902510287
 20
15.3579279767
 30
0.0
 10
8.3914690119
 20
15.3557673015
 30
0.0
 10
8.3922774827
 20
15.3540790578
 30
0.0
 10
8.392770401
 20
15.3528337276
 30
0.0
 10
8.3930531185
 20
15.3519910888
 30
0.0
 10
8.393263227
 20
15.3512043893
 30
0.0
 10
8.3934004861
 20
15.3504742687
 30
0.0
 10
8.3934648205
 20
15.3498012609
 30
0.0
 10
8.3934559284
 20
15.3491857132
 30
0.0
 10
8.3933731993
 20
15.3486280302
 30
0.0
 10
8.3932158067
 20
15.348128889
 30
0.0
 10
8.3929830273
 20
15.3476900471
 30
0.0
 10
8.3927774837
 20
15.3474391142
 30
0.0
 10
8.3926649889
 20
15.3473266195
 30
0.0
  0
SPLINE
  5
53C
100
AcDbEntity
  8
0
100
AcDbSpline
 62
7
  6
CONTINUOUS
 70
0
 71
3
 72
63
 73
59
 74
0
 42
0.0000001
 43
0.0000001
 44
0.0000000001
 40
0.0
 40
0.0
 40
0.0
 40
0.0
 40
0.0001840779
 40
0.0003942963
 40
0.0006488581
 40
0.0009582027
 40
0.001328135
 40
0.0017620135
 40
0.0022618905
 40
0.0028290766
 40
0.004168313
 40
0.0057838394
 40
0.00767742
 40
0.0098495498
 40
0.0123000054
 40
0.0150281887
 40
0.018033005
 40
0.0213131091
 40
0.0286927066
 40
0.0371517557
 40
0.0466719057
 40
0.0572320798
 40
0.0688085322
 40
0.0813750166
 40
0.109361573
 40
0.1409363687
 40
0.1758104973
 40
0.2136643288
 40
0.2541508006
 40
0.2968985635
 40
0.3415154594
 40
0.387592286
 40
0.4347063573
 40
0.482425672
 40
0.5303126444
 40
0.5779283265
 40
0.624836322
 40
0.6706068711
 40
0.7148207559
 40
0.7570732023
 40
0.7969775702
 40
0.8341689362
 40
0.8683075401
 40
0.8990818228
 40
0.926211688
 40
0.9383316602
 40
0.9494511083
 40
0.9595451012
 40
0.9685911795
 40
0.9765696206
 40
0.9834635854
 40
0.9892594205
 40
0.9917424229
 40
0.9939477212
 40
0.9958751036
 40
0.9975249149
 40
0.9988987111
 40
1.0
 40
1.0
 40
1.0
 40
1.0
 10
10.0676769321
 20
18.4130447801
 30
0.0
 10
10.0677096951
 20
18.4130775485
 30
0.0
 10
10.067795494
 20
18.4131330233
 30
0.0
 10
10.0679570601
 20
18.4131690868
 30
0.0
 10
10.0681530568
 20
18.413165852
 30
0.0
 10
10.068385188
 20
18.4131248784
 30
0.0
 10
10.0686545919
 20
18.4130464352
 30
0.0
 10
10.0689618038
 20
18.4129303422
 30
0.0
 10
10.06930706
 20
18.4127764776
 30
0.0
 10
10.0698488859
 20
18.412505323
 30
0.0
 10
10.0706194819
 20
18.4120657716
 30
0.0
 10
10.0716516402
 20
18.4114140584
 30
0.0
 10
10.0728356529
 20
18.4106115813
 30
0.0
 10
10.0741709703
 20
18.409658742
 30
0.0
 10
10.0756569123
 20
18.4085558919
 30
0.0
 10
10.0772926899
 20
18.4073036439
 30
0.0
 10
10.0790774705
 20
18.4059027577
 30
0.0
 10
10.0817618038
 20
18.4037518114
 30
0.0
 10
10.0854782974
 20
18.400693707
 30
0.0
 10
10.0903581574
 20
18.3965781457
 30
0.0
 10
10.0958065333
 20
18.3918953154
 30
0.0
 10
10.1018116738
 20
18.3866567197
 30
0.0
 10
10.1083605432
 20
18.3808751314
 30
0.0
 10
10.1181554885
 20
18.3721424357
 30
0.0
 10
10.1316329095
 20
18.359975713
 30
0.0
 10
10.1491880285
 20
18.3439464989
 30
0.0
 10
10.1685023146
 20
18.3261605636
 30
0.0
 10
10.1894050111
 20
18.3067881296
 30
0.0
 10
10.2117107438
 20
18.2860139017
 30
0.0
 10
10.2352214378
 20
18.2640355988
 30
0.0
 10
10.2597280344
 20
18.2410619875
 30
0.0
 10
10.285012404
 20
18.2173109841
 30
0.0
 10
10.3108493658
 20
18.1930075992
 30
0.0
 10
10.3370087104
 20
18.1683818945
 30
0.0
 10
10.3632573486
 20
18.1436668283
 30
0.0
 10
10.3893614119
 20
18.11909614
 30
0.0
 10
10.4150884196
 20
18.0949021769
 30
0.0
 10
10.4402093864
 20
18.071313773
 30
0.0
 10
10.4645009292
 20
18.0485541341
 30
0.0
 10
10.4877472946
 20
18.026838787
 30
0.0
 10
10.509742323
 20
18.0063735839
 30
0.0
 10
10.5302913386
 20
17.9873528137
 30
0.0
 10
10.5492128028
 20
17.969957287
 30
0.0
 10
10.5663402131
 20
17.9543529291
 30
0.0
 10
10.579442132
 20
17.9425605403
 30
0.0
 10
10.5889231545
 20
17.9341415991
 30
0.0
 10
10.5952269748
 20
17.9286034423
 30
0.0
 10
10.6009819694
 20
17.9236131839
 30
0.0
 10
10.6061757841
 20
17.9191829757
 30
0.0
 10
10.6107972023
 20
17.915323382
 30
0.0
 10
10.6148364283
 20
17.9120438237
 30
0.0
 10
10.6178468141
 20
17.9096924722
 30
0.0
 10
10.6199625271
 20
17.9081146609
 30
0.0
 10
10.621315501
 20
17.9071434329
 30
0.0
 10
10.6225175423
 20
17.9063222393
 30
0.0
 10
10.6235681694
 20
17.9056512145
 30
0.0
 10
10.624466824
 20
17.9051304592
 30
0.0
 10
10.6250252909
 20
17.9048521422
 30
0.0
 10
10.625280208
 20
17.9047431853
 30
0.0
  0
LINE
  5
53D
100
AcDbEntity
  8
0
100
AcDbLine
 62
7
  6
CONTINUOUS
 10
10.625280208
 20
17.9047431853
 11
10.6258557375
 21
17.9045376047
  0
SPLINE
  5
53E
100
AcDbEntity
  8
0
100
AcDbSpline
 62
7
  6
CONTINUOUS
 70
0
 71
3
 72
24
 73
20
 74
0
 42
0.0000001
 43
0.0000001
 44
0.0000000001
 40
0.0
 40
0.0
 40
0.0
 40
0.0
 40
0.0083894921
 40
0.0175451048
 40
0.0277676391
 40
0.0392694605
 40
0.0521959038
 40
0.0666446411
 40
0.100329327
 40
0.1406246211
 40
0.1876161505
 40
0.241286617
 40
0.3015507245
 40
0.3682798913
 40
0.4413121112
 40
0.520458849
 40
0.6055119205
 40
0.7924050923
 40
1.0
 40
1.0
 40
1.0
 40
1.0
 10
8.9111602632
 20
14.863475961
 30
0.0
 10
8.9112230453
 20
14.8635387466
 30
0.0
 10
8.9113706069
 20
14.863654394
 30
0.0
 10
8.9116352315
 20
14.8637856836
 30
0.0
 10
8.9119488824
 20
14.8638815976
 30
0.0
 10
8.9123112356
 20
14.8639429035
 30
0.0
 10
8.9127223457
 20
14.8639701455
 30
0.0
 10
8.9133690442
 20
14.8639605492
 30
0.0
 10
8.9143007974
 20
14.8638528077
 30
0.0
 10
8.9155563798
 20
14.8635980556
 30
0.0
 10
8.9169980364
 20
14.8632115088
 30
0.0
 10
8.9186212534
 20
14.8626943948
 30
0.0
 10
8.920421151
 20
14.8620481871
 30
0.0
 10
8.9223920943
 20
14.86127493
 30
0.0
 10
8.9245280352
 20
14.8603770448
 30
0.0
 10
8.9268225454
 20
14.8593573658
 30
0.0
 10
8.9301914772
 20
14.8577894276
 30
0.0
 10
8.934742535
 20
14.8555416739
 30
0.0
 10
8.9384417613
 20
14.8536053124
 30
0.0
 10
8.940378693
 20
14.8525682904
 30
0.0
  0
SPLINE
  5
53F
100
AcDbEntity
  8
0
100
AcDbSpline
 62
7
  6
CONTINUOUS
 70
0
 71
3
 72
28
 73
24
 74
0
 42
0.0000001
 43
0.0000001
 44
0.0000000001
 40
0.0
 40
0.0
 40
0.0
 40
0.0
 40
0.1810162162
 40
0.2708298829
 40
0.3588070592
 40
0.4439640569
 40
0.5253703664
 40
0.6021644216
 40
0.6735642175
 40
0.7388796146
 40
0.7975244733
 40
0.8241974011
 40
0.8490387128
 40
0.8720144563
 40
0.8931016089
 40
0.9122939309
 40
0.9296035073
 40
0.9450708167
 40
0.9587729568
 40
0.9708438491
 40
0.9814975828
 40
0.9910624747
 40
1.0
 40
1.0
 40
1.0
 40
1.0
 10
7.8343118852
 20
15.9180921379
 30
0.0
 10
7.8378948643
 20
15.9145091589
 30
0.0
 10
7.8431405031
 20
15.9090315094
 30
0.0
 10
7.849852564
 20
15.9015589838
 30
0.0
 10
7.8546501155
 20
15.8959758537
 30
0.0
 10
7.8591686881
 20
15.890465799
 30
0.0
 10
7.8633573297
 20
15.8850925765
 30
0.0
 10
7.8671699989
 20
15.8799174255
 30
0.0
 10
7.8705661812
 20
15.8749980998
 30
0.0
 10
7.8735107524
 20
15.8703884292
 30
0.0
 10
7.8756268989
 20
15.8667390855
 30
0.0
 10
7.8770604372
 20
15.8640084657
 30
0.0
 10
7.8779714154
 20
15.8621323881
 30
0.0
 10
7.8787508025
 20
15.8603675322
 30
0.0
 10
7.8793968084
 20
15.8587182347
 30
0.0
 10
7.8799082098
 20
15.8571885678
 30
0.0
 10
7.8802839435
 20
15.8557820218
 30
0.0
 10
7.8805234541
 20
15.8545016092
 30
0.0
 10
7.8806260373
 20
15.8533495076
 30
0.0
 10
7.8805909748
 20
15.8523271748
 30
0.0
 10
7.8804157657
 20
15.8514353822
 30
0.0
 10
7.8800966814
 20
15.8506769359
 30
0.0
 10
7.8797795303
 20
15.8502586353
 30
0.0
 10
7.8796026253
 20
15.850081727
 30
0.0
  0
ELLIPSE
  5
540
100
AcDbEntity
  8
0
100
AcDbEllipse
 62
7
  6
CONTINUOUS
 10
9.9312525103
 20
17.7435954446
 30
0.0
 11
-0.0
 21
0.6181264952
 31
0.0
 40
0.2679491924
 41
-0.5408188012
 42
0.0172200256
  0
ENDSEC
  0
SECTION
  2
OBJECTS
  0
DICTIONARY
  5
C
100
AcDbDictionary
280
0
281
1
  3
ACAD_GROUP
350
D
  3
ACAD_MLINESTYLE
350
17
  3
ACAD_LAYOUT
350
1A
  3
ACAD_PLOTSETTINGS
350
19
  3
ACAD_PLOTSTYLENAME
350
E
  0
DICTIONARY
  5
D
102
{ACAD_REACTORS
330
C
102
}
100
AcDbDictionary
280
0
281
1
  0
ACDBDICTIONARYWDFLT
  5
E
102
{ACAD_REACTORS
330
C
102
}
100
AcDbDictionary
281
1
  3
Normal
350
F
100
AcDbDictionaryWithDefault
340
F
  0
DICTIONARY
  5
17
102
{ACAD_REACTORS
330
C
102
}
100
AcDbDictionary
280
0
281
1
  3
Standard
350
18
  0
DICTIONARY
  5
19
102
{ACAD_REACTORS
330
C
102
}
100
AcDbDictionary
281
1
  0
DICTIONARY
  5
1A
102
{ACAD_REACTORS
330
C
102
}
100
AcDbDictionary
281
1
  3
Model
350
541
  3
Layout1
350
542
  0
ACDBPLACEHOLDER
  5
F
102
{ACAD_REACTORS
330
E
102
}
  0
MLINESTYLE
  5
18
102
{ACAD_REACTORS
330
17
102
}
100
AcDbMlineStyle
  2
STANDARD
 70
0
  3

 62
256
 51
90.0
 52
90.0
 71
2
 49
0.5
 62
256
  6
BYLAYER
 49
-0.5
 62
256
  6
BYLAYER
  0
LAYOUT
  5
541
102
{ACAD_REACTORS
330
1A
102
}
100
AcDbPlotSettings
  1

  2
none_device
  4
ANSI_C_(22.00_x_17.00_Inches)
  6

 40
0.0
 41
0.0
 42
0.0
 43
0.0
 44
558.8
 45
431.8
 46
0.0
 47
0.0
 48
0.0
 49
0.0
140
0.0
141
0.0
142
1.0
143
1.0
 70
1024
 72
0
 73
0
 74
0
  7

 75
0
147
1.0
148
0.0
149
0.0
100
AcDbLayout
  1
Model
 70
0
 71
0
 10
0.0
 20
0.0
 11
22.0
 21
17.0
 12
0.0
 22
0.0
 32
0.0
 14
0.0
 24
0.0
 34
0.0
 15
0.0
 25
0.0
 35
0.0
146
0.0
 13
0.0
 23
0.0
 33
0.0
 16
1.0
 26
0.0
 36
0.0
 17
0.0
 27
1.0
 37
0.0
 76
0
330
205
345
0
346
0
  0
LAYOUT
  5
542
102
{ACAD_REACTORS
330
1A
102
}
100
AcDbPlotSettings
  1

  2
none_device
  4
ANSI_C_(22.00_x_17.00_Inches)
  6

 40
0.0
 41
0.0
 42
0.0
 43
0.0
 44
558.8
 45
431.8
 46
0.0
 47
0.0
 48
0.0
 49
0.0
140
0.0
141
0.0
142
1.0
143
1.0
 70
0
 72
0
 73
0
 74
0
  7

 75
0
147
1.0
148
0.0
149
0.0
100
AcDbLayout
  1
Layout1
 70
0
 71
1
 10
0.0
 20
0.0
 11
22.0
 21
17.0
 12
0.0
 22
0.0
 32
0.0
 14
0.0
 24
0.0
 34
0.0
 15
0.0
 25
0.0
 35
0.0
146
0.0
 13
0.0
 23
0.0
 33
0.0
 16
1.0
 26
0.0
 36
0.0
 17
0.0
 27
1.0
 37
0.0
 76
0
330
206
345
0
346
0
  0
ENDSEC
  0
EOF
