999
DXF file: E:\BT Custom\CADOUTPUT\_RIGHT.dxf
999
Pro/ENGINEER 2018400 by Parametric Technology Corporation
  0
SECTION
  2
HEADER
  9
$ACADVER
  1
AC1018
  9
$DWGCODEPAGE
  3
ANSI_1252
  9
$EXTMAX
 10
22.0
 20
17.0
 30
0.0
  9
$EXTMIN
 10
0.0
 20
0.0
 30
0.0
  9
$LIMMIN
 10
0.0
 20
0.0
  9
$LIMMAX
 10
22.0
 20
17.0
  9
$VIEWCTR
 10
11.0
 20
8.5
  9
$VIEWSIZE
 40
17.0
  9
$CLAYER
  8
0
  9
$LTSCALE
 40
1.21
  9
$CELTYPE
  6
BYLAYER
  9
$DIMSCALE
 40
1.0
  9
$DIMASZ
 40
0.1
  9
$DIMEXO
 40
0.0625
  9
$DIMDLI
 40
0.836
  9
$DIMEXE
 40
0.125
  9
$DIMCEN
 40
0.198
  9
$DIMLFAC
 40
1.0
  9
$DIMBLK
  1
_FILLED
  9
$DIMALT
 70
1
  9
$DIMALTD
 70
2
  9
$DIMALTTD
 70
2
  9
$DIMALTF
 40
25.4
  9
$DIMTXT
 40
0.08
  9
$DIMTOL
 70
1
  9
$DIMLIM
 70
0
  9
$DIMTFAC
 40
1.0
  9
$DIMTP
 40
0.001
  9
$DIMTM
 40
0.001
  9
$DIMGAP
 40
0.09
  9
$DIMDSEP
 70
46
  9
$AUNITS
 70
0
  9
$PDMODE
 70
3
  9
$PDSIZE
 40
0.06
  9
$HANDSEED
  5
513
  9
$TILEMODE
 70
1
  9
$MEASUREMENT
 70
0
  9
$INSUNITS
 70
1
  0
ENDSEC
  0
SECTION
  2
CLASSES
  0
CLASS
  1
ACDBDICTIONARYWDFLT
  2
AcDbDictionaryWithDefault
  3
AutoCAD 2000
 90
0
 91
1
280
0
281
0
  0
CLASS
  1
ACDBPLACEHOLDER
  2
AcDbPlaceHolder
  3
AutoCAD 2000
 90
0
 91
1
280
0
281
0
  0
CLASS
  1
LAYOUT
  2
AcDbLayout
  3
AutoCAD 2000
 90
0
 91
0
280
0
281
0
  0
ENDSEC
  0
SECTION
  2
TABLES
  0
TABLE
  2
VPORT
  5
8
100
AcDbSymbolTable
 70
2
  0
VPORT
  5
1F4
100
AcDbSymbolTableRecord
100
AcDbViewportTableRecord
  2
*ACTIVE
 70
0
 10
0.0
 20
0.0
 11
1.0
 21
1.0
 12
11.0
 22
8.5
 13
0.0
 23
0.0
 14
1.0
 24
1.0
 15
0.0
 25
0.0
 16
0.0
 26
0.0
 36
1.0
 17
0.0
 27
0.0
 37
0.0
 40
17.0
 41
1.2941176471
 42
50.0
 43
0.0
 44
0.0
 50
0.0
 51
0.0
 71
0
 72
100
 73
1
 74
1
 75
0
 76
0
 77
0
 78
0
  0
ENDTAB
  0
TABLE
  2
LTYPE
  5
5
100
AcDbSymbolTable
 70
6
  0
LTYPE
  5
14
100
AcDbSymbolTableRecord
100
AcDbLinetypeTableRecord
  2
BYBLOCK
 70
0
  3

 72
65
 73
0
 40
0.0
  0
LTYPE
  5
15
100
AcDbSymbolTableRecord
100
AcDbLinetypeTableRecord
  2
BYLAYER
 70
0
  3

 72
65
 73
0
 40
0.0
  0
LTYPE
  5
16
100
AcDbSymbolTableRecord
100
AcDbLinetypeTableRecord
  2
CONTINUOUS
 70
64
  3
Solid line
 72
65
 73
0
 40
0.0
  0
LTYPE
  5
1F5
100
AcDbSymbolTableRecord
100
AcDbLinetypeTableRecord
  2
CENTER
 70
64
  3
____ _ ____ _ ____ _ ____ _ ____ _ ____ _ ____
 72
65
 73
4
 40
0.6
 49
0.375
 74
0
 49
-0.075
 74
0
 49
0.075
 74
0
 49
-0.075
 74
0
  0
LTYPE
  5
1F6
100
AcDbSymbolTableRecord
100
AcDbLinetypeTableRecord
  2
HIDDEN
 70
64
  3
- - - - - - - - - - - - - - - - - - - -
 72
65
 73
2
 40
0.2
 49
0.1
 74
0
 49
-0.1
 74
0
  0
LTYPE
  5
1F7
100
AcDbSymbolTableRecord
100
AcDbLinetypeTableRecord
  2
PHANTOM
 70
64
  3
_____ _ _ _____ _ _ _____ _ _ _____
 72
65
 73
6
 40
0.8
 49
0.45
 74
0
 49
-0.05
 74
0
 49
0.1
 74
0
 49
-0.05
 74
0
 49
0.1
 74
0
 49
-0.05
 74
0
  0
LTYPE
  5
1F8
100
AcDbSymbolTableRecord
100
AcDbLinetypeTableRecord
  2
DOT
 70
64
  3
. . . . . . . . . . . . . . . . . . . .
 72
65
 73
2
 40
0.2
 49
0.1
 74
0
 49
-0.1
 74
0
  0
LTYPE
  5
1F9
100
AcDbSymbolTableRecord
100
AcDbLinetypeTableRecord
  2
DASHED
 70
64
  3
- - - - - - - - - - - - - - - - - - - -
 72
65
 73
2
 40
0.2
 49
0.1
 74
0
 49
-0.1
 74
0
  0
ENDTAB
  0
TABLE
  2
LAYER
  5
2
100
AcDbSymbolTable
 70
36
  0
LAYER
  5
10
100
AcDbSymbolTableRecord
100
AcDbLayerTableRecord
  2
0
 70
0
 62
7
  6
CONTINUOUS
370
-3
390
F
  0
LAYER
  5
1FA
100
AcDbSymbolTableRecord
100
AcDbLayerTableRecord
  2
DEFAULT_1
 70
0
 62
7
  6
CENTER
370
-3
390
F
  0
LAYER
  5
1FB
100
AcDbSymbolTableRecord
100
AcDbLayerTableRecord
  2
DEFAULT_2
 70
0
 62
8
  6
HIDDEN
370
-3
390
F
  0
LAYER
  5
1FC
100
AcDbSymbolTableRecord
100
AcDbLayerTableRecord
  2
DEFAULT_3
 70
0
 62
7
  6
PHANTOM
370
-3
390
F
  0
LAYER
  5
1FD
100
AcDbSymbolTableRecord
100
AcDbLayerTableRecord
  2
ALL_FEATURES
 70
0
 62
7
  6
CONTINUOUS
370
-3
390
F
  0
LAYER
  5
1FE
100
AcDbSymbolTableRecord
100
AcDbLayerTableRecord
  2
AXES_FEATURES
 70
0
 62
7
  6
CONTINUOUS
370
-3
390
F
  0
LAYER
  5
1FF
100
AcDbSymbolTableRecord
100
AcDbLayerTableRecord
  2
DEFAULT_COORDINATE_SYSTEM
 70
0
 62
7
  6
CONTINUOUS
370
-3
390
F
  0
LAYER
  5
200
100
AcDbSymbolTableRecord
100
AcDbLayerTableRecord
  2
DEFAULT_DATUM_AXES
 70
0
 62
7
  6
CONTINUOUS
370
-3
390
F
  0
LAYER
  5
201
100
AcDbSymbolTableRecord
100
AcDbLayerTableRecord
  2
DEFAULT_DATUM_PLANES
 70
0
 62
7
  6
CONTINUOUS
370
-3
390
F
  0
LAYER
  5
202
100
AcDbSymbolTableRecord
100
AcDbLayerTableRecord
  2
DIMENSIONS
 70
0
 62
7
  6
CONTINUOUS
370
-3
390
F
  0
ENDTAB
  0
TABLE
  2
STYLE
  5
3
100
AcDbSymbolTable
 70
1
  0
STYLE
  5
11
100
AcDbSymbolTableRecord
100
AcDbTextStyleTableRecord
  2
STANDARD
 70
0
 40
0.0
 41
0.8
 50
0.0
 71
0
 42
0.2
  3
txt
  4

  0
STYLE
  5
203
100
AcDbSymbolTableRecord
100
AcDbTextStyleTableRecord
  2
TEXTSTYLE_1
 70
0
 40
0.0
 41
0.8
 50
0.0
 71
0
 42
0.2
  3
gdt
  4

  0
ENDTAB
  0
TABLE
  2
VIEW
  5
6
100
AcDbSymbolTable
 70
0
  0
ENDTAB
  0
TABLE
  2
UCS
  5
7
100
AcDbSymbolTable
 70
0
  0
ENDTAB
  0
TABLE
  2
APPID
  5
9
100
AcDbSymbolTable
 70
1
  0
APPID
  5
204
100
AcDbSymbolTableRecord
100
AcDbRegAppTableRecord
  2
ACAD
 70
0
  0
ENDTAB
  0
TABLE
  2
BLOCK_RECORD
  5
1
100
AcDbSymbolTable
 70
0
  0
BLOCK_RECORD
  5
205
100
AcDbSymbolTableRecord
100
AcDbBlockTableRecord
  2
*Model_Space
  0
BLOCK_RECORD
  5
206
100
AcDbSymbolTableRecord
100
AcDbBlockTableRecord
  2
*Paper_Space
  0
BLOCK_RECORD
  5
207
100
AcDbSymbolTableRecord
100
AcDbBlockTableRecord
  2
_FILLED
  0
ENDTAB
  0
TABLE
  2
DIMSTYLE
  5
A
100
AcDbSymbolTable
 70
1
100
AcDbDimStyleTable
 71
0
  0
DIMSTYLE
105
208
100
AcDbSymbolTableRecord
100
AcDbDimStyleTableRecord
  2
STANDARD
 70
0
  3

  4

 40
1.0
 41
0.1
 42
0.0625
 43
0.38
 44
0.125
 45
0.0
 46
0.0
 47
0.001
 48
0.001
140
0.08
141
0.09
142
0.0
143
25.4
144
1.0
145
0.0
146
1.0
147
0.09
 71
1.0
 72
0.0
 73
1
 74
1
 75
0
 76
0
 77
0
 78
4
 79
1
170
1
171
2
172
0
173
0
174
0
175
0
176
0
177
0
178
0
270
2
179
3
271
3
272
3
273
2
274
2
275
0
280
0
281
0
282
0
283
1
284
4
285
0
286
0
287
3
288
0
340
11
278
46
341
207
342
207
343
207
344
207
  0
ENDTAB
  0
ENDSEC
  0
SECTION
  2
BLOCKS
  0
BLOCK
  5
20
100
AcDbEntity
  8
0
100
AcDbBlockBegin
  2
*Model_Space
 70
0
 10
0.0
 20
0.0
 30
0.0
  3
*Model_Space
  1

  0
ENDBLK
  5
21
100
AcDbEntity
  8
0
100
AcDbBlockEnd
  0
BLOCK
  5
1C
100
AcDbEntity
  8
0
100
AcDbBlockBegin
  2
*Paper_Space
 70
0
 10
0.0
 20
0.0
 30
0.0
  3
*Paper_Space
  1

  0
ENDBLK
  5
1D
100
AcDbEntity
  8
0
100
AcDbBlockEnd
  0
BLOCK
  5
209
100
AcDbEntity
  8
0
100
AcDbBlockBegin
  2
_FILLED
 70
64
 10
0.0
 20
0.0
  3
_FILLED
  1

  0
SOLID
  5
20A
100
AcDbEntity
  8
0
  6
BYBLOCK
 62
0
100
AcDbTrace
 10
0.0
 20
0.0
 11
-1.0
 21
0.2
 12
-1.0
 22
-0.2
 13
-1.0
 23
-0.2
  0
ENDBLK
  5
20B
100
AcDbEntity
  8
0
  6
BYBLOCK
 62
0
100
AcDbBlockEnd
  0
ENDSEC
  0
SECTION
  2
ENTITIES
  0
LINE
  5
20C
100
AcDbEntity
  8
0
100
AcDbLine
 62
7
  6
CONTINUOUS
 10
14.7974226038
 20
0.789891804
 11
14.6579593435
 21
0.789891804
  0
LINE
  5
20D
100
AcDbEntity
  8
0
100
AcDbLine
 62
7
  6
CONTINUOUS
 10
7.2428325282
 20
14.2886025873
 11
6.6459758319
 21
13.691745891
  0
LINE
  5
20E
100
AcDbEntity
  8
0
100
AcDbLine
 62
7
  6
CONTINUOUS
 10
11.4589226038
 20
2.664891804
 11
11.9039226038
 21
2.664891804
  0
LINE
  5
20F
100
AcDbEntity
  8
0
100
AcDbLine
 62
7
  6
CONTINUOUS
 10
14.1094226038
 20
2.852391804
 11
14.4844226038
 21
2.852391804
  0
LINE
  5
210
100
AcDbEntity
  8
0
100
AcDbLine
 62
7
  6
CONTINUOUS
 10
6.7904497756
 20
13.40750155
 11
6.7657577365
 21
13.3828095109
  0
LINE
  5
211
100
AcDbEntity
  8
0
100
AcDbLine
 62
7
  6
CONTINUOUS
 10
6.8293417933
 20
13.3686095323
 11
6.8046497543
 21
13.3439174932
  0
LINE
  5
212
100
AcDbEntity
  8
0
100
AcDbLine
 62
7
  6
CONTINUOUS
 10
6.9433674199
 20
13.2545839057
 11
6.9186753808
 21
13.2298918666
  0
LINE
  5
213
100
AcDbEntity
  8
0
100
AcDbLine
 62
7
  6
CONTINUOUS
 10
6.9152433584
 20
13.1952148149
 11
6.9049196111
 21
13.1848910675
  0
LINE
  5
214
100
AcDbEntity
  8
0
100
AcDbLine
 62
7
  6
CONTINUOUS
 10
6.9814803098
 20
13.1277168589
 11
6.9717870648
 21
13.1180236138
  0
LINE
  5
215
100
AcDbEntity
  8
0
100
AcDbLine
 62
7
  6
CONTINUOUS
 10
7.0511330355
 20
13.1285031843
 11
7.0355985493
 21
13.1129686981
  0
LINE
  5
216
100
AcDbEntity
  8
0
100
AcDbLine
 62
7
  6
CONTINUOUS
 10
12.5414226038
 20
3.383641804
 11
12.9814226038
 21
3.383641804
  0
LINE
  5
217
100
AcDbEntity
  8
0
100
AcDbLine
 62
7
  6
CONTINUOUS
 10
13.0014226038
 20
3.383641804
 11
14.1094226038
 21
3.383641804
  0
LINE
  5
218
100
AcDbEntity
  8
0
100
AcDbLine
 62
7
  6
CONTINUOUS
 10
7.1247559972
 20
13.0731953284
 11
7.1000639581
 21
13.0485032893
  0
LINE
  5
219
100
AcDbEntity
  8
0
100
AcDbLine
 62
7
  6
CONTINUOUS
 10
7.0864875027
 20
13.0322843342
 11
7.0720069235
 21
13.0178037551
  0
LINE
  5
21A
100
AcDbEntity
  8
0
100
AcDbLine
 62
7
  6
CONTINUOUS
 10
7.1106583107
 20
12.998538858
 11
7.1009650657
 21
12.9888456129
  0
LINE
  5
21B
100
AcDbEntity
  8
0
100
AcDbLine
 62
7
  6
CONTINUOUS
 10
7.08087269
 20
12.9407077539
 11
7.0760815031
 21
12.935916567
  0
LINE
  5
21C
100
AcDbEntity
  8
0
100
AcDbLine
 62
7
  6
CONTINUOUS
 10
7.2346780325
 20
12.9492710267
 11
7.2169871266
 21
12.9315801208
  0
LINE
  5
21D
100
AcDbEntity
  8
0
100
AcDbLine
 62
7
  6
CONTINUOUS
 10
7.2169736246
 20
12.9044144543
 11
7.2011849244
 21
12.8886257542
  0
LINE
  5
21E
100
AcDbEntity
  8
0
100
AcDbLine
 62
7
  6
CONTINUOUS
 10
7.1799439045
 20
12.7780450208
 11
7.1612153506
 21
12.7593164669
  0
LINE
  5
21F
100
AcDbEntity
  8
0
100
AcDbLine
 62
7
  6
CONTINUOUS
 10
7.1974059862
 20
12.7601731402
 11
7.1788823317
 21
12.7416494858
  0
LINE
  5
220
100
AcDbEntity
  8
0
100
AcDbLine
 62
7
  6
CONTINUOUS
 10
7.3135127865
 20
12.8360227721
 11
7.2836503465
 21
12.8061603321
  0
LINE
  5
221
100
AcDbEntity
  8
0
100
AcDbLine
 62
7
  6
CONTINUOUS
 10
7.3611461935
 20
12.8368051321
 11
7.3364541544
 21
12.8121130931
  0
LINE
  5
222
100
AcDbEntity
  8
0
100
AcDbLine
 62
7
  6
CONTINUOUS
 10
7.2514244498
 20
12.7048818593
 11
7.233537204
 21
12.6869946135
  0
LINE
  5
223
100
AcDbEntity
  8
0
100
AcDbLine
 62
7
  6
CONTINUOUS
 10
7.3935634503
 20
12.7156337184
 11
7.3838702053
 21
12.7059404733
  0
LINE
  5
224
100
AcDbEntity
  8
0
100
AcDbLine
 62
7
  6
CONTINUOUS
 10
7.338461139
 20
12.591478831
 11
7.3337570628
 21
12.5867747547
  0
LINE
  5
225
100
AcDbEntity
  8
0
100
AcDbLine
 62
7
  6
CONTINUOUS
 10
7.4738799504
 20
12.7156925519
 11
7.4533773229
 21
12.6951899245
  0
LINE
  5
226
100
AcDbEntity
  8
0
100
AcDbLine
 62
7
  6
CONTINUOUS
 10
7.3484935452
 20
12.5794356512
 11
7.3447948558
 21
12.5757369617
  0
LWPOLYLINE
  5
227
100
AcDbEntity
  8
0
100
AcDbPolyline
 62
7
  6
CONTINUOUS
 90
13
 70
0
 10
7.3384589758
 20
12.5914798109
 10
7.3397451201
 20
12.592589228
 10
7.3414652699
 20
12.5936443841
 10
7.3432753666
 20
12.5943629729
 10
7.345060809
 20
12.5947488032
 10
7.3466813568
 20
12.5948480493
 10
7.3480756176
 20
12.5947448941
 10
7.3492424982
 20
12.5945179443
 10
7.3501961239
 20
12.5942279396
 10
7.3509459526
 20
12.5939229252
 10
7.351466052
 20
12.5936621637
 10
7.3517580044
 20
12.5934914432
 10
7.3518283057
 20
12.5934463106
  0
LINE
  5
228
100
AcDbEntity
  8
0
100
AcDbLine
 62
7
  6
CONTINUOUS
 10
11.3814226038
 20
3.664891804
 11
11.4464226038
 21
3.664891804
  0
LINE
  5
229
100
AcDbEntity
  8
0
100
AcDbLine
 62
7
  6
CONTINUOUS
 10
11.9164226038
 20
3.664891804
 11
11.9814226038
 21
3.664891804
  0
LINE
  5
22A
100
AcDbEntity
  8
0
100
AcDbLine
 62
7
  6
CONTINUOUS
 10
11.9814226038
 20
3.789891804
 11
12.5414226038
 21
3.789891804
  0
LINE
  5
22B
100
AcDbEntity
  8
0
100
AcDbLine
 62
7
  6
CONTINUOUS
 10
13.0014226038
 20
3.839891804
 11
12.9814226038
 21
3.839891804
  0
LINE
  5
22C
100
AcDbEntity
  8
0
100
AcDbLine
 62
7
  6
CONTINUOUS
 10
7.3499079636
 20
12.5435595948
 11
7.3148438385
 21
12.4683643357
  0
LINE
  5
22D
100
AcDbEntity
  8
0
100
AcDbLine
 62
7
  6
CONTINUOUS
 10
7.5349836731
 20
12.6100079371
 11
7.5073932073
 21
12.5824174713
  0
LINE
  5
22E
100
AcDbEntity
  8
0
100
AcDbLine
 62
7
  6
CONTINUOUS
 10
9.4044579583
 20
14.434973691
 11
8.739777584
 21
13.7702933167
  0
LINE
  5
22F
100
AcDbEntity
  8
0
100
AcDbLine
 62
7
  6
CONTINUOUS
 10
9.4149468117
 20
14.4244848376
 11
9.1674594383
 21
14.1769974642
  0
LINE
  5
230
100
AcDbEntity
  8
0
100
AcDbLine
 62
7
  6
CONTINUOUS
 10
7.6364284075
 20
12.5615229181
 11
7.6117363684
 21
12.536830879
  0
LINE
  5
231
100
AcDbEntity
  8
0
100
AcDbLine
 62
7
  6
CONTINUOUS
 10
7.6173063111
 20
12.4918908576
 11
7.6076130661
 21
12.4821976125
  0
LINE
  5
232
100
AcDbEntity
  8
0
100
AcDbLine
 62
7
  6
CONTINUOUS
 10
10.0072664892
 20
14.8645410606
 11
9.7794877019
 21
14.6367622732
  0
LINE
  5
233
100
AcDbEntity
  8
0
100
AcDbLine
 62
7
  6
CONTINUOUS
 10
9.9284005587
 20
14.7666302958
 11
9.789010119
 21
14.6272398561
  0
LINE
  5
234
100
AcDbEntity
  8
0
100
AcDbLine
 62
7
  6
CONTINUOUS
 10
11.0227236069
 20
15.814590801
 11
10.2454207387
 21
15.0372879327
  0
LINE
  5
235
100
AcDbEntity
  8
0
100
AcDbLine
 62
7
  6
CONTINUOUS
 10
10.2145890009
 20
15.0064561949
 11
10.2081343686
 21
15.0000015627
  0
LINE
  5
236
100
AcDbEntity
  8
0
100
AcDbLine
 62
7
  6
CONTINUOUS
 10
10.1761301159
 20
14.96799731
 11
10.158356818
 21
14.950224012
  0
LINE
  5
237
100
AcDbEntity
  8
0
100
AcDbLine
 62
7
  6
CONTINUOUS
 10
10.1248903688
 20
14.9167575629
 11
10.108709327
 21
14.9005765211
  0
LINE
  5
238
100
AcDbEntity
  8
0
100
AcDbLine
 62
7
  6
CONTINUOUS
 10
10.0735205731
 20
14.8653877671
 11
10.0589006671
 21
14.8507678612
  0
LINE
  5
239
100
AcDbEntity
  8
0
100
AcDbLine
 62
7
  6
CONTINUOUS
 10
9.533532224
 20
14.3058994253
 11
9.2860448505
 21
14.0584120519
  0
LINE
  5
23A
100
AcDbEntity
  8
0
100
AcDbLine
 62
7
  6
CONTINUOUS
 10
10.2394545027
 20
14.9997935038
 11
10.2520834298
 21
15.0124224309
  0
LINE
  5
23B
100
AcDbEntity
  8
0
100
AcDbLine
 62
7
  6
CONTINUOUS
 10
10.2152325529
 20
14.9735408706
 11
10.202810292
 21
14.9611186097
  0
LINE
  5
23C
100
AcDbEntity
  8
0
100
AcDbLine
 62
7
  6
CONTINUOUS
 10
10.1659894907
 20
14.9217651722
 11
10.1535681937
 21
14.9093438752
  0
LINE
  5
23D
100
AcDbEntity
  8
0
100
AcDbLine
 62
7
  6
CONTINUOUS
 10
10.1169713055
 20
14.869763819
 11
10.1045512624
 21
14.8573437759
  0
LINE
  5
23E
100
AcDbEntity
  8
0
100
AcDbLine
 62
7
  6
CONTINUOUS
 10
10.0676769244
 20
14.8180447879
 11
10.0607198431
 21
14.8110877067
  0
LINE
  5
23F
100
AcDbEntity
  8
0
100
AcDbLine
 62
7
  6
CONTINUOUS
 10
7.6119663867
 20
12.3358654245
 11
7.5983163899
 21
12.3222154277
  0
LINE
  5
240
100
AcDbEntity
  8
0
100
AcDbLine
 62
7
  6
CONTINUOUS
 10
7.752438513
 20
12.4436866865
 11
7.728659537
 21
12.4199077105
  0
LINE
  5
241
100
AcDbEntity
  8
0
100
AcDbLine
 62
7
  6
CONTINUOUS
 10
10.0165233424
 20
14.6785075121
 11
9.8771329027
 21
14.5391170724
  0
LINE
  5
242
100
AcDbEntity
  8
0
100
AcDbLine
 62
7
  6
CONTINUOUS
 10
7.7820035831
 20
12.357922378
 11
7.7569459418
 21
12.3328647368
  0
LINE
  5
243
100
AcDbEntity
  8
0
100
AcDbLine
 62
7
  6
CONTINUOUS
 10
7.7074722189
 20
12.2309315431
 11
7.6985362486
 21
12.2219955689
  0
LINE
  5
244
100
AcDbEntity
  8
0
100
AcDbLine
 62
7
  6
CONTINUOUS
 10
7.7631220555
 20
12.1811585532
 11
7.7512476599
 21
12.1692841576
  0
LINE
  5
245
100
AcDbEntity
  8
0
100
AcDbLine
 62
7
  6
CONTINUOUS
 10
7.8796026371
 20
12.2550817145
 11
7.8571658006
 21
12.232644878
  0
LINE
  5
246
100
AcDbEntity
  8
0
100
AcDbLine
 62
7
  6
CONTINUOUS
 10
7.9318426114
 20
12.2661087143
 11
7.9071505723
 21
12.2414166752
  0
LWPOLYLINE
  5
247
100
AcDbEntity
  8
0
100
AcDbPolyline
 62
7
  6
CONTINUOUS
 90
9
 70
0
 10
7.7074711175
 20
12.2309325638
 10
7.7088145074
 20
12.2320694652
 10
7.7106355145
 20
12.233111142
 10
7.7125055067
 20
12.2337374119
 10
7.7141576798
 20
12.2339710872
 10
7.7153869546
 20
12.2339508539
 10
7.7161752052
 20
12.2338372022
 10
7.7166008004
 20
12.233732139
 10
7.7167070193
 20
12.2336977205
  0
LINE
  5
248
100
AcDbEntity
  8
0
100
AcDbLine
 62
7
  6
CONTINUOUS
 10
13.0014226038
 20
4.239891804
 11
12.9814226038
 21
4.239891804
  0
LINE
  5
249
100
AcDbEntity
  8
0
100
AcDbLine
 62
7
  6
CONTINUOUS
 10
11.9814226038
 20
4.289891804
 11
12.5414226038
 21
4.289891804
  0
LINE
  5
24A
100
AcDbEntity
  8
0
100
AcDbLine
 62
7
  6
CONTINUOUS
 10
11.3814226038
 20
4.414891804
 11
11.4464226038
 21
4.414891804
  0
LINE
  5
24B
100
AcDbEntity
  8
0
100
AcDbLine
 62
7
  6
CONTINUOUS
 10
11.9164226038
 20
4.414891804
 11
11.9814226038
 21
4.414891804
  0
LINE
  5
24C
100
AcDbEntity
  8
0
100
AcDbLine
 62
7
  6
CONTINUOUS
 10
12.5414226038
 20
4.696141804
 11
12.9814226038
 21
4.696141804
  0
LINE
  5
24D
100
AcDbEntity
  8
0
100
AcDbLine
 62
7
  6
CONTINUOUS
 10
13.0014226038
 20
4.696141804
 11
14.1094226038
 21
4.696141804
  0
LINE
  5
24E
100
AcDbEntity
  8
0
100
AcDbLine
 62
7
  6
CONTINUOUS
 10
6.759992122
 20
13.3688900861
 11
6.759992122
 21
13.3573585008
  0
LINE
  5
24F
100
AcDbEntity
  8
0
100
AcDbLine
 62
7
  6
CONTINUOUS
 10
6.7988841397
 20
13.3299972236
 11
6.7988841397
 21
13.3184664465
  0
LINE
  5
250
100
AcDbEntity
  8
0
100
AcDbLine
 62
7
  6
CONTINUOUS
 10
6.8991539965
 20
13.1709712047
 11
6.8991539965
 21
13.1594399576
  0
LINE
  5
251
100
AcDbEntity
  8
0
100
AcDbLine
 62
7
  6
CONTINUOUS
 10
6.9129097663
 20
13.215971597
 11
6.9129097663
 21
13.2044408199
  0
LINE
  5
252
100
AcDbEntity
  8
0
100
AcDbLine
 62
7
  6
CONTINUOUS
 10
6.9660214502
 20
13.1041037751
 11
6.9660214502
 21
13.0925725039
  0
LINE
  5
253
100
AcDbEntity
  8
0
100
AcDbLine
 62
7
  6
CONTINUOUS
 10
7.0942983436
 20
13.0345830197
 11
7.0942983436
 21
13.0230522426
  0
LINE
  5
254
100
AcDbEntity
  8
0
100
AcDbLine
 62
7
  6
CONTINUOUS
 10
7.0951994511
 20
12.9749257742
 11
7.0951994511
 21
12.963394503
  0
LINE
  5
255
100
AcDbEntity
  8
0
100
AcDbLine
 62
7
  6
CONTINUOUS
 10
10.782654537
 20
14.4570015745
 11
10.7826485062
 21
14.4569953738
  0
LINE
  5
256
100
AcDbEntity
  8
0
100
AcDbLine
 62
7
  6
CONTINUOUS
 10
7.8621760588
 20
12.0797728391
 11
7.8514675186
 21
12.0690642989
  0
LINE
  5
257
100
AcDbEntity
  8
0
100
AcDbLine
 62
7
  6
CONTINUOUS
 10
7.9172282263
 20
12.0234331871
 11
7.9071634284
 21
12.0133683891
  0
LINE
  5
258
100
AcDbEntity
  8
0
100
AcDbLine
 62
7
  6
CONTINUOUS
 10
8.0487657799
 20
12.1491855457
 11
8.0240737408
 21
12.1244935066
  0
LINE
  5
259
100
AcDbEntity
  8
0
100
AcDbLine
 62
7
  6
CONTINUOUS
 10
8.0377387802
 20
12.0969455715
 11
8.0153019437
 21
12.0745087349
  0
LINE
  5
25A
100
AcDbEntity
  8
0
100
AcDbLine
 62
7
  6
CONTINUOUS
 10
8.0199013533
 20
11.9256665966
 11
8.0073832871
 21
11.9131485304
  0
LINE
  5
25B
100
AcDbEntity
  8
0
100
AcDbLine
 62
7
  6
CONTINUOUS
 10
8.1405794437
 20
11.9993465175
 11
8.1155218024
 21
11.9742888762
  0
LINE
  5
25C
100
AcDbEntity
  8
0
100
AcDbLine
 62
7
  6
CONTINUOUS
 10
8.2263437521
 20
11.9697814473
 11
8.2025647761
 21
11.9460024713
  0
LINE
  5
25D
100
AcDbEntity
  8
0
100
AcDbLine
 62
7
  6
CONTINUOUS
 10
10.6140074562
 20
14.2969651312
 11
10.6264271518
 21
14.3093848267
  0
LINE
  5
25E
100
AcDbEntity
  8
0
100
AcDbLine
 62
7
  6
CONTINUOUS
 10
10.6658456136
 20
14.3461474524
 11
10.678266369
 21
14.3585682078
  0
LINE
  5
25F
100
AcDbEntity
  8
0
100
AcDbLine
 62
7
  6
CONTINUOUS
 10
10.7176537834
 20
14.3953523897
 11
10.7300755091
 21
14.4077741154
  0
LINE
  5
260
100
AcDbEntity
  8
0
100
AcDbLine
 62
7
  6
CONTINUOUS
 10
10.7695039638
 20
14.4445201982
 11
10.7819267232
 21
14.4569429576
  0
LINE
  5
261
100
AcDbEntity
  8
0
100
AcDbLine
 62
7
  6
CONTINUOUS
 10
10.7826485062
 20
14.4569953738
 11
10.7950794966
 21
14.4694263641
  0
LINE
  5
262
100
AcDbEntity
  8
0
100
AcDbLine
 62
7
  6
CONTINUOUS
 10
11.5972478666
 20
15.2400665413
 11
10.8199449984
 21
14.462763673
  0
LINE
  5
263
100
AcDbEntity
  8
0
100
AcDbLine
 62
7
  6
CONTINUOUS
 10
10.7763016711
 20
14.4191203457
 11
10.7577856511
 21
14.4006043257
  0
LINE
  5
264
100
AcDbEntity
  8
0
100
AcDbLine
 62
7
  6
CONTINUOUS
 10
10.7250186981
 20
14.3678373728
 11
10.7080285344
 21
14.350847209
  0
LINE
  5
265
100
AcDbEntity
  8
0
100
AcDbLine
 62
7
  6
CONTINUOUS
 10
10.6737585339
 20
14.3165772086
 11
10.6582865541
 21
14.3011052287
  0
LINE
  5
266
100
AcDbEntity
  8
0
100
AcDbLine
 62
7
  6
CONTINUOUS
 10
10.6224832631
 20
14.2653019377
 11
10.6144944376
 21
14.2573131122
  0
LINE
  5
267
100
AcDbEntity
  8
0
100
AcDbLine
 62
7
  6
CONTINUOUS
 10
10.6471981262
 20
14.2246094236
 11
10.4194193389
 21
13.9968306363
  0
LINE
  5
268
100
AcDbEntity
  8
0
100
AcDbLine
 62
7
  6
CONTINUOUS
 10
8.2745479232
 20
11.8346492455
 11
8.2648546782
 21
11.8249560004
  0
LINE
  5
269
100
AcDbEntity
  8
0
100
AcDbLine
 62
7
  6
CONTINUOUS
 10
8.3441799837
 20
11.8537713419
 11
8.3194879447
 21
11.8290793028
  0
LINE
  5
26A
100
AcDbEntity
  8
0
100
AcDbLine
 62
7
  6
CONTINUOUS
 10
10.2176307566
 20
13.6218008926
 11
9.5529503823
 21
12.9571205183
  0
LWPOLYLINE
  5
26B
100
AcDbEntity
  8
0
100
AcDbPolyline
 62
7
  6
CONTINUOUS
 90
8
 70
0
 10
7.8621730167
 20
12.0797725616
 10
7.8635772981
 20
12.0809501407
 10
7.8653469111
 20
12.0819449996
 10
7.8671261178
 20
12.0825341537
 10
7.8686759751
 20
12.0827555385
 10
7.8698087609
 20
12.0827423026
 10
7.8704825466
 20
12.0826500031
 10
7.8707278284
 20
12.0825940624
  0
LWPOLYLINE
  5
26C
100
AcDbEntity
  8
0
100
AcDbPolyline
 62
7
  6
CONTINUOUS
 90
8
 70
0
 10
8.0199008535
 20
11.9256655279
 10
8.0213585459
 20
11.9268807881
 10
8.0230861517
 20
11.9278447684
 10
8.0247971517
 20
11.9284160402
 10
8.0262844488
 20
11.9286409795
 10
8.0273746978
 20
11.9286413332
 10
8.0280120639
 20
11.9285628147
 10
8.0282206769
 20
11.9285182057
  0
LINE
  5
26D
100
AcDbEntity
  8
0
100
AcDbLine
 62
7
  6
CONTINUOUS
 10
14.1094226038
 20
5.227391804
 11
14.4844226038
 21
5.227391804
  0
LINE
  5
26E
100
AcDbEntity
  8
0
100
AcDbLine
 62
7
  6
CONTINUOUS
 10
11.4589226038
 20
5.414891804
 11
11.9039226038
 21
5.414891804
  0
LINE
  5
26F
100
AcDbEntity
  8
0
100
AcDbLine
 62
7
  6
CONTINUOUS
 10
7.1577559819
 20
12.7509647502
 11
7.1577559819
 21
12.732910529
  0
LINE
  5
270
100
AcDbEntity
  8
0
100
AcDbLine
 62
7
  6
CONTINUOUS
 10
7.175422963
 20
12.7332977691
 11
7.175422963
 21
12.7152435014
  0
LINE
  5
271
100
AcDbEntity
  8
0
100
AcDbLine
 62
7
  6
CONTINUOUS
 10
7.2300778353
 20
12.6786428968
 11
7.2300778353
 21
12.6605886291
  0
LINE
  5
272
100
AcDbEntity
  8
0
100
AcDbLine
 62
7
  6
CONTINUOUS
 10
7.277884732
 20
12.7922404933
 11
7.277884732
 21
12.7807092222
  0
LINE
  5
273
100
AcDbEntity
  8
0
100
AcDbLine
 62
7
  6
CONTINUOUS
 10
7.3306885398
 20
12.7981928235
 11
7.3306885398
 21
12.7866620463
  0
LINE
  5
274
100
AcDbEntity
  8
0
100
AcDbLine
 62
7
  6
CONTINUOUS
 10
7.341335487
 20
12.567385245
 11
7.341335487
 21
12.5493309773
  0
LINE
  5
275
100
AcDbEntity
  8
0
100
AcDbLine
 62
7
  6
CONTINUOUS
 10
7.3729509498
 20
12.383785222
 11
7.3729509498
 21
12.3722539447
  0
LINE
  5
276
100
AcDbEntity
  8
0
100
AcDbLine
 62
7
  6
CONTINUOUS
 10
7.5016275928
 20
12.5684976325
 11
7.5016275928
 21
12.5569663614
  0
LINE
  5
277
100
AcDbEntity
  8
0
100
AcDbLine
 62
7
  6
CONTINUOUS
 10
7.5514863306
 20
12.2052498388
 11
7.5514863306
 21
12.1937185638
  0
LINE
  5
278
100
AcDbEntity
  8
0
100
AcDbLine
 62
7
  6
CONTINUOUS
 10
7.5948570211
 20
12.3138637108
 11
7.5948570211
 21
12.2958094439
  0
LINE
  5
279
100
AcDbEntity
  8
0
100
AcDbLine
 62
7
  6
CONTINUOUS
 10
7.6059707539
 20
12.5229106094
 11
7.6059707539
 21
12.5113798323
  0
LINE
  5
27A
100
AcDbEntity
  8
0
100
AcDbLine
 62
7
  6
CONTINUOUS
 10
8.3926650028
 20
11.7523266075
 11
8.3650745369
 21
11.7247361417
  0
LINE
  5
27B
100
AcDbEntity
  8
0
100
AcDbLine
 62
7
  6
CONTINUOUS
 10
8.3215098349
 20
11.6096639149
 11
8.3161888688
 21
11.6043429487
  0
LINE
  5
27C
100
AcDbEntity
  8
0
100
AcDbLine
 62
7
  6
CONTINUOUS
 10
8.4983496176
 20
11.6912228847
 11
8.4778469902
 21
11.6707202573
  0
LINE
  5
27D
100
AcDbEntity
  8
0
100
AcDbLine
 62
7
  6
CONTINUOUS
 10
8.498290784
 20
11.6109063847
 11
8.488597539
 21
11.6012131396
  0
LINE
  5
27E
100
AcDbEntity
  8
0
100
AcDbLine
 62
7
  6
CONTINUOUS
 10
8.43367764
 20
11.5213920025
 11
8.4164087275
 21
11.50412309
  0
LINE
  5
27F
100
AcDbEntity
  8
0
100
AcDbLine
 62
7
  6
CONTINUOUS
 10
8.6194621978
 20
11.5784891278
 11
8.5947701587
 21
11.5537970887
  0
LINE
  5
280
100
AcDbEntity
  8
0
100
AcDbLine
 62
7
  6
CONTINUOUS
 10
8.5114200248
 20
11.4454349039
 11
8.4932584692
 21
11.4272733483
  0
LINE
  5
281
100
AcDbEntity
  8
0
100
AcDbLine
 62
7
  6
CONTINUOUS
 10
8.6186798377
 20
11.5308557208
 11
8.5888173977
 21
11.5009932809
  0
LINE
  5
282
100
AcDbEntity
  8
0
100
AcDbLine
 62
7
  6
CONTINUOUS
 10
8.5536126794
 20
11.4042148144
 11
8.5349648412
 21
11.3855669763
  0
LINE
  5
283
100
AcDbEntity
  8
0
100
AcDbLine
 62
7
  6
CONTINUOUS
 10
8.68707152
 20
11.4343165589
 11
8.6712828198
 21
11.4185278588
  0
LINE
  5
284
100
AcDbEntity
  8
0
100
AcDbLine
 62
7
  6
CONTINUOUS
 10
8.7319280924
 20
11.4520209669
 11
8.7142371864
 21
11.434330061
  0
LINE
  5
285
100
AcDbEntity
  8
0
100
AcDbLine
 62
7
  6
CONTINUOUS
 10
8.7233648195
 20
11.2982156243
 11
8.7185736326
 21
11.2934244375
  0
LINE
  5
286
100
AcDbEntity
  8
0
100
AcDbLine
 62
7
  6
CONTINUOUS
 10
8.7811959236
 20
11.3280012451
 11
8.7715026786
 21
11.318308
  0
LINE
  5
287
100
AcDbEntity
  8
0
100
AcDbLine
 62
7
  6
CONTINUOUS
 10
8.5536123785
 20
11.4042153542
 11
8.5543152323
 21
11.4048639173
  0
LWPOLYLINE
  5
288
100
AcDbEntity
  8
0
100
AcDbPolyline
 62
7
  6
CONTINUOUS
 90
12
 70
0
 10
8.5114209102
 20
11.4454351045
 10
8.5126145311
 20
11.4464765315
 10
8.5142896969
 20
11.4475342997
 10
8.516057192
 20
11.4482707112
 10
8.5177935165
 20
11.4486829496
 10
8.5193295988
 20
11.4488158454
 10
8.5205721772
 20
11.4487662691
 10
8.5214936335
 20
11.4486339805
 10
8.5221632059
 20
11.4484814651
 10
8.5226107887
 20
11.4483481993
 10
8.5228794184
 20
11.4482525555
 10
8.5229803525
 20
11.4482120729
  0
LWPOLYLINE
  5
289
100
AcDbEntity
  8
0
100
AcDbPolyline
 62
7
  6
CONTINUOUS
 90
10
 70
0
 10
8.4336749252
 20
11.5213906805
 10
8.4349418722
 20
11.5224833814
 10
8.43660249
 20
11.5235036641
 10
8.4383169287
 20
11.5241910749
 10
8.4399565678
 20
11.5245586793
 10
8.4413553374
 20
11.5246651587
 10
8.4424291573
 20
11.5246140364
 10
8.4431619383
 20
11.5245046666
 10
8.4436124351
 20
11.5244004104
 10
8.4437847582
 20
11.5243496582
  0
LWPOLYLINE
  5
28A
100
AcDbEntity
  8
0
100
AcDbPolyline
 62
7
  6
CONTINUOUS
 90
15
 70
0
 10
8.5543152323
 20
11.4048639173
 10
8.5556351599
 20
11.4058347875
 10
8.5570339513
 20
11.4065946811
 10
8.5584722493
 20
11.4071430078
 10
8.55990545
 20
11.407487548
 10
8.5612736756
 20
11.4076447954
 10
8.5625296878
 20
11.4076472175
 10
8.563669437
 20
11.4075316127
 10
8.5646867038
 20
11.4073298052
 10
8.5655530158
 20
11.4070800324
 10
8.5662246712
 20
11.4068316197
 10
8.5666864779
 20
11.4066292088
 10
8.5669665652
 20
11.4064912638
 10
8.567106941
 20
11.4064163294
 10
8.5671445406
 20
11.4063951791
  0
LINE
  5
28B
100
AcDbEntity
  8
0
100
AcDbLine
 62
7
  6
CONTINUOUS
 10
8.3209699252
 20
11.5648043052
 11
8.2510214013
 21
11.5321867728
  0
LINE
  5
28C
100
AcDbEntity
  8
0
100
AcDbLine
 62
7
  6
CONTINUOUS
 10
7.7477882912
 20
12.1609324409
 11
7.7477882912
 21
12.1428781732
  0
LINE
  5
28D
100
AcDbEntity
  8
0
100
AcDbLine
 62
7
  6
CONTINUOUS
 10
7.7511803273
 20
12.318944898
 11
7.7511803273
 21
12.3074136269
  0
LINE
  5
28E
100
AcDbEntity
  8
0
100
AcDbLine
 62
7
  6
CONTINUOUS
 10
7.8039734876
 20
11.9527626842
 11
7.8039734876
 21
11.9412314069
  0
LINE
  5
28F
100
AcDbEntity
  8
0
100
AcDbLine
 62
7
  6
CONTINUOUS
 10
7.9013849577
 20
12.2274964058
 11
7.9013849577
 21
12.2159656285
  0
LINE
  5
290
100
AcDbEntity
  8
0
100
AcDbLine
 62
7
  6
CONTINUOUS
 10
7.9037040596
 20
12.0050166724
 11
7.9037040596
 21
11.9869624047
  0
LINE
  5
291
100
AcDbEntity
  8
0
100
AcDbLine
 62
7
  6
CONTINUOUS
 10
7.9825088684
 20
11.768829265
 11
7.9825088684
 21
11.762696026
  0
LINE
  5
292
100
AcDbEntity
  8
0
100
AcDbLine
 62
7
  6
CONTINUOUS
 10
8.0095363291
 20
12.0605888961
 11
8.0095363291
 21
12.049057625
  0
LINE
  5
293
100
AcDbEntity
  8
0
100
AcDbLine
 62
7
  6
CONTINUOUS
 10
8.1967991616
 20
11.9320822017
 11
8.1967991616
 21
11.9205514246
  0
LINE
  5
294
100
AcDbEntity
  8
0
100
AcDbLine
 62
7
  6
CONTINUOUS
 10
8.2590890636
 20
11.8110361617
 11
8.2590890636
 21
11.7995048905
  0
LINE
  5
295
100
AcDbEntity
  8
0
100
AcDbLine
 62
7
  6
CONTINUOUS
 10
8.3127295
 20
11.595991232
 11
8.3127295
 21
11.5779369643
  0
LINE
  5
296
100
AcDbEntity
  8
0
100
AcDbLine
 62
7
  6
CONTINUOUS
 10
8.8149413999
 20
11.303830437
 11
8.8004608207
 21
11.2893498579
  0
LINE
  5
297
100
AcDbEntity
  8
0
100
AcDbLine
 62
7
  6
CONTINUOUS
 10
8.8558523941
 20
11.3420989315
 11
8.831160355
 21
11.3174068925
  0
LINE
  5
298
100
AcDbEntity
  8
0
100
AcDbLine
 62
7
  6
CONTINUOUS
 10
8.9111602499
 20
11.2684759698
 11
8.8956257638
 21
11.2529414837
  0
LINE
  5
299
100
AcDbEntity
  8
0
100
AcDbLine
 62
7
  6
CONTINUOUS
 10
8.9103739245
 20
11.1988232442
 11
8.9006806795
 21
11.1891299991
  0
LINE
  5
29A
100
AcDbEntity
  8
0
100
AcDbLine
 62
7
  6
CONTINUOUS
 10
8.9778718805
 20
11.1325862928
 11
8.9675481332
 21
11.1222625454
  0
LINE
  5
29B
100
AcDbEntity
  8
0
100
AcDbLine
 62
7
  6
CONTINUOUS
 10
9.0372409714
 20
11.1607103542
 11
9.0125489323
 21
11.1360183152
  0
LINE
  5
29C
100
AcDbEntity
  8
0
100
AcDbLine
 62
7
  6
CONTINUOUS
 10
9.1512665979
 20
11.0466847277
 11
9.1265745588
 21
11.0219926886
  0
LINE
  5
29D
100
AcDbEntity
  8
0
100
AcDbLine
 62
7
  6
CONTINUOUS
 10
8.4720813756
 20
11.6567999877
 11
8.4720813756
 21
11.6452692106
  0
LINE
  5
29E
100
AcDbEntity
  8
0
100
AcDbLine
 62
7
  6
CONTINUOUS
 10
8.4828319244
 20
11.5872933009
 11
8.4828319244
 21
11.5757620297
  0
LINE
  5
29F
100
AcDbEntity
  8
0
100
AcDbLine
 62
7
  6
CONTINUOUS
 10
8.6655172053
 20
11.40460802
 11
8.6655172053
 21
11.3930767489
  0
LINE
  5
2A0
100
AcDbEntity
  8
0
100
AcDbLine
 62
7
  6
CONTINUOUS
 10
8.7084715719
 20
11.4204097914
 11
8.7084715719
 21
11.4088790143
  0
LINE
  5
2A1
100
AcDbEntity
  8
0
100
AcDbLine
 62
7
  6
CONTINUOUS
 10
8.7946952062
 20
11.2754300191
 11
8.7946952062
 21
11.263898748
  0
LINE
  5
2A2
100
AcDbEntity
  8
0
100
AcDbLine
 62
7
  6
CONTINUOUS
 10
8.8898601492
 20
11.2390212141
 11
8.8898601492
 21
11.227490437
  0
LINE
  5
2A3
100
AcDbEntity
  8
0
100
AcDbLine
 62
7
  6
CONTINUOUS
 10
9.3188050041
 20
10.9025927613
 11
9.2967960914
 21
10.8805838485
  0
LINE
  5
2A4
100
AcDbEntity
  8
0
100
AcDbLine
 62
7
  6
CONTINUOUS
 10
10.0712596529
 20
11.4601754625
 11
9.4744029567
 21
10.8633187663
  0
LWPOLYLINE
  5
2A5
100
AcDbEntity
  8
0
100
AcDbPolyline
 62
7
  6
CONTINUOUS
 90
11
 70
0
 10
7.2542950091
 20
12.7158754729
 10
7.2543500429
 20
12.7157213953
 10
7.2544538992
 20
12.7153771625
 10
7.2545884544
 20
12.7148005577
 10
7.2547150145
 20
12.7139621977
 10
7.2547722625
 20
12.7127912877
 10
7.2546586021
 20
12.7113008927
 10
7.2542675964
 20
12.7095774094
 10
7.2535444936
 20
12.7078002988
 10
7.2524904241
 20
12.7061092729
 10
7.2514256411
 20
12.7048831566
  0
LWPOLYLINE
  5
2A6
100
AcDbEntity
  8
0
100
AcDbPolyline
 62
7
  6
CONTINUOUS
 90
9
 70
0
 10
7.7659738683
 20
12.1894846506
 10
7.7659530078
 20
12.1895484097
 10
7.7660040903
 20
12.1893225953
 10
7.7660852287
 20
12.1887135701
 10
7.7660983437
 20
12.1876577912
 10
7.7658940508
 20
12.1861704238
 10
7.7653303693
 20
12.1844177611
 10
7.7643535487
 20
12.1826410716
 10
7.7631201549
 20
12.1811561078
  0
LINE
  5
2A7
100
AcDbEntity
  8
0
100
AcDbLine
 62
7
  6
CONTINUOUS
 10
9.5141927789
 20
12.9772061086
 11
9.517498764
 21
12.1598875853
  0
LINE
  5
2A8
100
AcDbEntity
  8
0
100
AcDbLine
 62
7
  6
CONTINUOUS
 10
9.0038857757
 20
11.1249955876
 11
9.0038857757
 21
11.1134648104
  0
LINE
  5
2A9
100
AcDbEntity
  8
0
100
AcDbLine
 62
7
  6
CONTINUOUS
 10
14.7974226038
 20
7.289891804
 11
14.6579593435
 21
7.289891804
  0
LWPOLYLINE
  5
2AA
100
AcDbEntity
  8
0
100
AcDbPolyline
 62
7
  6
CONTINUOUS
 90
16
 70
0
 10
7.1998896008
 20
12.7728983082
 10
7.1998736411
 20
12.7729280233
 10
7.1998982331
 20
12.7728788339
 10
7.1999760169
 20
12.7727118372
 10
7.2001077286
 20
12.7723981951
 10
7.2002841467
 20
12.7719124938
 10
7.200482067
 20
12.771241743
 10
7.2006668261
 20
12.770389511
 10
7.2007971351
 20
12.7693814431
 10
7.2008345809
 20
12.7681936866
 10
7.2007283746
 20
12.7668497944
 10
7.2004306214
 20
12.7653878791
 10
7.1999104415
 20
12.7638845935
 10
7.1991571702
 20
12.7624104329
 10
7.1981679348
 20
12.7610112635
 10
7.1974064824
 20
12.7601732444
  0
LWPOLYLINE
  5
2AB
100
AcDbEntity
  8
0
100
AcDbPolyline
 62
7
  6
CONTINUOUS
 90
9
 70
0
 10
7.1819965222
 20
12.7919868177
 10
7.182748192
 20
12.7902750905
 10
7.1832318107
 20
12.7884006414
 10
7.1834029889
 20
12.7864656585
 10
7.1832507095
 20
12.7845066769
 10
7.1827669502
 20
12.782573192
 10
7.1819707039
 20
12.7807605354
 10
7.1808922513
 20
12.7791167359
 10
7.1799432404
 20
12.7780457229
  0
LWPOLYLINE
  5
2AC
100
AcDbEntity
  8
0
100
AcDbPolyline
 62
7
  6
CONTINUOUS
 90
9
 70
0
 10
7.6148516708
 20
12.3442216183
 10
7.6148488107
 20
12.3442283531
 10
7.6149109853
 20
12.3439114711
 10
7.6149785834
 20
12.3432220124
 10
7.6149536541
 20
12.342118328
 10
7.6147015412
 20
12.3406394015
 10
7.6141106194
 20
12.3389545453
 10
7.6131392159
 20
12.3372579242
 10
7.6119695206
 20
12.3358678544
  0
LWPOLYLINE
  5
2AD
100
AcDbEntity
  8
0
100
AcDbPolyline
 62
7
  6
CONTINUOUS
 90
10
 70
0
 10
7.9200988417
 20
12.0320256724
 10
7.9200354336
 20
12.0321853176
 10
7.9200381666
 20
12.0321707037
 10
7.9201193606
 20
12.031822554
 10
7.920214689
 20
12.0311082857
 10
7.920224546
 20
12.029953543
 10
7.9199954946
 20
12.0283830748
 10
7.9193929907
 20
12.0265842941
 10
7.918384143
 20
12.0248063246
 10
7.9172275515
 20
12.0234329252
  0
LINE
  5
2AE
100
AcDbEntity
  8
0
100
AcDbLine
 62
7
  6
CONTINUOUS
 10
9.7244237768
 20
14.5038261984
 11
9.7244237768
 21
14.4305100336
  0
LINE
  5
2AF
100
AcDbEntity
  8
0
100
AcDbLine
 62
7
  6
CONTINUOUS
 10
10.1086580176
 20
14.8998655466
 11
10.108709327
 21
14.9005765211
  0
LINE
  5
2B0
100
AcDbEntity
  8
0
100
AcDbLine
 62
7
  6
CONTINUOUS
 10
10.0588497919
 20
14.850063846
 11
10.0589006671
 21
14.8507678612
  0
LINE
  5
2B1
100
AcDbEntity
  8
0
100
AcDbLine
 62
7
  6
CONTINUOUS
 10
10.1583057582
 20
14.949517555
 11
10.158356818
 21
14.950224012
  0
LINE
  5
2B2
100
AcDbEntity
  8
0
100
AcDbLine
 62
7
  6
CONTINUOUS
 10
10.2081343686
 20
15.0000015627
 11
10.2080835026
 21
14.9992976789
  0
LINE
  5
2B3
100
AcDbEntity
  8
0
100
AcDbLine
 62
7
  6
CONTINUOUS
 10
7.1810120492
 20
12.7935209677
 11
7.1819965222
 21
12.7919868177
  0
LWPOLYLINE
  5
2B4
100
AcDbEntity
  8
0
100
AcDbPolyline
 62
7
  6
CONTINUOUS
 90
13
 70
0
 10
8.3238047102
 20
11.6219808928
 10
8.3237954858
 20
11.6219955946
 10
8.3238535216
 20
11.6218920591
 10
8.3240106515
 20
11.6215722629
 10
8.3242363795
 20
11.6210174252
 10
8.3244780303
 20
11.6202451103
 10
8.3246909455
 20
11.6192317582
 10
8.3248119388
 20
11.6179465287
 10
8.3247481771
 20
11.6163617997
 10
8.3243875929
 20
11.614544845
 10
8.3236668328
 20
11.6126767462
 10
8.3225920093
 20
11.6109162543
 10
8.3215087857
 20
11.6096622511
  0
LINE
  5
2B5
100
AcDbEntity
  8
0
100
AcDbLine
 62
7
  6
CONTINUOUS
 10
10.6224832631
 20
14.2653019377
 11
10.6225374059
 21
14.2660508189
  0
LINE
  5
2B6
100
AcDbEntity
  8
0
100
AcDbLine
 62
7
  6
CONTINUOUS
 10
10.6738131148
 20
14.3173317359
 11
10.6737585339
 21
14.3165772086
  0
LINE
  5
2B7
100
AcDbEntity
  8
0
100
AcDbLine
 62
7
  6
CONTINUOUS
 10
10.7250727325
 20
14.3685848353
 11
10.7250186981
 21
14.3678373728
  0
LINE
  5
2B8
100
AcDbEntity
  8
0
100
AcDbLine
 62
7
  6
CONTINUOUS
 10
10.7763558069
 20
14.4198691246
 11
10.7763016711
 21
14.4191203457
  0
LINE
  5
2B9
100
AcDbEntity
  8
0
100
AcDbLine
 62
7
  6
CONTINUOUS
 10
7.3787200736
 20
12.3583318919
 11
7.5314310103
 21
12.2056209552
  0
LINE
  5
2BA
100
AcDbEntity
  8
0
100
AcDbLine
 62
7
  6
CONTINUOUS
 10
7.5572529842
 20
12.1797989813
 11
7.7099688899
 21
12.0270830755
  0
LINE
  5
2BB
100
AcDbEntity
  8
0
100
AcDbLine
 62
7
  6
CONTINUOUS
 10
7.809740163
 20
11.9273118024
 11
7.9624560251
 21
11.7745959404
  0
LINE
  5
2BC
100
AcDbEntity
  8
0
100
AcDbLine
 62
7
  6
CONTINUOUS
 10
7.9882779179
 20
11.7487740476
 11
8.1409890319
 21
11.5960629336
  0
LINE
  5
2BD
100
AcDbEntity
  8
0
100
AcDbLine
 62
9
  6
CONTINUOUS
 10
7.9763756295
 20
11.768829265
 11
7.8039734876
 21
11.9412314069
  0
LINE
  5
2BE
100
AcDbEntity
  8
0
100
AcDbLine
 62
9
  6
CONTINUOUS
 10
7.7238884725
 20
12.0213164219
 11
7.5514863306
 21
12.1937185638
  0
LINE
  5
2BF
100
AcDbEntity
  8
0
100
AcDbLine
 62
9
  6
CONTINUOUS
 10
7.5453530917
 20
12.1998518028
 11
7.3729509498
 21
12.3722539447
  0
LINE
  5
2C0
100
AcDbEntity
  8
0
100
AcDbLine
 62
9
  6
CONTINUOUS
 10
7.7308483877
 20
12.0213164219
 11
7.8039734876
 21
11.948191322
  0
LINE
  5
2C1
100
AcDbEntity
  8
0
100
AcDbLine
 62
9
  6
CONTINUOUS
 10
8.1664422853
 20
11.5902938841
 11
7.8039734876
 21
11.9527626842
  0
LINE
  5
2C2
100
AcDbEntity
  8
0
100
AcDbLine
 62
9
  6
CONTINUOUS
 10
7.7354197475
 20
12.0213164219
 11
7.3729509498
 21
12.383785222
  0
LINE
  5
2C3
100
AcDbEntity
  8
0
100
AcDbLine
 62
7
  6
CONTINUOUS
 10
7.3187650453
 20
12.4461257698
 11
8.2287828355
 21
11.5361079796
  0
LINE
  5
2C4
100
AcDbEntity
  8
0
100
AcDbLine
 62
9
  6
CONTINUOUS
 10
8.2510214013
 20
11.5321867728
 11
7.3148438385
 21
12.4683643357
  0
LINE
  5
2C5
100
AcDbEntity
  8
0
100
AcDbLine
 62
9
  6
CONTINUOUS
 10
7.9825088684
 20
11.762696026
 11
8.1549110103
 21
11.5902938841
  0
LINE
  5
2C6
100
AcDbEntity
  8
0
100
AcDbLine
 62
7
  6
CONTINUOUS
 10
6.6733056714
 20
13.548092094
 11
6.6430927884
 21
13.5816469
  0
LINE
  5
2C7
100
AcDbEntity
  8
0
100
AcDbLine
 62
7
  6
CONTINUOUS
 10
7.1812847534
 20
12.7931474241
 11
7.1812289201
 21
12.7932211708
  0
LINE
  5
2C8
100
AcDbEntity
  8
0
100
AcDbLine
 62
7
  6
CONTINUOUS
 10
11.3814226038
 20
3.6648926819
 11
11.3814226038
 21
4.4148909262
  0
LINE
  5
2C9
100
AcDbEntity
  8
0
100
AcDbLine
 62
7
  6
CONTINUOUS
 10
9.3307491597
 20
10.8906486058
 11
9.3643039657
 21
10.8604357227
  0
LINE
  5
2CA
100
AcDbEntity
  8
0
100
AcDbLine
 62
7
  6
CONTINUOUS
 10
7.1612141809
 20
12.7245600495
 11
7.2332339629
 21
12.6525402675
  0
LINE
  5
2CB
100
AcDbEntity
  8
0
100
AcDbLine
 62
7
  6
CONTINUOUS
 10
7.2335400193
 20
12.6522342111
 11
7.2989966604
 21
12.58677757
  0
LINE
  5
2CC
100
AcDbEntity
  8
0
100
AcDbLine
 62
7
  6
CONTINUOUS
 10
7.3447949678
 20
12.5409792626
 11
7.3474613708
 21
12.5383128596
  0
LINE
  5
2CD
100
AcDbEntity
  8
0
100
AcDbLine
 62
7
  6
CONTINUOUS
 10
7.5983175573
 20
12.2874566731
 11
7.663777494
 21
12.2219967364
  0
LINE
  5
2CE
100
AcDbEntity
  8
0
100
AcDbLine
 62
7
  6
CONTINUOUS
 10
7.7512483735
 20
12.1345258569
 11
7.8167092179
 21
12.0690650125
  0
LINE
  5
2CF
100
AcDbEntity
  8
0
100
AcDbLine
 62
7
  6
CONTINUOUS
 10
7.907164052
 20
11.9786101784
 11
7.9726250763
 21
11.9131491541
  0
LINE
  5
2D0
100
AcDbEntity
  8
0
100
AcDbLine
 62
7
  6
CONTINUOUS
 10
8.3161902321
 20
11.5695839984
 11
8.3882180149
 21
11.4975562155
  0
LINE
  5
2D1
100
AcDbEntity
  8
0
100
AcDbLine
 62
7
  6
CONTINUOUS
 10
8.393040268
 20
11.4927339624
 11
8.500213539
 21
11.3855606914
  0
LINE
  5
2D2
100
AcDbEntity
  8
0
100
AcDbLine
 62
9
  6
CONTINUOUS
 10
7.341335487
 20
12.5493309773
 11
7.349017174
 21
12.5416492903
  0
LINE
  5
2D3
100
AcDbEntity
  8
0
100
AcDbLine
 62
9
  6
CONTINUOUS
 10
7.9809773027
 20
11.9096891617
 11
7.9037040596
 21
11.9869624047
  0
LINE
  5
2D4
100
AcDbEntity
  8
0
100
AcDbLine
 62
9
  6
CONTINUOUS
 10
7.8250615342
 20
12.0656049301
 11
7.7477882912
 21
12.1428781732
  0
LINE
  5
2D5
100
AcDbEntity
  8
0
100
AcDbLine
 62
9
  6
CONTINUOUS
 10
7.6721302649
 20
12.2185362002
 11
7.5948570211
 21
12.2958094439
  0
LINE
  5
2D6
100
AcDbEntity
  8
0
100
AcDbLine
 62
9
  6
CONTINUOUS
 10
7.3073510784
 20
12.583315386
 11
7.1577559819
 21
12.732910529
  0
LINE
  5
2D7
100
AcDbEntity
  8
0
100
AcDbLine
 62
9
  6
CONTINUOUS
 10
7.3499079636
 20
12.5435595948
 11
7.5948570211
 21
12.298610537
  0
LINE
  5
2D8
100
AcDbEntity
  8
0
100
AcDbLine
 62
9
  6
CONTINUOUS
 10
7.674931358
 20
12.2185362002
 11
7.7477882912
 21
12.145679267
  0
LINE
  5
2D9
100
AcDbEntity
  8
0
100
AcDbLine
 62
9
  6
CONTINUOUS
 10
7.827862628
 20
12.0656049301
 11
7.9037040596
 21
11.9897634985
  0
LINE
  5
2DA
100
AcDbEntity
  8
0
100
AcDbLine
 62
9
  6
CONTINUOUS
 10
7.9837783965
 20
11.9096891617
 11
8.3127295
 21
11.5807380606
  0
LINE
  5
2DB
100
AcDbEntity
  8
0
100
AcDbLine
 62
9
  6
CONTINUOUS
 10
7.341335487
 20
12.567385245
 11
7.3532369917
 21
12.5554837404
  0
LINE
  5
2DC
100
AcDbEntity
  8
0
100
AcDbLine
 62
9
  6
CONTINUOUS
 10
8.5266131245
 20
11.3821076076
 11
8.3127295
 21
11.595991232
  0
LINE
  5
2DD
100
AcDbEntity
  8
0
100
AcDbLine
 62
9
  6
CONTINUOUS
 10
7.9990315704
 20
11.9096891617
 11
7.9037040596
 21
12.0050166724
  0
LINE
  5
2DE
100
AcDbEntity
  8
0
100
AcDbLine
 62
9
  6
CONTINUOUS
 10
7.8431158019
 20
12.0656049301
 11
7.7477882912
 21
12.1609324409
  0
LINE
  5
2DF
100
AcDbEntity
  8
0
100
AcDbLine
 62
9
  6
CONTINUOUS
 10
7.6901845318
 20
12.2185362002
 11
7.5948570211
 21
12.3138637108
  0
LINE
  5
2E0
100
AcDbEntity
  8
0
100
AcDbLine
 62
9
  6
CONTINUOUS
 10
7.325405346
 20
12.583315386
 11
7.1577559819
 21
12.7509647502
  0
LINE
  5
2E1
100
AcDbEntity
  8
0
100
AcDbLine
 62
9
  6
CONTINUOUS
 10
8.5349648412
 20
11.3855669763
 11
8.3161888688
 21
11.6043429487
  0
LINE
  5
2E2
100
AcDbEntity
  8
0
100
AcDbLine
 62
9
  6
CONTINUOUS
 10
8.0073832871
 20
11.9131485304
 11
7.9071634284
 21
12.0133683891
  0
LINE
  5
2E3
100
AcDbEntity
  8
0
100
AcDbLine
 62
9
  6
CONTINUOUS
 10
7.8514675186
 20
12.0690642989
 11
7.7512476599
 21
12.1692841576
  0
LINE
  5
2E4
100
AcDbEntity
  8
0
100
AcDbLine
 62
9
  6
CONTINUOUS
 10
7.6985362486
 20
12.2219955689
 11
7.5983163899
 21
12.3222154277
  0
LINE
  5
2E5
100
AcDbEntity
  8
0
100
AcDbLine
 62
9
  6
CONTINUOUS
 10
7.3528724108
 20
12.5676594067
 11
7.3447948558
 21
12.5757369617
  0
LINE
  5
2E6
100
AcDbEntity
  8
0
100
AcDbLine
 62
9
  6
CONTINUOUS
 10
7.3337570628
 20
12.5867747547
 11
7.1612153506
 21
12.7593164669
  0
LINE
  5
2E7
100
AcDbEntity
  8
0
100
AcDbLine
 62
7
  6
CONTINUOUS
 10
7.3447325042
 20
12.5850857402
 11
7.6029596033
 21
12.3268586411
  0
LINE
  5
2E8
100
AcDbEntity
  8
0
100
AcDbLine
 62
7
  6
CONTINUOUS
 10
7.7031794621
 20
12.2266387824
 11
7.7558908733
 21
12.1739273711
  0
LINE
  5
2E9
100
AcDbEntity
  8
0
100
AcDbLine
 62
7
  6
CONTINUOUS
 10
7.8561107321
 20
12.0737075123
 11
7.9118066418
 21
12.0180116026
  0
LINE
  5
2EA
100
AcDbEntity
  8
0
100
AcDbLine
 62
7
  6
CONTINUOUS
 10
8.0120265006
 20
11.9177917438
 11
8.3208320822
 21
11.6089861622
  0
LINE
  5
2EB
100
AcDbEntity
  8
0
100
AcDbLine
 62
7
  6
CONTINUOUS
 10
7.0725308167
 20
12.9490496272
 11
8.7317066928
 21
11.2898737511
  0
LINE
  5
2EC
100
AcDbEntity
  8
0
100
AcDbLine
 62
7
  6
CONTINUOUS
 10
8.8054528958
 20
11.2378246479
 11
7.0204817135
 21
13.0227958301
  0
LINE
  5
2ED
100
AcDbEntity
  8
0
100
AcDbLine
 62
7
  6
CONTINUOUS
 10
6.9049136043
 20
13.1455269956
 11
6.965775278
 21
13.0846653218
  0
LINE
  5
2EE
100
AcDbEntity
  8
0
100
AcDbLine
 62
7
  6
CONTINUOUS
 10
6.971788836
 20
13.0786517639
 11
7.0326350736
 21
13.0178055263
  0
LINE
  5
2EF
100
AcDbEntity
  8
0
100
AcDbLine
 62
7
  6
CONTINUOUS
 10
7.100966492
 20
12.9494741079
 11
7.1618134194
 21
12.8886271805
  0
LINE
  5
2F0
100
AcDbEntity
  8
0
100
AcDbLine
 62
7
  6
CONTINUOUS
 10
7.2836509709
 20
12.7667896289
 11
7.3444995021
 21
12.7059410977
  0
LINE
  5
2F1
100
AcDbEntity
  8
0
100
AcDbLine
 62
7
  6
CONTINUOUS
 10
7.5073944086
 20
12.5430461913
 11
7.568241786
 21
12.4821988138
  0
LINE
  5
2F2
100
AcDbEntity
  8
0
100
AcDbLine
 62
7
  6
CONTINUOUS
 10
7.7569466066
 20
12.2934939933
 11
7.8177950571
 21
12.2326455428
  0
LINE
  5
2F3
100
AcDbEntity
  8
0
100
AcDbLine
 62
7
  6
CONTINUOUS
 10
8.0153026349
 20
12.035137965
 11
8.0761510324
 21
11.9742895674
  0
LINE
  5
2F4
100
AcDbEntity
  8
0
100
AcDbLine
 62
7
  6
CONTINUOUS
 10
8.2648558916
 20
11.7855847083
 11
8.3257032448
 21
11.724737355
  0
LINE
  5
2F5
100
AcDbEntity
  8
0
100
AcDbLine
 62
7
  6
CONTINUOUS
 10
8.4885981116
 20
11.5618424882
 11
8.5494467463
 21
11.5009938535
  0
LINE
  5
2F6
100
AcDbEntity
  8
0
100
AcDbLine
 62
7
  6
CONTINUOUS
 10
8.6712841319
 20
11.3791564679
 11
8.7321312877
 21
11.3183093121
  0
LINE
  5
2F7
100
AcDbEntity
  8
0
100
AcDbLine
 62
7
  6
CONTINUOUS
 10
8.8004625926
 20
11.2499780073
 11
8.8613088289
 21
11.189131771
  0
LINE
  5
2F8
100
AcDbEntity
  8
0
100
AcDbLine
 62
7
  6
CONTINUOUS
 10
8.8673222676
 20
11.1831183323
 11
8.9281839414
 21
11.1222566585
  0
LINE
  5
2F9
100
AcDbEntity
  8
0
100
AcDbLine
 62
9
  6
CONTINUOUS
 10
8.7958295023
 20
11.2574388915
 11
8.7395917122
 21
11.3136766816
  0
LINE
  5
2FA
100
AcDbEntity
  8
0
100
AcDbLine
 62
9
  6
CONTINUOUS
 10
8.6666515014
 20
11.3866168924
 11
8.5569064314
 21
11.4963619625
  0
LINE
  5
2FB
100
AcDbEntity
  8
0
100
AcDbLine
 62
9
  6
CONTINUOUS
 10
8.4839662206
 20
11.5693021733
 11
8.3331635706
 21
11.7201048233
  0
LINE
  5
2FC
100
AcDbEntity
  8
0
100
AcDbLine
 62
9
  6
CONTINUOUS
 10
8.2602233598
 20
11.7930450341
 11
8.083610836
 21
11.9696575578
  0
LINE
  5
2FD
100
AcDbEntity
  8
0
100
AcDbLine
 62
9
  6
CONTINUOUS
 10
8.0106706253
 20
12.0425977686
 11
7.8252548342
 21
12.2280135596
  0
LINE
  5
2FE
100
AcDbEntity
  8
0
100
AcDbLine
 62
9
  6
CONTINUOUS
 10
7.7523146235
 20
12.3009537704
 11
7.5757020997
 21
12.4775662941
  0
LINE
  5
2FF
100
AcDbEntity
  8
0
100
AcDbLine
 62
9
  6
CONTINUOUS
 10
7.5027618889
 20
12.5505065049
 11
7.3519592389
 21
12.7013091549
  0
LINE
  5
300
100
AcDbEntity
  8
0
100
AcDbLine
 62
9
  6
CONTINUOUS
 10
7.2790190281
 20
12.7742493657
 11
7.1692739581
 21
12.8839944358
  0
LINE
  5
301
100
AcDbEntity
  8
0
100
AcDbLine
 62
9
  6
CONTINUOUS
 10
7.0963337473
 20
12.9569346466
 11
7.0400959572
 21
13.0131724367
  0
LINE
  5
302
100
AcDbEntity
  8
0
100
AcDbLine
 62
9
  6
CONTINUOUS
 10
8.7460515687
 20
11.3125423855
 11
8.6655172053
 21
11.3930767489
  0
LINE
  5
303
100
AcDbEntity
  8
0
100
AcDbLine
 62
9
  6
CONTINUOUS
 10
8.5633662878
 20
11.4952276663
 11
8.4828319244
 21
11.5757620297
  0
LINE
  5
304
100
AcDbEntity
  8
0
100
AcDbLine
 62
9
  6
CONTINUOUS
 10
8.339623427
 20
11.7189705271
 11
8.2590890636
 21
11.7995048905
  0
LINE
  5
305
100
AcDbEntity
  8
0
100
AcDbLine
 62
9
  6
CONTINUOUS
 10
8.0900706925
 20
11.9685232616
 11
8.0095363291
 21
12.049057625
  0
LINE
  5
306
100
AcDbEntity
  8
0
100
AcDbLine
 62
9
  6
CONTINUOUS
 10
7.8317146907
 20
12.2268792635
 11
7.7511803273
 21
12.3074136269
  0
LINE
  5
307
100
AcDbEntity
  8
0
100
AcDbLine
 62
9
  6
CONTINUOUS
 10
7.5821619562
 20
12.476431998
 11
7.5016275928
 21
12.5569663614
  0
LINE
  5
308
100
AcDbEntity
  8
0
100
AcDbLine
 62
9
  6
CONTINUOUS
 10
7.3584190954
 20
12.7001748588
 11
7.277884732
 21
12.7807092222
  0
LINE
  5
309
100
AcDbEntity
  8
0
100
AcDbLine
 62
9
  6
CONTINUOUS
 10
7.1757338145
 20
12.8828601396
 11
7.0951994511
 21
12.963394503
  0
LINE
  5
30A
100
AcDbEntity
  8
0
100
AcDbLine
 62
9
  6
CONTINUOUS
 10
7.0465558136
 20
13.0120381405
 11
6.8991539965
 21
13.1594399576
  0
LINE
  5
30B
100
AcDbEntity
  8
0
100
AcDbLine
 62
9
  6
CONTINUOUS
 10
8.7575828398
 20
11.3125423855
 11
8.6655172053
 21
11.40460802
  0
LINE
  5
30C
100
AcDbEntity
  8
0
100
AcDbLine
 62
9
  6
CONTINUOUS
 10
8.3511546982
 20
11.7189705271
 11
8.2590890636
 21
11.8110361617
  0
LINE
  5
30D
100
AcDbEntity
  8
0
100
AcDbLine
 62
9
  6
CONTINUOUS
 10
7.8432459618
 20
12.2268792635
 11
7.7511803273
 21
12.318944898
  0
LINE
  5
30E
100
AcDbEntity
  8
0
100
AcDbLine
 62
9
  6
CONTINUOUS
 10
7.3699503665
 20
12.7001748588
 11
7.277884732
 21
12.7922404933
  0
LINE
  5
30F
100
AcDbEntity
  8
0
100
AcDbLine
 62
9
  6
CONTINUOUS
 10
7.0580870848
 20
13.0120381405
 11
6.8991539965
 21
13.1709712047
  0
LINE
  5
310
100
AcDbEntity
  8
0
100
AcDbLine
 62
9
  6
CONTINUOUS
 10
8.9536282944
 20
11.1164969309
 11
8.7946952062
 21
11.2754300191
  0
LINE
  5
311
100
AcDbEntity
  8
0
100
AcDbLine
 62
9
  6
CONTINUOUS
 10
8.574897559
 20
11.4952276663
 11
8.4828319244
 21
11.5872933009
  0
LINE
  5
312
100
AcDbEntity
  8
0
100
AcDbLine
 62
9
  6
CONTINUOUS
 10
8.1016019636
 20
11.9685232616
 11
8.0095363291
 21
12.0605888961
  0
LINE
  5
313
100
AcDbEntity
  8
0
100
AcDbLine
 62
9
  6
CONTINUOUS
 10
7.5936932273
 20
12.476431998
 11
7.5016275928
 21
12.5684976325
  0
LINE
  5
314
100
AcDbEntity
  8
0
100
AcDbLine
 62
9
  6
CONTINUOUS
 10
7.1872650857
 20
12.8828601396
 11
7.0951994511
 21
12.9749257742
  0
LINE
  5
315
100
AcDbEntity
  8
0
100
AcDbLine
 62
9
  6
CONTINUOUS
 10
8.7968420201
 20
11.2842783535
 11
8.7664311742
 21
11.3146891994
  0
LINE
  5
316
100
AcDbEntity
  8
0
100
AcDbLine
 62
9
  6
CONTINUOUS
 10
8.6676640192
 20
11.4134563544
 11
8.5837458934
 21
11.4973744802
  0
LINE
  5
317
100
AcDbEntity
  8
0
100
AcDbLine
 62
9
  6
CONTINUOUS
 10
8.4849787384
 20
11.5961416353
 11
8.3600030326
 21
11.721117341
  0
LINE
  5
318
100
AcDbEntity
  8
0
100
AcDbLine
 62
9
  6
CONTINUOUS
 10
8.2612358776
 20
11.8198844961
 11
8.1104502981
 21
11.9706700756
  0
LINE
  5
319
100
AcDbEntity
  8
0
100
AcDbLine
 62
9
  6
CONTINUOUS
 10
8.011683143
 20
12.0694372306
 11
7.8520942962
 21
12.2290260774
  0
LINE
  5
31A
100
AcDbEntity
  8
0
100
AcDbLine
 62
9
  6
CONTINUOUS
 10
7.7533271412
 20
12.3277932324
 11
7.6025415617
 21
12.4785788119
  0
LINE
  5
31B
100
AcDbEntity
  8
0
100
AcDbLine
 62
9
  6
CONTINUOUS
 10
7.5037744067
 20
12.5773459669
 11
7.3787987009
 21
12.7023216727
  0
LINE
  5
31C
100
AcDbEntity
  8
0
100
AcDbLine
 62
9
  6
CONTINUOUS
 10
7.2800315459
 20
12.8010888277
 11
7.1961134201
 21
12.8850069535
  0
LINE
  5
31D
100
AcDbEntity
  8
0
100
AcDbLine
 62
9
  6
CONTINUOUS
 10
7.0973462651
 20
12.9837741086
 11
7.0669354192
 21
13.0141849545
  0
LINE
  5
31E
100
AcDbEntity
  8
0
100
AcDbLine
 62
9
  6
CONTINUOUS
 10
8.9675481332
 20
11.1222625454
 11
8.8004608207
 21
11.2893498579
  0
LINE
  5
31F
100
AcDbEntity
  8
0
100
AcDbLine
 62
9
  6
CONTINUOUS
 10
8.7715026786
 20
11.318308
 11
8.6712828198
 21
11.4185278588
  0
LINE
  5
320
100
AcDbEntity
  8
0
100
AcDbLine
 62
9
  6
CONTINUOUS
 10
8.5888173977
 20
11.5009932809
 11
8.488597539
 21
11.6012131396
  0
LINE
  5
321
100
AcDbEntity
  8
0
100
AcDbLine
 62
9
  6
CONTINUOUS
 10
8.3650745369
 20
11.7247361417
 11
8.2648546782
 21
11.8249560004
  0
LINE
  5
322
100
AcDbEntity
  8
0
100
AcDbLine
 62
9
  6
CONTINUOUS
 10
8.1155218024
 20
11.9742888762
 11
8.0153019437
 21
12.0745087349
  0
LINE
  5
323
100
AcDbEntity
  8
0
100
AcDbLine
 62
9
  6
CONTINUOUS
 10
7.8571658006
 20
12.232644878
 11
7.7569459418
 21
12.3328647368
  0
LINE
  5
324
100
AcDbEntity
  8
0
100
AcDbLine
 62
9
  6
CONTINUOUS
 10
7.6076130661
 20
12.4821976125
 11
7.5073932073
 21
12.5824174713
  0
LINE
  5
325
100
AcDbEntity
  8
0
100
AcDbLine
 62
9
  6
CONTINUOUS
 10
7.3838702053
 20
12.7059404733
 11
7.2836503465
 21
12.8061603321
  0
LINE
  5
326
100
AcDbEntity
  8
0
100
AcDbLine
 62
9
  6
CONTINUOUS
 10
7.2011849244
 20
12.8886257542
 11
7.1009650657
 21
12.9888456129
  0
LINE
  5
327
100
AcDbEntity
  8
0
100
AcDbLine
 62
9
  6
CONTINUOUS
 10
7.0720069235
 20
13.0178037551
 11
6.9049196111
 21
13.1848910675
  0
LINE
  5
328
100
AcDbEntity
  8
0
100
AcDbLine
 62
7
  6
CONTINUOUS
 10
7.0801392843
 20
13.0259361158
 11
7.1090974264
 21
12.9969779737
  0
LINE
  5
329
100
AcDbEntity
  8
0
100
AcDbLine
 62
7
  6
CONTINUOUS
 10
7.2093172852
 20
12.8967581149
 11
7.2917827073
 21
12.8142926928
  0
LINE
  5
32A
100
AcDbEntity
  8
0
100
AcDbLine
 62
7
  6
CONTINUOUS
 10
7.392002566
 20
12.7140728341
 11
7.515525568
 21
12.590549832
  0
LINE
  5
32B
100
AcDbEntity
  8
0
100
AcDbLine
 62
7
  6
CONTINUOUS
 10
7.6157454268
 20
12.4903299733
 11
7.7650783026
 21
12.3409970975
  0
LINE
  5
32C
100
AcDbEntity
  8
0
100
AcDbLine
 62
7
  6
CONTINUOUS
 10
7.8652981613
 20
12.2407772387
 11
8.0234343044
 21
12.0826410957
  0
LINE
  5
32D
100
AcDbEntity
  8
0
100
AcDbLine
 62
7
  6
CONTINUOUS
 10
8.1236541631
 20
11.9824212369
 11
8.2729870389
 21
11.8330883611
  0
LINE
  5
32E
100
AcDbEntity
  8
0
100
AcDbLine
 62
7
  6
CONTINUOUS
 10
8.3732068977
 20
11.7328685024
 11
8.4967298997
 21
11.6093455004
  0
LINE
  5
32F
100
AcDbEntity
  8
0
100
AcDbLine
 62
7
  6
CONTINUOUS
 10
8.5969497585
 20
11.5091256416
 11
8.6794151806
 21
11.4266602195
  0
LINE
  5
330
100
AcDbEntity
  8
0
100
AcDbLine
 62
7
  6
CONTINUOUS
 10
8.7796350393
 20
11.3264403608
 11
8.8085931815
 21
11.2974822186
  0
LINE
  5
331
100
AcDbEntity
  8
0
100
AcDbLine
 62
7
  6
CONTINUOUS
 10
6.7657579572
 20
13.3434392115
 11
6.8822064852
 21
13.2269906835
  0
LINE
  5
332
100
AcDbEntity
  8
0
100
AcDbLine
 62
7
  6
CONTINUOUS
 10
6.9186789856
 20
13.1905181831
 11
6.9962248658
 21
13.1129723029
  0
LINE
  5
333
100
AcDbEntity
  8
0
100
AcDbLine
 62
7
  6
CONTINUOUS
 10
7.1000642388
 20
13.00913293
 11
7.1776167673
 21
12.9315804015
  0
LINE
  5
334
100
AcDbEntity
  8
0
100
AcDbLine
 62
7
  6
CONTINUOUS
 10
7.3364549329
 20
12.7727422358
 11
7.4140064657
 21
12.695190703
  0
LINE
  5
335
100
AcDbEntity
  8
0
100
AcDbLine
 62
7
  6
CONTINUOUS
 10
7.6117375523
 20
12.4974596164
 11
7.6892882744
 21
12.4199088944
  0
LINE
  5
336
100
AcDbEntity
  8
0
100
AcDbLine
 62
7
  6
CONTINUOUS
 10
7.9071518744
 20
12.2020452943
 11
7.98470236
 21
12.1244948087
  0
LINE
  5
337
100
AcDbEntity
  8
0
100
AcDbLine
 62
7
  6
CONTINUOUS
 10
8.202565893
 20
11.9066312757
 11
8.2801167491
 21
11.8290804196
  0
LINE
  5
338
100
AcDbEntity
  8
0
100
AcDbLine
 62
7
  6
CONTINUOUS
 10
8.4778477467
 20
11.631349422
 11
8.5553993234
 21
11.5537978453
  0
LINE
  5
339
100
AcDbEntity
  8
0
100
AcDbLine
 62
7
  6
CONTINUOUS
 10
8.7142374549
 20
11.3949597138
 11
8.7917900078
 21
11.3174071609
  0
LINE
  5
33A
100
AcDbEntity
  8
0
100
AcDbLine
 62
7
  6
CONTINUOUS
 10
8.8956292138
 20
11.2135679549
 11
8.9731754035
 21
11.1360217652
  0
LINE
  5
33B
100
AcDbEntity
  8
0
100
AcDbLine
 62
7
  6
CONTINUOUS
 10
9.00964792
 20
11.0995492487
 11
9.0872079503
 21
11.0219892184
  0
LINE
  5
33C
100
AcDbEntity
  8
0
100
AcDbLine
 62
9
  6
CONTINUOUS
 10
9.1011235121
 20
11.0162270741
 11
9.0038857757
 21
11.1134648104
  0
LINE
  5
33D
100
AcDbEntity
  8
0
100
AcDbLine
 62
9
  6
CONTINUOUS
 10
8.9870978856
 20
11.1302527006
 11
8.8898601492
 21
11.227490437
  0
LINE
  5
33E
100
AcDbEntity
  8
0
100
AcDbLine
 62
9
  6
CONTINUOUS
 10
8.8057093083
 20
11.3116412779
 11
8.7084715719
 21
11.4088790143
  0
LINE
  5
33F
100
AcDbEntity
  8
0
100
AcDbLine
 62
9
  6
CONTINUOUS
 10
8.569319112
 20
11.5480314742
 11
8.4720813756
 21
11.6452692106
  0
LINE
  5
340
100
AcDbEntity
  8
0
100
AcDbLine
 62
9
  6
CONTINUOUS
 10
8.2940368979
 20
11.8233136882
 11
8.1967991616
 21
11.9205514246
  0
LINE
  5
341
100
AcDbEntity
  8
0
100
AcDbLine
 62
9
  6
CONTINUOUS
 10
7.9986226941
 20
12.1187278921
 11
7.9013849577
 21
12.2159656285
  0
LINE
  5
342
100
AcDbEntity
  8
0
100
AcDbLine
 62
9
  6
CONTINUOUS
 10
7.7032084903
 20
12.4141420959
 11
7.6059707539
 21
12.5113798323
  0
LINE
  5
343
100
AcDbEntity
  8
0
100
AcDbLine
 62
9
  6
CONTINUOUS
 10
7.4279262762
 20
12.68942431
 11
7.3306885398
 21
12.7866620463
  0
LINE
  5
344
100
AcDbEntity
  8
0
100
AcDbLine
 62
9
  6
CONTINUOUS
 10
7.1915360799
 20
12.9258145063
 11
7.0942983436
 21
13.0230522426
  0
LINE
  5
345
100
AcDbEntity
  8
0
100
AcDbLine
 62
9
  6
CONTINUOUS
 10
7.0101475026
 20
13.1072030836
 11
6.9129097663
 21
13.2044408199
  0
LINE
  5
346
100
AcDbEntity
  8
0
100
AcDbLine
 62
9
  6
CONTINUOUS
 10
6.759992122
 20
13.3573585008
 11
6.8961218761
 21
13.2212287101
  0
LINE
  5
347
100
AcDbEntity
  8
0
100
AcDbLine
 62
9
  6
CONTINUOUS
 10
7.203066857
 20
12.9258145063
 11
7.1102271236
 21
13.0186542397
  0
LINE
  5
348
100
AcDbEntity
  8
0
100
AcDbLine
 62
9
  6
CONTINUOUS
 10
7.0216782797
 20
13.1072030836
 11
6.9201958751
 21
13.2086854882
  0
LINE
  5
349
100
AcDbEntity
  8
0
100
AcDbLine
 62
9
  6
CONTINUOUS
 10
6.759992122
 20
13.3688897345
 11
6.9076526532
 21
13.2212287101
  0
LINE
  5
34A
100
AcDbEntity
  8
0
100
AcDbLine
 62
9
  6
CONTINUOUS
 10
9.1126542892
 20
11.0162270741
 11
9.0038857757
 21
11.1249955876
  0
LINE
  5
34B
100
AcDbEntity
  8
0
100
AcDbLine
 62
9
  6
CONTINUOUS
 10
8.9986286627
 20
11.1302527006
 11
8.8898601492
 21
11.2390212141
  0
LINE
  5
34C
100
AcDbEntity
  8
0
100
AcDbLine
 62
9
  6
CONTINUOUS
 10
8.8172400854
 20
11.3116412779
 11
8.7084715719
 21
11.4204097914
  0
LINE
  5
34D
100
AcDbEntity
  8
0
100
AcDbLine
 62
9
  6
CONTINUOUS
 10
8.5808498891
 20
11.5480314742
 11
8.4720813756
 21
11.6567999877
  0
LINE
  5
34E
100
AcDbEntity
  8
0
100
AcDbLine
 62
9
  6
CONTINUOUS
 10
8.3055676751
 20
11.8233136882
 11
8.1967991616
 21
11.9320822017
  0
LINE
  5
34F
100
AcDbEntity
  8
0
100
AcDbLine
 62
9
  6
CONTINUOUS
 10
8.0101534714
 20
12.1187278921
 11
7.9013849577
 21
12.2274964058
  0
LINE
  5
350
100
AcDbEntity
  8
0
100
AcDbLine
 62
9
  6
CONTINUOUS
 10
7.7147392674
 20
12.4141420959
 11
7.6059707539
 21
12.5229106094
  0
LINE
  5
351
100
AcDbEntity
  8
0
100
AcDbLine
 62
9
  6
CONTINUOUS
 10
7.4394570533
 20
12.68942431
 11
7.3306885398
 21
12.7981928235
  0
LINE
  5
352
100
AcDbEntity
  8
0
100
AcDbLine
 62
9
  6
CONTINUOUS
 10
7.1102272473
 20
13.0186549608
 11
7.0942983436
 21
13.0345830197
  0
LINE
  5
353
100
AcDbEntity
  8
0
100
AcDbLine
 62
9
  6
CONTINUOUS
 10
6.9201959317
 20
13.2086862764
 11
6.9129097663
 21
13.215971597
  0
LINE
  5
354
100
AcDbEntity
  8
0
100
AcDbLine
 62
9
  6
CONTINUOUS
 10
9.1265745588
 20
11.0219926886
 11
8.8956257638
 21
11.2529414837
  0
LINE
  5
355
100
AcDbEntity
  8
0
100
AcDbLine
 62
9
  6
CONTINUOUS
 10
8.831160355
 20
11.3174068925
 11
8.7142371864
 21
11.434330061
  0
LINE
  5
356
100
AcDbEntity
  8
0
100
AcDbLine
 62
9
  6
CONTINUOUS
 10
8.5947701587
 20
11.5537970887
 11
8.4778469902
 21
11.6707202573
  0
LINE
  5
357
100
AcDbEntity
  8
0
100
AcDbLine
 62
9
  6
CONTINUOUS
 10
8.3194879447
 20
11.8290793028
 11
8.2025647761
 21
11.9460024713
  0
LINE
  5
358
100
AcDbEntity
  8
0
100
AcDbLine
 62
9
  6
CONTINUOUS
 10
8.0240737408
 20
12.1244935066
 11
7.9071505723
 21
12.2414166752
  0
LINE
  5
359
100
AcDbEntity
  8
0
100
AcDbLine
 62
9
  6
CONTINUOUS
 10
7.728659537
 20
12.4199077105
 11
7.6117363684
 21
12.536830879
  0
LINE
  5
35A
100
AcDbEntity
  8
0
100
AcDbLine
 62
9
  6
CONTINUOUS
 10
7.4533773229
 20
12.6951899245
 11
7.3364541544
 21
12.8121130931
  0
LINE
  5
35B
100
AcDbEntity
  8
0
100
AcDbLine
 62
9
  6
CONTINUOUS
 10
7.2169871266
 20
12.9315801208
 11
7.1000639581
 21
13.0485032893
  0
LINE
  5
35C
100
AcDbEntity
  8
0
100
AcDbLine
 62
9
  6
CONTINUOUS
 10
7.0355985493
 20
13.1129686981
 11
6.7657577365
 21
13.3828095109
  0
LINE
  5
35D
100
AcDbEntity
  8
0
100
AcDbLine
 62
7
  6
CONTINUOUS
 10
6.7412574111
 20
13.4566939145
 11
9.237431761
 21
10.9605195646
  0
LINE
  5
35E
100
AcDbEntity
  8
0
100
AcDbLine
 62
7
  6
CONTINUOUS
 10
6.7400553966
 20
13.4582404728
 11
9.2389906461
 21
10.9593052233
  0
LINE
  5
35F
100
AcDbEntity
  8
0
100
AcDbLine
 62
7
  6
CONTINUOUS
 10
9.3307491597
 20
10.8906486058
 11
6.6733056714
 21
13.548092094
  0
LINE
  5
360
100
AcDbEntity
  8
0
100
AcDbLine
 62
9
  6
CONTINUOUS
 10
6.6430927884
 20
13.5816469
 11
9.3643039657
 21
10.8604357227
  0
LINE
  5
361
100
AcDbEntity
  8
0
100
AcDbLine
 62
9
  6
CONTINUOUS
 10
6.6459758319
 20
13.691745891
 11
9.4744029567
 21
10.8633187663
  0
LINE
  5
362
100
AcDbEntity
  8
0
100
AcDbLine
 62
9
  6
CONTINUOUS
 10
8.3127295
 20
11.5779369643
 11
8.508558853
 21
11.3821076076
  0
LINE
  5
363
100
AcDbEntity
  8
0
100
AcDbLine
 62
7
  6
CONTINUOUS
 10
8.7185736326
 20
11.2934244375
 11
7.0760815031
 21
12.935916567
  0
LINE
  5
364
100
AcDbEntity
  8
0
100
AcDbLine
 62
9
  6
CONTINUOUS
 10
8.7946952062
 20
11.263898748
 11
8.9420970014
 21
11.1164969309
  0
LINE
  5
365
100
AcDbEntity
  8
0
100
AcDbLine
 62
7
  6
CONTINUOUS
 10
9.237431766
 20
10.9605195596
 11
9.2373058281
 21
10.9606483582
  0
LINE
  5
366
100
AcDbEntity
  8
0
100
AcDbLine
 62
7
  6
CONTINUOUS
 10
11.4589226038
 20
5.414891804
 11
11.4589226038
 21
4.4071963017
  0
LINE
  5
367
100
AcDbEntity
  8
0
100
AcDbLine
 62
7
  6
CONTINUOUS
 10
11.4589226038
 20
2.664891804
 11
11.4589226038
 21
3.6725873064
  0
LINE
  5
368
100
AcDbEntity
  8
0
100
AcDbLine
 62
7
  6
CONTINUOUS
 10
11.9039226038
 20
5.414891804
 11
11.9039226038
 21
4.4071963017
  0
LINE
  5
369
100
AcDbEntity
  8
0
100
AcDbLine
 62
7
  6
CONTINUOUS
 10
11.9039226038
 20
2.664891804
 11
11.9039226038
 21
3.6725873064
  0
LINE
  5
36A
100
AcDbEntity
  8
0
100
AcDbLine
 62
7
  6
CONTINUOUS
 10
11.9814226038
 20
3.6648926819
 11
11.9814226038
 21
4.4148909262
  0
LINE
  5
36B
100
AcDbEntity
  8
0
100
AcDbLine
 62
9
  6
CONTINUOUS
 10
10.0712596529
 20
11.4601754625
 11
7.2428325282
 21
14.2886025873
  0
LINE
  5
36C
100
AcDbEntity
  8
0
100
AcDbLine
 62
7
  6
CONTINUOUS
 10
10.2520834298
 20
15.0124224309
 11
10.2454207387
 21
15.0372879327
  0
LINE
  5
36D
100
AcDbEntity
  8
0
100
AcDbLine
 62
7
  6
CONTINUOUS
 10
10.0674288093
 20
14.8179784544
 11
10.0674671565
 21
14.81783502
  0
LINE
  5
36E
100
AcDbEntity
  8
0
100
AcDbLine
 62
7
  6
CONTINUOUS
 10
10.0588497919
 20
14.850063846
 11
10.0674288093
 21
14.8179784544
  0
LINE
  5
36F
100
AcDbEntity
  8
0
100
AcDbLine
 62
7
  6
CONTINUOUS
 10
10.1167242107
 20
14.8696977586
 11
10.1167624001
 21
14.8695549136
  0
LINE
  5
370
100
AcDbEntity
  8
0
100
AcDbLine
 62
7
  6
CONTINUOUS
 10
10.1086580171
 20
14.8998655461
 11
10.1167242107
 21
14.8696977586
  0
LINE
  5
371
100
AcDbEntity
  8
0
100
AcDbLine
 62
7
  6
CONTINUOUS
 10
10.1657438746
 20
14.9216995046
 11
10.1657818361
 21
14.9215575176
  0
LINE
  5
372
100
AcDbEntity
  8
0
100
AcDbLine
 62
7
  6
CONTINUOUS
 10
10.1583057583
 20
14.9495175552
 11
10.1657438746
 21
14.9216995046
  0
LINE
  5
373
100
AcDbEntity
  8
0
100
AcDbLine
 62
7
  6
CONTINUOUS
 10
10.2080835026
 20
14.9992976789
 11
10.2150258589
 21
14.9733341766
  0
LINE
  5
374
100
AcDbEntity
  8
0
100
AcDbLine
 62
7
  6
CONTINUOUS
 10
10.6225374059
 20
14.2660508189
 11
10.6142166586
 21
14.2971743336
  0
LINE
  5
375
100
AcDbEntity
  8
0
100
AcDbLine
 62
7
  6
CONTINUOUS
 10
12.5414226038
 20
3.383641804
 11
12.5414226038
 21
4.696141804
  0
LINE
  5
376
100
AcDbEntity
  8
0
100
AcDbLine
 62
9
  6
CONTINUOUS
 10
12.5474226038
 20
15.633641804
 11
12.5474226038
 21
16.446141804
  0
LINE
  5
377
100
AcDbEntity
  8
0
100
AcDbLine
 62
7
  6
CONTINUOUS
 10
10.0712596528
 20
11.5733125477
 11
7.3559696133
 21
14.2886025872
  0
LINE
  5
378
100
AcDbEntity
  8
0
100
AcDbLine
 62
9
  6
CONTINUOUS
 10
9.517498764
 20
12.1598875853
 11
7.9425446509
 21
13.7348416983
  0
LINE
  5
379
100
AcDbEntity
  8
0
100
AcDbLine
 62
7
  6
CONTINUOUS
 10
10.6738131148
 20
14.3173317359
 11
10.6660537483
 21
14.3463555871
  0
LINE
  5
37A
100
AcDbEntity
  8
0
100
AcDbLine
 62
7
  6
CONTINUOUS
 10
10.7250727325
 20
14.3685848353
 11
10.7178609586
 21
14.3955595649
  0
LINE
  5
37B
100
AcDbEntity
  8
0
100
AcDbLine
 62
7
  6
CONTINUOUS
 10
10.7763558069
 20
14.4198691246
 11
10.769710109
 21
14.4447263434
  0
LINE
  5
37C
100
AcDbEntity
  8
0
100
AcDbLine
 62
7
  6
CONTINUOUS
 10
12.9814226038
 20
3.383641804
 11
12.9814226038
 21
4.696141804
  0
LINE
  5
37D
100
AcDbEntity
  8
0
100
AcDbLine
 62
7
  6
CONTINUOUS
 10
13.0014226038
 20
3.383641804
 11
13.0014226038
 21
4.696141804
  0
LINE
  5
37E
100
AcDbEntity
  8
0
100
AcDbLine
 62
7
  6
CONTINUOUS
 10
9.1126542892
 20
11.0162270741
 11
9.1011235121
 21
11.0162270741
  0
LINE
  5
37F
100
AcDbEntity
  8
0
100
AcDbLine
 62
7
  6
CONTINUOUS
 10
8.9536282944
 20
11.1164969309
 11
8.9420970014
 21
11.1164969309
  0
LINE
  5
380
100
AcDbEntity
  8
0
100
AcDbLine
 62
7
  6
CONTINUOUS
 10
8.9986286627
 20
11.1302527006
 11
8.9870978856
 21
11.1302527006
  0
LINE
  5
381
100
AcDbEntity
  8
0
100
AcDbLine
 62
7
  6
CONTINUOUS
 10
8.8867608407
 20
11.1833643846
 11
8.8752295696
 21
11.1833643846
  0
LINE
  5
382
100
AcDbEntity
  8
0
100
AcDbLine
 62
7
  6
CONTINUOUS
 10
8.8172400854
 20
11.3116412779
 11
8.8057093083
 21
11.3116412779
  0
LINE
  5
383
100
AcDbEntity
  8
0
100
AcDbLine
 62
7
  6
CONTINUOUS
 10
8.7575828398
 20
11.3125423855
 11
8.7460515687
 21
11.3125423855
  0
LINE
  5
384
100
AcDbEntity
  8
0
100
AcDbLine
 62
7
  6
CONTINUOUS
 10
8.5266131245
 20
11.3821076076
 11
8.508558853
 21
11.3821076076
  0
LINE
  5
385
100
AcDbEntity
  8
0
100
AcDbLine
 62
7
  6
CONTINUOUS
 10
8.4849067525
 20
11.4238139796
 11
8.4668524849
 21
11.4238139796
  0
LINE
  5
386
100
AcDbEntity
  8
0
100
AcDbLine
 62
7
  6
CONTINUOUS
 10
8.574897559
 20
11.4952276663
 11
8.5633662878
 21
11.4952276663
  0
LINE
  5
387
100
AcDbEntity
  8
0
100
AcDbLine
 62
7
  6
CONTINUOUS
 10
8.4080570108
 20
11.5006637213
 11
8.3900027431
 21
11.5006637213
  0
LINE
  5
388
100
AcDbEntity
  8
0
100
AcDbLine
 62
9
  6
CONTINUOUS
 10
9.5141927789
 20
12.9772061086
 11
8.7598631742
 21
13.7315357133
  0
LINE
  5
389
100
AcDbEntity
  8
0
100
AcDbLine
 62
7
  6
CONTINUOUS
 10
9.5529503865
 20
12.9571205142
 11
8.7397775798
 21
13.7702933209
  0
LINE
  5
38A
100
AcDbEntity
  8
0
100
AcDbLine
 62
7
  6
CONTINUOUS
 10
8.5808498891
 20
11.5480314742
 11
8.569319112
 21
11.5480314742
  0
LINE
  5
38B
100
AcDbEntity
  8
0
100
AcDbLine
 62
7
  6
CONTINUOUS
 10
8.1664422853
 20
11.5902938841
 11
8.1549110103
 21
11.5902938841
  0
LINE
  5
38C
100
AcDbEntity
  8
0
100
AcDbLine
 62
7
  6
CONTINUOUS
 10
8.3511546982
 20
11.7189705271
 11
8.339623427
 21
11.7189705271
  0
LINE
  5
38D
100
AcDbEntity
  8
0
100
AcDbLine
 62
7
  6
CONTINUOUS
 10
7.9879069068
 20
11.768829265
 11
7.9763756295
 21
11.768829265
  0
LINE
  5
38E
100
AcDbEntity
  8
0
100
AcDbLine
 62
7
  6
CONTINUOUS
 10
8.3055676751
 20
11.8233136882
 11
8.2940368979
 21
11.8233136882
  0
LINE
  5
38F
100
AcDbEntity
  8
0
100
AcDbLine
 62
7
  6
CONTINUOUS
 10
7.9990315704
 20
11.9096891617
 11
7.9809773027
 21
11.9096891617
  0
LINE
  5
390
100
AcDbEntity
  8
0
100
AcDbLine
 62
7
  6
CONTINUOUS
 10
8.1016019636
 20
11.9685232616
 11
8.0900706925
 21
11.9685232616
  0
LINE
  5
391
100
AcDbEntity
  8
0
100
AcDbLine
 62
7
  6
CONTINUOUS
 10
7.7354197475
 20
12.0213164219
 11
7.7238884725
 21
12.0213164219
  0
LINE
  5
392
100
AcDbEntity
  8
0
100
AcDbLine
 62
7
  6
CONTINUOUS
 10
7.8431158019
 20
12.0656049301
 11
7.8250615342
 21
12.0656049301
  0
LINE
  5
393
100
AcDbEntity
  8
0
100
AcDbLine
 62
7
  6
CONTINUOUS
 10
8.0101534714
 20
12.1187278921
 11
7.9986226941
 21
12.1187278921
  0
LINE
  5
394
100
AcDbEntity
  8
0
100
AcDbLine
 62
7
  6
CONTINUOUS
 10
9.2860448506
 20
14.0584120519
 11
9.1674594383
 21
14.1769974642
  0
LINE
  5
395
100
AcDbEntity
  8
0
100
AcDbLine
 62
7
  6
CONTINUOUS
 10
10.2176304198
 20
13.6218012295
 11
9.4044582951
 21
14.4349733542
  0
LINE
  5
396
100
AcDbEntity
  8
0
100
AcDbLine
 62
9
  6
CONTINUOUS
 10
10.1331671074
 20
13.861730631
 11
9.6443876967
 21
14.3505100417
  0
LINE
  5
397
100
AcDbEntity
  8
0
100
AcDbLine
 62
9
  6
CONTINUOUS
 10
10.2131670992
 20
13.9417667111
 11
9.7244237768
 21
14.4305100336
  0
LINE
  5
398
100
AcDbEntity
  8
0
100
AcDbLine
 62
7
  6
CONTINUOUS
 10
14.1094226038
 20
2.852391804
 11
14.1094226038
 21
5.227391804
  0
LINE
  5
399
100
AcDbEntity
  8
0
100
AcDbLine
 62
7
  6
CONTINUOUS
 10
14.3805655015
 20
16.4871067713
 11
14.3805655015
 21
15.5926768367
  0
LINE
  5
39A
100
AcDbEntity
  8
0
100
AcDbLine
 62
9
  6
CONTINUOUS
 10
14.3807533101
 20
15.5893252335
 11
14.3807533101
 21
16.4904583746
  0
LINE
  5
39B
100
AcDbEntity
  8
0
100
AcDbLine
 62
7
  6
CONTINUOUS
 10
14.3805655015
 20
16.4871067713
 11
14.3807533101
 21
16.4904583746
  0
LINE
  5
39C
100
AcDbEntity
  8
0
100
AcDbLine
 62
7
  6
CONTINUOUS
 10
7.5514863306
 20
12.1998518028
 11
7.5453530917
 21
12.1998518028
  0
LINE
  5
39D
100
AcDbEntity
  8
0
100
AcDbLine
 62
7
  6
CONTINUOUS
 10
7.6901845318
 20
12.2185362002
 11
7.6721302649
 21
12.2185362002
  0
LINE
  5
39E
100
AcDbEntity
  8
0
100
AcDbLine
 62
7
  6
CONTINUOUS
 10
7.8432459618
 20
12.2268792635
 11
7.8317146907
 21
12.2268792635
  0
LINE
  5
39F
100
AcDbEntity
  8
0
100
AcDbLine
 62
7
  6
CONTINUOUS
 10
7.7147392674
 20
12.4141420959
 11
7.7032084903
 21
12.4141420959
  0
LINE
  5
3A0
100
AcDbEntity
  8
0
100
AcDbLine
 62
7
  6
CONTINUOUS
 10
7.5936932273
 20
12.476431998
 11
7.5821619562
 21
12.476431998
  0
LINE
  5
3A1
100
AcDbEntity
  8
0
100
AcDbLine
 62
7
  6
CONTINUOUS
 10
7.325405346
 20
12.583315386
 11
7.3073510784
 21
12.583315386
  0
LINE
  5
3A2
100
AcDbEntity
  8
0
100
AcDbLine
 62
7
  6
CONTINUOUS
 10
7.4394570533
 20
12.68942431
 11
7.4279262762
 21
12.68942431
  0
LINE
  5
3A3
100
AcDbEntity
  8
0
100
AcDbLine
 62
7
  6
CONTINUOUS
 10
7.3699503665
 20
12.7001748588
 11
7.3584190954
 21
12.7001748588
  0
LINE
  5
3A4
100
AcDbEntity
  8
0
100
AcDbLine
 62
9
  6
CONTINUOUS
 10
9.7244237768
 20
14.5038261984
 11
10.286483264
 21
13.9417667111
  0
LINE
  5
3A5
100
AcDbEntity
  8
0
100
AcDbLine
 62
9
  6
CONTINUOUS
 10
9.7794877019
 20
14.6367622732
 11
9.789010119
 21
14.6272398561
  0
LINE
  5
3A6
100
AcDbEntity
  8
0
100
AcDbLine
 62
9
  6
CONTINUOUS
 10
9.8771329027
 20
14.5391170724
 11
10.4194193389
 21
13.9968306363
  0
LINE
  5
3A7
100
AcDbEntity
  8
0
100
AcDbLine
 62
7
  6
CONTINUOUS
 10
9.9284005587
 20
14.7666302958
 11
10.0165233424
 21
14.6785075121
  0
LINE
  5
3A8
100
AcDbEntity
  8
0
100
AcDbLine
 62
7
  6
CONTINUOUS
 10
10.6471978363
 20
14.2246097135
 11
10.0072667791
 21
14.8645407707
  0
LINE
  5
3A9
100
AcDbEntity
  8
0
100
AcDbLine
 62
7
  6
CONTINUOUS
 10
14.3805655015
 20
15.5926768367
 11
14.3807533101
 21
15.5893252335
  0
LINE
  5
3AA
100
AcDbEntity
  8
0
100
AcDbLine
 62
7
  6
CONTINUOUS
 10
14.4844226038
 20
0.9570483143
 11
14.4844226038
 21
7.1227352938
  0
LINE
  5
3AB
100
AcDbEntity
  8
0
100
AcDbLine
 62
9
  6
CONTINUOUS
 10
14.5170770795
 20
14.8864965916
 11
14.5170770795
 21
17.1932870165
  0
LINE
  5
3AC
100
AcDbEntity
  8
0
100
AcDbLine
 62
9
  6
CONTINUOUS
 10
14.5263596135
 20
0.8976736527
 11
14.5263596135
 21
7.1821099554
  0
LINE
  5
3AD
100
AcDbEntity
  8
0
100
AcDbLine
 62
9
  6
CONTINUOUS
 10
14.5652493566
 20
14.849891804
 11
14.5652493566
 21
17.229891804
  0
LINE
  5
3AE
100
AcDbEntity
  8
0
100
AcDbLine
 62
9
  6
CONTINUOUS
 10
14.5999402536
 20
0.8283401197
 11
14.5999402536
 21
7.2514434884
  0
LINE
  5
3AF
100
AcDbEntity
  8
0
100
AcDbLine
 62
9
  6
CONTINUOUS
 10
14.6579593435
 20
0.789891804
 11
14.6579593435
 21
7.289891804
  0
LINE
  5
3B0
100
AcDbEntity
  8
0
100
AcDbLine
 62
7
  6
CONTINUOUS
 10
14.7974226038
 20
17.229891804
 11
14.7974226038
 21
14.849891804
  0
LINE
  5
3B1
100
AcDbEntity
  8
0
100
AcDbLine
 62
7
  6
CONTINUOUS
 10
14.7974226038
 20
7.289891804
 11
14.7974226038
 21
0.789891804
  0
LINE
  5
3B2
100
AcDbEntity
  8
0
100
AcDbLine
 62
7
  6
CONTINUOUS
 10
7.1872650857
 20
12.8828601396
 11
7.1757338145
 21
12.8828601396
  0
LINE
  5
3B3
100
AcDbEntity
  8
0
100
AcDbLine
 62
7
  6
CONTINUOUS
 10
7.203066857
 20
12.9258145063
 11
7.1915360799
 21
12.9258145063
  0
LINE
  5
3B4
100
AcDbEntity
  8
0
100
AcDbLine
 62
7
  6
CONTINUOUS
 10
7.0580870848
 20
13.0120381405
 11
7.0465558136
 21
13.0120381405
  0
LINE
  5
3B5
100
AcDbEntity
  8
0
100
AcDbLine
 62
7
  6
CONTINUOUS
 10
7.0216782797
 20
13.1072030836
 11
7.0101475026
 21
13.1072030836
  0
LINE
  5
3B6
100
AcDbEntity
  8
0
100
AcDbLine
 62
7
  6
CONTINUOUS
 10
6.9076526532
 20
13.2212287101
 11
6.8961218761
 21
13.2212287101
  0
LINE
  5
3B7
100
AcDbEntity
  8
0
100
AcDbLine
 62
7
  6
CONTINUOUS
 10
10.2145890009
 20
15.0064561949
 11
10.3049560993
 21
14.9160890965
  0
LINE
  5
3B8
100
AcDbEntity
  8
0
100
AcDbLine
 62
7
  6
CONTINUOUS
 10
10.7823604731
 20
14.4568875334
 11
10.2394545027
 21
14.9997935038
  0
LINE
  5
3B9
100
AcDbEntity
  8
0
100
AcDbLine
 62
7
  6
CONTINUOUS
 10
10.7950794966
 20
14.4694263641
 11
10.2520834298
 21
15.0124224309
  0
LINE
  5
3BA
100
AcDbEntity
  8
0
100
AcDbLine
 62
7
  6
CONTINUOUS
 10
10.8199449984
 20
14.462763673
 11
10.2454207387
 21
15.0372879327
  0
LINE
  5
3BB
100
AcDbEntity
  8
0
100
AcDbLine
 62
7
  6
CONTINUOUS
 10
10.286483264
 20
13.9417667111
 11
10.2131670992
 21
13.9417667111
  0
LINE
  5
3BC
100
AcDbEntity
  8
0
100
AcDbLine
 62
7
  6
CONTINUOUS
 10
8.7598631742
 20
13.7315357133
 11
7.9425446509
 21
13.7348416983
  0
LINE
  5
3BD
100
AcDbEntity
  8
0
100
AcDbLine
 62
7
  6
CONTINUOUS
 10
10.657582766
 20
14.3010543677
 11
10.6582865541
 21
14.3011052287
  0
LINE
  5
3BE
100
AcDbEntity
  8
0
100
AcDbLine
 62
7
  6
CONTINUOUS
 10
10.7073305427
 20
14.3507967465
 11
10.7080285344
 21
14.350847209
  0
LINE
  5
3BF
100
AcDbEntity
  8
0
100
AcDbLine
 62
7
  6
CONTINUOUS
 10
10.7570804181
 20
14.4005533641
 11
10.7577856511
 21
14.4006043257
  0
LINE
  5
3C0
100
AcDbEntity
  8
0
100
AcDbLine
 62
7
  6
CONTINUOUS
 10
10.7823604731
 20
14.4568875334
 11
10.7821768072
 21
14.4568760957
  0
LINE
  5
3C1
100
AcDbEntity
  8
0
100
AcDbLine
 62
7
  6
CONTINUOUS
 10
10.6258557492
 20
14.309537593
 11
10.657582766
 21
14.3010543677
  0
LINE
  5
3C2
100
AcDbEntity
  8
0
100
AcDbLine
 62
7
  6
CONTINUOUS
 10
10.6776978461
 20
14.3587202096
 11
10.7073305422
 21
14.3507967459
  0
LINE
  5
3C3
100
AcDbEntity
  8
0
100
AcDbLine
 62
7
  6
CONTINUOUS
 10
10.7295096459
 20
14.4079254059
 11
10.7570804181
 21
14.4005533641
  0
LINE
  5
3C4
100
AcDbEntity
  8
0
100
AcDbLine
 62
7
  6
CONTINUOUS
 10
10.7813636602
 20
14.4570934969
 11
10.7821768072
 21
14.4568760956
  0
LINE
  5
3C5
100
AcDbEntity
  8
0
100
AcDbLine
 62
7
  6
CONTINUOUS
 10
10.1051216619
 20
14.8571912956
 11
10.0742631314
 21
14.8654413742
  0
LINE
  5
3C6
100
AcDbEntity
  8
0
100
AcDbLine
 62
7
  6
CONTINUOUS
 10
10.15413517
 20
14.9091923077
 11
10.1256364443
 21
14.9168115053
  0
LINE
  5
3C7
100
AcDbEntity
  8
0
100
AcDbLine
 62
7
  6
CONTINUOUS
 10
10.7950794966
 20
14.4694263641
 11
10.8199449984
 21
14.462763673
  0
LINE
  5
3C8
100
AcDbEntity
  8
0
100
AcDbLine
 62
9
  6
CONTINUOUS
 10
11.5972478666
 20
15.2400665413
 11
11.0227236069
 21
15.814590801
  0
LINE
  5
3C9
100
AcDbEntity
  8
0
100
AcDbLine
 62
7
  6
CONTINUOUS
 10
10.0742631318
 20
14.8654413746
 11
10.0735205731
 21
14.8653877671
  0
LINE
  5
3CA
100
AcDbEntity
  8
0
100
AcDbLine
 62
7
  6
CONTINUOUS
 10
10.1256364442
 20
14.9168115052
 11
10.1248903688
 21
14.9167575629
  0
LINE
  5
3CB
100
AcDbEntity
  8
0
100
AcDbLine
 62
7
  6
CONTINUOUS
 10
10.1768789309
 20
14.9680514456
 11
10.1761301159
 21
14.96799731
  0
LINE
  5
3CC
100
AcDbEntity
  8
0
100
AcDbLine
 62
7
  6
CONTINUOUS
 10
14.7974226038
 20
14.849891804
 11
14.5652493566
 21
14.849891804
  0
LINE
  5
3CD
100
AcDbEntity
  8
0
100
AcDbLine
 62
7
  6
CONTINUOUS
 10
10.2033746348
 20
14.9609677443
 11
10.1768789309
 21
14.9680514456
  0
LINE
  5
3CE
100
AcDbEntity
  8
0
100
AcDbLine
 62
7
  6
CONTINUOUS
 10
10.2145890009
 20
15.0064561949
 11
10.2394545027
 21
14.9997935038
  0
LINE
  5
3CF
100
AcDbEntity
  8
0
100
AcDbLine
 62
7
  6
CONTINUOUS
 10
14.3805655015
 20
15.633641804
 11
12.5474226038
 21
15.633641804
  0
LINE
  5
3D0
100
AcDbEntity
  8
0
100
AcDbLine
 62
7
  6
CONTINUOUS
 10
14.3805655015
 20
16.446141804
 11
12.5474226038
 21
16.446141804
  0
LINE
  5
3D1
100
AcDbEntity
  8
0
100
AcDbLine
 62
7
  6
CONTINUOUS
 10
14.7974226038
 20
17.229891804
 11
14.5652493566
 21
17.229891804
  0
CIRCLE
  5
3D2
100
AcDbEntity
  8
0
100
AcDbCircle
 62
7
  6
CONTINUOUS
 10
11.6814226038
 20
4.039891804
 40
0.235
  0
CIRCLE
  5
3D3
100
AcDbEntity
  8
0
100
AcDbCircle
 62
7
  6
CONTINUOUS
 10
11.6814226038
 20
4.039891804
 40
0.2225
  0
ARC
  5
3D4
100
AcDbEntity
  8
0
100
AcDbCircle
 62
9
  6
CONTINUOUS
 10
7.9697927245
 20
12.0619926288
 40
0.0586436755
100
AcDbArc
 50
211.086825667
 51
212.1772910359
  0
ARC
  5
3D5
100
AcDbEntity
  8
0
100
AcDbCircle
 62
9
  6
CONTINUOUS
 10
7.9654260525
 20
12.059351973
 40
0.0535406531
100
AcDbArc
 50
210.8422862586
 51
211.0796040163
  0
ARC
  5
3D6
100
AcDbEntity
  8
0
100
AcDbCircle
 62
7
  6
CONTINUOUS
 10
8.0292213685
 20
12.0605893101
 40
0.0196850394
100
AcDbArc
 50
135.0
 51
180.0012049649
  0
ARC
  5
3D7
100
AcDbEntity
  8
0
100
AcDbCircle
 62
7
  6
CONTINUOUS
 10
8.1016023776
 20
11.988208301
 40
0.0196850394
100
AcDbArc
 50
269.9987950343
 51
315.0
  0
ARC
  5
3D8
100
AcDbEntity
  8
0
100
AcDbCircle
 62
7
  6
CONTINUOUS
 10
8.0900711485
 20
11.988208301
 40
0.0196850394
100
AcDbArc
 50
224.9972511859
 51
269.9986727936
  0
ARC
  5
3D9
100
AcDbEntity
  8
0
100
AcDbCircle
 62
7
  6
CONTINUOUS
 10
8.0292213685
 20
12.049058081
 40
0.0196850394
100
AcDbArc
 50
180.0013272064
 51
225.0027488141
  0
ARC
  5
3DA
100
AcDbEntity
  8
0
100
AcDbCircle
 62
7
  6
CONTINUOUS
 10
7.9763765108
 20
11.7885143043
 40
0.0196850394
100
AcDbArc
 50
224.9956275412
 51
269.9974348682
  0
ARC
  5
3DB
100
AcDbEntity
  8
0
100
AcDbCircle
 62
7
  6
CONTINUOUS
 10
7.9879077399
 20
11.7491442256
 40
0.0196850394
100
AcDbArc
 50
45.0039181287
 51
90.0024249216
  0
ARC
  5
3DC
100
AcDbEntity
  8
0
100
AcDbCircle
 62
7
  6
CONTINUOUS
 10
7.7842884482
 20
11.9527635173
 40
0.0196850394
100
AcDbArc
 50
359.9975750785
 51
44.9960818716
  0
ARC
  5
3DD
100
AcDbEntity
  8
0
100
AcDbCircle
 62
7
  6
CONTINUOUS
 10
7.8236585269
 20
11.9412322882
 40
0.0196850394
100
AcDbArc
 50
180.0025651318
 51
225.0043724588
  0
ARC
  5
3DE
100
AcDbEntity
  8
0
100
AcDbCircle
 62
7
  6
CONTINUOUS
 10
7.7238893538
 20
12.0410014613
 40
0.0196850394
100
AcDbArc
 50
224.995716719
 51
269.9974348102
  0
ARC
  5
3DF
100
AcDbEntity
  8
0
100
AcDbCircle
 62
7
  6
CONTINUOUS
 10
7.7354205829
 20
12.0016313825
 40
0.0196850394
100
AcDbArc
 50
45.00392895
 51
90.0024317524
  0
ARC
  5
3E0
100
AcDbEntity
  8
0
100
AcDbCircle
 62
7
  6
CONTINUOUS
 10
8.0021939078
 20
11.7626969073
 40
0.0196850394
100
AcDbArc
 50
180.0025651901
 51
225.0140038908
  0
ARC
  5
3E1
100
AcDbEntity
  8
0
100
AcDbCircle
 62
7
  6
CONTINUOUS
 10
7.9809773549
 20
11.9215001853
 40
0.0118110236
100
AcDbArc
 50
224.9968154332
 51
269.9997468357
  0
ARC
  5
3E2
100
AcDbEntity
  8
0
100
AcDbCircle
 62
7
  6
CONTINUOUS
 10
7.9990316322
 20
11.9215001853
 40
0.0118110236
100
AcDbArc
 50
269.9997000107
 51
315.0
  0
ARC
  5
3E3
100
AcDbEntity
  8
0
100
AcDbCircle
 62
7
  6
CONTINUOUS
 10
7.9155150833
 20
12.0050167343
 40
0.0118110236
100
AcDbArc
 50
135.0
 51
180.000299988
  0
ARC
  5
3E4
100
AcDbEntity
  8
0
100
AcDbCircle
 62
7
  6
CONTINUOUS
 10
7.9155150833
 20
11.9869624569
 40
0.0118110236
100
AcDbArc
 50
180.0002531656
 51
225.0031845687
  0
ARC
  5
3E5
100
AcDbEntity
  8
0
100
AcDbCircle
 62
7
  6
CONTINUOUS
 10
7.1659975642
 20
12.6493635903
 40
0.2418608363
100
AcDbArc
 50
43.7154823834
 51
44.9889585699
  0
ARC
  5
3E6
100
AcDbEntity
  8
0
100
AcDbCircle
 62
9
  6
CONTINUOUS
 10
7.2561528977
 20
12.8080435566
 40
0.0664167326
100
AcDbArc
 50
212.1983830864
 51
212.3900664574
  0
ARC
  5
3E7
100
AcDbEntity
  8
0
100
AcDbCircle
 62
9
  6
CONTINUOUS
 10
7.3092127077
 20
12.7466052647
 40
0.0631473846
100
AcDbArc
 50
209.6154521281
 51
209.9624193782
  0
ARC
  5
3E8
100
AcDbEntity
  8
0
100
AcDbCircle
 62
7
  6
CONTINUOUS
 10
7.3142265788
 20
12.5601981607
 40
0.0393700787
100
AcDbArc
 50
334.9999170341
 51
39.208519173
  0
ARC
  5
3E9
100
AcDbEntity
  8
0
100
AcDbCircle
 62
7
  6
CONTINUOUS
 10
7.3503735792
 20
12.7981936682
 40
0.0196850394
100
AcDbArc
 50
135.0
 51
180.0024588141
  0
ARC
  5
3EA
100
AcDbEntity
  8
0
100
AcDbCircle
 62
7
  6
CONTINUOUS
 10
7.3503735792
 20
12.7866624391
 40
0.0196850394
100
AcDbArc
 50
180.00114329
 51
225.002650973
  0
ARC
  5
3EB
100
AcDbEntity
  8
0
100
AcDbCircle
 62
7
  6
CONTINUOUS
 10
7.2975697713
 20
12.7922409073
 40
0.0196850394
100
AcDbArc
 50
135.0
 51
180.0012047956
  0
ARC
  5
3EC
100
AcDbEntity
  8
0
100
AcDbCircle
 62
7
  6
CONTINUOUS
 10
7.2975697713
 20
12.7807096782
 40
0.0196850394
100
AcDbArc
 50
180.0013272052
 51
225.0023343899
  0
ARC
  5
3ED
100
AcDbEntity
  8
0
100
AcDbCircle
 62
7
  6
CONTINUOUS
 10
7.3532659104
 20
12.3837860551
 40
0.0196850394
100
AcDbArc
 50
359.9975750784
 51
44.9960818714
  0
ARC
  5
3EE
100
AcDbEntity
  8
0
100
AcDbCircle
 62
7
  6
CONTINUOUS
 10
7.3326845567
 20
12.4600451081
 40
0.0196850394
100
AcDbArc
 50
155.0000948195
 51
224.9996833625
  0
ARC
  5
3EF
100
AcDbEntity
  8
0
100
AcDbCircle
 62
7
  6
CONTINUOUS
 10
7.3531465107
 20
12.5493310295
 40
0.0118110236
100
AcDbArc
 50
180.0002531639
 51
225.000268516
  0
ARC
  5
3F0
100
AcDbEntity
  8
0
100
AcDbCircle
 62
7
  6
CONTINUOUS
 10
7.3531465107
 20
12.5673853068
 40
0.0118110236
100
AcDbArc
 50
135.0
 51
180.0002999894
  0
ARC
  5
3F1
100
AcDbEntity
  8
0
100
AcDbCircle
 62
7
  6
CONTINUOUS
 10
7.1872339866
 20
12.7332978309
 40
0.0118110236
100
AcDbArc
 50
135.0
 51
180.0002999879
  0
ARC
  5
3F2
100
AcDbEntity
  8
0
100
AcDbCircle
 62
7
  6
CONTINUOUS
 10
7.1872339866
 20
12.7152435536
 40
0.0118110236
100
AcDbArc
 50
180.0002531652
 51
224.9688745923
  0
ARC
  5
3F3
100
AcDbEntity
  8
0
100
AcDbCircle
 62
7
  6
CONTINUOUS
 10
7.1695670055
 20
12.7329105347
 40
0.0118110236
100
AcDbArc
 50
180.0002531643
 51
224.9943897753
  0
ARC
  5
3F4
100
AcDbEntity
  8
0
100
AcDbCircle
 62
7
  6
CONTINUOUS
 10
7.1695670055
 20
12.750964812
 40
0.0118110236
100
AcDbArc
 50
135.0
 51
180.0002999892
  0
ARC
  5
3F5
100
AcDbEntity
  8
0
100
AcDbCircle
 62
7
  6
CONTINUOUS
 10
7.3073511306
 20
12.5951264096
 40
0.0118110236
100
AcDbArc
 50
224.9808014761
 51
269.9997468346
  0
ARC
  5
3F6
100
AcDbEntity
  8
0
100
AcDbCircle
 62
7
  6
CONTINUOUS
 10
7.3254054079
 20
12.5951264096
 40
0.0118110236
100
AcDbArc
 50
269.9997000108
 51
315.0
  0
ARC
  5
3F7
100
AcDbEntity
  8
0
100
AcDbCircle
 62
7
  6
CONTINUOUS
 10
7.2418888589
 20
12.6786429586
 40
0.0118110236
100
AcDbArc
 50
135.0
 51
180.0002999885
  0
ARC
  5
3F8
100
AcDbEntity
  8
0
100
AcDbCircle
 62
7
  6
CONTINUOUS
 10
7.2418888589
 20
12.6605886813
 40
0.0118110236
100
AcDbArc
 50
180.0002531654
 51
225.0191985239
  0
ARC
  5
3F9
100
AcDbEntity
  8
0
100
AcDbCircle
 62
7
  6
CONTINUOUS
 10
6.7025443744
 20
13.6351773485
 40
0.08
100
AcDbArc
 50
135.0
 51
222.0
  0
ARC
  5
3FA
100
AcDbEntity
  8
0
100
AcDbCircle
 62
7
  6
CONTINUOUS
 10
7.2030677018
 20
12.9454995456
 40
0.0196850394
100
AcDbArc
 50
269.9975411859
 51
315.0
  0
ARC
  5
3FB
100
AcDbEntity
  8
0
100
AcDbCircle
 62
7
  6
CONTINUOUS
 10
7.1139833829
 20
13.0345838645
 40
0.0196850394
100
AcDbArc
 50
135.0
 51
180.0024588136
  0
ARC
  5
3FC
100
AcDbEntity
  8
0
100
AcDbCircle
 62
7
  6
CONTINUOUS
 10
7.1139833829
 20
13.0230526354
 40
0.0196850394
100
AcDbArc
 50
180.0011432902
 51
225.0012210329
  0
ARC
  5
3FD
100
AcDbEntity
  8
0
100
AcDbCircle
 62
7
  6
CONTINUOUS
 10
7.1915364727
 20
12.9454995456
 40
0.0196850394
100
AcDbArc
 50
224.9987789671
 51
269.9988567098
  0
ARC
  5
3FE
100
AcDbEntity
  8
0
100
AcDbCircle
 62
7
  6
CONTINUOUS
 10
7.0216791245
 20
13.1268881229
 40
0.0196850394
100
AcDbArc
 50
269.9975411863
 51
315.0
  0
ARC
  5
3FF
100
AcDbEntity
  8
0
100
AcDbCircle
 62
7
  6
CONTINUOUS
 10
6.9325948056
 20
13.2159724418
 40
0.0196850394
100
AcDbArc
 50
135.0
 51
180.0024588143
  0
ARC
  5
400
100
AcDbEntity
  8
0
100
AcDbCircle
 62
7
  6
CONTINUOUS
 10
6.9325948056
 20
13.2044412127
 40
0.0196850394
100
AcDbArc
 50
180.0011432902
 51
225.0141127258
  0
ARC
  5
401
100
AcDbEntity
  8
0
100
AcDbCircle
 62
7
  6
CONTINUOUS
 10
7.0101478954
 20
13.1268881229
 40
0.0196850394
100
AcDbArc
 50
224.9858872742
 51
269.9988567098
  0
ARC
  5
402
100
AcDbEntity
  8
0
100
AcDbCircle
 62
7
  6
CONTINUOUS
 10
6.907653498
 20
13.2409137495
 40
0.0196850394
100
AcDbArc
 50
269.9975411863
 51
288.8750990227
  0
ARC
  5
403
100
AcDbEntity
  8
0
100
AcDbCircle
 62
7
  6
CONTINUOUS
 10
6.8185691791
 20
13.3299980684
 40
0.0196850394
100
AcDbArc
 50
135.0
 51
180.0024588147
  0
ARC
  5
404
100
AcDbEntity
  8
0
100
AcDbCircle
 62
7
  6
CONTINUOUS
 10
6.8185691791
 20
13.3184668393
 40
0.0196850394
100
AcDbArc
 50
180.0011432896
 51
224.9833509245
  0
ARC
  5
405
100
AcDbEntity
  8
0
100
AcDbCircle
 62
7
  6
CONTINUOUS
 10
6.8961222689
 20
13.2409137495
 40
0.0196850394
100
AcDbArc
 50
225.0166490742
 51
269.9988567095
  0
ARC
  5
406
100
AcDbEntity
  8
0
100
AcDbCircle
 62
7
  6
CONTINUOUS
 10
7.1148844905
 20
12.9749261881
 40
0.0196850394
100
AcDbArc
 50
135.0
 51
180.001204796
  0
ARC
  5
407
100
AcDbEntity
  8
0
100
AcDbCircle
 62
7
  6
CONTINUOUS
 10
7.1872654996
 20
12.902545179
 40
0.0196850394
100
AcDbArc
 50
269.9987952046
 51
315.0
  0
ARC
  5
408
100
AcDbEntity
  8
0
100
AcDbCircle
 62
7
  6
CONTINUOUS
 10
7.1757342705
 20
12.902545179
 40
0.0196850394
100
AcDbArc
 50
224.9951362427
 51
269.9986727949
  0
ARC
  5
409
100
AcDbEntity
  8
0
100
AcDbCircle
 62
7
  6
CONTINUOUS
 10
7.1148844905
 20
12.963394959
 40
0.0196850394
100
AcDbArc
 50
180.0013272051
 51
225.0048637573
  0
ARC
  5
40A
100
AcDbEntity
  8
0
100
AcDbCircle
 62
7
  6
CONTINUOUS
 10
6.9188390359
 20
13.1709716427
 40
0.0196850394
100
AcDbArc
 50
135.0
 51
180.0012049649
  0
ARC
  5
40B
100
AcDbEntity
  8
0
100
AcDbCircle
 62
7
  6
CONTINUOUS
 10
6.9796888159
 20
13.0985906336
 40
0.0196850394
100
AcDbArc
 50
225.0260189205
 51
237.5061691349
  0
ARC
  5
40C
100
AcDbEntity
  8
0
100
AcDbCircle
 62
7
  6
CONTINUOUS
 10
6.9188390359
 20
13.1594404136
 40
0.0196850394
100
AcDbArc
 50
180.0013272064
 51
224.9739810795
  0
ARC
  5
40D
100
AcDbEntity
  8
0
100
AcDbCircle
 62
7
  6
CONTINUOUS
 10
7.0465562696
 20
13.0317231799
 40
0.0196850394
100
AcDbArc
 50
224.9941972838
 51
269.998672795
  0
ARC
  5
40E
100
AcDbEntity
  8
0
100
AcDbCircle
 62
7
  6
CONTINUOUS
 10
7.0580874987
 20
13.0317231799
 40
0.0196850394
100
AcDbArc
 50
269.9987952045
 51
315.0
  0
ARC
  5
40F
100
AcDbEntity
  8
0
100
AcDbCircle
 62
7
  6
CONTINUOUS
 10
6.9857064896
 20
13.104104189
 40
0.0196850394
100
AcDbArc
 50
135.0
 51
180.0012047948
  0
ARC
  5
410
100
AcDbEntity
  8
0
100
AcDbCircle
 62
7
  6
CONTINUOUS
 10
6.7796771613
 20
13.357358857
 40
0.0196850394
100
AcDbArc
 50
180.0010369649
 51
225.0009085171
  0
ARC
  5
411
100
AcDbEntity
  8
0
100
AcDbCircle
 62
7
  6
CONTINUOUS
 10
6.7796771613
 20
13.3688900861
 40
0.0196850394
100
AcDbArc
 50
135.0
 51
180.0010232871
  0
ARC
  5
412
100
AcDbEntity
  8
0
100
AcDbCircle
 62
7
  6
CONTINUOUS
 10
6.9857064896
 20
13.0925729599
 40
0.0196850394
100
AcDbArc
 50
180.0013272052
 51
225.0058027165
  0
ARC
  5
413
100
AcDbEntity
  8
0
100
AcDbCircle
 62
7
  6
CONTINUOUS
 10
7.0269432595
 20
13.0272956688
 40
0.0078740157
100
AcDbArc
 50
155.0343536506
 51
214.8534612382
  0
ARC
  5
414
100
AcDbEntity
  8
0
100
AcDbCircle
 62
7
  6
CONTINUOUS
 10
6.746825181
 20
13.4622616845
 40
0.0078740157
100
AcDbArc
 50
210.7100596427
 51
225.0
  0
ARC
  5
415
100
AcDbEntity
  8
0
100
AcDbCircle
 62
7
  6
CONTINUOUS
 10
7.3883127934
 20
12.3825540494
 40
0.2722377334
100
AcDbArc
 50
34.642693889
 51
35.1619922235
  0
ARC
  5
416
100
AcDbEntity
  8
0
100
AcDbCircle
 62
9
  6
CONTINUOUS
 10
7.7508247356
 20
12.2872103302
 40
0.0640779333
100
AcDbArc
 50
236.2416256067
 51
236.4644411222
  0
ARC
  5
417
100
AcDbEntity
  8
0
100
AcDbCircle
 62
9
  6
CONTINUOUS
 10
7.9000769636
 20
12.1331051877
 40
0.0590668104
100
AcDbArc
 50
238.6094917093
 51
239.8709868134
  0
ARC
  5
418
100
AcDbEntity
  8
0
100
AcDbCircle
 62
9
  6
CONTINUOUS
 10
7.6654415022
 20
12.3708527417
 40
0.0577807697
100
AcDbArc
 50
207.7731477625
 51
208.9966505732
  0
ARC
  5
419
100
AcDbEntity
  8
0
100
AcDbCircle
 62
9
  6
CONTINUOUS
 10
7.8957412039
 20
12.1256883275
 40
0.0504756656
100
AcDbArc
 50
239.9017522514
 51
240.4907634225
  0
ARC
  5
41A
100
AcDbEntity
  8
0
100
AcDbCircle
 62
7
  6
CONTINUOUS
 10
8.010154316
 20
12.1384129315
 40
0.0196850394
100
AcDbArc
 50
269.9975417674
 51
315.0
  0
ARC
  5
41B
100
AcDbEntity
  8
0
100
AcDbCircle
 62
7
  6
CONTINUOUS
 10
7.9210699971
 20
12.2274972503
 40
0.0196850394
100
AcDbArc
 50
135.0
 51
180.0024582326
  0
ARC
  5
41C
100
AcDbEntity
  8
0
100
AcDbCircle
 62
7
  6
CONTINUOUS
 10
7.9210699971
 20
12.2159660213
 40
0.0196850394
100
AcDbArc
 50
180.0011432897
 51
225.0053597799
  0
ARC
  5
41D
100
AcDbEntity
  8
0
100
AcDbCircle
 62
7
  6
CONTINUOUS
 10
7.9986230869
 20
12.1384129315
 40
0.0196850394
100
AcDbArc
 50
224.9946402201
 51
269.9988567103
  0
ARC
  5
41E
100
AcDbEntity
  8
0
100
AcDbCircle
 62
7
  6
CONTINUOUS
 10
7.7147401122
 20
12.4338271353
 40
0.0196850394
100
AcDbArc
 50
269.9975411861
 51
315.0
  0
ARC
  5
41F
100
AcDbEntity
  8
0
100
AcDbCircle
 62
7
  6
CONTINUOUS
 10
7.6256557933
 20
12.5229114542
 40
0.0196850394
100
AcDbArc
 50
135.0
 51
180.0024588139
  0
ARC
  5
420
100
AcDbEntity
  8
0
100
AcDbCircle
 62
7
  6
CONTINUOUS
 10
7.6256557933
 20
12.5113802251
 40
0.0196850394
100
AcDbArc
 50
180.0011432895
 51
225.0042403374
  0
ARC
  5
421
100
AcDbEntity
  8
0
100
AcDbCircle
 62
7
  6
CONTINUOUS
 10
7.7032088831
 20
12.4338271353
 40
0.0196850394
100
AcDbArc
 50
224.9957596611
 51
269.9988567095
  0
ARC
  5
422
100
AcDbEntity
  8
0
100
AcDbCircle
 62
7
  6
CONTINUOUS
 10
7.4394578981
 20
12.7091093493
 40
0.0196850394
100
AcDbArc
 50
269.9975411859
 51
315.0
  0
ARC
  5
423
100
AcDbEntity
  8
0
100
AcDbCircle
 62
7
  6
CONTINUOUS
 10
7.427926669
 20
12.7091093493
 40
0.0196850394
100
AcDbArc
 50
224.997349027
 51
269.99885671
  0
ARC
  5
424
100
AcDbEntity
  8
0
100
AcDbCircle
 62
7
  6
CONTINUOUS
 10
7.5213126321
 20
12.5684980465
 40
0.0196850394
100
AcDbArc
 50
135.0
 51
180.0012047948
  0
ARC
  5
425
100
AcDbEntity
  8
0
100
AcDbCircle
 62
7
  6
CONTINUOUS
 10
7.5936936412
 20
12.4961170374
 40
0.0196850394
100
AcDbArc
 50
269.9987952044
 51
315.0
  0
ARC
  5
426
100
AcDbEntity
  8
0
100
AcDbCircle
 62
7
  6
CONTINUOUS
 10
7.5821624121
 20
12.4961170374
 40
0.0196850394
100
AcDbArc
 50
224.9953781699
 51
269.998672795
  0
ARC
  5
427
100
AcDbEntity
  8
0
100
AcDbCircle
 62
7
  6
CONTINUOUS
 10
7.5213126321
 20
12.5569668174
 40
0.0196850394
100
AcDbArc
 50
180.0013272057
 51
225.0046218311
  0
ARC
  5
428
100
AcDbEntity
  8
0
100
AcDbCircle
 62
7
  6
CONTINUOUS
 10
7.3584195514
 20
12.7198598982
 40
0.0196850394
100
AcDbArc
 50
224.9976656101
 51
269.9986727948
  0
ARC
  5
429
100
AcDbEntity
  8
0
100
AcDbCircle
 62
7
  6
CONTINUOUS
 10
7.3699507804
 20
12.7198598982
 40
0.0196850394
100
AcDbArc
 50
269.9987952051
 51
315.0
  0
ARC
  5
42A
100
AcDbEntity
  8
0
100
AcDbCircle
 62
7
  6
CONTINUOUS
 10
7.8317151467
 20
12.2465643028
 40
0.0196850394
100
AcDbArc
 50
224.9973602113
 51
269.9986727884
  0
ARC
  5
42B
100
AcDbEntity
  8
0
100
AcDbCircle
 62
7
  6
CONTINUOUS
 10
7.8432463758
 20
12.2465643028
 40
0.0196850394
100
AcDbArc
 50
269.9987952044
 51
315.0
  0
ARC
  5
42C
100
AcDbEntity
  8
0
100
AcDbCircle
 62
7
  6
CONTINUOUS
 10
7.7708653667
 20
12.3189453119
 40
0.0196850394
100
AcDbArc
 50
135.0
 51
180.0012047956
  0
ARC
  5
42D
100
AcDbEntity
  8
0
100
AcDbCircle
 62
7
  6
CONTINUOUS
 10
7.7708653667
 20
12.3074140828
 40
0.0196850394
100
AcDbArc
 50
180.0013272117
 51
225.0026397887
  0
ARC
  5
42E
100
AcDbEntity
  8
0
100
AcDbCircle
 62
7
  6
CONTINUOUS
 10
7.5318012912
 20
12.2052506742
 40
0.0196850394
100
AcDbArc
 50
359.9975682479
 51
44.9960710504
  0
ARC
  5
42F
100
AcDbEntity
  8
0
100
AcDbCircle
 62
7
  6
CONTINUOUS
 10
7.57117137
 20
12.1937194452
 40
0.0196850394
100
AcDbArc
 50
180.0025651901
 51
225.0042832815
  0
ARC
  5
430
100
AcDbEntity
  8
0
100
AcDbCircle
 62
7
  6
CONTINUOUS
 10
7.545353973
 20
12.2195368421
 40
0.0196850394
100
AcDbArc
 50
224.9855827433
 51
269.9974348681
  0
ARC
  5
431
100
AcDbEntity
  8
0
100
AcDbCircle
 62
7
  6
CONTINUOUS
 10
7.3926359891
 20
12.372254826
 40
0.0196850394
100
AcDbArc
 50
180.0025651318
 51
225.0144172566
  0
ARC
  5
432
100
AcDbEntity
  8
0
100
AcDbCircle
 62
7
  6
CONTINUOUS
 10
7.8250615864
 20
12.0774159538
 40
0.0118110236
100
AcDbArc
 50
224.9958159902
 51
269.999746835
  0
ARC
  5
433
100
AcDbEntity
  8
0
100
AcDbCircle
 62
7
  6
CONTINUOUS
 10
7.8431158638
 20
12.0774159538
 40
0.0118110236
100
AcDbArc
 50
269.9997000112
 51
315.0
  0
ARC
  5
434
100
AcDbEntity
  8
0
100
AcDbCircle
 62
7
  6
CONTINUOUS
 10
7.7595993148
 20
12.1609325027
 40
0.0118110236
100
AcDbArc
 50
135.0
 51
180.0002999888
  0
ARC
  5
435
100
AcDbEntity
  8
0
100
AcDbCircle
 62
7
  6
CONTINUOUS
 10
7.7595993148
 20
12.1428782254
 40
0.0118110236
100
AcDbArc
 50
180.0002531649
 51
225.0041840097
  0
ARC
  5
436
100
AcDbEntity
  8
0
100
AcDbCircle
 62
7
  6
CONTINUOUS
 10
7.6721303164
 20
12.2303472238
 40
0.0118110236
100
AcDbArc
 50
224.9932833699
 51
269.9997499651
  0
ARC
  5
437
100
AcDbEntity
  8
0
100
AcDbCircle
 62
7
  6
CONTINUOUS
 10
7.6901845937
 20
12.2303472238
 40
0.0118110236
100
AcDbArc
 50
269.9996996385
 51
315.0
  0
ARC
  5
438
100
AcDbEntity
  8
0
100
AcDbCircle
 62
7
  6
CONTINUOUS
 10
7.6066680447
 20
12.3138637728
 40
0.0118110236
100
AcDbArc
 50
135.0
 51
180.0003003629
  0
ARC
  5
439
100
AcDbEntity
  8
0
100
AcDbCircle
 62
7
  6
CONTINUOUS
 10
7.6066680447
 20
12.2958094954
 40
0.0118110236
100
AcDbArc
 50
180.0002500349
 51
225.0067166301
  0
ARC
  5
43A
100
AcDbEntity
  8
0
100
AcDbCircle
 62
7
  6
CONTINUOUS
 10
8.1667863308
 20
11.6079142357
 40
0.2694841875
100
AcDbArc
 50
54.8465748188
 51
55.3597800407
  0
ARC
  5
43B
100
AcDbEntity
  8
0
100
AcDbCircle
 62
7
  6
CONTINUOUS
 10
8.4264032377
 20
11.3775945963
 40
0.2498959507
100
AcDbArc
 50
45.0315167869
 51
46.2640009898
  0
ARC
  5
43C
100
AcDbEntity
  8
0
100
AcDbCircle
 62
7
  6
CONTINUOUS
 10
8.1549118916
 20
11.6099789235
 40
0.0196850394
100
AcDbArc
 50
224.9859961097
 51
269.9974348102
  0
ARC
  5
43D
100
AcDbEntity
  8
0
100
AcDbCircle
 62
7
  6
CONTINUOUS
 10
8.1664431207
 20
11.5706088447
 40
0.0196850394
100
AcDbArc
 50
45.00392895
 51
90.0024317524
  0
ARC
  5
43E
100
AcDbEntity
  8
0
100
AcDbCircle
 62
7
  6
CONTINUOUS
 10
8.2427021737
 20
11.550027491
 40
0.0196850394
100
AcDbArc
 50
225.0003166375
 51
294.9999051805
  0
ARC
  5
43F
100
AcDbEntity
  8
0
100
AcDbCircle
 62
7
  6
CONTINUOUS
 10
8.3900027953
 20
11.5124747449
 40
0.0118110236
100
AcDbArc
 50
224.9917693692
 51
269.9997466605
  0
ARC
  5
440
100
AcDbEntity
  8
0
100
AcDbCircle
 62
7
  6
CONTINUOUS
 10
8.4080570726
 20
11.5124747449
 40
0.0118110236
100
AcDbArc
 50
269.9997000109
 51
315.0
  0
ARC
  5
441
100
AcDbEntity
  8
0
100
AcDbCircle
 62
7
  6
CONTINUOUS
 10
8.3245405237
 20
11.5959912938
 40
0.0118110236
100
AcDbArc
 50
135.0
 51
180.0002999879
  0
ARC
  5
442
100
AcDbEntity
  8
0
100
AcDbCircle
 62
7
  6
CONTINUOUS
 10
8.3245405237
 20
11.5779370165
 40
0.0118110236
100
AcDbArc
 50
180.0002533395
 51
225.0082306308
  0
ARC
  5
443
100
AcDbEntity
  8
0
100
AcDbCircle
 62
7
  6
CONTINUOUS
 10
8.4013902654
 20
11.5010872748
 40
0.0118110236
100
AcDbArc
 50
182.2118786176
 51
225.0087250402
  0
ARC
  5
444
100
AcDbEntity
  8
0
100
AcDbCircle
 62
7
  6
CONTINUOUS
 10
8.3965713476
 20
11.5059061926
 40
0.0118110236
100
AcDbArc
 50
224.9888903593
 51
241.7896816291
  0
ARC
  5
445
100
AcDbEntity
  8
0
100
AcDbCircle
 62
7
  6
CONTINUOUS
 10
8.3055685198
 20
11.8429987276
 40
0.0196850394
100
AcDbArc
 50
269.9975411863
 51
315.0
  0
ARC
  5
446
100
AcDbEntity
  8
0
100
AcDbCircle
 62
7
  6
CONTINUOUS
 10
8.2164842009
 20
11.9320830465
 40
0.0196850394
100
AcDbArc
 50
135.0
 51
180.0024588147
  0
ARC
  5
447
100
AcDbEntity
  8
0
100
AcDbCircle
 62
7
  6
CONTINUOUS
 10
8.2164842009
 20
11.9205518174
 40
0.0196850394
100
AcDbArc
 50
180.0011432896
 51
225.0039616692
  0
ARC
  5
448
100
AcDbEntity
  8
0
100
AcDbCircle
 62
7
  6
CONTINUOUS
 10
8.2940372907
 20
11.8429987276
 40
0.0196850394
100
AcDbArc
 50
224.9960383295
 51
269.9988567094
  0
ARC
  5
449
100
AcDbEntity
  8
0
100
AcDbCircle
 62
7
  6
CONTINUOUS
 10
8.339623883
 20
11.7386555665
 40
0.0196850394
100
AcDbArc
 50
224.9953487529
 51
269.998672795
  0
ARC
  5
44A
100
AcDbEntity
  8
0
100
AcDbCircle
 62
7
  6
CONTINUOUS
 10
8.3511551121
 20
11.7386555665
 40
0.0196850394
100
AcDbArc
 50
269.9987952045
 51
315.0
  0
ARC
  5
44B
100
AcDbEntity
  8
0
100
AcDbCircle
 62
7
  6
CONTINUOUS
 10
8.278774103
 20
11.8110365756
 40
0.0196850394
100
AcDbArc
 50
135.0
 51
180.0012047948
  0
ARC
  5
44C
100
AcDbEntity
  8
0
100
AcDbCircle
 62
7
  6
CONTINUOUS
 10
8.278774103
 20
11.7995053465
 40
0.0196850394
100
AcDbArc
 50
180.0013272052
 51
225.0046512474
  0
ARC
  5
44D
100
AcDbEntity
  8
0
100
AcDbCircle
 62
9
  6
CONTINUOUS
 10
8.5565745805
 20
11.5062177439
 40
0.0671976447
100
AcDbArc
 50
239.2958042327
 51
239.4775540579
  0
ARC
  5
44E
100
AcDbEntity
  8
0
100
AcDbCircle
 62
7
  6
CONTINUOUS
 10
8.7281566113
 20
11.4204106362
 40
0.0196850394
100
AcDbArc
 50
135.0
 51
180.0024588136
  0
ARC
  5
44F
100
AcDbEntity
  8
0
100
AcDbCircle
 62
7
  6
CONTINUOUS
 10
8.7281566113
 20
11.4088794071
 40
0.0196850394
100
AcDbArc
 50
180.0011432902
 51
225.0011644738
  0
ARC
  5
450
100
AcDbEntity
  8
0
100
AcDbCircle
 62
7
  6
CONTINUOUS
 10
8.5808507339
 20
11.5677165136
 40
0.0196850394
100
AcDbArc
 50
269.9975411864
 51
315.0
  0
ARC
  5
451
100
AcDbEntity
  8
0
100
AcDbCircle
 62
7
  6
CONTINUOUS
 10
8.5693195048
 20
11.5677165136
 40
0.0196850394
100
AcDbArc
 50
224.9974623001
 51
269.9988567098
  0
ARC
  5
452
100
AcDbEntity
  8
0
100
AcDbCircle
 62
7
  6
CONTINUOUS
 10
8.5025169638
 20
11.5872937148
 40
0.0196850394
100
AcDbArc
 50
135.0
 51
180.0012047959
  0
ARC
  5
453
100
AcDbEntity
  8
0
100
AcDbCircle
 62
7
  6
CONTINUOUS
 10
8.5748979729
 20
11.5149127057
 40
0.0196850394
100
AcDbArc
 50
269.9987952047
 51
315.0
  0
ARC
  5
454
100
AcDbEntity
  8
0
100
AcDbCircle
 62
7
  6
CONTINUOUS
 10
8.5633667438
 20
11.5149127057
 40
0.0196850394
100
AcDbArc
 50
224.9978782692
 51
269.9986727949
  0
ARC
  5
455
100
AcDbEntity
  8
0
100
AcDbCircle
 62
7
  6
CONTINUOUS
 10
8.5025169638
 20
11.5757624857
 40
0.0196850394
100
AcDbArc
 50
180.0013272051
 51
225.0021217308
  0
ARC
  5
456
100
AcDbEntity
  8
0
100
AcDbCircle
 62
7
  6
CONTINUOUS
 10
8.7460520247
 20
11.3322274249
 40
0.0196850394
100
AcDbArc
 50
224.9955707515
 51
269.9986727947
  0
ARC
  5
457
100
AcDbEntity
  8
0
100
AcDbCircle
 62
7
  6
CONTINUOUS
 10
8.7575832537
 20
11.3322274249
 40
0.0196850394
100
AcDbArc
 50
269.9987952051
 51
315.0
  0
ARC
  5
458
100
AcDbEntity
  8
0
100
AcDbCircle
 62
7
  6
CONTINUOUS
 10
8.6852022446
 20
11.404608434
 40
0.0196850394
100
AcDbArc
 50
135.0
 51
180.0012047956
  0
ARC
  5
459
100
AcDbEntity
  8
0
100
AcDbCircle
 62
7
  6
CONTINUOUS
 10
8.6852022446
 20
11.3930772049
 40
0.0196850394
100
AcDbArc
 50
180.0013272053
 51
225.0044292485
  0
ARC
  5
45A
100
AcDbEntity
  8
0
100
AcDbCircle
 62
7
  6
CONTINUOUS
 10
8.508558909
 20
11.3939186312
 40
0.0118110236
100
AcDbArc
 50
225.0465599882
 51
269.9997468347
  0
ARC
  5
45B
100
AcDbEntity
  8
0
100
AcDbCircle
 62
7
  6
CONTINUOUS
 10
8.5266131863
 20
11.3939186312
 40
0.0118110236
100
AcDbArc
 50
269.9996999689
 51
315.0
  0
ARC
  5
45C
100
AcDbEntity
  8
0
100
AcDbCircle
 62
7
  6
CONTINUOUS
 10
8.466852537
 20
11.4356250032
 40
0.0118110236
100
AcDbArc
 50
224.9912749597
 51
269.9997472495
  0
ARC
  5
45D
100
AcDbEntity
  8
0
100
AcDbCircle
 62
7
  6
CONTINUOUS
 10
8.4849068143
 20
11.4356250032
 40
0.0118110236
100
AcDbArc
 50
269.9997000847
 51
315.0
  0
ARC
  5
45E
100
AcDbEntity
  8
0
100
AcDbCircle
 62
7
  6
CONTINUOUS
 10
8.491766415
 20
11.6568008325
 40
0.0196850394
100
AcDbArc
 50
135.0
 51
180.0024588143
  0
ARC
  5
45F
100
AcDbEntity
  8
0
100
AcDbCircle
 62
7
  6
CONTINUOUS
 10
8.491766415
 20
11.6452696034
 40
0.0196850394
100
AcDbArc
 50
180.0011432902
 51
225.0025376999
  0
ARC
  5
460
100
AcDbEntity
  8
0
100
AcDbCircle
 62
7
  6
CONTINUOUS
 10
9.4436121044
 20
11.0254720479
 40
0.5118110236
100
AcDbArc
 50
169.7363065404
 51
249.6710480593
  0
ARC
  5
461
100
AcDbEntity
  8
0
100
AcDbCircle
 62
7
  6
CONTINUOUS
 10
9.0376370572
 20
10.4855686065
 40
0.4724409449
100
AcDbArc
 50
34.4249168973
 51
56.7360171921
  0
ARC
  5
462
100
AcDbEntity
  8
0
100
AcDbCircle
 62
9
  6
CONTINUOUS
 10
9.4432348567
 20
11.0250802693
 40
0.4449203465
100
AcDbArc
 50
169.6341302841
 51
249.6676806765
  0
ARC
  5
463
100
AcDbEntity
  8
0
100
AcDbCircle
 62
7
  6
CONTINUOUS
 10
9.3136754696
 20
10.6747524295
 40
0.1377952756
100
AcDbArc
 50
249.6710480599
 51
34.4249168912
  0
ARC
  5
464
100
AcDbEntity
  8
0
100
AcDbCircle
 62
7
  6
CONTINUOUS
 10
9.4178344142
 20
10.9198873088
 40
0.08
100
AcDbArc
 50
228.0
 51
315.0
  0
ARC
  5
465
100
AcDbEntity
  8
0
100
AcDbCircle
 62
7
  6
CONTINUOUS
 10
9.112655134
 20
11.0359121134
 40
0.0196850394
100
AcDbArc
 50
269.9975411861
 51
315.0
  0
ARC
  5
466
100
AcDbEntity
  8
0
100
AcDbCircle
 62
7
  6
CONTINUOUS
 10
9.0235708151
 20
11.1249964323
 40
0.0196850394
100
AcDbArc
 50
161.1249009772
 51
180.0024588138
  0
ARC
  5
467
100
AcDbEntity
  8
0
100
AcDbCircle
 62
7
  6
CONTINUOUS
 10
9.0235708151
 20
11.1134652032
 40
0.0196850394
100
AcDbArc
 50
180.0011432895
 51
224.9840517543
  0
ARC
  5
468
100
AcDbEntity
  8
0
100
AcDbCircle
 62
7
  6
CONTINUOUS
 10
9.1011239049
 20
11.0359121134
 40
0.0196850394
100
AcDbArc
 50
225.0159482442
 51
269.9988567094
  0
ARC
  5
469
100
AcDbEntity
  8
0
100
AcDbCircle
 62
7
  6
CONTINUOUS
 10
8.9986295075
 20
11.14993774
 40
0.0196850394
100
AcDbArc
 50
269.9975411858
 51
315.0
  0
ARC
  5
46A
100
AcDbEntity
  8
0
100
AcDbCircle
 62
7
  6
CONTINUOUS
 10
8.9870982784
 20
11.14993774
 40
0.0196850394
100
AcDbArc
 50
224.9865472113
 51
269.99885671
  0
ARC
  5
46B
100
AcDbEntity
  8
0
100
AcDbCircle
 62
7
  6
CONTINUOUS
 10
8.8867612547
 20
11.2030494239
 40
0.0196850394
100
AcDbArc
 50
269.9987952044
 51
315.0
  0
ARC
  5
46C
100
AcDbEntity
  8
0
100
AcDbCircle
 62
7
  6
CONTINUOUS
 10
8.8752300256
 20
11.2030494239
 40
0.0196850394
100
AcDbArc
 50
224.9941829962
 51
269.998672795
  0
ARC
  5
46D
100
AcDbEntity
  8
0
100
AcDbCircle
 62
7
  6
CONTINUOUS
 10
8.9420974793
 20
11.1361819703
 40
0.0196850394
100
AcDbArc
 50
225.0254658455
 51
269.9986727884
  0
ARC
  5
46E
100
AcDbEntity
  8
0
100
AcDbCircle
 62
7
  6
CONTINUOUS
 10
8.9536287083
 20
11.1361819703
 40
0.0196850394
100
AcDbArc
 50
269.9987952044
 51
315.0
  0
ARC
  5
46F
100
AcDbEntity
  8
0
100
AcDbCircle
 62
7
  6
CONTINUOUS
 10
8.8812476992
 20
11.1970317503
 40
0.0196850394
100
AcDbArc
 50
212.4938308644
 51
224.9745341545
  0
ARC
  5
470
100
AcDbEntity
  8
0
100
AcDbCircle
 62
9
  6
CONTINUOUS
 10
9.2431008965
 20
10.966189452
 40
0.0080179026
100
AcDbArc
 50
225.0039089867
 51
239.1605534019
  0
ARC
  5
471
100
AcDbEntity
  8
0
100
AcDbCircle
 62
7
  6
CONTINUOUS
 10
8.9095451886
 20
11.2390220589
 40
0.0196850394
100
AcDbArc
 50
135.0
 51
180.0024588142
  0
ARC
  5
472
100
AcDbEntity
  8
0
100
AcDbCircle
 62
7
  6
CONTINUOUS
 10
8.9095451886
 20
11.2274908298
 40
0.0196850394
100
AcDbArc
 50
180.00114329
 51
225.0134527887
  0
ARC
  5
473
100
AcDbEntity
  8
0
100
AcDbCircle
 62
7
  6
CONTINUOUS
 10
8.8172409302
 20
11.3313263173
 40
0.0196850394
100
AcDbArc
 50
269.9975411859
 51
315.0
  0
ARC
  5
474
100
AcDbEntity
  8
0
100
AcDbCircle
 62
7
  6
CONTINUOUS
 10
8.8057097011
 20
11.3313263173
 40
0.0196850394
100
AcDbArc
 50
224.9988355262
 51
269.9988567098
  0
ARC
  5
475
100
AcDbEntity
  8
0
100
AcDbCircle
 62
7
  6
CONTINUOUS
 10
8.8143802456
 20
11.275430433
 40
0.0196850394
100
AcDbArc
 50
135.0
 51
180.0012047948
  0
ARC
  5
476
100
AcDbEntity
  8
0
100
AcDbCircle
 62
7
  6
CONTINUOUS
 10
8.8143802456
 20
11.263899204
 40
0.0196850394
100
AcDbArc
 50
180.0013272057
 51
225.0058170048
  0
ARC
  5
477
100
AcDbEntity
  8
0
100
AcDbCircle
 62
7
  6
CONTINUOUS
 10
8.8099527344
 20
11.2442861938
 40
0.0078740157
100
AcDbArc
 50
235.1465387619
 51
294.9656536323
  0
ARC
  5
478
100
AcDbEntity
  8
0
100
AcDbCircle
 62
7
  6
CONTINUOUS
 10
9.4341934334
 20
12.9768825179
 40
0.08
100
AcDbArc
 50
0.2317553725
 51
16.0449756281
  0
ARC
  5
479
100
AcDbEntity
  8
0
100
AcDbCircle
 62
7
  6
CONTINUOUS
 10
8.7595395836
 20
13.6515363677
 40
0.08
100
AcDbArc
 50
73.9550243719
 51
89.7682446275
  0
ARC
  5
47A
100
AcDbEntity
  8
0
100
AcDbCircle
 62
7
  6
CONTINUOUS
 10
9.5974981095
 20
12.1602111759
 40
0.08
100
AcDbArc
 50
180.2317553725
 51
225.0
  0
ARC
  5
47B
100
AcDbEntity
  8
0
100
AcDbCircle
 62
7
  6
CONTINUOUS
 10
9.5672076915
 20
13.7845506259
 40
2.5590551181
100
AcDbArc
 50
222.3528405071
 51
227.6471594929
  0
ARC
  5
47C
100
AcDbEntity
  8
0
100
AcDbCircle
 62
7
  6
CONTINUOUS
 10
9.6441671571
 20
13.8615100915
 40
0.489
100
AcDbArc
 50
343.8720486571
 51
0.0258404644
  0
ARC
  5
47D
100
AcDbEntity
  8
0
100
AcDbCircle
 62
7
  6
CONTINUOUS
 10
9.6441671571
 20
13.8615100915
 40
0.489
100
AcDbArc
 50
89.9741595356
 51
106.1279513429
  0
ARC
  5
47E
100
AcDbEntity
  8
0
100
AcDbCircle
 62
7
  6
CONTINUOUS
 10
9.6444237768
 20
14.4305100336
 40
0.08
100
AcDbArc
 50
269.9741595356
 51
360.0
  0
ARC
  5
47F
100
AcDbEntity
  8
0
100
AcDbCircle
 62
7
  6
CONTINUOUS
 10
7.9428682416
 20
13.8148410439
 40
0.08
100
AcDbArc
 50
225.0
 51
269.7682446275
  0
ARC
  5
480
100
AcDbEntity
  8
0
100
AcDbCircle
 62
7
  6
CONTINUOUS
 10
7.2994010707
 20
14.2320340448
 40
0.08
100
AcDbArc
 50
45.0
 51
135.0
  0
ARC
  5
481
100
AcDbEntity
  8
0
100
AcDbCircle
 62
7
  6
CONTINUOUS
 10
10.0146911104
 20
11.516744005
 40
0.08
100
AcDbArc
 50
315.0
 51
45.0
  0
ARC
  5
482
100
AcDbEntity
  8
0
100
AcDbCircle
 62
9
  6
CONTINUOUS
 10
12.7694229508
 20
16.8959363911
 40
6.9265790663
100
AcDbArc
 50
239.2610109886
 51
240.0308013472
  0
ARC
  5
483
100
AcDbEntity
  8
0
100
AcDbCircle
 62
7
  6
CONTINUOUS
 10
12.5474226038
 20
14.289891804
 40
2.15625
100
AcDbArc
 50
90.0
 51
135.0
  0
ARC
  5
484
100
AcDbEntity
  8
0
100
AcDbCircle
 62
7
  6
CONTINUOUS
 10
12.5474226038
 20
14.289891804
 40
1.34375
100
AcDbArc
 50
90.0
 51
135.0
  0
ARC
  5
485
100
AcDbEntity
  8
0
100
AcDbCircle
 62
7
  6
CONTINUOUS
 10
10.286483264
 20
14.1297667111
 40
0.188
100
AcDbArc
 50
270.0
 51
315.0
  0
ARC
  5
486
100
AcDbEntity
  8
0
100
AcDbCircle
 62
7
  6
CONTINUOUS
 10
9.9124237768
 20
14.5038261984
 40
0.188
100
AcDbArc
 50
135.0
 51
180.0
  0
ARC
  5
487
100
AcDbEntity
  8
0
100
AcDbCircle
 62
7
  6
CONTINUOUS
 10
10.2131670992
 20
13.8617667111
 40
0.08
100
AcDbArc
 50
90.0
 51
180.0258404644
  0
ARC
  5
488
100
AcDbEntity
  8
0
100
AcDbCircle
 62
7
  6
CONTINUOUS
 10
14.4844226038
 20
0.7794570214
 40
0.1254347826
100
AcDbArc
 50
22.9364108859
 51
70.4680059554
  0
ARC
  5
489
100
AcDbEntity
  8
0
100
AcDbCircle
 62
7
  6
CONTINUOUS
 10
14.4844226038
 20
7.3003265867
 40
0.1254347826
100
AcDbArc
 50
289.5319940446
 51
337.0635891141
  0
ARC
  5
48A
100
AcDbEntity
  8
0
100
AcDbCircle
 62
7
  6
CONTINUOUS
 10
14.5474226038
 20
7.1227352938
 40
0.063
100
AcDbArc
 50
109.5319940456
 51
180.0
  0
ARC
  5
48B
100
AcDbEntity
  8
0
100
AcDbCircle
 62
7
  6
CONTINUOUS
 10
14.5474226038
 20
0.9570483143
 40
0.063
100
AcDbArc
 50
180.0
 51
250.4680059544
  0
ARC
  5
48C
100
AcDbEntity
  8
0
100
AcDbCircle
 62
7
  6
CONTINUOUS
 10
14.6579593435
 20
7.226891804
 40
0.063
100
AcDbArc
 50
90.0
 51
157.0635891141
  0
ARC
  5
48D
100
AcDbEntity
  8
0
100
AcDbCircle
 62
7
  6
CONTINUOUS
 10
14.6579593435
 20
0.852891804
 40
0.063
100
AcDbArc
 50
202.9364108859
 51
270.0
  0
ARC
  5
48E
100
AcDbEntity
  8
0
100
AcDbCircle
 62
7
  6
CONTINUOUS
 10
12.8996784321
 20
17.1170409295
 40
7.1691060897
100
AcDbArc
 50
219.1377471454
 51
219.2089918143
  0
ARC
  5
48F
100
AcDbEntity
  8
0
100
AcDbCircle
 62
7
  6
CONTINUOUS
 10
12.8996784321
 20
17.1170409295
 40
7.1691060897
100
AcDbArc
 50
215.6769302766
 51
217.0935642307
  0
ARC
  5
490
100
AcDbEntity
  8
0
100
AcDbCircle
 62
7
  6
CONTINUOUS
 10
12.8996979952
 20
17.1170213664
 40
7.1691060897
100
AcDbArc
 50
232.7965657198
 51
234.3230697234
  0
ARC
  5
491
100
AcDbEntity
  8
0
100
AcDbCircle
 62
7
  6
CONTINUOUS
 10
12.8997033999
 20
17.1170658974
 40
7.1643816803
100
AcDbArc
 50
214.8532231336
 51
215.5750973652
  0
ARC
  5
492
100
AcDbEntity
  8
0
100
AcDbCircle
 62
7
  6
CONTINUOUS
 10
12.8997229631
 20
17.1170463343
 40
7.1643816803
100
AcDbArc
 50
234.4249026348
 51
235.1467768664
  0
ARC
  5
493
100
AcDbEntity
  8
0
100
AcDbCircle
 62
7
  6
CONTINUOUS
 10
12.8997033999
 20
17.1170658974
 40
7.1643816803
100
AcDbArc
 50
210.1944718959
 51
210.7102731828
  0
ARC
  5
494
100
AcDbEntity
  8
0
100
AcDbCircle
 62
7
  6
CONTINUOUS
 10
12.8993394012
 20
17.1168161306
 40
7.1633226513
100
AcDbArc
 50
239.270521551
 51
239.7914629
  0
ARC
  5
495
100
AcDbEntity
  8
0
100
AcDbCircle
 62
9
  6
CONTINUOUS
 10
12.9032217176
 20
17.1229860837
 40
7.1507436029
100
AcDbArc
 50
238.2880417734
 51
238.6171785402
  0
ARC
  5
496
100
AcDbEntity
  8
0
100
AcDbCircle
 62
7
  6
CONTINUOUS
 10
18.8525820196
 20
16.0920657162
 40
4.5
100
AcDbArc
 50
186.4144817261
 51
195.5395954904
  0
ARC
  5
497
100
AcDbEntity
  8
0
100
AcDbCircle
 62
7
  6
CONTINUOUS
 10
18.8525820196
 20
15.9877178919
 40
4.5
100
AcDbArc
 50
164.4604045096
 51
173.5855182739
  0
ARC
  5
498
100
AcDbEntity
  8
0
100
AcDbCircle
 62
7
  6
CONTINUOUS
 10
14.5652493566
 20
17.179891804
 40
0.05
100
AcDbArc
 50
90.0
 51
164.4604045097
  0
ARC
  5
499
100
AcDbEntity
  8
0
100
AcDbCircle
 62
7
  6
CONTINUOUS
 10
14.5652493566
 20
14.899891804
 40
0.05
100
AcDbArc
 50
195.5395954903
 51
270.0
  0
SPLINE
  5
49A
100
AcDbEntity
  8
0
100
AcDbSpline
 62
7
  6
CONTINUOUS
 70
0
 71
3
 72
18
 73
14
 74
0
 42
0.0000001
 43
0.0000001
 44
0.0000000001
 40
0.0
 40
0.0
 40
0.0
 40
0.0
 40
0.0939775982
 40
0.1870163725
 40
0.2782742153
 40
0.3670268635
 40
0.534561873
 40
0.6122768244
 40
0.6851527471
 40
0.8136027943
 40
0.9135424864
 40
0.9777507282
 40
1.0
 40
1.0
 40
1.0
 40
1.0
 10
11.6814226038
 20
3.7476590201
 30
0.0
 10
11.6893310503
 20
3.7476590201
 30
0.0
 10
11.7050763218
 20
3.7470172652
 30
0.0
 10
11.728346553
 20
3.7442060911
 30
0.0
 10
11.7509118341
 20
3.7397684232
 30
0.0
 10
11.7791883402
 20
3.7322329488
 30
0.0
 10
11.8056897972
 20
3.722704797
 30
0.0
 10
11.8302574099
 20
3.7120615131
 30
0.0
 10
11.8514719043
 20
3.7019843095
 30
0.0
 10
11.873914135
 20
3.6901683286
 30
0.0
 10
11.8952535372
 20
3.6778768614
 30
0.0
 10
11.9086601744
 20
3.6697324977
 30
0.0
 10
11.9148359732
 20
3.6658861057
 30
0.0
 10
11.9164225206
 20
3.6648918925
 30
0.0
  0
SPLINE
  5
49B
100
AcDbEntity
  8
0
100
AcDbSpline
 62
7
  6
CONTINUOUS
 70
0
 71
3
 72
18
 73
14
 74
0
 42
0.0000001
 43
0.0000001
 44
0.0000000001
 40
0.0
 40
0.0
 40
0.0
 40
0.0
 40
0.0939775982
 40
0.1870163726
 40
0.2782742154
 40
0.3670268636
 40
0.5345618731
 40
0.6122768245
 40
0.6851527471
 40
0.8136027943
 40
0.9135424864
 40
0.9777507282
 40
1.0
 40
1.0
 40
1.0
 40
1.0
 10
11.6814226038
 20
4.332124588
 30
0.0
 10
11.6735141574
 20
4.332124588
 30
0.0
 10
11.6577688859
 20
4.3327663429
 30
0.0
 10
11.6344986546
 20
4.335577517
 30
0.0
 10
11.6119333736
 20
4.3400151849
 30
0.0
 10
11.5836568674
 20
4.3475506593
 30
0.0
 10
11.5571554105
 20
4.3570788111
 30
0.0
 10
11.5325877978
 20
4.367722095
 30
0.0
 10
11.5113733034
 20
4.3777992986
 30
0.0
 10
11.4889310727
 20
4.3896152795
 30
0.0
 10
11.4675916705
 20
4.4019067467
 30
0.0
 10
11.4541850333
 20
4.4100511104
 30
0.0
 10
11.4480092345
 20
4.4138975024
 30
0.0
 10
11.4464226871
 20
4.4148917156
 30
0.0
  0
LINE
  5
49C
100
AcDbEntity
  8
0
100
AcDbLine
 62
7
  6
CONTINUOUS
 10
7.2007907447
 20
12.7678504375
 11
7.1979805506
 21
12.7714867886
  0
LINE
  5
49D
100
AcDbEntity
  8
0
100
AcDbLine
 62
7
  6
CONTINUOUS
 10
7.1979805506
 20
12.7714867886
 11
7.1819487297
 21
12.7922768412
  0
LINE
  5
49E
100
AcDbEntity
  8
0
100
AcDbLine
 62
7
  6
CONTINUOUS
 10
7.1819487297
 20
12.7922768412
 11
7.1812846267
 21
12.7931475915
  0
LINE
  5
49F
100
AcDbEntity
  8
0
100
AcDbLine
 62
7
  6
CONTINUOUS
 10
7.1812288783
 20
12.7932212261
 11
7.1810218585
 21
12.7934987739
  0
SPLINE
  5
4A0
100
AcDbEntity
  8
0
100
AcDbSpline
 62
7
  6
CONTINUOUS
 70
0
 71
3
 72
18
 73
14
 74
0
 42
0.0000001
 43
0.0000001
 44
0.0000000001
 40
0.0
 40
0.0
 40
0.0
 40
0.0
 40
0.0222492718
 40
0.0864575136
 40
0.1863972057
 40
0.3148472529
 40
0.3877231756
 40
0.465438127
 40
0.6329731365
 40
0.7217257847
 40
0.8129836275
 40
0.9060224018
 40
1.0
 40
1.0
 40
1.0
 40
1.0
 10
11.9164225206
 20
4.4148917156
 30
0.0
 10
11.9148359732
 20
4.4138975024
 30
0.0
 10
11.9086601744
 20
4.4100511104
 30
0.0
 10
11.8952535372
 20
4.4019067467
 30
0.0
 10
11.873914135
 20
4.3896152795
 30
0.0
 10
11.8514719043
 20
4.3777992986
 30
0.0
 10
11.8302574099
 20
4.367722095
 30
0.0
 10
11.8056897972
 20
4.3570788111
 30
0.0
 10
11.7791883402
 20
4.3475506593
 30
0.0
 10
11.7509118341
 20
4.3400151849
 30
0.0
 10
11.728346553
 20
4.335577517
 30
0.0
 10
11.7050763218
 20
4.3327663428
 30
0.0
 10
11.6893310503
 20
4.332124588
 30
0.0
 10
11.6814226038
 20
4.332124588
 30
0.0
  0
LINE
  5
4A1
100
AcDbEntity
  8
0
100
AcDbLine
 62
7
  6
CONTINUOUS
 10
11.4464226871
 20
4.4148917156
 11
11.4466341205
 21
4.4147592898
  0
LINE
  5
4A2
100
AcDbEntity
  8
0
100
AcDbLine
 62
7
  6
CONTINUOUS
 10
11.9164225206
 20
3.6648918925
 11
11.9162110881
 21
3.6650243177
  0
SPLINE
  5
4A3
100
AcDbEntity
  8
0
100
AcDbSpline
 62
7
  6
CONTINUOUS
 70
0
 71
3
 72
18
 73
14
 74
0
 42
0.0000001
 43
0.0000001
 44
0.0000000001
 40
0.0
 40
0.0
 40
0.0
 40
0.0
 40
0.0222492718
 40
0.0864575136
 40
0.1863972057
 40
0.3148472529
 40
0.3877231755
 40
0.465438127
 40
0.6329731364
 40
0.7217257846
 40
0.8129836274
 40
0.9060224018
 40
1.0
 40
1.0
 40
1.0
 40
1.0
 10
11.4464226871
 20
3.6648918925
 30
0.0
 10
11.4480092345
 20
3.6658861057
 30
0.0
 10
11.4541850333
 20
3.6697324977
 30
0.0
 10
11.4675916705
 20
3.6778768614
 30
0.0
 10
11.4889310727
 20
3.6901683286
 30
0.0
 10
11.5113733034
 20
3.7019843095
 30
0.0
 10
11.5325877978
 20
3.7120615131
 30
0.0
 10
11.5571554105
 20
3.722704797
 30
0.0
 10
11.5836568674
 20
3.7322329488
 30
0.0
 10
11.6119333736
 20
3.7397684231
 30
0.0
 10
11.6344986546
 20
3.7442060911
 30
0.0
 10
11.6577688859
 20
3.7470172652
 30
0.0
 10
11.6735141574
 20
3.7476590201
 30
0.0
 10
11.6814226038
 20
3.7476590201
 30
0.0
  0
SPLINE
  5
4A4
100
AcDbEntity
  8
0
100
AcDbSpline
 62
7
  6
CONTINUOUS
 70
0
 71
3
 72
27
 73
23
 74
0
 42
0.0000001
 43
0.0000001
 44
0.0000000001
 40
0.0
 40
0.0
 40
0.0
 40
0.0
 40
0.2028583784
 40
0.2980774848
 40
0.388484575
 40
0.4736191771
 40
0.5530652123
 40
0.6264579212
 40
0.6934894242
 40
0.753917483
 40
0.8075761466
 40
0.8544000235
 40
0.8752710954
 40
0.8944762321
 40
0.9120581482
 40
0.9280826911
 40
0.9426425664
 40
0.9558689775
 40
0.9679440715
 40
0.9791096418
 40
0.9896737147
 40
1.0
 40
1.0
 40
1.0
 40
1.0
 10
8.3679375196
 20
11.7894665035
 30
0.0
 10
8.3701474666
 20
11.7872565566
 30
0.0
 10
8.3733453972
 20
11.7839589741
 30
0.0
 10
8.3773890341
 20
11.7795459222
 30
0.0
 10
8.3801439154
 20
11.77641309
 30
0.0
 10
8.3826705538
 20
11.7734044481
 30
0.0
 10
8.3849554794
 20
11.7705366035
 30
0.0
 10
8.3869869049
 20
11.7678251514
 30
0.0
 10
8.3887547917
 20
11.7652845566
 30
0.0
 10
8.390251043
 20
11.7629279736
 30
0.0
 10
8.3914690178
 20
11.7607672975
 30
0.0
 10
8.3922774638
 20
11.7590790491
 30
0.0
 10
8.3927704016
 20
11.7578337247
 30
0.0
 10
8.3930531368
 20
11.7569910904
 30
0.0
 10
8.3932631998
 20
11.7562043795
 30
0.0
 10
8.3934004927
 20
11.7554742698
 30
0.0
 10
8.3934648386
 20
11.7548012591
 30
0.0
 10
8.3934558925
 20
11.7541857157
 30
0.0
 10
8.3933732109
 20
11.7536280303
 30
0.0
 10
8.3932158192
 20
11.7531288805
 30
0.0
 10
8.3929829985
 20
11.752690066
 30
0.0
 10
8.3927774822
 20
11.7524391166
 30
0.0
 10
8.3926649929
 20
11.752326616
 30
0.0
  0
SPLINE
  5
4A5
100
AcDbEntity
  8
0
100
AcDbSpline
 62
7
  6
CONTINUOUS
 70
0
 71
3
 72
28
 73
24
 74
0
 42
0.0000001
 43
0.0000001
 44
0.0000000001
 40
0.0
 40
0.0
 40
0.0
 40
0.0
 40
0.0096977449
 40
0.0197995602
 40
0.0307103814
 40
0.0427502439
 40
0.0561515811
 40
0.0710773074
 40
0.0876357145
 40
0.1058970872
 40
0.1259042116
 40
0.147677299
 40
0.1712228542
 40
0.1965328052
 40
0.2523628244
 40
0.3149355901
 40
0.3839022041
 40
0.4588233931
 40
0.5391817575
 40
0.6243892658
 40
0.7137983574
 40
0.8067038086
 40
1.0
 40
1.0
 40
1.0
 40
1.0
 10
7.7820035852
 20
12.3579223758
 30
0.0
 10
7.782151849
 20
12.3580706498
 30
0.0
 10
7.7824903829
 20
12.3583396072
 30
0.0
 10
7.7830920087
 20
12.3586311638
 30
0.0
 10
7.783786569
 20
12.3588147551
 30
0.0
 10
7.784571444
 20
12.3588920852
 30
0.0
 10
7.7854457722
 20
12.3588649058
 30
0.0
 10
7.786408801
 20
12.3587337988
 30
0.0
 10
7.7874595643
 20
12.3584992504
 30
0.0
 10
7.7885967072
 20
12.358161517
 30
0.0
 10
7.7898185033
 20
12.3577209347
 30
0.0
 10
7.7911230015
 20
12.3571781137
 30
0.0
 10
7.7925079284
 20
12.3565337282
 30
0.0
 10
7.7945252337
 20
12.3555062636
 30
0.0
 10
7.7972253925
 20
12.3539648958
 30
0.0
 10
7.8006442209
 20
12.3517891699
 30
0.0
 10
7.8043137872
 20
12.3492453309
 30
0.0
 10
7.8082053677
 20
12.346351874
 30
0.0
 10
7.8122878908
 20
12.3431304778
 30
0.0
 10
7.816528104
 20
12.3396062682
 30
0.0
 10
7.8208908899
 20
12.3358075337
 30
0.0
 10
7.8269019382
 20
12.3303457021
 30
0.0
 10
7.8313565795
 20
12.3260474437
 30
0.0
 10
7.8343118852
 20
12.3230921379
 30
0.0
  0
SPLINE
  5
4A6
100
AcDbEntity
  8
0
100
AcDbSpline
 62
7
  6
CONTINUOUS
 70
0
 71
3
 72
28
 73
24
 74
0
 42
0.0000001
 43
0.0000001
 44
0.0000000001
 40
0.0
 40
0.0
 40
0.0
 40
0.0
 40
0.181016792
 40
0.2708300829
 40
0.3588075414
 40
0.4439645852
 40
0.5253709252
 40
0.6021649922
 40
0.6735647636
 40
0.7388801041
 40
0.7975248754
 40
0.8241975699
 40
0.8490390012
 40
0.8720145863
 40
0.8931018199
 40
0.9122940436
 40
0.9296036312
 40
0.9450709128
 40
0.9587730151
 40
0.9708439118
 40
0.9814975989
 40
0.9910625033
 40
1.0
 40
1.0
 40
1.0
 40
1.0
 10
7.8343118852
 20
12.3230921379
 30
0.0
 10
7.8378948755
 20
12.3195091476
 30
0.0
 10
7.8431405204
 20
12.3140314963
 30
0.0
 10
7.8498525864
 20
12.3065589576
 30
0.0
 10
7.8546501391
 20
12.3009758305
 30
0.0
 10
7.8591687161
 20
12.2954657667
 30
0.0
 10
7.8633573594
 20
12.2900925426
 30
0.0
 10
7.8671700273
 20
12.2849173903
 30
0.0
 10
7.8705662077
 20
12.2799980657
 30
0.0
 10
7.8735107723
 20
12.275388397
 30
0.0
 10
7.8756269194
 20
12.2717390654
 30
0.0
 10
7.8770604392
 20
12.2690084427
 30
0.0
 10
7.8779714264
 20
12.2671323779
 30
0.0
 10
7.8787508008
 20
12.2653675151
 30
0.0
 10
7.8793968149
 20
12.2637182262
 30
0.0
 10
7.879908208
 20
12.2621885566
 30
0.0
 10
7.8802839439
 20
12.2607820149
 30
0.0
 10
7.8805234539
 20
12.2595016033
 30
0.0
 10
7.8806260324
 20
12.2583495037
 30
0.0
 10
7.8805909772
 20
12.257327172
 30
0.0
 10
7.8804157564
 20
12.2564353834
 30
0.0
 10
7.8800966846
 20
12.255676934
 30
0.0
 10
7.8797795284
 20
12.2552586362
 30
0.0
 10
7.8796026216
 20
12.2550817309
 30
0.0
  0
LINE
  5
4A7
100
AcDbEntity
  8
0
100
AcDbLine
 62
7
  6
CONTINUOUS
 10
7.0366340659
 20
13.1137383969
 11
7.0370644635
 21
13.1131431273
  0
SPLINE
  5
4A8
100
AcDbEntity
  8
0
100
AcDbSpline
 62
7
  6
CONTINUOUS
 70
0
 71
3
 72
32
 73
28
 74
0
 42
0.0000001
 43
0.0000001
 44
0.0000000001
 40
0.0
 40
0.0
 40
0.0
 40
0.0
 40
0.1735232244
 40
0.2619313543
 40
0.3498742294
 40
0.4362024664
 40
0.5197963397
 40
0.5995733401
 40
0.6744954035
 40
0.7435785035
 40
0.8059013344
 40
0.8342605191
 40
0.8606192942
 40
0.8848865168
 40
0.9069780508
 40
0.9268176141
 40
0.9443392185
 40
0.9594875044
 40
0.9722243446
 40
0.9776829524
 40
0.9825362405
 40
0.9867895446
 40
0.9904536025
 40
0.9935494575
 40
0.9961156009
 40
0.9982225676
 40
1.0
 40
1.0
 40
1.0
 40
1.0
 10
7.0370644635
 20
13.1131431273
 30
0.0
 10
7.0402907575
 20
13.1086767863
 30
0.0
 10
7.0450954554
 20
13.1018874286
 30
0.0
 10
7.0513965972
 20
13.0927379534
 30
0.0
 10
7.0560681268
 20
13.0858281885
 30
0.0
 10
7.0605945174
 20
13.0790052101
 30
0.0
 10
7.064916761
 20
13.0723583346
 30
0.0
 10
7.0689785438
 20
13.0659745247
 30
0.0
 10
7.0727266619
 20
13.0599377158
 30
0.0
 10
7.0761113074
 20
13.0543281769
 30
0.0
 10
7.0786657901
 20
13.0499450589
 30
0.0
 10
7.0804887441
 20
13.0467065147
 30
0.0
 10
7.0816942431
 20
13.0445072209
 30
0.0
 10
7.0827773506
 20
13.0424679982
 30
0.0
 10
7.083734078
 20
13.0405962966
 30
0.0
 10
7.0845608488
 20
13.0388990737
 30
0.0
 10
7.0852547074
 20
13.0373827731
 30
0.0
 10
7.0858129509
 20
13.0360531989
 30
0.0
 10
7.0861810325
 20
13.0350598804
 30
0.0
 10
7.0864007388
 20
13.0343616297
 30
0.0
 10
7.086521597
 20
13.0339150609
 30
0.0
 10
7.0866072609
 20
13.0335184809
 30
0.0
 10
7.0866576669
 20
13.0331720776
 30
0.0
 10
7.0866729281
 20
13.0328757691
 30
0.0
 10
7.0866527387
 20
13.0326288682
 30
0.0
 10
7.0865963738
 20
13.0324301051
 30
0.0
 10
7.0865274043
 20
13.0323242513
 30
0.0
 10
7.086487493
 20
13.0322843482
 30
0.0
  0
SPLINE
  5
4A9
100
AcDbEntity
  8
0
100
AcDbSpline
 62
7
  6
CONTINUOUS
 70
0
 71
3
 72
15
 73
11
 74
0
 42
0.0000001
 43
0.0000001
 44
0.0000000001
 40
0.0
 40
0.0
 40
0.0
 40
0.0
 40
0.1177407413
 40
0.2404480519
 40
0.3667477218
 40
0.4951914998
 40
0.6242745351
 40
0.7524603689
 40
0.8782079387
 40
1.0
 40
1.0
 40
1.0
 40
1.0
 10
8.3219466706
 20
11.8282480648
 30
0.0
 10
8.3238793655
 20
11.8268872307
 30
0.0
 10
8.3277912333
 20
11.8240581229
 30
0.0
 10
8.3336588104
 20
11.8196096556
 30
0.0
 10
8.3395992254
 20
11.8149044037
 30
0.0
 10
8.3455411339
 20
11.8099975235
 30
0.0
 10
8.3514120725
 20
11.8049476886
 30
0.0
 10
8.3571394932
 20
11.799816371
 30
0.0
 10
8.3626519521
 20
11.7946669382
 30
0.0
 10
8.3662086052
 20
11.791195418
 30
0.0
 10
8.3679375196
 20
11.7894665035
 30
0.0
  0
SPLINE
  5
4AA
100
AcDbEntity
  8
0
100
AcDbSpline
 62
7
  6
CONTINUOUS
 70
0
 71
3
 72
22
 73
18
 74
0
 42
0.0000001
 43
0.0000001
 44
0.0000000001
 40
0.0
 40
0.0
 40
0.0
 40
0.0
 40
0.0092021544
 40
0.0190494552
 40
0.0298297101
 40
0.0417607888
 40
0.0696321513
 40
0.103477308
 40
0.1436683334
 40
0.1903621147
 40
0.2436026542
 40
0.3033547242
 40
0.3695392403
 40
0.4420360185
 40
0.6053580312
 40
0.7919113181
 40
1.0
 40
1.0
 40
1.0
 40
1.0
 10
8.6870715242
 20
11.4343165559
 30
0.0
 10
8.6871240197
 20
11.4343690439
 30
0.0
 10
8.6872446128
 20
11.434466249
 30
0.0
 10
8.6874579717
 20
11.4345799534
 30
0.0
 10
8.687707215
 20
11.434665684
 30
0.0
 10
8.6881079437
 20
11.4347473141
 30
0.0
 10
8.6887050359
 20
11.4347702385
 30
0.0
 10
8.6895246316
 20
11.4346911093
 30
0.0
 10
8.6904820787
 20
11.4345065741
 30
0.0
 10
8.6915754188
 20
11.4342171047
 30
0.0
 10
8.6928023639
 20
11.4338230879
 30
0.0
 10
8.6941597915
 20
11.433325523
 30
0.0
 10
8.6956441672
 20
11.4327256268
 30
0.0
 10
8.6978776578
 20
11.431751896
 30
0.0
 10
8.7009524952
 20
11.4302815338
 30
0.0
 10
8.7049474482
 20
11.4282065783
 30
0.0
 10
8.707733596
 20
11.4266654528
 30
0.0
 10
8.7091941266
 20
11.4258379398
 30
0.0
  0
SPLINE
  5
4AB
100
AcDbEntity
  8
0
100
AcDbSpline
 62
7
  6
CONTINUOUS
 70
0
 71
3
 72
24
 73
20
 74
0
 42
0.0000001
 43
0.0000001
 44
0.0000000001
 40
0.0
 40
0.0
 40
0.0
 40
0.0
 40
0.21006455
 40
0.3980490358
 40
0.4830559574
 40
0.5617549856
 40
0.6339509228
 40
0.6994986555
 40
0.7583037468
 40
0.8103390956
 40
0.855669109
 40
0.8944920114
 40
0.927222142
 40
0.9415437529
 40
0.9546782918
 40
0.9668205403
 40
0.9782169818
 40
0.9891651404
 40
1.0
 40
1.0
 40
1.0
 40
1.0
 10
8.6030091328
 20
11.5543948903
 30
0.0
 10
8.604463574
 20
11.5529404492
 30
0.0
 10
8.607181981
 20
11.5501464189
 30
0.0
 10
8.6103617415
 20
11.5466429
 30
0.0
 10
8.6125868388
 20
11.5440142396
 30
0.0
 10
8.6140330142
 20
11.5422127018
 30
0.0
 10
8.6153089958
 20
11.5405200329
 30
0.0
 10
8.6164110821
 20
11.5389416662
 30
0.0
 10
8.6173363584
 20
11.5374824428
 30
0.0
 10
8.6180826839
 20
11.5361466716
 30
0.0
 10
8.6186488696
 20
11.5349375666
 30
0.0
 10
8.6190341465
 20
11.5338578137
 30
0.0
 10
8.6192118762
 20
11.5330316983
 30
0.0
 10
8.619250174
 20
11.5324425812
 30
0.0
 10
8.6192311251
 20
11.5320543214
 30
0.0
 10
8.6191654633
 20
11.5317000155
 30
0.0
 10
8.6190526695
 20
11.5313800724
 30
0.0
 10
8.6188924983
 20
11.5310954942
 30
0.0
 10
8.6187548405
 20
11.5309307506
 30
0.0
 10
8.6186798197
 20
11.5308557351
 30
0.0
  0
SPLINE
  5
4AC
100
AcDbEntity
  8
0
100
AcDbSpline
 62
7
  6
CONTINUOUS
 70
0
 71
3
 72
28
 73
24
 74
0
 42
0.0000001
 43
0.0000001
 44
0.0000000001
 40
0.0
 40
0.0
 40
0.0
 40
0.0
 40
0.1932961762
 40
0.2862016459
 40
0.3756107362
 40
0.4608182455
 40
0.5411766123
 40
0.6160978052
 40
0.6850644202
 40
0.7476371805
 40
0.8034671994
 40
0.8287771707
 40
0.8523227162
 40
0.8740958122
 40
0.8941029416
 40
0.9123642938
 40
0.9289227093
 40
0.943848411
 40
0.9572497489
 40
0.96928961
 40
0.9802004196
 40
0.9903022468
 40
1.0
 40
1.0
 40
1.0
 40
1.0
 10
8.1057492036
 20
12.0516548196
 30
0.0
 10
8.1087045091
 20
12.048699514
 30
0.0
 10
8.1130027676
 20
12.0442448727
 30
0.0
 10
8.1184645993
 20
12.0382338244
 30
0.0
 10
8.122263334
 20
12.0338710381
 30
0.0
 10
8.1257875435
 20
12.0296308249
 30
0.0
 10
8.12900894
 20
12.0255483017
 30
0.0
 10
8.1319023971
 20
12.0216567212
 30
0.0
 10
8.1344462359
 20
12.0179871548
 30
0.0
 10
8.1366219619
 20
12.0145683265
 30
0.0
 10
8.138163329
 20
12.011868167
 30
0.0
 10
8.1391907948
 20
12.009850862
 30
0.0
 10
8.1398351796
 20
12.0084659344
 30
0.0
 10
8.1403780009
 20
12.0071614362
 30
0.0
 10
8.1408185838
 20
12.0059396404
 30
0.0
 10
8.1411563155
 20
12.0048024972
 30
0.0
 10
8.1413908657
 20
12.0037517351
 30
0.0
 10
8.1415219705
 20
12.0027887064
 30
0.0
 10
8.1415491509
 20
12.0019143788
 30
0.0
 10
8.1414718222
 20
12.0011295037
 30
0.0
 10
8.1412882279
 20
12.0004349445
 30
0.0
 10
8.1409966751
 20
11.9998333167
 30
0.0
 10
8.1407277154
 20
11.9994947835
 30
0.0
 10
8.1405794409
 20
11.9993465201
 30
0.0
  0
SPLINE
  5
4AD
100
AcDbEntity
  8
0
100
AcDbSpline
 62
7
  6
CONTINUOUS
 70
0
 71
3
 72
15
 73
11
 74
0
 42
0.0000001
 43
0.0000001
 44
0.0000000001
 40
0.0
 40
0.0
 40
0.0
 40
0.0
 40
0.121780404
 40
0.2475136518
 40
0.3756855841
 40
0.504758231
 40
0.6331981273
 40
0.759503237
 40
0.8822278556
 40
1.0
 40
1.0
 40
1.0
 40
1.0
 10
7.5721235692
 20
12.585280454
 30
0.0
 10
7.5738507922
 20
12.5835532309
 30
0.0
 10
7.5773189253
 20
12.5800001316
 30
0.0
 10
7.5824634377
 20
12.5744932841
 30
0.0
 10
7.5875899907
 20
12.5687717495
 30
0.0
 10
7.592635395
 20
12.5629067628
 30
0.0
 10
7.5975383467
 20
12.5569706628
 30
0.0
 10
7.6022403265
 20
12.5510357082
 30
0.0
 10
7.6066863157
 20
12.5451730472
 30
0.0
 10
7.6095141545
 20
12.5412643169
 30
0.0
 10
7.6108745184
 20
12.5393330724
 30
0.0
  0
SPLINE
  5
4AE
100
AcDbEntity
  8
0
100
AcDbSpline
 62
7
  6
CONTINUOUS
 70
0
 71
3
 72
22
 73
18
 74
0
 42
0.0000001
 43
0.0000001
 44
0.0000000001
 40
0.0
 40
0.0
 40
0.0
 40
0.0
 40
0.2080890882
 40
0.3946427133
 40
0.5579647939
 40
0.6304614106
 40
0.6966457949
 40
0.7563976
 40
0.8096379071
 40
0.8563314873
 40
0.8965222977
 40
0.9303674313
 40
0.9582387416
 40
0.9701699874
 40
0.9809503244
 40
0.9907977052
 40
1.0
 40
1.0
 40
1.0
 40
1.0
 10
7.2084956325
 20
12.926535954
 30
0.0
 10
7.2093230959
 20
12.925075493
 30
0.0
 10
7.2108641284
 20
12.9222894782
 30
0.0
 10
7.212938954
 20
12.9182947171
 30
0.0
 10
7.2144092201
 20
12.9152200301
 30
0.0
 10
7.215382881
 20
12.9129866508
 30
0.0
 10
7.2159827327
 20
12.9115023527
 30
0.0
 10
7.2164802568
 20
12.9101449966
 30
0.0
 10
7.2168742387
 20
12.9089181174
 30
0.0
 10
7.2171636805
 20
12.9078248367
 30
0.0
 10
7.2173481906
 20
12.906867441
 30
0.0
 10
7.2174273088
 20
12.9060478894
 30
0.0
 10
7.2174043693
 20
12.905450829
 30
0.0
 10
7.2173227439
 20
12.9050501198
 30
0.0
 10
7.2172370128
 20
12.9048008882
 30
0.0
 10
7.2171233083
 20
12.9045875411
 30
0.0
 10
7.2170261058
 20
12.9044669543
 30
0.0
 10
7.2169736201
 20
12.9044144605
 30
0.0
  0
SPLINE
  5
4AF
100
AcDbEntity
  8
0
100
AcDbSpline
 62
7
  6
CONTINUOUS
 70
0
 71
3
 72
15
 73
11
 74
0
 42
0.0000001
 43
0.0000001
 44
0.0000000001
 40
0.0
 40
0.0
 40
0.0
 40
0.0
 40
0.3275605639
 40
0.4754594408
 40
0.6107674529
 40
0.7320904438
 40
0.8381421311
 40
0.9277711346
 40
0.9661139754
 40
1.0
 40
1.0
 40
1.0
 40
1.0
 10
6.9134801329
 20
13.2844679966
 30
0.0
 10
6.915944091
 20
13.2803262832
 30
0.0
 10
6.9194826545
 20
13.2742916859
 30
0.0
 10
6.9239241495
 20
13.2664800692
 30
0.0
 10
6.9268124351
 20
13.2612761152
 30
0.0
 10
6.9293433345
 20
13.2565783516
 30
0.0
 10
6.9314892895
 20
13.252437246
 30
0.0
 10
6.9330080906
 20
13.2493467314
 30
0.0
 10
6.9340045139
 20
13.2471837746
 30
0.0
 10
6.9344293064
 20
13.2462095751
 30
0.0
 10
6.9346220191
 20
13.2457497811
 30
0.0
  0
SPLINE
  5
4B0
100
AcDbEntity
  8
0
100
AcDbSpline
 62
7
  6
CONTINUOUS
 70
0
 71
3
 72
24
 73
20
 74
0
 42
0.0000001
 43
0.0000001
 44
0.0000000001
 40
0.0
 40
0.0
 40
0.0
 40
0.0
 40
0.2075949576
 40
0.39448831
 40
0.4795413012
 40
0.5586884389
 40
0.6317208687
 40
0.698449962
 40
0.7587147729
 40
0.8123846571
 40
0.8593771418
 40
0.8996716004
 40
0.9333568797
 40
0.9478048139
 40
0.9607313502
 40
0.9722335098
 40
0.9824554873
 40
0.9916106001
 40
1.0
 40
1.0
 40
1.0
 40
1.0
 10
7.0402240366
 20
13.1577240929
 30
0.0
 10
7.0412611654
 20
13.1557869984
 30
0.0
 10
7.0431977284
 20
13.1520874603
 30
0.0
 10
7.0454457232
 20
13.1475360218
 30
0.0
 10
7.0470138274
 20
13.1441668009
 30
0.0
 10
7.0480336241
 20
13.1418720951
 30
0.0
 10
7.0489316154
 20
13.1397359714
 30
0.0
 10
7.0497049573
 20
13.1377648522
 30
0.0
 10
7.050351262
 20
13.1359648095
 30
0.0
 10
7.0508684201
 20
13.1343414383
 30
0.0
 10
7.0512550578
 20
13.1328996736
 30
0.0
 10
7.05150981
 20
13.1316439709
 30
0.0
 10
7.0516176261
 20
13.1307121528
 30
0.0
 10
7.0516271986
 20
13.1300653977
 30
0.0
 10
7.0515999684
 20
13.129654256
 30
0.0
 10
7.051538695
 20
13.1292918652
 30
0.0
 10
7.0514427623
 20
13.1289781951
 30
0.0
 10
7.0513114468
 20
13.1287135707
 30
0.0
 10
7.051195813
 20
13.1285659876
 30
0.0
 10
7.0511330285
 20
13.1285031947
 30
0.0
  0
SPLINE
  5
4B1
100
AcDbEntity
  8
0
100
AcDbSpline
 62
7
  6
CONTINUOUS
 70
0
 71
3
 72
20
 73
16
 74
0
 42
0.0000001
 43
0.0000001
 44
0.0000000001
 40
0.0
 40
0.0
 40
0.0
 40
0.0
 40
0.1965404931
 40
0.3726361745
 40
0.5276798546
 40
0.5971991411
 40
0.6613596853
 40
0.7201851896
 40
0.7737471145
 40
0.8221724832
 40
0.8656739013
 40
0.9045844989
 40
0.9394038517
 40
0.9708682053
 40
1.0
 40
1.0
 40
1.0
 40
1.0
 10
7.2317142242
 20
12.9662339053
 30
0.0
 10
7.2321654094
 20
12.9651591966
 30
0.0
 10
7.2329892391
 20
12.9631079568
 30
0.0
 10
7.2340380457
 20
12.960158608
 30
0.0
 10
7.2347202492
 20
12.957880887
 30
0.0
 10
7.2351250833
 20
12.9562167928
 30
0.0
 10
7.2353505697
 20
12.9550972724
 30
0.0
 10
7.2355088229
 20
12.9540618277
 30
0.0
 10
7.2355995456
 20
12.953111847
 30
0.0
 10
7.2356224256
 20
12.9522485095
 30
0.0
 10
7.2355771219
 20
12.9514727576
 30
0.0
 10
7.2354632307
 20
12.9507852935
 30
0.0
 10
7.2352795831
 20
12.9501866236
 30
0.0
 10
7.2350248482
 20
12.9496779886
 30
0.0
 10
7.2348001985
 20
12.9493931878
 30
0.0
 10
7.2346780315
 20
12.9492710282
 30
0.0
  0
SPLINE
  5
4B2
100
AcDbEntity
  8
0
100
AcDbSpline
 62
7
  6
CONTINUOUS
 70
0
 71
3
 72
15
 73
11
 74
0
 42
0.0000001
 43
0.0000001
 44
0.0000000001
 40
0.0
 40
0.0
 40
0.0
 40
0.0
 40
0.1687827895
 40
0.3232811401
 40
0.4639471402
 40
0.5915047803
 40
0.7070266329
 40
0.8120643107
 40
0.9087775033
 40
1.0
 40
1.0
 40
1.0
 40
1.0
 10
7.4749009557
 20
12.7230471738
 30
0.0
 10
7.4749752775
 20
12.7226213082
 30
0.0
 10
7.4750972508
 20
12.7218018011
 30
0.0
 10
7.4751990976
 20
12.7206169872
 30
0.0
 10
7.4752112363
 20
12.7195331327
 30
0.0
 10
7.4751333054
 20
12.7185517139
 30
0.0
 10
7.4749646442
 20
12.717673951
 30
0.0
 10
7.474703998
 20
12.7169010389
 30
0.0
 10
7.4743501372
 20
12.7162351302
 30
0.0
 10
7.4740451554
 20
12.7158577772
 30
0.0
 10
7.4738799395
 20
12.7156925655
 30
0.0
  0
LINE
  5
4B3
100
AcDbEntity
  8
0
100
AcDbLine
 62
7
  6
CONTINUOUS
 10
7.7532117202
 20
12.4447371617
 11
7.7524385084
 21
12.4436866916
  0
SPLINE
  5
4B4
100
AcDbEntity
  8
0
100
AcDbSpline
 62
9
  6
CONTINUOUS
 70
0
 71
3
 72
36
 73
32
 74
0
 42
0.0000001
 43
0.0000001
 44
0.0000000001
 40
0.0
 40
0.0
 40
0.0
 40
0.0
 40
0.0019764541
 40
0.0031070413
 40
0.0043673381
 40
0.0073442978
 40
0.0110056311
 40
0.0153966442
 40
0.0205397803
 40
0.0264450751
 40
0.0331141455
 40
0.0487288412
 40
0.0673266793
 40
0.0888140495
 40
0.1130727614
 40
0.1399639493
 40
0.1693317916
 40
0.201005533
 40
0.2348004611
 40
0.307952957
 40
0.3870842494
 40
0.4703403567
 40
0.5557548666
 40
0.6412860036
 40
0.7248603428
 40
0.8044228978
 40
0.8779942691
 40
0.9119510856
 40
0.9437325679
 40
0.9731449953
 40
1.0
 40
1.0
 40
1.0
 40
1.0
 10
8.3215097694
 20
11.6096638446
 30
0.0
 10
8.3215703716
 20
11.6097244574
 30
0.0
 10
8.3216895722
 20
11.6097967147
 30
0.0
 10
8.3218709951
 20
11.6098516783
 30
0.0
 10
8.3221015933
 20
11.6098885282
 30
0.0
 10
8.3224461174
 20
11.6098843101
 30
0.0
 10
8.3229199186
 20
11.6098134627
 30
0.0
 10
8.3234761087
 20
11.6096761544
 30
0.0
 10
8.3241142743
 20
11.6094724364
 30
0.0
 10
8.3248338512
 20
11.6092023355
 30
0.0
 10
8.3259609612
 20
11.6087284118
 30
0.0
 10
8.3275613654
 20
11.6079635274
 30
0.0
 10
8.3296970183
 20
11.6068341303
 30
0.0
 10
8.332123451
 20
11.605455521
 30
0.0
 10
8.3348256611
 20
11.6038362425
 30
0.0
 10
8.3377869989
 20
11.6019857938
 30
0.0
 10
8.3409893939
 20
11.5999152392
 30
0.0
 10
8.3444135138
 20
11.5976369005
 30
0.0
 10
8.3493799965
 20
11.5942496125
 30
0.0
 10
8.3559758424
 20
11.5895997277
 30
0.0
 10
8.3642258814
 20
11.5835762948
 30
0.0
 10
8.3728108759
 20
11.5771118527
 30
0.0
 10
8.3815258733
 20
11.5703604477
 30
0.0
 10
8.3901602176
 20
11.5634840147
 30
0.0
 10
8.3985022036
 20
11.556649444
 30
0.0
 10
8.4063448951
 20
11.550025621
 30
0.0
 10
8.4124549196
 20
11.5446866351
 30
0.0
 10
8.416941439
 20
11.5406405612
 30
0.0
 10
8.419973421
 20
11.5378414784
 30
0.0
 10
8.4227432873
 20
11.5352130134
 30
0.0
 10
8.4244856504
 20
11.5335044578
 30
0.0
 10
8.4253087207
 20
11.5326805227
 30
0.0
  0
SPLINE
  5
4B5
100
AcDbEntity
  8
0
100
AcDbSpline
 62
9
  6
CONTINUOUS
 70
0
 71
3
 72
19
 73
15
 74
0
 42
0.0000001
 43
0.0000001
 44
0.0000000001
 40
0.0
 40
0.0
 40
0.0
 40
0.0
 40
0.1843215435
 40
0.3593375997
 40
0.5207834705
 40
0.6646591932
 40
0.7873399468
 40
0.8397306105
 40
0.8856919343
 40
0.9249264473
 40
0.9571812191
 40
0.9822550994
 40
0.9920506299
 40
1.0
 40
1.0
 40
1.0
 40
1.0
 10
8.5068793103
 20
11.4408707394
 30
0.0
 10
8.5097623341
 20
11.4387091677
 30
0.0
 10
8.515375753
 20
11.4344856975
 30
0.0
 10
8.5234888947
 20
11.4283351296
 30
0.0
 10
8.5309481004
 20
11.4226308996
 30
0.0
 10
8.5375684083
 20
11.4175141147
 30
0.0
 10
8.5424768748
 20
11.4136689009
 30
0.0
 10
8.545858367
 20
11.4109787139
 30
0.0
 10
8.5479528305
 20
11.4092911341
 30
0.0
 10
8.5497291773
 20
11.4078362137
 30
0.0
 10
8.5511757154
 20
11.4066232871
 30
0.0
 10
8.5521664899
 20
11.4057625835
 30
0.0
 10
8.5527835409
 20
11.4051968852
 30
0.0
 10
8.5530335225
 20
11.4049562617
 30
0.0
 10
8.5531431396
 20
11.4048461038
 30
0.0
  0
SPLINE
  5
4B6
100
AcDbEntity
  8
0
100
AcDbSpline
 62
9
  6
CONTINUOUS
 70
0
 71
3
 72
19
 73
15
 74
0
 42
0.0000001
 43
0.0000001
 44
0.0000000001
 40
0.0
 40
0.0
 40
0.0
 40
0.0
 40
0.1339954397
 40
0.2786596789
 40
0.4273973666
 40
0.5733674247
 40
0.709742894
 40
0.7722780672
 40
0.8300187963
 40
0.8822600158
 40
0.9283626859
 40
0.9677653067
 40
0.9848059051
 40
1.0
 40
1.0
 40
1.0
 40
1.0
 10
8.4264334616
 20
11.5141619189
 30
0.0
 10
8.4302328281
 20
11.5114820741
 30
0.0
 10
8.4380862469
 20
11.5058410975
 30
0.0
 10
8.4500166744
 20
11.4970320325
 30
0.0
 10
8.4621720717
 20
11.4878299313
 30
0.0
 10
8.4739897602
 20
11.4786600384
 30
0.0
 10
8.4833482174
 20
11.4712013242
 30
0.0
 10
8.4902434324
 20
11.4655655183
 30
0.0
 10
8.4948429886
 20
11.4617343873
 30
0.0
 10
8.4989660331
 20
11.4582225018
 30
0.0
 10
8.5025619008
 20
11.455073672
 30
0.0
 10
8.5051965931
 20
11.4526817409
 30
0.0
 10
8.5070013173
 20
11.4509723656
 30
0.0
 10
8.5078003686
 20
11.4501896124
 30
0.0
 10
8.5081727903
 20
11.4498164531
 30
0.0
  0
SPLINE
  5
4B7
100
AcDbEntity
  8
0
100
AcDbSpline
 62
9
  6
CONTINUOUS
 70
0
 71
3
 72
27
 73
23
 74
0
 42
0.0000001
 43
0.0000001
 44
0.0000000001
 40
0.0
 40
0.0
 40
0.0
 40
0.0
 40
0.007284166
 40
0.0152020315
 40
0.024271985
 40
0.0348362661
 40
0.047104902
 40
0.0611997832
 40
0.0771902771
 40
0.0951109554
 40
0.114972715
 40
0.1367712733
 40
0.1860905042
 40
0.2428216602
 40
0.3065937799
 40
0.3769427052
 40
0.4533241347
 40
0.5351236384
 40
0.6216643232
 40
0.712217038
 40
0.8060023668
 40
1.0
 40
1.0
 40
1.0
 40
1.0
 10
7.7631222137
 20
12.1811586941
 30
0.0
 10
7.7632379036
 20
12.18127437
 30
0.0
 10
7.7635205539
 20
12.181477275
 30
0.0
 10
7.7640424804
 20
12.1816541205
 30
0.0
 10
7.7646621867
 20
12.1817155993
 30
0.0
 10
7.7653793997
 20
12.181666454
 30
0.0
 10
7.766195142
 20
12.1815083481
 30
0.0
 10
7.7671093477
 20
12.1812418011
 30
0.0
 10
7.7681210523
 20
12.1808669748
 30
0.0
 10
7.7692286749
 20
12.1803842904
 30
0.0
 10
7.7704302844
 20
12.1797945036
 30
0.0
 10
7.7722298452
 20
12.1788257302
 30
0.0
 10
7.7746907573
 20
12.1773430403
 30
0.0
 10
7.7778656836
 20
12.1752277562
 30
0.0
 10
7.7813462795
 20
12.1727245566
 30
0.0
 10
7.7851032946
 20
12.1698536256
 30
0.0
 10
7.7891046245
 20
12.1666382513
 30
0.0
 10
7.7933159413
 20
12.1631057032
 30
0.0
 10
7.7977004808
 20
12.1592860712
 30
0.0
 10
7.8022197539
 20
12.1552126273
 30
0.0
 10
7.8084420763
 20
12.1494254835
 30
0.0
 10
7.8130748866
 20
12.144916602
 30
0.0
 10
7.816154721
 20
12.1418345224
 30
0.0
  0
SPLINE
  5
4B8
100
AcDbEntity
  8
0
100
AcDbSpline
 62
9
  6
CONTINUOUS
 70
0
 71
3
 72
27
 73
23
 74
0
 42
0.0000001
 43
0.0000001
 44
0.0000000001
 40
0.0
 40
0.0
 40
0.0
 40
0.0
 40
0.0077502326
 40
0.0159689121
 40
0.0251293127
 40
0.0355735643
 40
0.0475302712
 40
0.0611444999
 40
0.0765070261
 40
0.093674505
 40
0.1126770361
 40
0.1335287771
 40
0.1807729612
 40
0.2353206168
 40
0.2969697472
 40
0.3654391391
 40
0.4403812923
 40
0.5213898029
 40
0.6080097872
 40
0.6997403823
 40
0.7960353432
 40
1.0
 40
1.0
 40
1.0
 40
1.0
 10
7.6119691866
 20
12.3358681828
 30
0.0
 10
7.6120608424
 20
12.3359593306
 30
0.0
 10
7.6122774659
 20
12.3361211074
 30
0.0
 10
7.6126716756
 20
12.3362749602
 30
0.0
 10
7.6131333948
 20
12.336345094
 30
0.0
 10
7.6136615774
 20
12.3363344483
 30
0.0
 10
7.6142567629
 20
12.3362444495
 30
0.0
 10
7.614919152
 20
12.3360756222
 30
0.0
 10
7.6156485269
 20
12.3358281309
 30
0.0
 10
7.6164442229
 20
12.3355020479
 30
0.0
 10
7.6173053887
 20
12.3350977147
 30
0.0
 10
7.6185938708
 20
12.334426125
 30
0.0
 10
7.6203557573
 20
12.3333842239
 30
0.0
 10
7.6226307071
 20
12.3318810753
 30
0.0
 10
7.6251330931
 20
12.3300843724
 30
0.0
 10
7.627848241
 20
12.3280039755
 30
0.0
 10
7.630760121
 20
12.3256516322
 30
0.0
 10
7.6338511387
 20
12.3230409577
 30
0.0
 10
7.6371025294
 20
12.3201874977
 30
0.0
 10
7.6404943791
 20
12.3171085767
 30
0.0
 10
7.6452681009
 20
12.3126412701
 30
0.0
 10
7.6488503921
 20
12.3091407038
 30
0.0
 10
7.6512549168
 20
12.3067343266
 30
0.0
  0
SPLINE
  5
4B9
100
AcDbEntity
  8
0
100
AcDbSpline
 62
9
  6
CONTINUOUS
 70
0
 71
3
 72
38
 73
34
 74
0
 42
0.0000001
 43
0.0000001
 44
0.0000000001
 40
0.0
 40
0.0
 40
0.0
 40
0.0
 40
0.0217667341
 40
0.046631994
 40
0.0744195559
 40
0.1049363842
 40
0.1379647162
 40
0.1732692574
 40
0.2496875917
 40
0.3320357206
 40
0.4180195499
 40
0.5052803483
 40
0.5914583075
 40
0.6742483753
 40
0.7514486022
 40
0.8210055248
 40
0.852327528
 40
0.8810584755
 40
0.9070039156
 40
0.9299877956
 40
0.9498552946
 40
0.9585794299
 40
0.9664782066
 40
0.9735410604
 40
0.9797593535
 40
0.9851288079
 40
0.9896509889
 40
0.9933364639
 40
0.9962165316
 40
0.9973772817
 40
0.9983727479
 40
0.999231985
 40
1.0
 40
1.0
 40
1.0
 40
1.0
 10
7.2579277961
 20
12.7000614473
 30
0.0
 10
7.2586249283
 20
12.6993652051
 30
0.0
 10
7.2600970452
 20
12.6978521685
 30
0.0
 10
7.2623972497
 20
12.6953909952
 30
0.0
 10
7.2649246384
 20
12.6926006811
 30
0.0
 10
7.2676613112
 20
12.6895018861
 30
0.0
 10
7.2705873057
 20
12.6861166994
 30
0.0
 10
7.2748266028
 20
12.6811207438
 30
0.0
 10
7.2804275751
 20
12.674352874
 30
0.0
 10
7.2873754431
 20
12.6657234278
 30
0.0
 10
7.2945244395
 20
12.6566268842
 30
0.0
 10
7.3016769328
 20
12.6473135554
 30
0.0
 10
7.3086394195
 20
12.638037469
 30
0.0
 10
7.315224689
 20
12.629048532
 30
0.0
 10
7.3212570381
 20
12.6205882081
 30
0.0
 10
7.3258370957
 20
12.6139545525
 30
0.0
 10
7.3290970978
 20
12.6090768073
 30
0.0
 10
7.3312223947
 20
12.6058153734
 30
0.0
 10
7.3331003018
 20
12.6028435681
 30
0.0
 10
7.33471772
 20
12.6001822852
 30
0.0
 10
7.3358854148
 20
12.5981603704
 30
0.0
 10
7.3366762652
 20
12.5967101901
 30
0.0
 10
7.3371713873
 20
12.5957591435
 30
0.0
 10
7.3375939706
 20
12.5948984827
 30
0.0
 10
7.3379433283
 20
12.594129758
 30
0.0
 10
7.3382189802
 20
12.5934544349
 30
0.0
 10
7.3384210001
 20
12.5928734937
 30
0.0
 10
7.3385492293
 20
12.5923878472
 30
0.0
 10
7.3385992055
 20
12.5920398597
 30
0.0
 10
7.3385943765
 20
12.5918113899
 30
0.0
 10
7.3385717853
 20
12.5916761268
 30
0.0
 10
7.3385295274
 20
12.5915641663
 30
0.0
 10
7.3384857134
 20
12.5915034454
 30
0.0
 10
7.3384611323
 20
12.5914788628
 30
0.0
  0
SPLINE
  5
4BA
100
AcDbEntity
  8
0
100
AcDbSpline
 62
9
  6
CONTINUOUS
 70
0
 71
3
 72
17
 73
13
 74
0
 42
0.0000001
 43
0.0000001
 44
0.0000000001
 40
0.0
 40
0.0
 40
0.0
 40
0.0
 40
0.0628699528
 40
0.1243887177
 40
0.2431386653
 40
0.3552009493
 40
0.4643963066
 40
0.5835544582
 40
0.7137160051
 40
0.8534219455
 40
0.9260774503
 40
1.0
 40
1.0
 40
1.0
 40
1.0
 10
7.2598098063
 20
12.7147209233
 30
0.0
 10
7.260008288
 20
12.7144491286
 30
0.0
 10
7.260372696
 20
12.7138899445
 30
0.0
 10
7.2609647218
 20
12.7127287104
 30
0.0
 10
7.2614626036
 20
12.7112338063
 30
0.0
 10
7.2617168595
 20
12.7094228066
 30
0.0
 10
7.2616699963
 20
12.707593518
 30
0.0
 10
7.261313112
 20
12.705699139
 30
0.0
 10
7.2605926268
 20
12.7037348566
 30
0.0
 10
7.259671339
 20
12.7021379659
 30
0.0
 10
7.2587414162
 20
12.7009179345
 30
0.0
 10
7.2582105743
 20
12.7003382973
 30
0.0
 10
7.2579306579
 20
12.7000585835
 30
0.0
  0
SPLINE
  5
4BB
100
AcDbEntity
  8
0
100
AcDbSpline
 62
9
  6
CONTINUOUS
 70
0
 71
3
 72
29
 73
25
 74
0
 42
0.0000001
 43
0.0000001
 44
0.0000000001
 40
0.0
 40
0.0
 40
0.0
 40
0.0
 40
0.0033163172
 40
0.0067543519
 40
0.0143444001
 40
0.0233653964
 40
0.0341486145
 40
0.04687439
 40
0.0616335564
 40
0.0784672442
 40
0.0973824886
 40
0.118366275
 40
0.1413877941
 40
0.1664054549
 40
0.1933654529
 40
0.2528560135
 40
0.3192756086
 40
0.3919289513
 40
0.4700268984
 40
0.5526985248
 40
0.6390027446
 40
0.7279405732
 40
0.8184697207
 40
1.0
 40
1.0
 40
1.0
 40
1.0
 10
7.9172281991
 20
12.0234331597
 30
0.0
 10
7.9172945938
 20
12.023499556
 30
0.0
 10
7.9174428814
 20
12.0236223279
 30
0.0
 10
7.917798498
 20
12.0238223275
 30
0.0
 10
7.9183548152
 20
12.0239719925
 30
0.0
 10
7.9191342452
 20
12.0239951594
 30
0.0
 10
7.9200504185
 20
12.0238765138
 30
0.0
 10
7.9211039083
 20
12.0236164499
 30
0.0
 10
7.9222941616
 20
12.0232157336
 30
0.0
 10
7.9236187046
 20
12.0226746535
 30
0.0
 10
7.9250744106
 20
12.0219943345
 30
0.0
 10
7.9266573784
 20
12.0211761779
 30
0.0
 10
7.9283633812
 20
12.0202222514
 30
0.0
 10
7.9301876908
 20
12.0191349763
 30
0.0
 10
7.9328599529
 20
12.0174552768
 30
0.0
 10
7.9364508767
 20
12.0150367767
 30
0.0
 10
7.9410120207
 20
12.0117486677
 30
0.0
 10
7.9459036628
 20
12.0080218978
 30
0.0
 10
7.9510689941
 20
12.0038980923
 30
0.0
 10
7.9564474322
 20
11.9994241008
 30
0.0
 10
7.9619761881
 20
11.9946528663
 30
0.0
 10
7.9675896011
 20
11.9896408279
 30
0.0
 10
7.9751028465
 20
11.9827105009
 30
0.0
 10
7.9806395888
 20
11.9773524224
 30
0.0
 10
7.9842725945
 20
11.9737166488
 30
0.0
  0
SPLINE
  5
4BC
100
AcDbEntity
  8
0
100
AcDbSpline
 62
7
  6
CONTINUOUS
 70
0
 71
3
 72
15
 73
11
 74
0
 42
0.0000001
 43
0.0000001
 44
0.0000000001
 40
0.0
 40
0.0
 40
0.0
 40
0.0
 40
0.0338847835
 40
0.0722265869
 40
0.161854093
 40
0.2679049604
 40
0.3892278357
 40
0.5245363361
 40
0.6724362018
 40
1.0
 40
1.0
 40
1.0
 40
1.0
 10
9.0284063634
 20
11.151965156
 30
0.0
 10
9.0288661477
 20
11.1517724529
 30
0.0
 10
9.029840331
 20
11.1513476772
 30
0.0
 10
9.0320032676
 20
11.1503512791
 30
0.0
 10
9.0350937784
 20
11.1488324943
 30
0.0
 10
9.0392349037
 20
11.1466865412
 30
0.0
 10
9.0439327179
 20
11.1441556234
 30
0.0
 10
9.0491367506
 20
11.1412673004
 30
0.0
 10
9.0569485176
 20
11.1368257256
 30
0.0
 10
9.0629832369
 20
11.1332870918
 30
0.0
 10
9.0671250377
 20
11.1308230819
 30
0.0
  0
SPLINE
  5
4BD
100
AcDbEntity
  8
0
100
AcDbSpline
 62
9
  6
CONTINUOUS
 70
0
 71
3
 72
19
 73
15
 74
0
 42
0.0000001
 43
0.0000001
 44
0.0000000001
 40
0.0
 40
0.0
 40
0.0
 40
0.0
 40
0.0106673045
 40
0.0231419091
 40
0.0534105501
 40
0.0905688061
 40
0.1343156144
 40
0.184288549
 40
0.2400738672
 40
0.3671957005
 40
0.5115283242
 40
0.6684345459
 40
0.8329623807
 40
1.0
 40
1.0
 40
1.0
 40
1.0
 10
7.198995586
 20
12.7589936574
 30
0.0
 10
7.1991866115
 20
12.7588029975
 30
0.0
 10
7.1995947544
 20
12.7583830879
 30
0.0
 10
7.2005170491
 20
12.7573953484
 30
0.0
 10
7.2018614888
 20
12.7558853035
 30
0.0
 10
7.2036941249
 20
12.7537513799
 30
0.0
 10
7.2058195468
 20
12.7512120883
 30
0.0
 10
7.2082200011
 20
12.7482886868
 30
0.0
 10
7.2119249469
 20
12.743707151
 30
0.0
 10
7.2170693475
 20
12.7372196572
 30
0.0
 10
7.223728032
 20
12.7286683781
 30
0.0
 10
7.2309002368
 20
12.7193178781
 30
0.0
 10
7.2383598515
 20
12.7094641885
 30
0.0
 10
7.2433834849
 20
12.7027457197
 30
0.0
 10
7.245904183
 20
12.6993535421
 30
0.0
  0
SPLINE
  5
4BE
100
AcDbEntity
  8
0
100
AcDbSpline
 62
9
  6
CONTINUOUS
 70
0
 71
3
 72
18
 73
14
 74
0
 42
0.0000001
 43
0.0000001
 44
0.0000000001
 40
0.0
 40
0.0
 40
0.0
 40
0.0
 40
0.0660386436
 40
0.1303706161
 40
0.2534471669
 40
0.3679482105
 40
0.4778801871
 40
0.5961027596
 40
0.72349333
 40
0.7903169016
 40
0.858905337
 40
0.9288991056
 40
1.0
 40
1.0
 40
1.0
 40
1.0
 10
7.2002627908
 20
12.7742679388
 30
0.0
 10
7.2004835477
 20
12.7739739858
 30
0.0
 10
7.2008914587
 20
12.7733719832
 30
0.0
 10
7.2015658457
 20
12.7721307828
 30
0.0
 10
7.2021590136
 20
12.7705473789
 30
0.0
 10
7.2025151425
 20
12.7686371088
 30
0.0
 10
7.2025562307
 20
12.7667220785
 30
0.0
 10
7.2022758778
 20
12.764753718
 30
0.0
 10
7.2017348092
 20
12.7630900467
 30
0.0
 10
7.2010968976
 20
12.7617715808
 30
0.0
 10
7.2005043326
 20
12.7607916115
 30
0.0
 10
7.1998077201
 20
12.75985289
 30
0.0
 10
7.1992786943
 20
12.7592702881
 30
0.0
 10
7.1989987125
 20
12.758990529
 30
0.0
  0
SPLINE
  5
4BF
100
AcDbEntity
  8
0
100
AcDbSpline
 62
7
  6
CONTINUOUS
 70
0
 71
3
 72
32
 73
28
 74
0
 42
0.0000001
 43
0.0000001
 44
0.0000000001
 40
0.0
 40
0.0
 40
0.0
 40
0.0
 40
0.2231980727
 40
0.325630609
 40
0.4215969043
 40
0.510847385
 40
0.5931519112
 40
0.6682993956
 40
0.7360972496
 40
0.7963740926
 40
0.8489796183
 40
0.8723647137
 40
0.8937864752
 40
0.9132327384
 40
0.9306936126
 40
0.9461622346
 40
0.9596337473
 40
0.9711082391
 40
0.9805928093
 40
0.9845945199
 40
0.988107692
 40
0.9911395252
 40
0.9937015277
 40
0.9958131901
 40
0.9975099537
 40
0.998860812
 40
1.0
 40
1.0
 40
1.0
 40
1.0
 10
10.3049560993
 20
14.9160890965
 30
0.0
 10
10.2979446275
 20
14.9225893791
 30
0.0
 10
10.2876994636
 20
14.9320557384
 30
0.0
 10
10.2743890504
 20
14.9442619661
 30
0.0
 10
10.2652834134
 20
14.9525637066
 30
0.0
 10
10.2567883727
 20
14.9602553149
 30
0.0
 10
10.2489250459
 20
14.9673157877
 30
0.0
 10
10.2417129017
 20
14.9737258382
 30
0.0
 10
10.2351697508
 20
14.9794679839
 30
0.0
 10
10.2293116406
 20
14.9845264272
 30
0.0
 10
10.2248539545
 20
14.9882953351
 30
0.0
 10
10.2216374868
 20
14.9909537598
 30
0.0
 10
10.2195007877
 20
14.9926888204
 30
0.0
 10
10.2175447593
 20
14.9942435995
 30
0.0
 10
10.2157705549
 20
14.9956170382
 30
0.0
 10
10.2141792523
 20
14.9968082531
 30
0.0
 10
10.2127717977
 20
14.9978166588
 30
0.0
 10
10.2115489795
 20
14.9986416557
 30
0.0
 10
10.2106394967
 20
14.9992048948
 30
0.0
 10
10.2100026523
 20
14.9995583301
 30
0.0
 10
10.2095991163
 20
14.9997618124
 30
0.0
 10
10.2092419597
 20
14.9999193254
 30
0.0
 10
10.2089309777
 20
15.0000310381
 30
0.0
 10
10.2086655738
 20
15.0000973516
 30
0.0
 10
10.2084443785
 20
15.0001181898
 30
0.0
 10
10.2082641693
 20
15.0000925052
 30
0.0
 10
10.2081688877
 20
15.000036056
 30
0.0
 10
10.2081343843
 20
15.000001547
 30
0.0
  0
SPLINE
  5
4C0
100
AcDbEntity
  8
0
100
AcDbSpline
 62
7
  6
CONTINUOUS
 70
0
 71
3
 72
24
 73
20
 74
0
 42
0.0000001
 43
0.0000001
 44
0.0000000001
 40
0.0
 40
0.0
 40
0.0
 40
0.0
 40
0.0083894057
 40
0.0175445241
 40
0.0277665013
 40
0.0392686642
 40
0.0521952091
 40
0.0666431507
 40
0.1003284498
 40
0.1406229288
 40
0.1876154144
 40
0.2412852994
 40
0.3015501312
 40
0.3682792403
 40
0.4413116859
 40
0.5204588094
 40
0.60551179
 40
0.7924051716
 40
1.0
 40
1.0
 40
1.0
 40
1.0
 10
8.9111602602
 20
11.268475963
 30
0.0
 10
8.9112230531
 20
11.2685387474
 30
0.0
 10
8.9113706364
 20
11.2686543811
 30
0.0
 10
8.9116352607
 20
11.2687856964
 30
0.0
 10
8.9119489305
 20
11.2688816294
 30
0.0
 10
8.9123113211
 20
11.2689429027
 30
0.0
 10
8.9127224627
 20
11.2689701329
 30
0.0
 10
8.9133692177
 20
11.2689605604
 30
0.0
 10
8.9143010357
 20
11.2688527445
 30
0.0
 10
8.9155567379
 20
11.2685979925
 30
0.0
 10
8.9169985017
 20
11.2682113552
 30
0.0
 10
8.9186218719
 20
11.2676941975
 30
0.0
 10
8.9204219136
 20
11.2670478931
 30
0.0
 10
8.9223930319
 20
11.2662745519
 30
0.0
 10
8.9245291542
 20
11.2653765612
 30
0.0
 10
8.9268238583
 20
11.2643567656
 30
0.0
 10
8.9301930766
 20
11.2627886627
 30
0.0
 10
8.9347445108
 20
11.2605406703
 30
0.0
 10
8.9384440453
 20
11.2586041097
 30
0.0
 10
8.9403811371
 20
11.2575669824
 30
0.0
  0
SPLINE
  5
4C1
100
AcDbEntity
  8
0
100
AcDbSpline
 62
7
  6
CONTINUOUS
 70
0
 71
3
 72
48
 73
44
 74
0
 42
0.0000001
 43
0.0000001
 44
0.0000000001
 40
0.0
 40
0.0
 40
0.0
 40
0.0
 40
0.0292400371
 40
0.060810457
 40
0.0945288075
 40
0.1301995929
 40
0.2065620138
 40
0.2881305753
 40
0.3730176878
 40
0.4592593759
 40
0.5448609171
 40
0.6278431645
 40
0.6677491815
 40
0.7062885277
 40
0.7432384518
 40
0.7783854371
 40
0.8115265182
 40
0.842470495
 40
0.8710389819
 40
0.8970675724
 40
0.9204068603
 40
0.9409233952
 40
0.9500860778
 40
0.9585009004
 40
0.966156091
 40
0.973041325
 40
0.979147472
 40
0.9844670524
 40
0.9868300088
 40
0.9889943814
 40
0.990959802
 40
0.9927260979
 40
0.9942935056
 40
0.995662663
 40
0.9968348025
 40
0.9978122959
 40
0.9985997929
 40
0.9989251347
 40
0.9992072425
 40
0.9994492332
 40
0.9996560683
 40
0.9998356796
 40
1.0
 40
1.0
 40
1.0
 40
1.0
 10
10.1243748617
 20
14.7474326881
 30
0.0
 10
10.129171955
 20
14.7430617919
 30
0.0
 10
10.1391290179
 20
14.7339502974
 30
0.0
 10
10.15456113
 20
14.7197366095
 30
0.0
 10
10.1710036437
 20
14.7045132738
 30
0.0
 10
10.1946949557
 20
14.6824862048
 30
0.0
 10
10.2260892321
 20
14.6531472552
 30
0.0
 10
10.2653870008
 20
14.6162673887
 30
0.0
 10
10.3062368729
 20
14.5778372833
 30
0.0
 10
10.3477202706
 20
14.5387742774
 30
0.0
 10
10.3889042753
 20
14.50001003
 30
0.0
 10
10.422629012
 20
14.4683255789
 30
0.0
 10
10.4487740373
 20
14.4438283454
 30
0.0
 10
10.4674836603
 20
14.4263381083
 30
0.0
 10
10.485445729
 20
14.4095949484
 30
0.0
 10
10.5025597716
 20
14.3936992454
 30
0.0
 10
10.5187302137
 20
14.3787464179
 30
0.0
 10
10.5338669342
 20
14.3648263718
 30
0.0
 10
10.5478857887
 20
14.3520229813
 30
0.0
 10
10.5607090141
 20
14.3404134909
 30
0.0
 10
10.5722658312
 20
14.330068281
 30
0.0
 10
10.5810914534
 20
14.3222848151
 30
0.0
 10
10.5874772609
 20
14.3167434214
 30
0.0
 10
10.59172997
 20
14.3130994323
 30
0.0
 10
10.5956238193
 20
14.3098136933
 30
0.0
 10
10.5991535441
 20
14.3068912436
 30
0.0
 10
10.602314455
 20
14.3043366105
 30
0.0
 10
10.6047239566
 20
14.3024494674
 30
0.0
 10
10.6064663661
 20
14.3011301484
 30
0.0
 10
10.6076261588
 20
14.3002747931
 30
0.0
 10
10.6086910311
 20
14.2995140721
 30
0.0
 10
10.609660657
 20
14.2988482715
 30
0.0
 10
10.6105347409
 20
14.2982775444
 30
0.0
 10
10.6113130283
 20
14.297801995
 30
0.0
 10
10.611995394
 20
14.297421435
 30
0.0
 10
10.6125817562
 20
14.2971358537
 30
0.0
 10
10.6130147309
 20
14.2969663116
 30
0.0
 10
10.6133135099
 20
14.2968840265
 30
0.0
 10
10.6134993168
 20
14.296850237
 30
0.0
 10
10.6136617422
 20
14.2968402633
 30
0.0
 10
10.6138013439
 20
14.2968545312
 30
0.0
 10
10.6139183829
 20
14.2968940863
 30
0.0
 10
10.6139816537
 20
14.2969393567
 30
0.0
 10
10.6140074402
 20
14.2969651472
 30
0.0
  0
SPLINE
  5
4C2
100
AcDbEntity
  8
0
100
AcDbSpline
 62
9
  6
CONTINUOUS
 70
0
 71
3
 72
18
 73
14
 74
0
 42
0.0000001
 43
0.0000001
 44
0.0000000001
 40
0.0
 40
0.0
 40
0.0
 40
0.0
 40
0.017707511
 40
0.0375048912
 40
0.0617114724
 40
0.0916339536
 40
0.1279644475
 40
0.1710851015
 40
0.2784825759
 40
0.4148498317
 40
0.5805306969
 40
0.7755937464
 40
1.0
 40
1.0
 40
1.0
 40
1.0
 10
7.1974062827
 20
12.7601734095
 30
0.0
 10
7.1974148238
 20
12.7601818631
 30
0.0
 10
7.1974372306
 20
12.7601958217
 30
0.0
 10
7.1974795167
 20
12.7602017592
 30
0.0
 10
7.1975295936
 20
12.7601948693
 30
0.0
 10
7.1975881809
 20
12.7601758557
 30
0.0
 10
7.1976556948
 20
12.7601447328
 30
0.0
 10
7.1977661235
 20
12.7600821944
 30
0.0
 10
7.1979260648
 20
12.7599705832
 30
0.0
 10
7.1981427823
 20
12.7597965378
 30
0.0
 10
7.1983959483
 20
12.7595734031
 30
0.0
 10
7.1986853372
 20
12.7593014007
 30
0.0
 10
7.1988880654
 20
12.7591015131
 30
0.0
 10
7.1989955857
 20
12.7589936577
 30
0.0
  0
SPLINE
  5
4C3
100
AcDbEntity
  8
0
100
AcDbSpline
 62
7
  6
CONTINUOUS
 70
0
 71
3
 72
27
 73
23
 74
0
 42
0.0000001
 43
0.0000001
 44
0.0000000001
 40
0.0
 40
0.0
 40
0.0
 40
0.0
 40
0.010326289
 40
0.0208903638
 40
0.0320559472
 40
0.0441310311
 40
0.0573574361
 40
0.0719173275
 40
0.0879418535
 40
0.1055237602
 40
0.1247289149
 40
0.1455999709
 40
0.19242386
 40
0.2460825038
 40
0.3065105694
 40
0.373542085
 40
0.4469347814
 40
0.5263808181
 40
0.6115154286
 40
0.7019224968
 40
0.7971416062
 40
1.0
 40
1.0
 40
1.0
 40
1.0
 10
7.5349836822
 20
12.6100079266
 30
0.0
 10
7.5350961828
 20
12.610120416
 30
0.0
 10
7.5353471315
 20
12.6103259332
 30
0.0
 10
7.5357859462
 20
12.6105587545
 30
0.0
 10
7.5362850967
 20
12.610716144
 30
0.0
 10
7.5368427817
 20
12.6107988273
 30
0.0
 10
7.5374583252
 20
12.6108077735
 30
0.0
 10
7.5381313356
 20
12.6107434261
 30
0.0
 10
7.5388614454
 20
12.6106061344
 30
0.0
 10
7.5396481562
 20
12.6103960716
 30
0.0
 10
7.5404907901
 20
12.6101133353
 30
0.0
 10
7.5417361151
 20
12.6096203986
 30
0.0
 10
7.5434243627
 20
12.6088119516
 30
0.0
 10
7.5455850392
 20
12.6075939779
 30
0.0
 10
7.547941622
 20
12.6060977261
 30
0.0
 10
7.5504822168
 20
12.6043298391
 30
0.0
 10
7.5531936692
 20
12.6022984139
 30
0.0
 10
7.5560615136
 20
12.6000134882
 30
0.0
 10
7.5590701553
 20
12.5974868498
 30
0.0
 10
7.5622029876
 20
12.5947319688
 30
0.0
 10
7.5666160393
 20
12.5906883319
 30
0.0
 10
7.5699136221
 20
12.5874904011
 30
0.0
 10
7.5721235692
 20
12.5852804539
 30
0.0
  0
LINE
  5
4C4
100
AcDbEntity
  8
0
100
AcDbLine
 62
9
  6
CONTINUOUS
 10
7.1799439037
 20
12.7780450128
 11
7.1946261901
 21
12.7581262507
  0
LINE
  5
4C5
100
AcDbEntity
  8
0
100
AcDbLine
 62
9
  6
CONTINUOUS
 10
7.1946261901
 20
12.7581262507
 11
7.1949214987
 21
12.7577270734
  0
SPLINE
  5
4C6
100
AcDbEntity
  8
0
100
AcDbSpline
 62
7
  6
CONTINUOUS
 70
0
 71
3
 72
22
 73
18
 74
0
 42
0.0000001
 43
0.0000001
 44
0.0000000001
 40
0.0
 40
0.0
 40
0.0
 40
0.0
 40
0.0454605067
 40
0.0912716662
 40
0.1377786065
 40
0.1853562552
 40
0.2343998111
 40
0.2853364757
 40
0.3386339586
 40
0.3948032889
 40
0.4543975561
 40
0.517999542
 40
0.5861860429
 40
0.6594505885
 40
0.7380592841
 40
0.8218172801
 40
1.0
 40
1.0
 40
1.0
 40
1.0
 10
9.7770636989
 20
14.5271706523
 30
0.0
 10
9.7758670789
 20
14.5283672723
 30
0.0
 10
9.7735838358
 20
14.5308924434
 30
0.0
 10
9.7705385872
 20
14.5350295682
 30
0.0
 10
9.767883184
 20
14.5395196168
 30
0.0
 10
9.7656394368
 20
14.5443618495
 30
0.0
 10
9.7638356281
 20
14.5495597285
 30
0.0
 10
9.7625072574
 20
14.5551183395
 30
0.0
 10
9.7616981386
 20
14.5610440655
 30
0.0
 10
9.7614622637
 20
14.5673430358
 30
0.0
 10
9.761864696
 20
14.5740183685
 30
0.0
 10
9.7629820715
 20
14.5810656916
 30
0.0
 10
9.7649015458
 20
14.588465812
 30
0.0
 10
9.7677149537
 20
14.5961724817
 30
0.0
 10
9.7715071923
 20
14.6040980518
 30
0.0
 10
9.7780607175
 20
14.6149655191
 30
0.0
 10
9.7843199599
 20
14.6225496969
 30
0.0
 10
9.789010119
 20
14.6272398561
 30
0.0
  0
SPLINE
  5
4C7
100
AcDbEntity
  8
0
100
AcDbSpline
 62
7
  6
CONTINUOUS
 70
0
 71
3
 72
22
 73
18
 74
0
 42
0.0000001
 43
0.0000001
 44
0.0000000001
 40
0.0
 40
0.0
 40
0.0
 40
0.0
 40
0.178183471
 40
0.2619416885
 40
0.340550513
 40
0.4138149181
 40
0.4820011834
 40
0.5456029603
 40
0.60519715
 40
0.6613663694
 40
0.71466378
 40
0.7656003967
 40
0.8146439072
 40
0.8622215079
 40
0.9087283729
 40
0.9545394865
 40
1.0
 40
1.0
 40
1.0
 40
1.0
 10
9.8771329027
 20
14.5391170724
 30
0.0
 10
9.8724427238
 20
14.5344268935
 30
0.0
 10
9.8648585153
 20
14.5281676298
 30
0.0
 10
9.8539910057
 20
14.5216140954
 30
0.0
 10
9.8460654238
 20
14.5178218634
 30
0.0
 10
9.8383587588
 20
14.5150084697
 30
0.0
 10
9.8309586573
 20
14.51308901
 30
0.0
 10
9.8239113525
 20
14.511971644
 30
0.0
 10
9.8172360344
 20
14.5115692191
 30
0.0
 10
9.8109370741
 20
14.5118050978
 30
0.0
 10
9.8050113566
 20
14.5126142144
 30
0.0
 10
9.7994527523
 20
14.5139425874
 30
0.0
 10
9.7942548802
 20
14.5157463992
 30
0.0
 10
9.7894126529
 20
14.5179901429
 30
0.0
 10
9.784922611
 20
14.5206455449
 30
0.0
 10
9.7807854888
 20
14.5236907897
 30
0.0
 10
9.7782603191
 20
14.5259740321
 30
0.0
 10
9.7770636989
 20
14.5271706523
 30
0.0
  0
SPLINE
  5
4C8
100
AcDbEntity
  8
0
100
AcDbSpline
 62
7
  6
CONTINUOUS
 70
0
 71
3
 72
69
 73
65
 74
0
 42
0.0000001
 43
0.0000001
 44
0.0000000001
 40
0.0
 40
0.0
 40
0.0
 40
0.0
 40
0.0001752291
 40
0.0003785333
 40
0.0006286671
 40
0.000935904
 40
0.0013057712
 40
0.0017414028
 40
0.0022446798
 40
0.002816761
 40
0.0041699606
 40
0.005804686
 40
0.0077224133
 40
0.0099233865
 40
0.0124072914
 40
0.0151734047
 40
0.0182205036
 40
0.0215471915
 40
0.0290324869
 40
0.0376133896
 40
0.047270872
 40
0.0579831899
 40
0.0697258273
 40
0.0824717279
 40
0.096191512
 40
0.1108533902
 40
0.1428651077
 40
0.1782094777
 40
0.2165576558
 40
0.2575524377
 40
0.3008119612
 40
0.3459330015
 40
0.3924949597
 40
0.4400637632
 40
0.4881958775
 40
0.5364425445
 40
0.5843538736
 40
0.631483202
 40
0.6773910747
 40
0.7216495564
 40
0.7638461013
 40
0.8035875175
 40
0.8405035558
 40
0.874250632
 40
0.8898364521
 40
0.904514866
 40
0.9182517758
 40
0.9310153512
 40
0.9427761675
 40
0.953507121
 40
0.9631836579
 40
0.9717839829
 40
0.9792890099
 40
0.9856827128
 40
0.9884588938
 40
0.9909529033
 40
0.9931639989
 40
0.9950918529
 40
0.9967366794
 40
0.9980999001
 40
0.9986769333
 40
0.9991850978
 40
0.9996255148
 40
1.0
 40
1.0
 40
1.0
 40
1.0
 10
10.7763016711
 20
14.4191203457
 30
0.0
 10
10.776268072
 20
14.4190867466
 30
0.0
 10
10.7761780783
 20
14.4190306588
 30
0.0
 10
10.7760081614
 20
14.4189987228
 30
0.0
 10
10.7758009869
 20
14.4190092664
 30
0.0
 10
10.775554229
 20
14.419060869
 30
0.0
 10
10.7752666247
 20
14.4191533587
 30
0.0
 10
10.7749376026
 20
14.4192870169
 30
0.0
 10
10.7745669414
 20
14.4194619923
 30
0.0
 10
10.7739837522
 20
14.4197682062
 30
0.0
 10
10.7731527734
 20
14.4202605966
 30
0.0
 10
10.7720377981
 20
14.420986515
 30
0.0
 10
10.7707567555
 20
14.4218773399
 30
0.0
 10
10.7693102567
 20
14.4229326042
 30
0.0
 10
10.7676990792
 20
14.4241519088
 30
0.0
 10
10.7659240906
 20
14.4255345621
 30
0.0
 10
10.7639862131
 20
14.4270797137
 30
0.0
 10
10.761069988
 20
14.4294502484
 30
0.0
 10
10.7570298851
 20
14.4328167716
 30
0.0
 10
10.7517220042
 20
14.4373426994
 30
0.0
 10
10.7457930274
 20
14.4424884075
 30
0.0
 10
10.7392559635
 20
14.4482411346
 30
0.0
 10
10.7321252728
 20
14.4545867408
 30
0.0
 10
10.7244167546
 20
14.4615096
 30
0.0
 10
10.7161475236
 20
14.4689927042
 30
0.0
 10
10.7040398022
 20
14.4800199027
 30
0.0
 10
10.6876588244
 20
14.4950634756
 30
0.0
 10
10.6666235296
 20
14.5145343159
 30
0.0
 10
10.6438637138
 20
14.535727812
 30
0.0
 10
10.619584617
 20
14.5584391207
 30
0.0
 10
10.5940056987
 20
14.5824492428
 30
0.0
 10
10.5673584448
 20
14.6075269653
 30
0.0
 10
10.5398843008
 20
14.6334310699
 30
0.0
 10
10.5118323999
 20
14.659912603
 30
0.0
 10
10.4834572495
 20
14.6867172094
 30
0.0
 10
10.4550163786
 20
14.7135875014
 30
0.0
 10
10.4267679126
 20
14.7402654901
 30
0.0
 10
10.3989682013
 20
14.7664949722
 30
0.0
 10
10.3718694019
 20
14.7920239538
 30
0.0
 10
10.3457171622
 20
14.816606987
 30
0.0
 10
10.320748304
 20
14.8400074931
 30
0.0
 10
10.2971886859
 20
14.8619999927
 30
0.0
 10
10.2752509819
 20
14.8823721489
 30
0.0
 10
10.2580589626
 20
14.8982286476
 30
0.0
 10
10.2452581234
 20
14.9099516992
 30
0.0
 10
10.2364370944
 20
14.9179862453
 30
0.0
 10
10.2281580153
 20
14.9254792128
 30
0.0
 10
10.2204393144
 20
14.9324122347
 30
0.0
 10
10.213298149
 20
14.9387682948
 30
0.0
 10
10.2067503463
 20
14.9445317546
 30
0.0
 10
10.20081036
 20
14.9496883916
 30
0.0
 10
10.1954913241
 20
14.9542256012
 30
0.0
 10
10.1908048507
 20
14.958132109
 30
0.0
 10
10.1872876616
 20
14.9609742511
 30
0.0
 10
10.1847933713
 20
14.9629191635
 30
0.0
 10
10.1831763073
 20
14.9641443016
 30
0.0
 10
10.1817239087
 20
14.9652054408
 30
0.0
 10
10.1804369367
 20
14.9661021483
 30
0.0
 10
10.1793160142
 20
14.9668339556
 30
0.0
 10
10.1784800876
 20
14.9673313136
 30
0.0
 10
10.1778929531
 20
14.9676415715
 30
0.0
 10
10.177519298
 20
14.9678195146
 30
0.0
 10
10.1771873417
 20
14.9679560965
 30
0.0
 10
10.1769770702
 20
14.9680251813
 30
0.0
 10
10.1768789677
 20
14.9680514088
 30
0.0
  0
SPLINE
  5
4C9
100
AcDbEntity
  8
0
100
AcDbSpline
 62
7
  6
CONTINUOUS
 70
0
 71
3
 72
69
 73
65
 74
0
 42
0.0000001
 43
0.0000001
 44
0.0000000001
 40
0.0
 40
0.0
 40
0.0
 40
0.0
 40
0.0001705165
 40
0.0003698263
 40
0.0006168104
 40
0.0009215929
 40
0.0012895391
 40
0.0017236628
 40
0.0022257615
 40
0.0027969356
 40
0.0041489864
 40
0.0057832729
 40
0.0077011461
 40
0.0099027705
 40
0.0123877791
 40
0.0151554096
 40
0.0182044105
 40
0.0215333633
 40
0.0290242069
 40
0.0376119197
 40
0.047277381
 40
0.0579987659
 40
0.069751486
 40
0.082508412
 40
0.0962400928
 40
0.1109146694
 40
0.142953889
 40
0.1783280599
 40
0.2167076959
 40
0.2577349229
 40
0.301027186
 40
0.3461805438
 40
0.3927736792
 40
0.4403717965
 40
0.4885306511
 40
0.5368007915
 40
0.5847316678
 40
0.6318759921
 40
0.677793735
 40
0.7220564443
 40
0.7642511203
 40
0.8039841863
 40
0.8408850907
 40
0.8746100205
 40
0.8901820867
 40
0.9048449441
 40
0.9185644925
 40
0.9313088924
 40
0.9430487215
 40
0.9537568857
 40
0.9634088272
 40
0.9719827535
 40
0.979459581
 40
0.9858232561
 40
0.9885837228
 40
0.9910615366
 40
0.9932559473
 40
0.9951665951
 40
0.9967936632
 40
0.9981385359
 40
0.9987061538
 40
0.9992047344
 40
0.9996354028
 40
1.0
 40
1.0
 40
1.0
 40
1.0
 10
10.158356818
 20
14.950224012
 30
0.0
 10
10.1583895115
 20
14.9502567056
 30
0.0
 10
10.1584779996
 20
14.9503109132
 30
0.0
 10
10.1586452087
 20
14.9503396949
 30
0.0
 10
10.1588495498
 20
14.9503261926
 30
0.0
 10
10.1590935546
 20
14.9502716716
 30
0.0
 10
10.1593784838
 20
14.9501762593
 30
0.0
 10
10.1597049006
 20
14.9500396409
 30
0.0
 10
10.1600730127
 20
14.9498616635
 30
0.0
 10
10.160652828
 20
14.9495510576
 30
0.0
 10
10.1614796774
 20
14.9490532376
 30
0.0
 10
10.1625899507
 20
14.9483210202
 30
0.0
 10
10.1638664568
 20
14.9474237146
 30
0.0
 10
10.1653085792
 20
14.9463617947
 30
0.0
 10
10.166915534
 20
14.9451356695
 30
0.0
 10
10.1686864514
 20
14.9437460366
 30
0.0
 10
10.1706204063
 20
14.9421937501
 30
0.0
 10
10.1735314521
 20
14.9398130461
 30
0.0
 10
10.1775655189
 20
14.9364336098
 30
0.0
 10
10.1828668806
 20
14.9318922026
 30
0.0
 10
10.188789868
 20
14.9267304567
 30
0.0
 10
10.1953214487
 20
14.9209611614
 30
0.0
 10
10.2024471368
 20
14.9145984891
 30
0.0
 10
10.2101511052
 20
14.9076580976
 30
0.0
 10
10.2184162078
 20
14.9001570274
 30
0.0
 10
10.2305187631
 20
14.8891046233
 30
0.0
 10
10.2468942386
 20
14.8740289518
 30
0.0
 10
10.2679242145
 20
14.8545194316
 30
0.0
 10
10.2906794542
 20
14.8332864323
 30
0.0
 10
10.3149543611
 20
14.810535154
 30
0.0
 10
10.3405291024
 20
14.7864849714
 30
0.0
 10
10.3671718061
 20
14.7613674811
 30
0.0
 10
10.3946406326
 20
14.7354242912
 30
0.0
 10
10.422686055
 20
14.7089047436
 30
0.0
 10
10.4510531758
 20
14.6820635769
 30
0.0
 10
10.4794840937
 20
14.6551585558
 30
0.0
 10
10.5077203282
 20
14.6284480311
 30
0.0
 10
10.5355051968
 20
14.6021885449
 30
0.0
 10
10.562586238
 20
14.5766324026
 30
0.0
 10
10.5887175329
 20
14.5520253309
 30
0.0
 10
10.6136620261
 20
14.5286041505
 30
0.0
 10
10.6371936691
 20
14.5065945426
 30
0.0
 10
10.6590996431
 20
14.4862089992
 30
0.0
 10
10.6762624302
 20
14.4703432612
 30
0.0
 10
10.689037824
 20
14.4586146067
 30
0.0
 10
10.6978385564
 20
14.4505776225
 30
0.0
 10
10.7060963601
 20
14.4430831876
 30
0.0
 10
10.7137928129
 20
14.4361496648
 30
0.0
 10
10.7209107679
 20
14.4297940629
 30
0.0
 10
10.7274344109
 20
14.4240320095
 30
0.0
 10
10.7333493056
 20
14.4188777151
 30
0.0
 10
10.7386423381
 20
14.4143437704
 30
0.0
 10
10.7433019193
 20
14.4104414312
 30
0.0
 10
10.7467958998
 20
14.4076029328
 30
0.0
 10
10.7492711502
 20
14.4056612418
 30
0.0
 10
10.7508737877
 20
14.4044390994
 30
0.0
 10
10.752311555
 20
14.4033811579
 30
0.0
 10
10.753583692
 20
14.402487844
 30
0.0
 10
10.7546895783
 20
14.4017596245
 30
0.0
 10
10.7555127816
 20
14.4012651642
 30
0.0
 10
10.7560896762
 20
14.400957301
 30
0.0
 10
10.7564556035
 20
14.4007813223
 30
0.0
 10
10.7567797866
 20
14.4006467331
 30
0.0
 10
10.7569848739
 20
14.4005789394
 30
0.0
 10
10.7570803796
 20
14.4005534027
 30
0.0
  0
SPLINE
  5
4CA
100
AcDbEntity
  8
0
100
AcDbSpline
 62
7
  6
CONTINUOUS
 70
0
 71
3
 72
69
 73
65
 74
0
 42
0.0000001
 43
0.0000001
 44
0.0000000001
 40
0.0
 40
0.0
 40
0.0
 40
0.0
 40
0.0001750823
 40
0.000378262
 40
0.0006282988
 40
0.0009354623
 40
0.0013052748
 40
0.0017408667
 40
0.0022441165
 40
0.0028161811
 40
0.0041693747
 40
0.0058041248
 40
0.0077219035
 40
0.0099229522
 40
0.0124069548
 40
0.0151731867
 40
0.0182204243
 40
0.0215472702
 40
0.0290329371
 40
0.0376142818
 40
0.0472722712
 40
0.057985156
 40
0.0697284195
 40
0.0824750026
 40
0.0961955207
 40
0.1108581757
 40
0.1428715713
 40
0.1782177584
 40
0.2165678451
 40
0.2575646004
 40
0.3008261051
 40
0.3459491098
 40
0.3925129496
 40
0.4400835325
 40
0.4882172542
 40
0.5364653371
 40
0.5843778311
 40
0.6315080477
 40
0.6774164909
 40
0.7216751937
 40
0.7638715861
 40
0.8036124442
 40
0.8405275102
 40
0.8742731709
 40
0.8898581216
 40
0.9045355536
 40
0.9182713646
 40
0.9310337297
 40
0.9427932255
 40
0.9535227477
 40
0.9631977395
 40
0.971796407
 40
0.979299666
 40
0.9856914883
 40
0.9884666859
 40
0.9909596822
 40
0.9931697343
 40
0.995096513
 40
0.9967402303
 40
0.998102306
 40
0.9986787522
 40
0.9991863196
 40
0.9996261297
 40
1.0
 40
1.0
 40
1.0
 40
1.0
 10
10.7250186981
 20
14.3678373728
 30
0.0
 10
10.7249851273
 20
14.3678038019
 30
0.0
 10
10.7248951802
 20
14.367747773
 30
0.0
 10
10.724725346
 20
14.367715938
 30
0.0
 10
10.7245182584
 20
14.3677265787
 30
0.0
 10
10.7242715845
 20
14.3677782789
 30
0.0
 10
10.7239840614
 20
14.367870868
 30
0.0
 10
10.7236551179
 20
14.3680046288
 30
0.0
 10
10.723284533
 20
14.3681797097
 30
0.0
 10
10.7227014435
 20
14.3684860803
 30
0.0
 10
10.7218705857
 20
14.3689786696
 30
0.0
 10
10.7207557468
 20
14.3697048253
 30
0.0
 10
10.7194748335
 20
14.3705959006
 30
0.0
 10
10.7180284574
 20
14.3716514282
 30
0.0
 10
10.7164173961
 20
14.3728710086
 30
0.0
 10
10.7146425174
 20
14.37425395
 30
0.0
 10
10.7127047434
 20
14.3757994019
 30
0.0
 10
10.7097886513
 20
14.3781703721
 30
0.0
 10
10.7057486973
 20
14.3815374638
 30
0.0
 10
10.7004409687
 20
14.3860640944
 30
0.0
 10
10.694512123
 20
14.39121055
 30
0.0
 10
10.6879751706
 20
14.3969640678
 30
0.0
 10
10.6808445727
 20
14.4033105065
 30
0.0
 10
10.6731361297
 20
14.4102342387
 30
0.0
 10
10.6648669591
 20
14.4177182535
 30
0.0
 10
10.6527593062
 20
14.4287467492
 30
0.0
 10
10.636378387
 20
14.4437920143
 30
0.0
 10
10.615343134
 20
14.463264949
 30
0.0
 10
10.5925833549
 20
14.4844606356
 30
0.0
 10
10.5683043137
 20
14.507174207
 30
0.0
 10
10.5427254896
 20
14.5311866436
 30
0.0
 10
10.5160783955
 20
14.5562667053
 30
0.0
 10
10.488604497
 20
14.5821731533
 30
0.0
 10
10.4605529561
 20
14.6086570052
 30
0.0
 10
10.4321782997
 20
14.635463886
 30
0.0
 10
10.4037380843
 20
14.6623363801
 30
0.0
 10
10.3754904547
 20
14.68901648
 30
0.0
 10
10.3476917797
 20
14.7152479548
 30
0.0
 10
10.3205942272
 20
14.7407787855
 30
0.0
 10
10.294443456
 20
14.7653635
 30
0.0
 10
10.2694762969
 20
14.7887654971
 30
0.0
 10
10.2459186131
 20
14.8107592791
 30
0.0
 10
10.2239830838
 20
14.8311324907
 30
0.0
 10
10.206793053
 20
14.8469897541
 30
0.0
 10
10.1939939307
 20
14.8587133031
 30
0.0
 10
10.1851742597
 20
14.8667481067
 30
0.0
 10
10.1768965972
 20
14.8742412668
 30
0.0
 10
10.1691793697
 20
14.8811744164
 30
0.0
 10
10.162039732
 20
14.8875305398
 30
0.0
 10
10.1554935101
 20
14.8932939982
 30
0.0
 10
10.1495551566
 20
14.8984505681
 30
0.0
 10
10.1442378033
 20
14.9029876452
 30
0.0
 10
10.1395530596
 20
14.9068939559
 30
0.0
 10
10.1360373556
 20
14.9097359175
 30
0.0
 10
10.1335442777
 20
14.9116806615
 30
0.0
 10
10.1319281287
 20
14.9129056334
 30
0.0
 10
10.1304766553
 20
14.913966591
 30
0.0
 10
10.1291906186
 20
14.914863102
 30
0.0
 10
10.1280706409
 20
14.9155946978
 30
0.0
 10
10.1272355114
 20
14.9160918831
 30
0.0
 10
10.1266490168
 20
14.9164019963
 30
0.0
 10
10.1262758438
 20
14.9165798196
 30
0.0
 10
10.1259443714
 20
14.916716279
 30
0.0
 10
10.1257344223
 20
14.9167852839
 30
0.0
 10
10.1256364812
 20
14.9168114684
 30
0.0
  0
SPLINE
  5
4CB
100
AcDbEntity
  8
0
100
AcDbSpline
 62
7
  6
CONTINUOUS
 70
0
 71
3
 72
69
 73
65
 74
0
 42
0.0000001
 43
0.0000001
 44
0.0000000001
 40
0.0
 40
0.0
 40
0.0
 40
0.0
 40
0.0001709786
 40
0.0003706765
 40
0.0006179746
 40
0.0009230173
 40
0.0012911882
 40
0.0017255139
 40
0.0022278005
 40
0.0027991541
 40
0.0041515534
 40
0.0057861919
 40
0.0077044323
 40
0.0099064463
 40
0.0123918714
 40
0.0151599487
 40
0.0182094286
 40
0.0215388942
 40
0.0290308679
 40
0.0376198532
 40
0.0472867277
 40
0.0580096627
 40
0.0697640681
 40
0.0825228102
 40
0.0962564293
 40
0.110933053
 40
0.142976672
 40
0.1783555819
 40
0.216740193
 40
0.2577725452
 40
0.3010699589
 40
0.3462283988
 40
0.3928264093
 40
0.4404291009
 40
0.4885920855
 40
0.5368658205
 40
0.5847996244
 40
0.6319461201
 40
0.6778651741
 40
0.7221282487
 40
0.7643222712
 40
0.804053593
 40
0.8409516207
 40
0.8746724914
 40
0.8902420827
 40
0.9049021624
 40
0.9186186269
 40
0.9313596403
 40
0.9430957822
 40
0.9537999594
 40
0.963447611
 40
0.9720169468
 40
0.9794888858
 40
0.9858473704
 40
0.9886051261
 40
0.9910801496
 40
0.9932716895
 40
0.9951793808
 40
0.9968034023
 40
0.9981451324
 40
0.9987111398
 40
0.9992080828
 40
0.9996370876
 40
1.0
 40
1.0
 40
1.0
 40
1.0
 10
10.108709327
 20
14.9005765211
 30
0.0
 10
10.1087421092
 20
14.9006093032
 30
0.0
 10
10.1088307475
 20
14.9006636917
 30
0.0
 10
10.1089982304
 20
14.9006927529
 30
0.0
 10
10.1092028529
 20
14.9006794894
 30
0.0
 10
10.1094471296
 20
14.9006251842
 30
0.0
 10
10.1097323225
 20
14.9005299686
 30
0.0
 10
10.1100589961
 20
14.9003935307
 30
0.0
 10
10.1104273595
 20
14.9002157179
 30
0.0
 10
10.111007511
 20
14.8999053288
 30
0.0
 10
10.1118347699
 20
14.8994077234
 30
0.0
 10
10.1129455068
 20
14.8986756839
 30
0.0
 10
10.1142224614
 20
14.8977784949
 30
0.0
 10
10.1156650177
 20
14.8967166301
 30
0.0
 10
10.1172723927
 20
14.8954904985
 30
0.0
 10
10.1190437169
 20
14.894100798
 30
0.0
 10
10.1209780654
 20
14.892548383
 30
0.0
 10
10.1238896368
 20
14.8901674192
 30
0.0
 10
10.12792432
 20
14.8867874953
 30
0.0
 10
10.1332263521
 20
14.8822452915
 30
0.0
 10
10.1391499623
 20
14.8770825249
 30
0.0
 10
10.1456821188
 20
14.8713119919
 30
0.0
 10
10.1528083362
 20
14.8649478717
 30
0.0
 10
10.1605127874
 20
14.8580058296
 30
0.0
 10
10.1687783243
 20
14.8505029158
 30
0.0
 10
10.1808813978
 20
14.8394477348
 30
0.0
 10
10.1972573725
 20
14.8243681639
 30
0.0
 10
10.2182877244
 20
14.8048534694
 30
0.0
 10
10.2410430989
 20
14.7836147679
 30
0.0
 10
10.2653178698
 20
14.7608573521
 30
0.0
 10
10.2908921774
 20
14.7368006874
 30
0.0
 10
10.317534113
 20
14.7116764708
 30
0.0
 10
10.3450018066
 20
14.6857264051
 30
0.0
 10
10.3730456917
 20
14.6591999362
 30
0.0
 10
10.4014108406
 20
14.6323518976
 30
0.0
 10
10.429839309
 20
14.6054401506
 30
0.0
 10
10.458072583
 20
14.5787231304
 30
0.0
 10
10.4858539447
 20
14.5524574664
 30
0.0
 10
10.5129309061
 20
14.5268955426
 30
0.0
 10
10.539057525
 20
14.5022831606
 30
0.0
 10
10.5639967297
 20
14.4788572102
 30
0.0
 10
10.5875224639
 20
14.4568434329
 30
0.0
 10
10.6094219059
 20
14.4364543763
 30
0.0
 10
10.6265787874
 20
14.4205860496
 30
0.0
 10
10.6393491343
 20
14.4088556611
 30
0.0
 10
10.6481459085
 20
14.4008177155
 30
0.0
 10
10.656399609
 20
14.3933225105
 30
0.0
 10
10.6640918185
 20
14.3863884108
 30
0.0
 10
10.6712053959
 20
14.3800324265
 30
0.0
 10
10.6777245319
 20
14.3742701871
 30
0.0
 10
10.6836347957
 20
14.3691159043
 30
0.0
 10
10.6889230802
 20
14.36458217
 30
0.0
 10
10.6935778038
 20
14.3606802391
 30
0.0
 10
10.6970676296
 20
14.3578421388
 30
0.0
 10
10.6995395001
 20
14.3559008437
 30
0.0
 10
10.7011395952
 20
14.354679116
 30
0.0
 10
10.702574798
 20
14.353621637
 30
0.0
 10
10.7038443491
 20
14.3527288328
 30
0.0
 10
10.704947629
 20
14.35200117
 30
0.0
 10
10.7057686375
 20
14.3515071676
 30
0.0
 10
10.7063437733
 20
14.3511996916
 30
0.0
 10
10.7067083781
 20
14.3510240369
 30
0.0
 10
10.7070312347
 20
14.3508897802
 30
0.0
 10
10.7072354393
 20
14.3508222039
 30
0.0
 10
10.7073305034
 20
14.3507967848
 30
0.0
  0
SPLINE
  5
4CC
100
AcDbEntity
  8
0
100
AcDbSpline
 62
7
  6
CONTINUOUS
 70
0
 71
3
 72
69
 73
65
 74
0
 42
0.0000001
 43
0.0000001
 44
0.0000000001
 40
0.0
 40
0.0
 40
0.0
 40
0.0
 40
0.0001702321
 40
0.0003692992
 40
0.0006160894
 40
0.0009207178
 40
0.0012885397
 40
0.0017225619
 40
0.002224577
 40
0.0027956818
 40
0.0041476283
 40
0.0057818459
 40
0.0076996782
 40
0.0099012851
 40
0.0123862966
 40
0.0151539483
 40
0.0182029868
 40
0.0215319927
 40
0.0290229848
 40
0.0376108975
 40
0.0472766057
 40
0.0579982807
 40
0.069751331
 40
0.0825086243
 40
0.0962407066
 40
0.1109157163
 40
0.142955885
 40
0.1783310964
 40
0.2167118408
 40
0.2577402186
 40
0.3010336507
 40
0.3461881683
 40
0.3927824289
 40
0.44038161
 40
0.4885414418
 40
0.5368124471
 40
0.5847440536
 40
0.6318889502
 40
0.6778070877
 40
0.7220699955
 40
0.7642646576
 40
0.8039974845
 40
0.8408979136
 40
0.8746221236
 40
0.8901937371
 40
0.9048560791
 40
0.9185750492
 40
0.9313188078
 40
0.9430579331
 40
0.9537653313
 40
0.963416444
 40
0.9719894793
 40
0.9794653538
 40
0.9858280132
 40
0.988587948
 40
0.9910652135
 40
0.9932590591
 40
0.9951691242
 40
0.996795591
 40
0.9981398425
 40
0.9987071418
 40
0.9992053981
 40
0.9996357369
 40
1.0
 40
1.0
 40
1.0
 40
1.0
 10
10.0589006671
 20
14.8507678612
 30
0.0
 10
10.058933306
 20
14.8508005001
 30
0.0
 10
10.0590217025
 20
14.8508545941
 30
0.0
 10
10.0591887452
 20
14.8508831859
 30
0.0
 10
10.0593929105
 20
14.8508695061
 30
0.0
 10
10.0596367427
 20
14.8508148099
 30
0.0
 10
10.0599215021
 20
14.8507192224
 30
0.0
 10
10.0602477514
 20
14.8505824265
 30
0.0
 10
10.0606156975
 20
14.8504042692
 30
0.0
 10
10.0611952892
 20
14.8500934002
 30
0.0
 10
10.0620218598
 20
14.8495952556
 30
0.0
 10
10.0631318083
 20
14.8488626624
 30
0.0
 10
10.0644079924
 20
14.8479649709
 30
0.0
 10
10.0658497954
 20
14.8469026555
 30
0.0
 10
10.0674564333
 20
14.8456761258
 30
0.0
 10
10.0692270361
 20
14.8442860801
 30
0.0
 10
10.0711606788
 20
14.8427333725
 30
0.0
 10
10.0740712986
 20
14.8403520694
 30
0.0
 10
10.078104844
 20
14.8369718753
 30
0.0
 10
10.0834056067
 20
14.8324295646
 30
0.0
 10
10.0893280048
 20
14.8272668871
 30
0.0
 10
10.0958590062
 20
14.8214966342
 30
0.0
 10
10.102984125
 20
14.8151329803
 30
0.0
 10
10.1106875338
 20
14.8081915851
 30
0.0
 10
10.1189520866
 20
14.8006894913
 30
0.0
 10
10.1310539
 20
14.7896356558
 30
0.0
 10
10.1474284794
 20
14.7745581741
 30
0.0
 10
10.1684574389
 20
14.7550464935
 30
0.0
 10
10.1912116885
 20
14.7338113059
 30
0.0
 10
10.215485626
 20
14.7110578303
 30
0.0
 10
10.2410594125
 20
14.6870054618
 30
0.0
 10
10.2677011692
 20
14.661885817
 30
0.0
 10
10.2951690494
 20
14.6359405246
 30
0.0
 10
10.3232135194
 20
14.6094189468
 30
0.0
 10
10.3515796751
 20
14.5825758426
 30
0.0
 10
10.3800096034
 20
14.5556689907
 30
0.0
 10
10.4082448114
 20
14.5289567537
 30
0.0
 10
10.4360286057
 20
14.5026956852
 30
0.0
 10
10.4631085144
 20
14.4771381012
 30
0.0
 10
10.4892386095
 20
14.4525297374
 30
0.0
 10
10.5141818281
 20
14.4291074226
 30
0.0
 10
10.5377121154
 20
14.4070968446
 30
0.0
 10
10.5596166479
 20
14.3867105002
 30
0.0
 10
10.5767781675
 20
14.3708441882
 30
0.0
 10
10.5895524983
 20
14.3591151559
 30
0.0
 10
10.598352407
 20
14.3510779628
 30
0.0
 10
10.6066093642
 20
14.3435833624
 30
0.0
 10
10.6143049485
 20
14.336649717
 30
0.0
 10
10.6214220132
 20
14.3302940353
 30
0.0
 10
10.6279447447
 20
14.3245319446
 30
0.0
 10
10.6338587071
 20
14.3193776546
 30
0.0
 10
10.6391507874
 20
14.3148437558
 30
0.0
 10
10.6438093973
 20
14.3109415031
 30
0.0
 10
10.6473025488
 20
14.3081030889
 30
0.0
 10
10.6497771256
 20
14.3061614808
 30
0.0
 10
10.6513792569
 20
14.3049394237
 30
0.0
 10
10.6528165137
 20
14.3038815768
 30
0.0
 10
10.6540881361
 20
14.3029883666
 30
0.0
 10
10.6551935038
 20
14.3022602598
 30
0.0
 10
10.6560162704
 20
14.3017658919
 30
0.0
 10
10.656592815
 20
14.3014581066
 30
0.0
 10
10.656958479
 20
14.3012821927
 30
0.0
 10
10.6572823981
 20
14.30114767
 30
0.0
 10
10.6574873096
 20
14.3010799196
 30
0.0
 10
10.6575827274
 20
14.3010544063
 30
0.0
  0
SPLINE
  5
4CD
100
AcDbEntity
  8
0
100
AcDbSpline
 62
7
  6
CONTINUOUS
 70
0
 71
3
 72
69
 73
65
 74
0
 42
0.0000001
 43
0.0000001
 44
0.0000000001
 40
0.0
 40
0.0
 40
0.0
 40
0.0
 40
0.0001759052
 40
0.0003798034
 40
0.000630434
 40
0.0009380908
 40
0.0013083226
 40
0.0017442801
 40
0.0022478556
 40
0.0028202159
 40
0.0041739361
 40
0.005809156
 40
0.0077273685
 40
0.0099288281
 40
0.0124132275
 40
0.0151798476
 40
0.0182274692
 40
0.0215546976
 40
0.0290411331
 40
0.0376232608
 40
0.0472820558
 40
0.0579957732
 40
0.0697398953
 40
0.0824873615
 40
0.0962087873
 40
0.1108723779
 40
0.1428877032
 40
0.1782358749
 40
0.2165879795
 40
0.257586738
 40
0.3008502088
 40
0.3459750838
 40
0.3925406801
 40
0.4401128398
 40
0.4882479442
 40
0.5364971525
 40
0.5844104955
 40
0.6315412354
 40
0.6774498479
 40
0.7217083354
 40
0.7639040968
 40
0.8036438929
 40
0.8405574371
 40
0.8743011161
 40
0.8898848922
 40
0.9045610297
 40
0.9182954301
 40
0.9310562616
 40
0.9428140992
 40
0.95354184
 40
0.9632149287
 40
0.9718115695
 40
0.979312675
 40
0.9857022134
 40
0.9884762181
 40
0.9909679858
 40
0.9931767725
 40
0.9951022453
 40
0.9967446123
 40
0.9981052882
 40
0.9986810131
 40
0.9991878435
 40
0.9996268998
 40
1.0
 40
1.0
 40
1.0
 40
1.0
 10
10.6737585339
 20
14.3165772086
 30
0.0
 10
10.6737248048
 20
14.3165434794
 30
0.0
 10
10.6736345836
 20
14.3164871258
 30
0.0
 10
10.6734642588
 20
14.3164547567
 30
0.0
 10
10.6732566461
 20
14.3164648985
 30
0.0
 10
10.6730094465
 20
14.3165161125
 30
0.0
 10
10.672721397
 20
14.3166082202
 30
0.0
 10
10.6723919254
 20
14.3167414992
 30
0.0
 10
10.6720208085
 20
14.3169160972
 30
0.0
 10
10.6714369877
 20
14.3172217681
 30
0.0
 10
10.6706051973
 20
14.3177135082
 30
0.0
 10
10.6694892427
 20
14.3184387012
 30
0.0
 10
10.6682071902
 20
14.3193288069
 30
0.0
 10
10.6667596509
 20
14.320383359
 30
0.0
 10
10.6651474024
 20
14.32160196
 30
0.0
 10
10.6633713127
 20
14.322983919
 30
0.0
 10
10.6614323044
 20
14.3245283861
 30
0.0
 10
10.6585144796
 20
14.3268979759
 30
0.0
 10
10.6544723197
 20
14.3302633675
 30
0.0
 10
10.6491619364
 20
14.3347880353
 30
0.0
 10
10.6432303557
 20
14.339932525
 30
0.0
 10
10.6366905931
 20
14.3456840762
 30
0.0
 10
10.6295571161
 20
14.3520285494
 30
0.0
 10
10.6218457312
 20
14.3589503182
 30
0.0
 10
10.6135735606
 20
14.3664323739
 30
0.0
 10
10.6014617286
 20
14.3774581723
 30
0.0
 10
10.5850755137
 20
14.3925001191
 30
0.0
 10
10.5640339205
 20
14.4119692179
 30
0.0
 10
10.5412677163
 20
14.4331610925
 30
0.0
 10
10.516982215
 20
14.4558708787
 30
0.0
 10
10.4913969525
 20
14.479879554
 30
0.0
 10
10.4647434921
 20
14.5049558803
 30
0.0
 10
10.4372633576
 20
14.530858613
 30
0.0
 10
10.4092057604
 20
14.557338772
 30
0.0
 10
10.3808252859
 20
14.584141976
 30
0.0
 10
10.3523795392
 20
14.6110108123
 30
0.0
 10
10.3241267203
 20
14.6376872693
 30
0.0
 10
10.2963232504
 20
14.663915123
 30
0.0
 10
10.2692213549
 20
14.6894423628
 30
0.0
 10
10.2430667455
 20
14.7140235277
 30
0.0
 10
10.2180963033
 20
14.7374220301
 30
0.0
 10
10.1945359408
 20
14.7594123873
 30
0.0
 10
10.1725983799
 20
14.7797822645
 30
0.0
 10
10.1554071186
 20
14.79563685
 30
0.0
 10
10.1426073769
 20
14.8073583287
 30
0.0
 10
10.1337874955
 20
14.8153916099
 30
0.0
 10
10.1255098135
 20
14.8228832902
 30
0.0
 10
10.1177927623
 20
14.8298150056
 30
0.0
 10
10.1106535013
 20
14.8361697438
 30
0.0
 10
10.1041078598
 20
14.8419318704
 30
0.0
 10
10.0981702929
 20
14.8470871671
 30
0.0
 10
10.0928539354
 20
14.8516230338
 30
0.0
 10
10.0881704001
 20
14.8555282012
 30
0.0
 10
10.0846558637
 20
14.8583692868
 30
0.0
 10
10.0821638349
 20
14.8603133792
 30
0.0
 10
10.0805485371
 20
14.8615378699
 30
0.0
 10
10.0790979701
 20
14.8625983674
 30
0.0
 10
10.0778128956
 20
14.8634944401
 30
0.0
 10
10.0766939364
 20
14.8642256199
 30
0.0
 10
10.0758597001
 20
14.8647224924
 30
0.0
 10
10.0752739468
 20
14.8650323705
 30
0.0
 10
10.0749013466
 20
14.865210016
 30
0.0
 10
10.0745704615
 20
14.8653463051
 30
0.0
 10
10.0743609092
 20
14.8654152059
 30
0.0
 10
10.0742631684
 20
14.8654413371
 30
0.0
  0
SPLINE
  5
4CE
100
AcDbEntity
  8
0
100
AcDbSpline
 62
7
  6
CONTINUOUS
 70
0
 71
3
 72
35
 73
31
 74
0
 42
0.0000001
 43
0.0000001
 44
0.0000000001
 40
0.0
 40
0.0
 40
0.0
 40
0.0
 40
0.2188916486
 40
0.3202581677
 40
0.4157294726
 40
0.5049482564
 40
0.5875830036
 40
0.6633264842
 40
0.7318980197
 40
0.7930445856
 40
0.8465424043
 40
0.8703617037
 40
0.8921990633
 40
0.9120359523
 40
0.9298556398
 40
0.9456449972
 40
0.9593931649
 40
0.9710944398
 40
0.9761773426
 40
0.9807491309
 40
0.9848117019
 40
0.9883682094
 40
0.9914238122
 40
0.99398724
 40
0.9960743115
 40
0.9977153548
 40
0.9983878535
 40
0.9989779359
 40
0.9995059494
 40
1.0
 40
1.0
 40
1.0
 40
1.0
 10
10.4875894104
 20
14.3842181394
 30
0.0
 10
10.4972024857
 20
14.3752418297
 30
0.0
 10
10.5112844775
 20
14.3621270506
 30
0.0
 10
10.5296156656
 20
14.345157928
 30
0.0
 10
10.5422566967
 20
14.3335116744
 30
0.0
 10
10.554100878
 20
14.322661695
 30
0.0
 10
10.5651056705
 20
14.3126503831
 30
0.0
 10
10.5752317074
 20
14.3035168839
 30
0.0
 10
10.5844428054
 20
14.2952969605
 30
0.0
 10
10.5927062556
 20
14.2880230066
 30
0.0
 10
10.5989998597
 20
14.2825813044
 30
0.0
 10
10.6035436608
 20
14.2787277241
 30
0.0
 10
10.6065637541
 20
14.2762046932
 30
0.0
 10
10.6093275919
 20
14.2739374027
 30
0.0
 10
10.6118328273
 20
14.2719281294
 30
0.0
 10
10.6140772306
 20
14.2701787425
 30
0.0
 10
10.6160589372
 20
14.2686909638
 30
0.0
 10
10.617552451
 20
14.2676250235
 30
0.0
 10
10.6186169352
 20
14.2669083095
 30
0.0
 10
10.6193105324
 20
14.2664628954
 30
0.0
 10
10.6199374385
 20
14.2660838066
 30
0.0
 10
10.6204976033
 20
14.2657710156
 30
0.0
 10
10.6209909523
 20
14.2655244249
 30
0.0
 10
10.6214178001
 20
14.2653436461
 30
0.0
 10
10.6217783456
 20
14.2652284032
 30
0.0
 10
10.6220408074
 20
14.2651832185
 30
0.0
 10
10.6222158031
 20
14.2651866812
 30
0.0
 10
10.6223222226
 20
14.2652062471
 30
0.0
 10
10.6224125778
 20
14.2652434112
 30
0.0
 10
10.6224622724
 20
14.2652809465
 30
0.0
 10
10.622483263
 20
14.2653019378
 30
0.0
  0
SPLINE
  5
4CF
100
AcDbEntity
  8
0
100
AcDbSpline
 62
9
  6
CONTINUOUS
 70
0
 71
3
 72
27
 73
23
 74
0
 42
0.0000001
 43
0.0000001
 44
0.0000000001
 40
0.0
 40
0.0
 40
0.0
 40
0.0
 40
0.1978379341
 40
0.2926023118
 40
0.3836241905
 40
0.4702106981
 40
0.5517187893
 40
0.6275553005
 40
0.6971862528
 40
0.7601430908
 40
0.8160312275
 40
0.8645445625
 40
0.885973227
 40
0.9054986801
 40
0.9231226196
 40
0.9388638849
 40
0.9527658697
 40
0.9649051249
 40
0.9754146952
 40
0.9845113087
 40
0.9925391728
 40
1.0
 40
1.0
 40
1.0
 40
1.0
 10
7.9842725945
 20
11.9737166488
 30
0.0
 10
7.9871228409
 20
11.9708681332
 30
0.0
 10
7.991283479
 20
11.9665995146
 30
0.0
 10
7.9966124004
 20
11.9608845017
 30
0.0
 10
8.0003326485
 20
11.9567686167
 30
0.0
 10
8.0038050485
 20
11.952793663
 30
0.0
 10
8.0070033347
 20
11.9489910382
 30
0.0
 10
8.0099032538
 20
11.9453899976
 30
0.0
 10
8.0124826864
 20
11.9420175968
 30
0.0
 10
8.0147231798
 20
11.9388993734
 30
0.0
 10
8.0166092378
 20
11.9360588621
 30
0.0
 10
8.0179257257
 20
11.9338580613
 30
0.0
 10
8.0187814085
 20
11.9322487296
 30
0.0
 10
8.0193001388
 20
11.93117385
 30
0.0
 10
8.0197222969
 20
11.9301821873
 30
0.0
 10
8.020047332
 20
11.9292752421
 30
0.0
 10
8.0202750577
 20
11.9284542281
 30
0.0
 10
8.0204051624
 20
11.9277197268
 30
0.0
 10
8.0204373052
 20
11.9270717051
 30
0.0
 10
8.0203696677
 20
11.9265092834
 30
0.0
 10
8.020198255
 20
11.9260332204
 30
0.0
 10
8.0200088351
 20
11.9257740812
 30
0.0
 10
8.019901381
 20
11.9256666245
 30
0.0
  0
SPLINE
  5
4D0
100
AcDbEntity
  8
0
100
AcDbSpline
 62
9
  6
CONTINUOUS
 70
0
 71
3
 72
18
 73
14
 74
0
 42
0.0000001
 43
0.0000001
 44
0.0000000001
 40
0.0
 40
0.0
 40
0.0
 40
0.0
 40
0.0232899084
 40
0.0527204734
 40
0.0881093485
 40
0.1288001602
 40
0.1738524016
 40
0.2220412088
 40
0.3299695598
 40
0.4631796377
 40
0.6224385591
 40
0.8039477882
 40
1.0
 40
1.0
 40
1.0
 40
1.0
 10
7.9937331032
 20
11.9807996801
 30
0.0
 10
7.9936406963
 20
11.9808076638
 30
0.0
 10
7.9934287986
 20
11.9807868059
 30
0.0
 10
7.9930912963
 20
11.9806886736
 30
0.0
 10
7.9927027146
 20
11.9805268771
 30
0.0
 10
7.9922724124
 20
11.9803082348
 30
0.0
 10
7.9918104909
 20
11.9800411349
 30
0.0
 10
7.991133582
 20
11.9796123172
 30
0.0
 10
7.9901915988
 20
11.978947614
 30
0.0
 10
7.9889327686
 20
11.9779681613
 30
0.0
 10
7.9874897796
 20
11.9767505523
 30
0.0
 10
7.9859053397
 20
11.9753147045
 30
0.0
 10
7.9848246921
 20
11.9742687276
 30
0.0
 10
7.9842726472
 20
11.9737165963
 30
0.0
  0
SPLINE
  5
4D1
100
AcDbEntity
  8
0
100
AcDbSpline
 62
7
  6
CONTINUOUS
 70
0
 71
3
 72
28
 73
24
 74
0
 42
0.0000001
 43
0.0000001
 44
0.0000000001
 40
0.0
 40
0.0
 40
0.0
 40
0.0
 40
0.0089374432
 40
0.018502291
 40
0.0291559194
 40
0.0412267626
 40
0.0549288056
 40
0.0703960603
 40
0.0877056075
 40
0.1068978353
 40
0.1279850486
 40
0.1509606489
 40
0.1758020658
 40
0.2024747732
 40
0.2611195318
 40
0.3264348661
 40
0.3978346517
 40
0.4746287471
 40
0.5560351286
 40
0.64119222
 40
0.729169733
 40
0.8189830717
 40
1.0
 40
1.0
 40
1.0
 40
1.0
 10
8.0377387961
 20
12.0969455564
 30
0.0
 10
8.0379157002
 20
12.0971224623
 30
0.0
 10
8.038333996
 20
12.0974396159
 30
0.0
 10
8.0390924398
 20
12.0977586882
 30
0.0
 10
8.0399842235
 20
12.0979339102
 30
0.0
 10
8.0410065502
 20
12.0979689668
 30
0.0
 10
8.0421586463
 20
12.0978663924
 30
0.0
 10
8.0434390544
 20
12.0976268832
 30
0.0
 10
8.0448455955
 20
12.0972511517
 30
0.0
 10
8.0463752634
 20
12.0967397585
 30
0.0
 10
8.0480245535
 20
12.0960937476
 30
0.0
 10
8.0497894156
 20
12.0953143729
 30
0.0
 10
8.0516654818
 20
12.0944033877
 30
0.0
 10
8.0543961041
 20
12.0929698678
 30
0.0
 10
8.0580454366
 20
12.0908537227
 30
0.0
 10
8.0626551057
 20
12.0879091588
 30
0.0
 10
8.0675744318
 20
12.0845129788
 30
0.0
 10
8.0727495865
 20
12.0807003102
 30
0.0
 10
8.0781228136
 20
12.0765116654
 30
0.0
 10
8.0836328809
 20
12.0719930863
 30
0.0
 10
8.0892160114
 20
12.0671955311
 30
0.0
 10
8.0966885555
 20
12.0604834609
 30
0.0
 10
8.1021662106
 20
12.0552378126
 30
0.0
 10
8.1057492036
 20
12.0516548196
 30
0.0
  0
SPLINE
  5
4D2
100
AcDbEntity
  8
0
100
AcDbSpline
 62
9
  6
CONTINUOUS
 70
0
 71
3
 72
19
 73
15
 74
0
 42
0.0000001
 43
0.0000001
 44
0.0000000001
 40
0.0
 40
0.0
 40
0.0
 40
0.0
 40
0.0174170424
 40
0.0371109899
 40
0.0614088007
 40
0.091578624
 40
0.1282743517
 40
0.1718462694
 40
0.222476606
 40
0.2802584442
 40
0.4174168044
 40
0.5833505329
 40
0.7777612452
 40
1.0
 40
1.0
 40
1.0
 40
1.0
 10
7.2514256796
 20
12.7048830444
 30
0.0
 10
7.2514600048
 20
12.7049170229
 30
0.0
 10
7.2515512553
 20
12.7049727636
 30
0.0
 10
7.2517235521
 20
12.7049943021
 30
0.0
 10
7.2519283985
 20
12.7049636613
 30
0.0
 10
7.2521690041
 20
12.7048834861
 30
0.0
 10
7.2524469049
 20
12.7047537417
 30
0.0
 10
7.2527626402
 20
12.7045740928
 30
0.0
 10
7.2531162336
 20
12.7043444117
 30
0.0
 10
7.2536702274
 20
12.7039481001
 30
0.0
 10
7.2544518694
 20
12.7033221904
 30
0.0
 10
7.2554893997
 20
12.7024124937
 30
0.0
 10
7.2566686371
 20
12.7013079009
 30
0.0
 10
7.2574923608
 20
12.7004975683
 30
0.0
 10
7.2579277955
 20
12.700061448
 30
0.0
  0
SPLINE
  5
4D3
100
AcDbEntity
  8
0
100
AcDbSpline
 62
9
  6
CONTINUOUS
 70
0
 71
3
 72
30
 73
26
 74
0
 42
0.0000001
 43
0.0000001
 44
0.0000000001
 40
0.0
 40
0.0
 40
0.0
 40
0.0
 40
0.1720435961
 40
0.3476247275
 40
0.4336575306
 40
0.5169168309
 40
0.5962674873
 40
0.6706465383
 40
0.7390788602
 40
0.8006914358
 40
0.828700241
 40
0.8547316433
 40
0.8787123286
 40
0.9005812265
 40
0.9202886103
 40
0.9378015224
 40
0.9531073408
 40
0.9662244188
 40
0.9772200168
 40
0.9819695048
 40
0.9862576196
 40
0.9901301616
 40
0.9936505037
 40
0.9969040552
 40
1.0
 40
1.0
 40
1.0
 40
1.0
 10
7.6512549183
 20
12.3067343252
 30
0.0
 10
7.6551427587
 20
12.3028489123
 30
0.0
 10
7.6628473132
 20
12.2948461834
 30
0.0
 10
7.6721244877
 20
12.2845526665
 30
0.0
 10
7.6792931226
 20
12.2761848136
 30
0.0
 10
7.6843533058
 20
12.2700606818
 30
0.0
 10
7.6890633389
 20
12.2641319721
 30
0.0
 10
7.6933598713
 20
12.2584816252
 30
0.0
 10
7.6971848673
 20
12.253187025
 30
0.0
 10
7.7000216931
 20
12.2490083667
 30
0.0
 10
7.702008923
 20
12.2458930709
 30
0.0
 10
7.703304246
 20
12.2437631604
 30
0.0
 10
7.7044484159
 20
12.2417716807
 30
0.0
 10
7.705437861
 20
12.2399252801
 30
0.0
 10
7.7062695636
 20
12.2382299978
 30
0.0
 10
7.7069411803
 20
12.2366914097
 30
0.0
 10
7.7074511382
 20
12.2353140873
 30
0.0
 10
7.707798174
 20
12.2341021261
 30
0.0
 10
7.7079590861
 20
12.2331911281
 30
0.0
 10
7.7079938359
 20
12.2325512697
 30
0.0
 10
7.7079766257
 20
12.2321383993
 30
0.0
 10
7.7079173726
 20
12.2317688968
 30
0.0
 10
7.707815417
 20
12.2314428865
 30
0.0
 10
7.7076700115
 20
12.2311611261
 30
0.0
 10
7.7075419576
 20
12.2310015904
 30
0.0
 10
7.7074721547
 20
12.2309315129
 30
0.0
  0
SPLINE
  5
4D4
100
AcDbEntity
  8
0
100
AcDbSpline
 62
9
  6
CONTINUOUS
 70
0
 71
3
 72
17
 73
13
 74
0
 42
0.0000001
 43
0.0000001
 44
0.0000000001
 40
0.0
 40
0.0
 40
0.0
 40
0.0
 40
0.0686898004
 40
0.1087667831
 40
0.1524889118
 40
0.1992823019
 40
0.2482164163
 40
0.3553923169
 40
0.485268725
 40
0.6388307073
 40
0.812725316
 40
1.0
 40
1.0
 40
1.0
 40
1.0
 10
7.6572402393
 20
12.3172904497
 30
0.0
 10
7.6573450399
 20
12.317023776
 30
0.0
 10
7.6573914907
 20
12.316555994
 30
0.0
 10
7.65732047
 20
12.3159248842
 30
0.0
 10
7.6571999344
 20
12.3153921151
 30
0.0
 10
7.657022564
 20
12.3148377222
 30
0.0
 10
7.656710578
 20
12.3140503417
 30
0.0
 10
7.6561760731
 20
12.3129815024
 30
0.0
 10
7.6553246037
 20
12.3115904945
 30
0.0
 10
7.6542096769
 20
12.3100404914
 30
0.0
 10
7.6528405761
 20
12.3083846711
 30
0.0
 10
7.6518084386
 20
12.3072855634
 30
0.0
 10
7.6512559888
 20
12.3067332526
 30
0.0
  0
SPLINE
  5
4D5
100
AcDbEntity
  8
0
100
AcDbSpline
 62
9
  6
CONTINUOUS
 70
0
 71
3
 72
29
 73
25
 74
0
 42
0.0000001
 43
0.0000001
 44
0.0000000001
 40
0.0
 40
0.0
 40
0.0
 40
0.0
 40
0.1862815941
 40
0.2780649324
 40
0.36763333
 40
0.4540420696
 40
0.5363927607
 40
0.6138440038
 40
0.6856222655
 40
0.7510316185
 40
0.8094652838
 40
0.8359062752
 40
0.8604232851
 40
0.8829740439
 40
0.9035243874
 40
0.9220548815
 40
0.9385602894
 40
0.9530596386
 40
0.9656034237
 40
0.9762959923
 40
0.9853283161
 40
0.993038199
 40
0.9965716806
 40
1.0
 40
1.0
 40
1.0
 40
1.0
 10
7.8161547225
 20
12.1418345209
 30
0.0
 10
7.8196117638
 20
12.1383795246
 30
0.0
 10
7.8246921316
 20
12.1331411985
 30
0.0
 10
7.831244357
 20
12.1260620756
 30
0.0
 10
7.8359331911
 20
12.1208299515
 30
0.0
 10
7.8403708304
 20
12.1157063506
 30
0.0
 10
7.8445102272
 20
12.110746373
 30
0.0
 10
7.8483070603
 20
12.1060020679
 30
0.0
 10
7.8517225071
 20
12.1015236498
 30
0.0
 10
7.854722471
 20
12.0973582084
 30
0.0
 10
7.8569197712
 20
12.0940828102
 30
0.0
 10
7.8584390557
 20
12.0916474557
 30
0.0
 10
7.8594189008
 20
12.0899859478
 30
0.0
 10
7.8602755543
 20
12.0884320168
 30
0.0
 10
7.861007025
 20
12.0869894304
 30
0.0
 10
7.8616118336
 20
12.085661737
 30
0.0
 10
7.8620887423
 20
12.0844519427
 30
0.0
 10
7.8624370713
 20
12.0833626113
 30
0.0
 10
7.8626564288
 20
12.0823954989
 30
0.0
 10
7.8627462869
 20
12.0815509353
 30
0.0
 10
7.8627057002
 20
12.0808282273
 30
0.0
 10
7.8625522492
 20
12.0803110234
 30
0.0
 10
7.8623575402
 20
12.0799771136
 30
0.0
 10
7.8622395084
 20
12.0798362966
 30
0.0
 10
7.8621759
 20
12.0797726961
 30
0.0
  0
SPLINE
  5
4D6
100
AcDbEntity
  8
0
100
AcDbSpline
 62
9
  6
CONTINUOUS
 70
0
 71
3
 72
19
 73
15
 74
0
 42
0.0000001
 43
0.0000001
 44
0.0000000001
 40
0.0
 40
0.0
 40
0.0
 40
0.0
 40
0.0086491231
 40
0.0192499492
 40
0.0461163474
 40
0.0798859625
 40
0.1196036538
 40
0.1641537364
 40
0.2121877309
 40
0.3205518074
 40
0.4550701705
 40
0.616453131
 40
0.8007503215
 40
1.0
 40
1.0
 40
1.0
 40
1.0
 10
7.8238603598
 20
12.1506703697
 30
0.0
 10
7.8238513423
 20
12.1506376976
 30
0.0
 10
7.8238254348
 20
12.1505666186
 30
0.0
 10
7.8237486218
 20
12.1504029184
 30
0.0
 10
7.8236065814
 20
12.1501620342
 30
0.0
 10
7.8233870947
 20
12.1498356675
 30
0.0
 10
7.8231138529
 20
12.1494622948
 30
0.0
 10
7.8227963588
 20
12.149052378
 30
0.0
 10
7.822301711
 20
12.148439601
 30
0.0
 10
7.8215640572
 20
12.147570187
 30
0.0
 10
7.820512099
 20
12.1463855214
 30
0.0
 10
7.8192360273
 20
12.1450023602
 30
0.0
 10
7.8177617087
 20
12.1434574056
 30
0.0
 10
7.8167071351
 20
12.1423863392
 30
0.0
 10
7.8161550032
 20
12.1418342382
 30
0.0
  0
SPLINE
  5
4D7
100
AcDbEntity
  8
0
100
AcDbSpline
 62
7
  6
CONTINUOUS
 70
0
 71
3
 72
20
 73
16
 74
0
 42
0.0000001
 43
0.0000001
 44
0.0000000001
 40
0.0
 40
0.0
 40
0.0
 40
0.0
 40
0.0291318058
 40
0.0605961734
 40
0.0954155337
 40
0.1343261505
 40
0.1778275969
 40
0.2262529759
 40
0.2798149242
 40
0.3386404377
 40
0.4028009669
 40
0.4723202532
 40
0.6273639634
 40
0.8034596405
 40
1.0
 40
1.0
 40
1.0
 40
1.0
 10
8.7319280939
 20
11.4520209658
 30
0.0
 10
8.7320502533
 20
11.4521431328
 30
0.0
 10
8.7323350538
 20
11.4523677827
 30
0.0
 10
8.7328436886
 20
11.452622517
 30
0.0
 10
8.733442358
 20
11.4528061649
 30
0.0
 10
8.7341298217
 20
11.4529200561
 30
0.0
 10
8.7349055732
 20
11.4529653597
 30
0.0
 10
8.7357689101
 20
11.4529424803
 30
0.0
 10
8.7367188901
 20
11.4528517576
 30
0.0
 10
8.7377543339
 20
11.4526935047
 30
0.0
 10
8.7388738531
 20
11.452468019
 30
0.0
 10
8.7405379457
 20
11.4520631853
 30
0.0
 10
8.7428156646
 20
11.451380983
 30
0.0
 10
8.7457650099
 20
11.4503321782
 30
0.0
 10
8.7478162469
 20
11.44950835
 30
0.0
 10
8.7488909539
 20
11.4490571657
 30
0.0
  0
SPLINE
  5
4D8
100
AcDbEntity
  8
0
100
AcDbSpline
 62
9
  6
CONTINUOUS
 70
0
 71
3
 72
19
 73
15
 74
0
 42
0.0000001
 43
0.0000001
 44
0.0000000001
 40
0.0
 40
0.0
 40
0.0
 40
0.0
 40
0.2232533793
 40
0.4180121559
 40
0.5838573437
 40
0.720662441
 40
0.7782233597
 40
0.8286229772
 40
0.8719809273
 40
0.9085006445
 40
0.9385400371
 40
0.9627665996
 40
0.982475811
 40
1.0
 40
1.0
 40
1.0
 40
1.0
 10
8.5081727909
 20
11.4498164525
 30
0.0
 10
8.5084680555
 20
11.4495216211
 30
0.0
 10
8.5090160452
 20
11.4489646833
 30
0.0
 10
8.5097624815
 20
11.4481684714
 30
0.0
 10
8.5103758914
 20
11.4474696796
 30
0.0
 10
8.510797114
 20
11.4469439386
 30
0.0
 10
8.5110632562
 20
11.4465717125
 30
0.0
 10
8.5112172117
 20
11.4463343276
 30
0.0
 10
8.5113374285
 20
11.4461223672
 30
0.0
 10
8.5114240441
 20
11.4459357466
 30
0.0
 10
8.5114772787
 20
11.4457740504
 30
0.0
 10
8.5114970894
 20
11.4456361888
 30
0.0
 10
8.5114816351
 20
11.4455200795
 30
0.0
 10
8.5114436031
 20
11.4454586424
 30
0.0
 10
8.5114205095
 20
11.4454354168
 30
0.0
  0
LINE
  5
4D9
100
AcDbEntity
  8
0
100
AcDbLine
 62
9
  6
CONTINUOUS
 10
8.5531431399
 20
11.4048461036
 11
8.5536128223
 21
11.4042149563
  0
SPLINE
  5
4DA
100
AcDbEntity
  8
0
100
AcDbSpline
 62
9
  6
CONTINUOUS
 70
0
 71
3
 72
18
 73
14
 74
0
 42
0.0000001
 43
0.0000001
 44
0.0000000001
 40
0.0
 40
0.0
 40
0.0
 40
0.0
 40
0.0666239453
 40
0.1314775879
 40
0.2553635582
 40
0.3703302889
 40
0.4804134509
 40
0.5984745692
 40
0.725355114
 40
0.7917994049
 40
0.8599388618
 40
0.9294313754
 40
1.0
 40
1.0
 40
1.0
 40
1.0
 10
8.5685373039
 20
11.4059934097
 30
0.0
 10
8.5682390247
 20
11.4062185143
 30
0.0
 10
8.5676286537
 20
11.4066349124
 30
0.0
 10
8.5663718139
 20
11.4073253503
 30
0.0
 10
8.5647711135
 20
11.4079370178
 30
0.0
 10
8.5628415444
 20
11.4083129805
 30
0.0
 10
8.5609098723
 20
11.4083712244
 30
0.0
 10
8.5589271075
 20
11.4081058058
 30
0.0
 10
8.5572524232
 20
11.4075743098
 30
0.0
 10
8.5559272724
 20
11.4069418853
 30
0.0
 10
8.5549438467
 20
11.4063526004
 30
0.0
 10
8.5540029047
 20
11.4056579848
 30
0.0
 10
8.5534197059
 20
11.4051292999
 30
0.0
 10
8.5531399374
 20
11.4048493041
 30
0.0
  0
SPLINE
  5
4DB
100
AcDbEntity
  8
0
100
AcDbSpline
 62
9
  6
CONTINUOUS
 70
0
 71
3
 72
25
 73
21
 74
0
 42
0.0000001
 43
0.0000001
 44
0.0000000001
 40
0.0
 40
0.0
 40
0.0
 40
0.0
 40
0.2200437455
 40
0.4137330227
 40
0.5003271368
 40
0.5799424618
 40
0.6524939826
 40
0.7179170123
 40
0.7761695154
 40
0.8272605207
 40
0.8501398475
 40
0.8712573912
 40
0.8906353696
 40
0.8996826465
 40
0.908308402
 40
0.9387110345
 40
0.9630940856
 40
0.982704068
 40
0.9914557744
 40
1.0
 40
1.0
 40
1.0
 40
1.0
 10
8.4253087216
 20
11.5326805218
 30
0.0
 10
8.42605782
 20
11.531932166
 30
0.0
 10
8.4274532177
 20
11.5305118796
 30
0.0
 10
8.4290974182
 20
11.5287526281
 30
0.0
 10
8.4302471891
 20
11.5274573936
 30
0.0
 10
8.4309931586
 20
11.5265834585
 30
0.0
 10
8.4316545157
 20
11.5257715781
 30
0.0
 10
8.4322303398
 20
11.5250230212
 30
0.0
 10
8.4327197873
 20
11.5243389093
 30
0.0
 10
8.4330671274
 20
11.523805439
 30
0.0
 10
8.4332992053
 20
11.5234110087
 30
0.0
 10
8.4334447477
 20
11.5231429391
 30
0.0
 10
8.4335499694
 20
11.5229289214
 30
0.0
 10
8.4336226574
 20
11.5227660899
 30
0.0
 10
8.43371123
 20
11.5225523973
 30
0.0
 10
8.4338095386
 20
11.5222623764
 30
0.0
 10
8.4338662881
 20
11.5219066641
 30
0.0
 10
8.4338355987
 20
11.5216487847
 30
0.0
 10
8.4337591103
 20
11.5214869438
 30
0.0
 10
8.433706761
 20
11.521421131
 30
0.0
 10
8.4336776903
 20
11.521392056
 30
0.0
  0
SPLINE
  5
4DC
100
AcDbEntity
  8
0
100
AcDbSpline
 62
9
  6
CONTINUOUS
 70
0
 71
3
 72
18
 73
14
 74
0
 42
0.0000001
 43
0.0000001
 44
0.0000000001
 40
0.0
 40
0.0
 40
0.0
 40
0.0
 40
0.0594638757
 40
0.1179780154
 40
0.2321701401
 40
0.3417352349
 40
0.4502412492
 40
0.5704421316
 40
0.7034975847
 40
0.7744400046
 40
0.8478606909
 40
0.9232188152
 40
1.0
 40
1.0
 40
1.0
 40
1.0
 10
8.4393692579
 20
11.5351614298
 30
0.0
 10
8.4391189967
 20
11.5353382332
 30
0.0
 10
8.438601343
 20
11.5356602575
 30
0.0
 10
8.4375175915
 20
11.5361718572
 30
0.0
 10
8.4361086458
 20
11.5365760236
 30
0.0
 10
8.4343950668
 20
11.5367308277
 30
0.0
 10
8.4326498216
 20
11.5365983093
 30
0.0
 10
8.4308285219
 20
11.5361674658
 30
0.0
 10
8.429275662
 20
11.5355311916
 30
0.0
 10
8.4280240357
 20
11.5348380978
 30
0.0
 10
8.4270789075
 20
11.5342124169
 30
0.0
 10
8.4261624803
 20
11.5334955855
 30
0.0
 10
8.4255857713
 20
11.5329630041
 30
0.0
 10
8.425306097
 20
11.5326831444
 30
0.0
  0
SPLINE
  5
4DD
100
AcDbEntity
  8
0
100
AcDbSpline
 62
7
  6
CONTINUOUS
 70
0
 71
3
 72
32
 73
28
 74
0
 42
0.0000001
 43
0.0000001
 44
0.0000000001
 40
0.0
 40
0.0
 40
0.0
 40
0.0
 40
0.0017776661
 40
0.0038846898
 40
0.0064507214
 40
0.0095462496
 40
0.0132097187
 40
0.0174622679
 40
0.0223146448
 40
0.0277721291
 40
0.0405061841
 40
0.0556510766
 40
0.0731687364
 40
0.0930038231
 40
0.1150905177
 40
0.1393525028
 40
0.1657058515
 40
0.1940594009
 40
0.2563709275
 40
0.325443405
 40
0.4003565747
 40
0.480127459
 40
0.5637190311
 40
0.6500497941
 40
0.7380009159
 40
0.8264238573
 40
1.0
 40
1.0
 40
1.0
 40
1.0
 10
8.8149414154
 20
11.3038304263
 30
0.0
 10
8.8149813002
 20
11.3038703185
 30
0.0
 10
8.8150870885
 20
11.3039392623
 30
0.0
 10
8.8152857268
 20
11.3039956342
 30
0.0
 10
8.8155324645
 20
11.304015853
 30
0.0
 10
8.8158285651
 20
11.3040006538
 30
0.0
 10
8.8161747171
 20
11.3039503446
 30
0.0
 10
8.8165710018
 20
11.3038648041
 30
0.0
 10
8.8170172329
 20
11.3037440986
 30
0.0
 10
8.8177149458
 20
11.3035246542
 30
0.0
 10
8.8187074903
 20
11.3031569778
 30
0.0
 10
8.8200360218
 20
11.3025993133
 30
0.0
 10
8.8215511276
 20
11.3019061469
 30
0.0
 10
8.8232470147
 20
11.3010801788
 30
0.0
 10
8.8251172449
 20
11.3001243562
 30
0.0
 10
8.8271548769
 20
11.2990422535
 30
0.0
 10
8.8293524662
 20
11.297837849
 30
0.0
 10
8.8325885486
 20
11.2960165102
 30
0.0
 10
8.8369684096
 20
11.2934642158
 30
0.0
 10
8.842573906
 20
11.2900823657
 30
0.0
 10
8.8486065727
 20
11.2863371938
 30
0.0
 10
8.8549862714
 20
11.2822784225
 30
0.0
 10
8.8616291976
 20
11.2779591672
 30
0.0
 10
8.8684485164
 20
11.2734356532
 30
0.0
 10
8.8753550355
 20
11.2687668005
 30
0.0
 10
8.8845013355
 20
11.2624685394
 30
0.0
 10
8.8912886549
 20
11.2576658735
 30
0.0
 10
8.8957539001
 20
11.2544408354
 30
0.0
  0
LINE
  5
4DE
100
AcDbEntity
  8
0
100
AcDbLine
 62
7
  6
CONTINUOUS
 10
8.8957539001
 20
11.2544408354
 11
8.8963960577
 21
11.2539765695
  0
SPLINE
  5
4DF
100
AcDbEntity
  8
0
100
AcDbSpline
 62
9
  6
CONTINUOUS
 70
0
 71
3
 72
30
 73
26
 74
0
 42
0.0000001
 43
0.0000001
 44
0.0000000001
 40
0.0
 40
0.0
 40
0.0
 40
0.0
 40
0.1030042654
 40
0.1920156406
 40
0.2670088349
 40
0.3279755568
 40
0.3532255279
 40
0.3750234821
 40
0.3934360442
 40
0.4085882839
 40
0.4207223243
 40
0.4303316354
 40
0.4384130398
 40
0.4465568329
 40
0.4563181823
 40
0.4686505807
 40
0.4840327137
 40
0.5027013444
 40
0.5247783387
 40
0.5503300732
 40
0.6119805917
 40
0.6878004682
 40
0.7778134786
 40
0.881943373
 40
1.0
 40
1.0
 40
1.0
 40
1.0
 10
8.5224465181
 20
11.4483316591
 30
0.0
 10
8.5227862279
 20
11.4481313871
 30
0.0
 10
8.5234228667
 20
11.4477637026
 30
0.0
 10
8.5243205875
 20
11.4472744311
 30
0.0
 10
8.5250904171
 20
11.446887824
 30
0.0
 10
8.5256548617
 20
11.4466370037
 30
0.0
 10
8.5260423932
 20
11.4464923046
 30
0.0
 10
8.5262815441
 20
11.4464168733
 30
0.0
 10
8.526487873
 20
11.4463673889
 30
0.0
 10
8.5266616716
 20
11.446343718
 30
0.0
 10
8.5268036283
 20
11.4463460074
 30
0.0
 10
8.5269159257
 20
11.4463753374
 30
0.0
 10
8.5269969439
 20
11.4464384518
 30
0.0
 10
8.5270363594
 20
11.4465338131
 30
0.0
 10
8.5270364022
 20
11.4466513023
 30
0.0
 10
8.52700342
 20
11.4467916616
 30
0.0
 10
8.5269376843
 20
11.4469570807
 30
0.0
 10
8.5268391498
 20
11.4471482887
 30
0.0
 10
8.5267076031
 20
11.4473655286
 30
0.0
 10
8.526472924
 20
11.4477120408
 30
0.0
 10
8.5260923949
 20
11.4482073328
 30
0.0
 10
8.5255300243
 20
11.4488725421
 30
0.0
 10
8.5248367535
 20
11.4496393018
 30
0.0
 10
8.5240136898
 20
11.4505061209
 30
0.0
 10
8.5234164347
 20
11.4511118848
 30
0.0
 10
8.52309684
 20
11.4514314827
 30
0.0
  0
LINE
  5
4E0
100
AcDbEntity
  8
0
100
AcDbLine
 62
9
  6
CONTINUOUS
 10
8.5685363522
 20
11.4059919704
 11
8.5655411747
 21
11.4086963876
  0
SPLINE
  5
4E1
100
AcDbEntity
  8
0
100
AcDbSpline
 62
9
  6
CONTINUOUS
 70
0
 71
3
 72
15
 73
11
 74
0
 42
0.0000001
 43
0.0000001
 44
0.0000000001
 40
0.0
 40
0.0
 40
0.0
 40
0.0
 40
0.0319986986
 40
0.0691721299
 40
0.1581933762
 40
0.2652991603
 40
0.3885170413
 40
0.5259685998
 40
0.6755163408
 40
1.0
 40
1.0
 40
1.0
 40
1.0
 10
8.5655411747
 20
11.4086963876
 30
0.0
 10
8.5650296168
 20
11.4091370736
 30
0.0
 10
8.5639184211
 20
11.4100834999
 30
0.0
 10
8.5613614449
 20
11.4122292762
 30
0.0
 10
8.557563486
 20
11.4153614749
 30
0.0
 10
8.5523357569
 20
11.4196132975
 30
0.0
 10
8.546290756
 20
11.4244796999
 30
0.0
 10
8.5395263573
 20
11.429880492
 30
0.0
 10
8.5294151731
 20
11.4378959323
 30
0.0
 10
8.5215495097
 20
11.4440750997
 30
0.0
 10
8.5161557314
 20
11.4482925675
 30
0.0
  0
SPLINE
  5
4E2
100
AcDbEntity
  8
0
100
AcDbSpline
 62
9
  6
CONTINUOUS
 70
0
 71
3
 72
29
 73
25
 74
0
 42
0.0000001
 43
0.0000001
 44
0.0000000001
 40
0.0
 40
0.0
 40
0.0
 40
0.0
 40
0.1352544544
 40
0.2567791443
 40
0.3644851477
 40
0.4582902465
 40
0.5381460229
 40
0.6040485682
 40
0.6560331711
 40
0.6768442915
 40
0.694241488
 40
0.7082912979
 40
0.719127995
 40
0.732564225
 40
0.738069254
 40
0.7453147496
 40
0.755337922
 40
0.768540218
 40
0.7850980669
 40
0.805106825
 40
0.8286253749
 40
0.8556942221
 40
0.9205957508
 40
1.0
 40
1.0
 40
1.0
 40
1.0
 10
8.5668672614
 20
11.4065264277
 30
0.0
 10
8.5670002128
 20
11.4064379635
 30
0.0
 10
8.5672532123
 20
11.4062709021
 30
0.0
 10
8.5676144658
 20
11.4060370268
 30
0.0
 10
8.5679369664
 20
11.4058333832
 30
0.0
 10
8.568220441
 20
11.4056601372
 30
0.0
 10
8.5684646319
 20
11.4055173534
 30
0.0
 10
8.5686694113
 20
11.4054051122
 30
0.0
 10
8.5688160861
 20
11.4053321878
 30
0.0
 10
8.5689141085
 20
11.4052902528
 30
0.0
 10
8.5689717944
 20
11.4052688566
 30
0.0
 10
8.56902044
 20
11.4052550048
 30
0.0
 10
8.5690633898
 20
11.4052475208
 30
0.0
 10
8.5691054438
 20
11.4052506743
 30
0.0
 10
8.5691183209
 20
11.4052815731
 30
0.0
 10
8.569113962
 20
11.4053087084
 30
0.0
 10
8.569100958
 20
11.4053423004
 30
0.0
 10
8.5690780261
 20
11.4053834502
 30
0.0
 10
8.5690453844
 20
11.4054323337
 30
0.0
 10
8.5690027174
 20
11.4054890533
 30
0.0
 10
8.568950002
 20
11.4055536352
 30
0.0
 10
8.5688606334
 20
11.4056566442
 30
0.0
 10
8.5687226059
 20
11.4058046705
 30
0.0
 10
8.5686028642
 20
11.4059258982
 30
0.0
 10
8.5685363522
 20
11.4059919704
 30
0.0
  0
LINE
  5
4E3
100
AcDbEntity
  8
0
100
AcDbLine
 62
9
  6
CONTINUOUS
 10
9.2290543617
 20
10.9425083838
 11
9.238990661
 21
10.9593053117
  0
LINE
  5
4E4
100
AcDbEntity
  8
0
100
AcDbLine
 62
7
  6
CONTINUOUS
 10
9.3175407055
 20
10.9038930403
 11
9.3093521457
 21
10.8954756529
  0
SPLINE
  5
4E5
100
AcDbEntity
  8
0
100
AcDbSpline
 62
9
  6
CONTINUOUS
 70
0
 71
3
 72
21
 73
17
 74
0
 42
0.0000001
 43
0.0000001
 44
0.0000000001
 40
0.0
 40
0.0
 40
0.0
 40
0.0
 40
0.1248883861
 40
0.2497832611
 40
0.3123008453
 40
0.3748186262
 40
0.4373363515
 40
0.49985416
 40
0.5623725855
 40
0.6248915569
 40
0.6874098054
 40
0.7499294675
 40
0.8124486124
 40
0.8749617857
 40
0.9374898391
 40
1.0
 40
1.0
 40
1.0
 40
1.0
 10
9.2187475611
 20
10.9791796177
 30
0.0
 10
9.2179301995
 20
10.9776338424
 30
0.0
 10
9.2165895321
 20
10.9743774731
 30
0.0
 10
9.2157076837
 20
10.9700671577
 30
0.0
 10
9.2154993913
 20
10.9665695055
 30
0.0
 10
9.215593937
 20
10.9639411272
 30
0.0
 10
9.2159379888
 20
10.9613338528
 30
0.0
 10
9.2165283971
 20
10.958771041
 30
0.0
 10
9.2173600057
 20
10.9562760249
 30
0.0
 10
9.2184254941
 20
10.953871573
 30
0.0
 10
9.219714154
 20
10.9515790032
 30
0.0
 10
9.2212132885
 20
10.9494182493
 30
0.0
 10
9.2229088511
 20
10.9474079807
 30
0.0
 10
9.2247886482
 20
10.945568448
 30
0.0
 10
9.2268351087
 20
10.9439169706
 30
0.0
 10
9.2283002907
 20
10.942952592
 30
0.0
 10
9.2290548872
 20
10.9425092238
 30
0.0
  0
LINE
  5
4E6
100
AcDbEntity
  8
0
100
AcDbLine
 62
7
  6
CONTINUOUS
 10
9.3093586571
 20
10.8954819885
 11
9.2463968854
 21
10.8324973488
  0
SPLINE
  5
4E7
100
AcDbEntity
  8
0
100
AcDbSpline
 62
9
  6
CONTINUOUS
 70
0
 71
3
 72
15
 73
11
 74
0
 42
0.0000001
 43
0.0000001
 44
0.0000000001
 40
0.0
 40
0.0
 40
0.0
 40
0.0
 40
0.1249987931
 40
0.2499998989
 40
0.3749994324
 40
0.4999996606
 40
0.6250002125
 40
0.7499995608
 40
0.8750010944
 40
1.0
 40
1.0
 40
1.0
 40
1.0
 10
9.2463968854
 20
10.8324973488
 30
0.0
 10
9.2525991748
 20
10.8287832325
 30
0.0
 10
9.2647998628
 20
10.8210082289
 30
0.0
 10
9.2824343482
 20
10.8083656359
 30
0.0
 10
9.2993652738
 20
10.7947944136
 30
0.0
 10
9.3155456852
 20
10.7803368991
 30
0.0
 10
9.3309299973
 20
10.7650350447
 30
0.0
 10
9.3454750737
 20
10.7489330003
 30
0.0
 10
9.3591378325
 20
10.7320768572
 30
0.0
 10
9.3676337289
 20
10.7203671744
 30
0.0
 10
9.3717182271
 20
10.7144022753
 30
0.0
  0
SPLINE
  5
4E8
100
AcDbEntity
  8
0
100
AcDbSpline
 62
9
  6
CONTINUOUS
 70
0
 71
3
 72
27
 73
23
 74
0
 42
0.0000001
 43
0.0000001
 44
0.0000000001
 40
0.0
 40
0.0
 40
0.0
 40
0.0
 40
0.0312668356
 40
0.062537862
 40
0.0938052343
 40
0.1250741927
 40
0.1875632545
 40
0.2500518053
 40
0.3125396328
 40
0.3750271456
 40
0.4375144869
 40
0.5000016736
 40
0.5624887687
 40
0.6249758461
 40
0.6874629476
 40
0.7499502582
 40
0.8124382356
 40
0.8749267243
 40
0.9061954164
 40
0.9374625414
 40
0.9687333501
 40
1.0
 40
1.0
 40
1.0
 40
1.0
 10
9.3717182271
 20
10.7144022753
 30
0.0
 10
9.3727771046
 20
10.7128677338
 30
0.0
 10
9.3747683711
 20
10.7097089963
 30
0.0
 10
9.3773646043
 20
10.7047482481
 30
0.0
 10
9.3795589308
 20
10.6995962054
 30
0.0
 10
9.3819312686
 20
10.6925219057
 30
0.0
 10
9.3838434833
 20
10.6833608736
 30
0.0
 10
9.3843907163
 20
10.6721502553
 30
0.0
 10
9.3831587707
 20
10.660992729
 30
0.0
 10
9.3801918022
 20
10.6501672689
 30
0.0
 10
9.3755555112
 20
10.6399447972
 30
0.0
 10
9.3693742737
 20
10.6305753369
 30
0.0
 10
9.3617923479
 20
10.6222983486
 30
0.0
 10
9.3530068503
 20
10.6153120663
 30
0.0
 10
9.3432299843
 20
10.6097980113
 30
0.0
 10
9.3327085165
 20
10.6058858777
 30
0.0
 10
9.3217022635
 20
10.6036864193
 30
0.0
 10
9.3123514414
 20
10.6033100287
 30
0.0
 10
9.3049124528
 20
10.6038881231
 30
0.0
 10
9.2993811819
 20
10.6047617216
 30
0.0
 10
9.2939375704
 20
10.606071725
 30
0.0
 10
9.2903890287
 20
10.6072338085
 30
0.0
 10
9.2886428343
 20
10.60788711
 30
0.0
  0
SPLINE
  5
4E9
100
AcDbEntity
  8
0
100
AcDbSpline
 62
9
  6
CONTINUOUS
 70
0
 71
3
 72
19
 73
15
 74
0
 42
0.0000001
 43
0.0000001
 44
0.0000000001
 40
0.0
 40
0.0
 40
0.0
 40
0.0
 40
0.1403352874
 40
0.288037798
 40
0.4371358473
 40
0.5815368726
 40
0.7152262252
 40
0.7763469539
 40
0.8327774797
 40
0.8839126605
 40
0.9291948999
 40
0.9680647906
 40
0.9849422515
 40
1.0
 40
1.0
 40
1.0
 40
1.0
 10
8.4357520203
 20
11.5230299555
 30
0.0
 10
8.4399750575
 20
11.5198514996
 30
0.0
 10
8.448602859
 20
11.5132745262
 30
0.0
 10
8.4615952375
 20
11.5031616346
 30
0.0
 10
8.4746103438
 20
11.4928298243
 30
0.0
 10
8.487113081
 20
11.4827027039
 30
0.0
 10
8.4969515702
 20
11.4745518817
 30
0.0
 10
8.5041760758
 20
11.4684405377
 30
0.0
 10
8.5089942982
 20
11.4642992482
 30
0.0
 10
8.5133248336
 20
11.4605060639
 30
0.0
 10
8.5171185796
 20
11.457104346
 30
0.0
 10
8.5199126806
 20
11.4545209463
 30
0.0
 10
8.5218394013
 20
11.4526771232
 30
0.0
 10
8.5226966299
 20
11.4518333092
 30
0.0
 10
8.52309684
 20
11.4514314827
 30
0.0
  0
SPLINE
  5
4EA
100
AcDbEntity
  8
0
100
AcDbSpline
 62
9
  6
CONTINUOUS
 70
0
 71
3
 72
18
 73
14
 74
0
 42
0.0000001
 43
0.0000001
 44
0.0000000001
 40
0.0
 40
0.0
 40
0.0
 40
0.0
 40
0.0642726629
 40
0.1270345053
 40
0.2476878736
 40
0.360812653
 40
0.4703114412
 40
0.5890331218
 40
0.7179563567
 40
0.785911753
 40
0.8558363302
 40
0.9273191895
 40
1.0
 40
1.0
 40
1.0
 40
1.0
 10
8.5230977385
 20
11.4514328179
 30
0.0
 10
8.5228163786
 20
11.4516409484
 30
0.0
 10
8.5222387149
 20
11.4520242046
 30
0.0
 10
8.521042963
 20
11.4526519303
 30
0.0
 10
8.5195098026
 20
11.4531911729
 30
0.0
 10
8.5176557823
 20
11.4534895457
 30
0.0
 10
8.5157893061
 20
11.4534806976
 30
0.0
 10
8.5138630216
 20
11.4531569323
 30
0.0
 10
8.5122313692
 20
11.4525881768
 30
0.0
 10
8.51093228
 20
11.4519343344
 30
0.0
 10
8.5099623495
 20
11.4513322259
 30
0.0
 10
8.50903006
 20
11.450629792
 30
0.0
 10
8.5084491707
 20
11.4500997562
 30
0.0
 10
8.5081694331
 20
11.4498198084
 30
0.0
  0
SPLINE
  5
4EB
100
AcDbEntity
  8
0
100
AcDbSpline
 62
7
  6
CONTINUOUS
 70
0
 71
3
 72
15
 73
11
 74
0
 42
0.0000001
 43
0.0000001
 44
0.0000000001
 40
0.0
 40
0.0
 40
0.0
 40
0.0
 40
0.0912225496
 40
0.1879357681
 40
0.2929734854
 40
0.4084953802
 40
0.5360530946
 40
0.6767190806
 40
0.8312173294
 40
1.0
 40
1.0
 40
1.0
 40
1.0
 10
8.4983496312
 20
11.6912228739
 30
0.0
 10
8.4985148428
 20
11.6913880895
 30
0.0
 10
8.4988921952
 20
11.6916930711
 30
0.0
 10
8.4995581029
 20
11.6920469319
 30
0.0
 10
8.5003310141
 20
11.6923075776
 30
0.0
 10
8.5012087758
 20
11.6924762394
 30
0.0
 10
8.5021901933
 20
11.6925541702
 30
0.0
 10
8.503274046
 20
11.6925420323
 30
0.0
 10
8.5044588575
 20
11.6924401863
 30
0.0
 10
8.5052783628
 20
11.6923182136
 30
0.0
 10
8.5057042274
 20
11.6922438922
 30
0.0
  0
SPLINE
  5
4EC
100
AcDbEntity
  8
0
100
AcDbSpline
 62
9
  6
CONTINUOUS
 70
0
 71
3
 72
31
 73
27
 74
0
 42
0.0000001
 43
0.0000001
 44
0.0000000001
 40
0.0
 40
0.0
 40
0.0
 40
0.0
 40
0.125501542
 40
0.2368064956
 40
0.334070917
 40
0.4172070443
 40
0.4861675471
 40
0.5153816688
 40
0.5411288903
 40
0.5634614053
 40
0.5824573499
 40
0.5982475577
 40
0.6110659476
 40
0.6213597792
 40
0.6299819936
 40
0.6383024687
 40
0.647809466
 40
0.6595369511
 40
0.6740393671
 40
0.6915997773
 40
0.7123678114
 40
0.7364282894
 40
0.7638376268
 40
0.8288330482
 40
0.9075331872
 40
1.0
 40
1.0
 40
1.0
 40
1.0
 10
7.2598083837
 20
12.714719939
 30
0.0
 10
7.2593616287
 20
12.7151690033
 30
0.0
 10
7.2585124384
 20
12.7160102003
 30
0.0
 10
7.2572927215
 20
12.7171745652
 30
0.0
 10
7.256204948
 20
12.718167038
 30
0.0
 10
7.2552500755
 20
12.7189872694
 30
0.0
 10
7.254531614
 20
12.719554852
 30
0.0
 10
7.254022346
 20
12.7199181918
 30
0.0
 10
7.2536958633
 20
12.7201319839
 30
0.0
 10
7.2534033129
 20
12.7203027551
 30
0.0
 10
7.2531446211
 20
12.720430688
 30
0.0
 10
7.2529194819
 20
12.7205161303
 30
0.0
 10
7.2527269628
 20
12.7205592359
 30
0.0
 10
7.2525648184
 20
12.7205595393
 30
0.0
 10
7.2524317461
 20
12.7205110927
 30
0.0
 10
7.2523376295
 20
12.7204100048
 30
0.0
 10
7.2522867849
 20
12.7202668254
 30
0.0
 10
7.2522720199
 20
12.7200859138
 30
0.0
 10
7.2522908057
 20
12.7198650155
 30
0.0
 10
7.25234281
 20
12.7196031179
 30
0.0
 10
7.2524281237
 20
12.7192997611
 30
0.0
 10
7.2525468492
 20
12.7189548704
 30
0.0
 10
7.2527625735
 20
12.7184078966
 30
0.0
 10
7.2531221827
 20
12.7176221232
 30
0.0
 10
7.2536656577
 20
12.7165610227
 30
0.0
 10
7.2540841664
 20
12.7158050638
 30
0.0
 10
7.2543147909
 20
12.7153993211
 30
0.0
  0
LINE
  5
4ED
100
AcDbEntity
  8
0
100
AcDbLine
 62
9
  6
CONTINUOUS
 10
7.351093072
 20
12.5938369348
 11
7.3529441616
 21
12.592191342
  0
SPLINE
  5
4EE
100
AcDbEntity
  8
0
100
AcDbSpline
 62
9
  6
CONTINUOUS
 70
0
 71
3
 72
52
 73
48
 74
0
 42
0.0000001
 43
0.0000001
 44
0.0000000001
 40
0.0
 40
0.0
 40
0.0
 40
0.0
 40
0.0060776428
 40
0.0110996644
 40
0.0132252562
 40
0.0150990414
 40
0.0167255572
 40
0.0181122268
 40
0.0192716776
 40
0.0202266016
 40
0.0210182598
 40
0.0217170847
 40
0.0224214689
 40
0.0232274102
 40
0.0242011852
 40
0.025381071
 40
0.0267885827
 40
0.0284362752
 40
0.0303316064
 40
0.0324791393
 40
0.0375409516
 40
0.0436345218
 40
0.0507616762
 40
0.058916062
 40
0.0680794559
 40
0.0782304685
 40
0.0893456132
 40
0.1014001862
 40
0.1282191896
 40
0.1584516952
 40
0.1918454697
 40
0.2281461653
 40
0.2670648143
 40
0.3082621336
 40
0.3513994342
 40
0.3961297411
 40
0.4420809928
 40
0.5361187982
 40
0.6304169896
 40
0.7218166672
 40
0.8072257333
 40
0.846782527
 40
0.8837882213
 40
0.9179113226
 40
0.9488419243
 40
0.9763006186
 40
1.0
 40
1.0
 40
1.0
 40
1.0
 10
7.3529441616
 20
12.592191342
 30
0.0
 10
7.3531945599
 20
12.5919821251
 30
0.0
 10
7.353658095
 20
12.5916073777
 30
0.0
 10
7.3542313837
 20
12.5911876108
 30
0.0
 10
7.3546378369
 20
12.5909239587
 30
0.0
 10
7.3548986711
 20
12.5907713856
 30
0.0
 10
7.35513283
 20
12.590652572
 30
0.0
 10
7.3553403873
 20
12.590567431
 30
0.0
 10
7.3555217119
 20
12.5905158372
 30
0.0
 10
7.3556776628
 20
12.5904979291
 30
0.0
 10
7.3558097945
 20
12.5905150016
 30
0.0
 10
7.3559167821
 20
12.5905714663
 30
0.0
 10
7.3559920227
 20
12.5906670528
 30
0.0
 10
7.3560349284
 20
12.5907952111
 30
0.0
 10
7.3560495043
 20
12.5909543337
 30
0.0
 10
7.3560371205
 20
12.5911456486
 30
0.0
 10
7.355997985
 20
12.5913699402
 30
0.0
 10
7.3559319725
 20
12.5916276012
 30
0.0
 10
7.3558389908
 20
12.5919187628
 30
0.0
 10
7.3556693238
 20
12.5923773235
 30
0.0
 10
7.3553846348
 20
12.5930328645
 30
0.0
 10
7.3549523989
 20
12.5939143484
 30
0.0
 10
7.3544125232
 20
12.5949272252
 30
0.0
 10
7.3537658788
 20
12.5960693883
 30
0.0
 10
7.3530140089
 20
12.5973381773
 30
0.0
 10
7.3521588682
 20
12.5987302752
 30
0.0
 10
7.3512026312
 20
12.6002422476
 30
0.0
 10
7.3497431067
 20
12.6024945544
 30
0.0
 10
7.3476804663
 20
12.6055787867
 30
0.0
 10
7.3449242271
 20
12.6095767441
 30
0.0
 10
7.3418287533
 20
12.6139586956
 30
0.0
 10
7.3384184437
 20
12.6186888478
 30
0.0
 10
7.3347208843
 20
12.62372811
 30
0.0
 10
7.3307675151
 20
12.6290346953
 30
0.0
 10
7.3265912743
 20
12.6345641365
 30
0.0
 10
7.3222262054
 20
12.6402706372
 30
0.0
 10
7.3161557554
 20
12.6481130294
 30
0.0
 10
7.3083751647
 20
12.6579967453
 30
0.0
 10
7.2989620035
 20
12.6696996516
 30
0.0
 10
7.2897165662
 20
12.6809418561
 30
0.0
 10
7.2822311948
 20
12.6898253717
 30
0.0
 10
7.2765554297
 20
12.6964137963
 30
0.0
 10
7.2726404395
 20
12.7008845313
 30
0.0
 10
7.2689918154
 20
12.704972617
 30
0.0
 10
7.265642747
 20
12.7086406795
 30
0.0
 10
7.262625586
 20
12.7118533888
 30
0.0
 10
7.2607091064
 20
12.7138212429
 30
0.0
 10
7.2598083837
 20
12.714719939
 30
0.0
  0
SPLINE
  5
4EF
100
AcDbEntity
  8
0
100
AcDbSpline
 62
9
  6
CONTINUOUS
 70
0
 71
3
 72
41
 73
37
 74
0
 42
0.0000001
 43
0.0000001
 44
0.0000000001
 40
0.0
 40
0.0
 40
0.0
 40
0.0
 40
0.1041070625
 40
0.2086379523
 40
0.3116663183
 40
0.411314623
 40
0.5057639289
 40
0.5933257645
 40
0.6724650452
 40
0.7084556236
 40
0.7418586874
 40
0.7725391022
 40
0.8003776687
 40
0.8252780928
 40
0.8471625475
 40
0.8659788699
 40
0.8742339681
 40
0.8817245921
 40
0.8884635484
 40
0.8944715587
 40
0.8997806174
 40
0.9044409548
 40
0.9085291266
 40
0.9121600654
 40
0.9154985079
 40
0.9187551978
 40
0.922156992
 40
0.9259039739
 40
0.9301460546
 40
0.9349860219
 40
0.9404925001
 40
0.946711472
 40
0.9536737223
 40
0.9613968323
 40
0.9791549302
 40
1.0
 40
1.0
 40
1.0
 40
1.0
 10
7.9937309374
 20
11.9807973854
 30
0.0
 10
7.991099643
 20
11.9834301463
 30
0.0
 10
7.9857780372
 20
11.9886583095
 30
0.0
 10
7.9776971436
 20
11.9963319135
 30
0.0
 10
7.9696037911
 20
12.003758646
 30
0.0
 10
7.9616494915
 20
12.0108013495
 30
0.0
 10
7.9539806809
 20
12.0173296243
 30
0.0
 10
7.9467390248
 20
12.0232250742
 30
0.0
 10
7.9410013786
 20
12.0276540977
 30
0.0
 10
7.9367169319
 20
12.0307924532
 30
0.0
 10
7.9337907848
 20
12.0328520395
 30
0.0
 10
7.9310618993
 20
12.0346842287
 30
0.0
 10
7.9285423246
 20
12.0362810829
 30
0.0
 10
7.9262432894
 20
12.0376362262
 30
0.0
 10
7.9241750541
 20
12.038743998
 30
0.0
 10
7.9225888486
 20
12.03948741
 30
0.0
 10
7.9214408151
 20
12.0399455634
 30
0.0
 10
7.9206809424
 20
12.0402090517
 30
0.0
 10
7.919984708
 20
12.0404077521
 30
0.0
 10
7.9193525085
 20
12.0405416294
 30
0.0
 10
7.9187844989
 20
12.0406106162
 30
0.0
 10
7.9182805303
 20
12.040614542
 30
0.0
 10
7.9178401825
 20
12.0405526641
 30
0.0
 10
7.9174634542
 20
12.0404230084
 30
0.0
 10
7.9171525714
 20
12.0402228281
 30
0.0
 10
7.9169125676
 20
12.0399518722
 30
0.0
 10
7.9167468104
 20
12.0396144704
 30
0.0
 10
7.9166536537
 20
12.0392151749
 30
0.0
 10
7.9166302161
 20
12.03875525
 30
0.0
 10
7.9166749677
 20
12.0382343463
 30
0.0
 10
7.9167874701
 20
12.0376519973
 30
0.0
 10
7.9169677709
 20
12.0370080135
 30
0.0
 10
7.9172159881
 20
12.0363025676
 30
0.0
 10
7.9176585026
 20
12.0352298433
 30
0.0
 10
7.9183918128
 20
12.0337427972
 30
0.0
 10
7.9190749369
 20
12.0325428315
 30
0.0
 10
7.9194570244
 20
12.0319029294
 30
0.0
  0
SPLINE
  5
4F0
100
AcDbEntity
  8
0
100
AcDbSpline
 62
9
  6
CONTINUOUS
 70
0
 71
3
 72
41
 73
37
 74
0
 42
0.0000001
 43
0.0000001
 44
0.0000000001
 40
0.0
 40
0.0
 40
0.0
 40
0.0
 40
0.0260136
 40
0.0490145012
 40
0.0689743223
 40
0.0859303662
 40
0.0933111069
 40
0.0999833275
 40
0.1059759949
 40
0.1113314578
 40
0.1161116191
 40
0.1204061639
 40
0.1243414895
 40
0.1280838193
 40
0.1318249912
 40
0.1357560845
 40
0.1400417217
 40
0.1448082167
 40
0.1501463183
 40
0.1561194227
 40
0.1627714884
 40
0.1701331379
 40
0.187060288
 40
0.2070035173
 40
0.2299927689
 40
0.2560107113
 40
0.2850105112
 40
0.316921927
 40
0.3516603974
 40
0.3891272384
 40
0.4717691777
 40
0.5637653152
 40
0.6639248641
 40
0.7709790495
 40
0.8835069885
 40
1.0
 40
1.0
 40
1.0
 40
1.0
 10
8.0267027159
 20
11.9286260521
 30
0.0
 10
8.0273122612
 20
11.9282768272
 30
0.0
 10
8.0284712811
 20
11.9276368383
 30
0.0
 10
8.0301389193
 20
11.9268054433
 30
0.0
 10
8.0316252094
 20
11.9261636454
 30
0.0
 10
8.0327566983
 20
11.9257698658
 30
0.0
 10
8.0335677905
 20
11.9255597984
 30
0.0
 10
8.0340999122
 20
11.9254579267
 30
0.0
 10
8.0345842061
 20
11.9254042612
 30
0.0
 10
8.035020593
 20
11.9253990415
 30
0.0
 10
8.035409073
 20
11.9254427243
 30
0.0
 10
8.0357495616
 20
11.9255362605
 30
0.0
 10
8.0360412169
 20
11.925681206
 30
0.0
 10
8.0362819999
 20
11.9258783311
 30
0.0
 10
8.0364695274
 20
11.9261265098
 30
0.0
 10
8.0366029861
 20
11.9264231536
 30
0.0
 10
8.036683414
 20
11.926766221
 30
0.0
 10
8.036712244
 20
11.9271550073
 30
0.0
 10
8.0366903439
 20
11.9275895128
 30
0.0
 10
8.0366180905
 20
11.9280698317
 30
0.0
 10
8.0364956435
 20
11.9285959739
 30
0.0
 10
8.0362538215
 20
11.9293962572
 30
0.0
 10
8.0358148205
 20
11.9305091392
 30
0.0
 10
8.0351128605
 20
11.9319662662
 30
0.0
 10
8.0342134587
 20
11.9335975187
 30
0.0
 10
8.0331189917
 20
11.9353980229
 30
0.0
 10
8.031832379
 20
11.9373620026
 30
0.0
 10
8.0303576391
 20
11.939482978
 30
0.0
 10
8.0286993965
 20
11.9417538733
 30
0.0
 10
8.0261667023
 20
11.9450815689
 30
0.0
 10
8.0225781241
 20
11.949547264
 30
0.0
 10
8.0177778619
 20
11.9552073904
 30
0.0
 10
8.0124164411
 20
11.9612533633
 30
0.0
 10
8.0065638498
 20
11.9676025584
 30
0.0
 10
8.0002978402
 20
11.9741686068
 30
0.0
 10
7.9959566086
 20
11.9785740865
 30
0.0
 10
7.9937309374
 20
11.9807973854
 30
0.0
  0
SPLINE
  5
4F1
100
AcDbEntity
  8
0
100
AcDbSpline
 62
9
  6
CONTINUOUS
 70
0
 71
3
 72
51
 73
47
 74
0
 42
0.0000001
 43
0.0000001
 44
0.0000000001
 40
0.0
 40
0.0
 40
0.0
 40
0.0
 40
0.0299486189
 40
0.0632851715
 40
0.0996525843
 40
0.1387032435
 40
0.2234481674
 40
0.3146391773
 40
0.409320906
 40
0.5043951455
 40
0.5511076827
 40
0.596767409
 40
0.6410121243
 40
0.6834917567
 40
0.7238592403
 40
0.7617823593
 40
0.7969546101
 40
0.8290879945
 40
0.8579375963
 40
0.8833126731
 40
0.8946469332
 40
0.9050532242
 40
0.9145099048
 40
0.9229924142
 40
0.9304765214
 40
0.9369388883
 40
0.9423678859
 40
0.9467776679
 40
0.9486129373
 40
0.9502144857
 40
0.9515984159
 40
0.9527885746
 40
0.953821001
 40
0.9547488581
 40
0.9556430959
 40
0.9565814202
 40
0.9576310122
 40
0.9588401481
 40
0.960240386
 40
0.9618517941
 40
0.9657531923
 40
0.9706042376
 40
0.9764287626
 40
0.9832511913
 40
0.9911047692
 40
1.0
 40
1.0
 40
1.0
 40
1.0
 10
8.4393682727
 20
11.53516005
 30
0.0
 10
8.4382549743
 20
11.5362771944
 30
0.0
 10
8.4358753688
 20
11.5386109116
 30
0.0
 10
8.4320710033
 20
11.5422260424
 30
0.0
 10
8.4278680621
 20
11.5461168751
 30
0.0
 10
8.4216160208
 20
11.5517786676
 30
0.0
 10
8.4131134649
 20
11.5592554001
 30
0.0
 10
8.4022679107
 20
11.5685013801
 30
0.0
 10
8.3908750641
 20
11.5779416275
 30
0.0
 10
8.3811786512
 20
11.5857561462
 30
0.0
 10
8.3734291698
 20
11.5918709422
 30
0.0
 10
8.3677492728
 20
11.5962869943
 30
0.0
 10
8.3622133799
 20
11.6005247736
 30
0.0
 10
8.3568662578
 20
11.6045503068
 30
0.0
 10
8.3517514243
 20
11.6083304869
 30
0.0
 10
8.3469109673
 20
11.6118339889
 30
0.0
 10
8.3423850886
 20
11.6150319801
 30
0.0
 10
8.3382105521
 20
11.6178984785
 30
0.0
 10
8.3344198864
 20
11.6204115355
 30
0.0
 10
8.3315041924
 20
11.6222611
 30
0.0
 10
8.3293818565
 20
11.6235466126
 30
0.0
 10
8.3279632537
 20
11.6243754771
 30
0.0
 10
8.3266602836
 20
11.6251040736
 30
0.0
 10
8.325476613
 20
11.625730067
 30
0.0
 10
8.3244163057
 20
11.6262510001
 30
0.0
 10
8.3234831233
 20
11.6266646971
 30
0.0
 10
8.3226799912
 20
11.626969094
 30
0.0
 10
8.3220886747
 20
11.6271419159
 30
0.0
 10
8.3216821472
 20
11.6272179421
 30
0.0
 10
8.3214292263
 20
11.6272438264
 30
0.0
 10
8.321208771
 20
11.6272424641
 30
0.0
 10
8.3210201449
 20
11.6272137094
 30
0.0
 10
8.320862808
 20
11.6271568295
 30
0.0
 10
8.3207374384
 20
11.6270702377
 30
0.0
 10
8.3206467669
 20
11.6269536659
 30
0.0
 10
8.3205924082
 20
11.6268098955
 30
0.0
 10
8.3205728567
 20
11.6266413914
 30
0.0
 10
8.3205863497
 20
11.6264483766
 30
0.0
 10
8.320632109
 20
11.626230339
 30
0.0
 10
8.3207433546
 20
11.6258831957
 30
0.0
 10
8.3209724521
 20
11.6253859958
 30
0.0
 10
8.3213572273
 20
11.6247211508
 30
0.0
 10
8.3218692673
 20
11.6239543999
 30
0.0
 10
8.3225103686
 20
11.6230854199
 30
0.0
 10
8.3232834093
 20
11.6221139188
 30
0.0
 10
8.3238521604
 20
11.6214396149
 30
0.0
 10
8.3241579199
 20
11.62108472
 30
0.0
  0
SPLINE
  5
4F2
100
AcDbEntity
  8
0
100
AcDbSpline
 62
7
  6
CONTINUOUS
 70
0
 71
3
 72
40
 73
36
 74
0
 42
0.0000001
 43
0.0000001
 44
0.0000000001
 40
0.0
 40
0.0
 40
0.0
 40
0.0
 40
0.0962387945
 40
0.1917043106
 40
0.2855320583
 40
0.3768739025
 40
0.4648834985
 40
0.5487291091
 40
0.6275964169
 40
0.7006973158
 40
0.7672775077
 40
0.7978984656
 40
0.8266270906
 40
0.853383769
 40
0.8780932809
 40
0.9006844445
 40
0.9210912799
 40
0.9392536208
 40
0.9551207613
 40
0.9621780891
 40
0.9686429686
 40
0.9745091929
 40
0.9797705921
 40
0.9844237299
 40
0.9884701562
 40
0.9919119823
 40
0.9947513757
 40
0.9959453415
 40
0.9969875028
 40
0.9978765454
 40
0.9986112218
 40
0.999190425
 40
0.9996133994
 40
0.999880578
 40
1.0
 40
1.0
 40
1.0
 40
1.0
 10
9.2464333261
 20
10.8325107638
 30
0.0
 10
9.2480122702
 20
10.8340908914
 30
0.0
 10
9.2511637045
 20
10.8372322291
 30
0.0
 10
9.2558758444
 20
10.8418926586
 30
0.0
 10
9.260525001
 20
10.8464550621
 30
0.0
 10
9.2650677163
 20
10.8508787811
 30
0.0
 10
9.2694605612
 20
10.8551242341
 30
0.0
 10
9.2736602058
 20
10.8591528854
 30
0.0
 10
9.2776238851
 20
10.8629275866
 30
0.0
 10
9.2813098076
 20
10.8664127976
 30
0.0
 10
9.2841915533
 20
10.8691185168
 30
0.0
 10
9.2863278918
 20
10.8711134495
 30
0.0
 10
9.2877910868
 20
10.8724748921
 30
0.0
 10
9.2891561527
 20
10.8737403658
 30
0.0
 10
9.2904189697
 20
10.874906589
 30
0.0
 10
9.2915756572
 20
10.8759704879
 30
0.0
 10
9.2926225998
 20
10.8769292177
 30
0.0
 10
9.2935565391
 20
10.8777802469
 30
0.0
 10
9.2942632868
 20
10.878420553
 30
0.0
 10
9.2947700949
 20
10.8788771538
 30
0.0
 10
9.2951050701
 20
10.879177678
 30
0.0
 10
9.295409683
 20
10.8794496209
 30
0.0
 10
9.2956836427
 20
10.8796927531
 30
0.0
 10
9.2959267887
 20
10.8799069674
 30
0.0
 10
9.2961390888
 20
10.8800923021
 30
0.0
 10
9.2963206077
 20
10.8802488721
 30
0.0
 10
9.2964529038
 20
10.8803611441
 30
0.0
 10
9.2965434557
 20
10.8804364944
 30
0.0
 10
9.2965996042
 20
10.8804824477
 30
0.0
 10
9.2966478795
 20
10.8805210814
 30
0.0
 10
9.2966883913
 20
10.8805525057
 30
0.0
 10
9.2967205553
 20
10.8805762265
 30
0.0
 10
9.2967455396
 20
10.8805933699
 30
0.0
 10
9.2967606597
 20
10.8806017173
 30
0.0
 10
9.2967706736
 20
10.8806060679
 30
0.0
 10
9.2967729917
 20
10.8806045481
 30
0.0
  0
SPLINE
  5
4F3
100
AcDbEntity
  8
0
100
AcDbSpline
 62
9
  6
CONTINUOUS
 70
0
 71
3
 72
32
 73
28
 74
0
 42
0.0000001
 43
0.0000001
 44
0.0000000001
 40
0.0
 40
0.0
 40
0.0
 40
0.0
 40
0.0818358962
 40
0.1505211952
 40
0.1798959664
 40
0.2059599796
 40
0.2287349148
 40
0.2482738804
 40
0.2646792138
 40
0.2781419664
 40
0.2890359313
 40
0.2980767204
 40
0.302285783
 40
0.3065175894
 40
0.3157254302
 40
0.3268871183
 40
0.3406562107
 40
0.3573760166
 40
0.3772317118
 40
0.4003282982
 40
0.4267271433
 40
0.4895276761
 40
0.5657040452
 40
0.6551078979
 40
0.7574876585
 40
0.8725541877
 40
1.0
 40
1.0
 40
1.0
 40
1.0
 10
8.442788266
 20
11.5245433763
 30
0.0
 10
8.4433559177
 20
11.5242275973
 30
0.0
 10
8.4444081752
 20
11.5236612698
 30
0.0
 10
8.4456925833
 20
11.5230357362
 30
0.0
 10
8.4465980577
 20
11.5226469212
 30
0.0
 10
8.4471777304
 20
11.522424124
 30
0.0
 10
8.4476936173
 20
11.5222545682
 30
0.0
 10
8.4481454154
 20
11.5221382845
 30
0.0
 10
8.4485331961
 20
11.5220750029
 30
0.0
 10
8.4488579047
 20
11.5220650432
 30
0.0
 10
8.4491218389
 20
11.5221089279
 30
0.0
 10
8.4492964117
 20
11.5221993217
 30
0.0
 10
8.4493933445
 20
11.5223001183
 30
0.0
 10
8.4494670281
 20
11.5224205164
 30
0.0
 10
8.4495125421
 20
11.5226152251
 30
0.0
 10
8.4494945127
 20
11.5228877822
 30
0.0
 10
8.4494120955
 20
11.5232092221
 30
0.0
 10
8.4492650728
 20
11.5235815433
 30
0.0
 10
8.4490533366
 20
11.5240056988
 30
0.0
 10
8.4487765072
 20
11.5244818217
 30
0.0
 10
8.448291449
 20
11.525229946
 30
0.0
 10
8.4475135585
 20
11.5262884974
 30
0.0
 10
8.4463713028
 20
11.5276965944
 30
0.0
 10
8.4449747661
 20
11.5293012786
 30
0.0
 10
8.4433284769
 20
11.5310965399
 30
0.0
 10
8.4414372376
 20
11.5330760379
 30
0.0
 10
8.4400842007
 20
11.5344453576
 30
0.0
 10
8.4393682727
 20
11.53516005
 30
0.0
  0
SPLINE
  5
4F4
100
AcDbEntity
  8
0
100
AcDbSpline
 62
9
  6
CONTINUOUS
 70
0
 71
3
 72
38
 73
34
 74
0
 42
0.0000001
 43
0.0000001
 44
0.0000000001
 40
0.0
 40
0.0
 40
0.0
 40
0.0
 40
0.1208951283
 40
0.2359721132
 40
0.3440504094
 40
0.4440816964
 40
0.5351003042
 40
0.6162948417
 40
0.6529864779
 40
0.6869458584
 40
0.7180751315
 40
0.7462778885
 40
0.7714819375
 40
0.7936722618
 40
0.8128695158
 40
0.8291499811
 40
0.8426536034
 40
0.8536370601
 40
0.8583371662
 40
0.8626267437
 40
0.8666353637
 40
0.8705211895
 40
0.8744575137
 40
0.878610888
 40
0.883123091
 40
0.8881046274
 40
0.8936372839
 40
0.8997802359
 40
0.9140488521
 40
0.9311371111
 40
0.9511419087
 40
0.9740993336
 40
1.0
 40
1.0
 40
1.0
 40
1.0
 10
7.6572389792
 20
12.3172893435
 30
0.0
 10
7.6553470987
 20
12.3191861032
 30
0.0
 10
7.6516257463
 20
12.3228599025
 30
0.0
 10
7.6461173153
 20
12.328131264
 30
0.0
 10
7.6408580371
 20
12.3329928353
 30
0.0
 10
7.6359042976
 20
12.33739788
 30
0.0
 10
7.6313058628
 20
12.3413037474
 30
0.0
 10
7.6276964352
 20
12.3442036943
 30
0.0
 10
7.6250170759
 20
12.3462394583
 30
0.0
 10
7.6231933455
 20
12.347566745
 30
0.0
 10
7.6214925046
 20
12.34874226
 30
0.0
 10
7.6199202944
 20
12.349761377
 30
0.0
 10
7.6184814573
 20
12.3506201999
 30
0.0
 10
7.6171799782
 20
12.351317131
 30
0.0
 10
7.6160181994
 20
12.3518516348
 30
0.0
 10
7.6149969966
 20
12.3522246385
 30
0.0
 10
7.6141168329
 20
12.3524373311
 30
0.0
 10
7.6134658979
 20
12.3524832348
 30
0.0
 10
7.613025709
 20
12.352424059
 30
0.0
 10
7.6127487061
 20
12.352339835
 30
0.0
 10
7.6125083279
 20
12.3522128651
 30
0.0
 10
7.6123060811
 20
12.3520428091
 30
0.0
 10
7.6121434311
 20
12.3518306239
 30
0.0
 10
7.6120206505
 20
12.3515779823
 30
0.0
 10
7.6119370743
 20
12.3512860452
 30
0.0
 10
7.6118919349
 20
12.3509552199
 30
0.0
 10
7.6118847035
 20
12.3505855085
 30
0.0
 10
7.6119277371
 20
12.3500115371
 30
0.0
 10
7.6120879668
 20
12.349193497
 30
0.0
 10
7.6124195348
 20
12.3481035443
 30
0.0
 10
7.6128997779
 20
12.3468615044
 30
0.0
 10
7.6135280361
 20
12.345470274
 30
0.0
 10
7.6140155588
 20
12.3445032328
 30
0.0
 10
7.6142821853
 20
12.3439949769
 30
0.0
  0
SPLINE
  5
4F5
100
AcDbEntity
  8
0
100
AcDbSpline
 62
9
  6
CONTINUOUS
 70
0
 71
3
 72
8
 73
4
 74
0
 42
0.0000001
 43
0.0000001
 44
0.0000000001
 40
0.0
 40
0.0
 40
0.0
 40
0.0
 40
1.0
 40
1.0
 40
1.0
 40
1.0
 10
7.6142821853
 20
12.3439949769
 30
0.0
 10
7.6142938265
 20
12.3439728245
 30
0.0
 10
7.6143054676
 20
12.3439506721
 30
0.0
 10
7.6143171087
 20
12.3439285196
 30
0.0
  0
LINE
  5
4F6
100
AcDbEntity
  8
0
100
AcDbLine
 62
9
  6
CONTINUOUS
 10
9.37171811
 20
10.7144021951
 11
9.4273381945
 21
10.7526515474
  0
LINE
  5
4F7
100
AcDbEntity
  8
0
100
AcDbLine
 62
9
  6
CONTINUOUS
 10
9.0026530822
 20
11.1307145219
 11
9.0044046167
 21
11.1293454277
  0
SPLINE
  5
4F8
100
AcDbEntity
  8
0
100
AcDbSpline
 62
9
  6
CONTINUOUS
 70
0
 71
3
 72
41
 73
37
 74
0
 42
0.0000001
 43
0.0000001
 44
0.0000000001
 40
0.0
 40
0.0
 40
0.0
 40
0.0
 40
0.0982560716
 40
0.1955050079
 40
0.2908083631
 40
0.383265617
 40
0.4719918794
 40
0.5561425393
 40
0.6349149753
 40
0.7075582572
 40
0.7733797603
 40
0.8035334234
 40
0.8317520515
 40
0.8579680711
 40
0.8821187715
 40
0.9041472578
 40
0.9239999042
 40
0.9416307483
 40
0.9569963784
 40
0.963818493
 40
0.9700614219
 40
0.975721132
 40
0.980793989
 40
0.9852773997
 40
0.9891689488
 40
0.9924662386
 40
0.9951669555
 40
0.9962931204
 40
0.9972697172
 40
0.998096693
 40
0.9987740282
 40
0.9993017732
 40
0.9996801605
 40
0.9999100769
 40
0.9999707549
 40
1.0
 40
1.0
 40
1.0
 40
1.0
 10
9.2886429909
 20
10.6078875326
 30
0.0
 10
9.2878875189
 20
10.6058482116
 30
0.0
 10
9.2863850371
 20
10.6017902064
 30
0.0
 10
9.2841522983
 20
10.5957532346
 30
0.0
 10
9.2819662665
 20
10.5898358343
 30
0.0
 10
9.2798478316
 20
10.5840945602
 30
0.0
 10
9.2778171431
 20
10.5785840265
 30
0.0
 10
9.2758935765
 20
10.5733568237
 30
0.0
 10
9.2740954567
 20
10.5684627694
 30
0.0
 10
9.2724399237
 20
10.5639485333
 30
0.0
 10
9.2711573757
 20
10.5604437012
 30
0.0
 10
9.2702144836
 20
10.5578616209
 30
0.0
 10
9.2695731657
 20
10.5561026447
 30
0.0
 10
9.2689783027
 20
10.554468154
 30
0.0
 10
9.2684313107
 20
10.5529620429
 30
0.0
 10
9.267933495
 20
10.5515879176
 30
0.0
 10
9.2674860327
 20
10.5503490367
 30
0.0
 10
9.2670899934
 20
10.5492483805
 30
0.0
 10
9.2667928793
 20
10.5484186444
 30
0.0
 10
9.2665817023
 20
10.5478258646
 30
0.0
 10
9.2664431081
 20
10.5474352794
 30
0.0
 10
9.2663179931
 20
10.5470809941
 30
0.0
 10
9.2662064322
 20
10.5467632242
 30
0.0
 10
9.2661084861
 20
10.5464821528
 30
0.0
 10
9.2660242022
 20
10.546237939
 30
0.0
 10
9.2659536299
 20
10.5460307353
 30
0.0
 10
9.2659036351
 20
10.545881187
 30
0.0
 10
9.2658706435
 20
10.5457801147
 30
0.0
 10
9.2658508897
 20
10.5457183555
 30
0.0
 10
9.2658345819
 20
10.5456659067
 30
0.0
 10
9.26582171
 20
10.5456228491
 30
0.0
 10
9.2658122662
 20
10.5455889939
 30
0.0
 10
9.2658061803
 20
10.5455648208
 30
0.0
 10
9.2658034475
 20
10.5455498538
 30
0.0
 10
9.2658030487
 20
10.5455431581
 30
0.0
 10
9.265803721
 20
10.5455408387
 30
0.0
 10
9.265804328
 20
10.5455406139
 30
0.0
  0
SPLINE
  5
4F9
100
AcDbEntity
  8
0
100
AcDbSpline
 62
9
  6
CONTINUOUS
 70
0
 71
3
 72
42
 73
38
 74
0
 42
0.0000001
 43
0.0000001
 44
0.0000000001
 40
0.0
 40
0.0
 40
0.0
 40
0.0
 40
0.0211332337
 40
0.0304721261
 40
0.0389911642
 40
0.0466946053
 40
0.0535913989
 40
0.059698713
 40
0.0650447702
 40
0.0696752768
 40
0.0736647889
 40
0.0771309375
 40
0.0802521496
 40
0.083270421
 40
0.0864533806
 40
0.0900331488
 40
0.0941763765
 40
0.0989904631
 40
0.1045371554
 40
0.1108516342
 40
0.1179541128
 40
0.1258560089
 40
0.134562842
 40
0.1543914104
 40
0.1774173558
 40
0.203553871
 40
0.2326799113
 40
0.2646599323
 40
0.2993504016
 40
0.3365912609
 40
0.417976883
 40
0.5071496161
 40
0.602238501
 40
0.7012063789
 40
0.80194759
 40
0.9022889119
 40
1.0
 40
1.0
 40
1.0
 40
1.0
 10
7.7154245991
 20
12.2337986098
 30
0.0
 10
7.716134145
 20
12.2333283577
 30
0.0
 10
7.7171709665
 20
12.2326701046
 30
0.0
 10
7.7185338841
 20
12.2318892348
 30
0.0
 10
7.7194448089
 20
12.231408819
 30
0.0
 10
7.7202863122
 20
12.2310092327
 30
0.0
 10
7.7210576643
 20
12.2306906816
 30
0.0
 10
7.7217582779
 20
12.2304531666
 30
0.0
 10
7.7223879108
 20
12.2302966134
 30
0.0
 10
7.7229468408
 20
12.2302210925
 30
0.0
 10
7.7234359259
 20
12.2302270984
 30
0.0
 10
7.723856156
 20
12.2303168271
 30
0.0
 10
7.7242056458
 20
12.230495084
 30
0.0
 10
7.7244764959
 20
12.2307639742
 30
0.0
 10
7.724662684
 20
12.2311169512
 30
0.0
 10
7.7247668038
 20
12.2315471606
 30
0.0
 10
7.7247929274
 20
12.23205357
 30
0.0
 10
7.7247428066
 20
12.2326369555
 30
0.0
 10
7.7246175894
 20
12.2332977154
 30
0.0
 10
7.7244176758
 20
12.2340355349
 30
0.0
 10
7.7241433626
 20
12.2348496797
 30
0.0
 10
7.7237949371
 20
12.2357392494
 30
0.0
 10
7.723205748
 20
12.2370837915
 30
0.0
 10
7.722276047
 20
12.2389423438
 30
0.0
 10
7.7209173942
 20
12.2413672194
 30
0.0
 10
7.719277938
 20
12.2440615888
 30
0.0
 10
7.7173665904
 20
12.247010823
 30
0.0
 10
7.7151930041
 20
12.2501993419
 30
0.0
 10
7.7127676171
 20
12.2536107349
 30
0.0
 10
7.7091035605
 20
12.2585820873
 30
0.0
 10
7.7039833768
 20
12.2652047497
 30
0.0
 10
7.6972371868
 20
12.2735112239
 30
0.0
 10
7.6898617464
 20
12.2822157343
 30
0.0
 10
7.6820173201
 20
12.2911307422
 30
0.0
 10
7.6738736866
 20
12.3000617683
 30
0.0
 10
7.6656077371
 20
12.3088101225
 30
0.0
 10
7.6600234831
 20
12.3145078916
 30
0.0
 10
7.6572389792
 20
12.3172893435
 30
0.0
  0
SPLINE
  5
4FA
100
AcDbEntity
  8
0
100
AcDbSpline
 62
9
  6
CONTINUOUS
 70
0
 71
3
 72
30
 73
26
 74
0
 42
0.0000001
 43
0.0000001
 44
0.0000000001
 40
0.0
 40
0.0
 40
0.0
 40
0.0
 40
0.1021517614
 40
0.1887723198
 40
0.2602355515
 40
0.3169222942
 40
0.3398177375
 40
0.3591430431
 40
0.3749883319
 40
0.3875204779
 40
0.3970836263
 40
0.4044557319
 40
0.4112053395
 40
0.4192509925
 40
0.4298114029
 40
0.4434340408
 40
0.4603617067
 40
0.4807117315
 40
0.5045472284
 40
0.5319031548
 40
0.5972390948
 40
0.6767857054
 40
0.7705074131
 40
0.878290625
 40
1.0
 40
1.0
 40
1.0
 40
1.0
 10
7.2002613501
 20
12.7742669726
 30
0.0
 10
7.200121629
 20
12.7744080987
 30
0.0
 10
7.1998612387
 20
12.7746667426
 30
0.0
 10
7.1994939364
 20
12.7750147645
 30
0.0
 10
7.1991815802
 20
12.7752919289
 30
0.0
 10
7.198953
 20
12.775476631
 30
0.0
 10
7.198796079
 20
12.7755878756
 30
0.0
 10
7.1987004324
 20
12.775647983
 30
0.0
 10
7.1986181888
 20
12.7756911111
 30
0.0
 10
7.1985489583
 20
12.775717386
 30
0.0
 10
7.1984920499
 20
12.7757272561
 30
0.0
 10
7.1984448579
 20
12.7757185325
 30
0.0
 10
7.1984125731
 20
12.7756864494
 30
0.0
 10
7.1983991632
 20
12.7756376355
 30
0.0
 10
7.1983993065
 20
12.7755747011
 30
0.0
 10
7.1984122945
 20
12.7754955851
 30
0.0
 10
7.1984381062
 20
12.7753999652
 30
0.0
 10
7.1984768706
 20
12.7752875831
 30
0.0
 10
7.1985286342
 20
12.7751584507
 30
0.0
 10
7.1986206576
 20
12.7749514016
 30
0.0
 10
7.1987700868
 20
12.7746515932
 30
0.0
 10
7.1989916001
 20
12.7742439776
 30
0.0
 10
7.1992646376
 20
12.7737706466
 30
0.0
 10
7.1995887665
 20
12.773232314
 30
0.0
 10
7.1998244365
 20
12.772853467
 30
0.0
 10
7.1999505137
 20
12.7726532415
 30
0.0
  0
SPLINE
  5
4FB
100
AcDbEntity
  8
0
100
AcDbSpline
 62
9
  6
CONTINUOUS
 70
0
 71
3
 72
17
 73
13
 74
0
 42
0.0000001
 43
0.0000001
 44
0.0000000001
 40
0.0
 40
0.0
 40
0.0
 40
0.0
 40
0.1609818516
 40
0.3191777761
 40
0.4705719056
 40
0.6112721115
 40
0.7376230615
 40
0.8463276864
 40
0.8931759849
 40
0.9345979326
 40
0.9702949673
 40
1.0
 40
1.0
 40
1.0
 40
1.0
 10
7.25386015
 20
12.7085610805
 30
0.0
 10
7.2511435247
 20
12.7120547267
 30
0.0
 10
7.2457412299
 20
12.718969089
 30
0.0
 10
7.237729268
 20
12.7291260284
 30
0.0
 10
7.230014436
 20
12.7388070128
 30
0.0
 10
7.2227950824
 20
12.7477632067
 30
0.0
 10
7.2162586356
 20
12.755762203
 30
0.0
 10
7.2113040752
 20
12.7617216388
 30
0.0
 10
7.207802701
 20
12.7658524461
 30
0.0
 10
7.2055789797
 20
12.7684350457
 30
0.0
 10
7.2036403655
 20
12.7706410165
 30
0.0
 10
7.2024347524
 20
12.7719750417
 30
0.0
 10
7.2018801472
 20
12.7725744469
 30
0.0
  0
LINE
  5
4FC
100
AcDbEntity
  8
0
100
AcDbLine
 62
9
  6
CONTINUOUS
 10
7.2018801472
 20
12.7725744469
 11
7.2002613501
 21
12.7742669726
  0
SPLINE
  5
4FD
100
AcDbEntity
  8
0
100
AcDbSpline
 62
9
  6
CONTINUOUS
 70
0
 71
3
 72
40
 73
36
 74
0
 42
0.0000001
 43
0.0000001
 44
0.0000000001
 40
0.0
 40
0.0
 40
0.0
 40
0.0
 40
0.112590468
 40
0.2225070765
 40
0.328247811
 40
0.4284267819
 40
0.5217783979
 40
0.6071693699
 40
0.6465219694
 40
0.6834425231
 40
0.7177837976
 40
0.7494432423
 40
0.7783450379
 40
0.8044422661
 40
0.8276988853
 40
0.848089643
 40
0.8656183271
 40
0.8803350923
 40
0.88667961
 40
0.8923816778
 40
0.8974827189
 40
0.9020427523
 40
0.9061480711
 40
0.9099190546
 40
0.9135128375
 40
0.9171114877
 40
0.9208964396
 40
0.925024538
 40
0.929616234
 40
0.9347573996
 40
0.9405077587
 40
0.9469084203
 40
0.9617577827
 40
0.9794429388
 40
1.0
 40
1.0
 40
1.0
 40
1.0
 10
7.8238591376
 20
12.150669185
 30
0.0
 10
7.8215979594
 20
12.1529358564
 30
0.0
 10
7.8170918615
 20
12.1573781693
 30
0.0
 10
7.8103417581
 20
12.1638257037
 30
0.0
 10
7.8037442946
 20
12.1699203441
 30
0.0
 10
7.7973909432
 20
12.1755831607
 30
0.0
 10
7.7913652854
 20
12.1807416063
 30
0.0
 10
7.7865625088
 20
12.1846666383
 30
0.0
 10
7.7829402036
 20
12.1874975859
 30
0.0
 10
7.7804304475
 20
12.1893939566
 30
0.0
 10
7.7780622023
 20
12.1911139178
 30
0.0
 10
7.7758441009
 20
12.1926515592
 30
0.0
 10
7.7737829211
 20
12.1940027472
 30
0.0
 10
7.7718846088
 20
12.1951648042
 30
0.0
 10
7.7701544872
 20
12.1961355556
 30
0.0
 10
7.7685972356
 20
12.1969130994
 30
0.0
 10
7.7672173308
 20
12.1974957563
 30
0.0
 10
7.7661709396
 20
12.1978344143
 30
0.0
 10
7.7654264364
 20
12.1979953047
 30
0.0
 10
7.7649424862
 20
12.1980599934
 30
0.0
 10
7.764504977
 20
12.1980747775
 30
0.0
 10
7.76411387
 20
12.1980391507
 30
0.0
 10
7.7637692589
 20
12.1979521787
 30
0.0
 10
7.7634719459
 20
12.1978123588
 30
0.0
 10
7.7632241184
 20
12.1976185974
 30
0.0
 10
7.7630282731
 20
12.1973719283
 30
0.0
 10
7.7628853277
 20
12.1970748162
 30
0.0
 10
7.7627944606
 20
12.196729209
 30
0.0
 10
7.7627543087
 20
12.196335848
 30
0.0
 10
7.7627639525
 20
12.1958947886
 30
0.0
 10
7.7628229397
 20
12.1954059753
 30
0.0
 10
7.7629750881
 20
12.1946527669
 30
0.0
 10
7.7633013212
 20
12.193592185
 30
0.0
 10
7.7638673865
 20
12.1921914703
 30
0.0
 10
7.7643374893
 20
12.1912101078
 30
0.0
 10
7.7646016074
 20
12.1906886061
 30
0.0
  0
LINE
  5
4FE
100
AcDbEntity
  8
0
100
AcDbLine
 62
9
  6
CONTINUOUS
 10
7.7646016074
 20
12.1906886061
 11
7.7660588649
 21
12.1880297035
  0
SPLINE
  5
4FF
100
AcDbEntity
  8
0
100
AcDbSpline
 62
9
  6
CONTINUOUS
 70
0
 71
3
 72
41
 73
37
 74
0
 42
0.0000001
 43
0.0000001
 44
0.0000000001
 40
0.0
 40
0.0
 40
0.0
 40
0.0
 40
0.0208572518
 40
0.0387266802
 40
0.0465497422
 40
0.0536409313
 40
0.0600151327
 40
0.065696661
 40
0.0707238873
 40
0.0751571098
 40
0.0790916556
 40
0.0826648261
 40
0.0860568177
 40
0.0894754196
 40
0.0931229985
 40
0.097166948
 40
0.1017304787
 40
0.1068989585
 40
0.1127305907
 40
0.1192639358
 40
0.126521482
 40
0.1345166251
 40
0.1527420701
 40
0.1739547966
 40
0.1981275235
 40
0.2252122547
 40
0.2551369758
 40
0.2878088381
 40
0.3231105271
 40
0.401058695
 40
0.4877813475
 40
0.5818772504
 40
0.6818026534
 40
0.7859549647
 40
0.892619304
 40
1.0
 40
1.0
 40
1.0
 40
1.0
 10
7.8708787151
 20
12.0817605519
 30
0.0
 10
7.8714814691
 20
12.0814194953
 30
0.0
 10
7.8726143222
 20
12.0808098953
 30
0.0
 10
7.8740179892
 20
12.0801591297
 30
0.0
 10
7.8750338173
 20
12.0797668267
 30
0.0
 10
7.8757058228
 20
12.0795463453
 30
0.0
 10
7.8763216836
 20
12.0793864424
 30
0.0
 10
7.8768809471
 20
12.0792874231
 30
0.0
 10
7.8773833772
 20
12.0792496212
 30
0.0
 10
7.877829072
 20
12.0792739021
 30
0.0
 10
7.8782181598
 20
12.0793613573
 30
0.0
 10
7.8785499423
 20
12.0795137332
 30
0.0
 10
7.8788215002
 20
12.079732305
 30
0.0
 10
7.879029184
 20
12.0800152041
 30
0.0
 10
7.8791722326
 20
12.0803584233
 30
0.0
 10
7.8792525023
 20
12.0807594604
 30
0.0
 10
7.8792717739
 20
12.0812178931
 30
0.0
 10
7.8792308932
 20
12.0817340306
 30
0.0
 10
7.8791300554
 20
12.0823081131
 30
0.0
 10
7.8789692885
 20
12.0829400236
 30
0.0
 10
7.8787489194
 20
12.0836294086
 30
0.0
 10
7.8783583876
 20
12.0846705587
 30
0.0
 10
7.8777127011
 20
12.0861087245
 30
0.0
 10
7.8767381434
 20
12.0879834537
 30
0.0
 10
7.8755351871
 20
12.0900682639
 30
0.0
 10
7.8741075153
 20
12.092355261
 30
0.0
 10
7.8724596134
 20
12.0948359509
 30
0.0
 10
7.8705973447
 20
12.0975006156
 30
0.0
 10
7.867742251
 20
12.1014156542
 30
0.0
 10
7.8636874526
 20
12.1066753072
 30
0.0
 10
7.8582592542
 20
12.1133367141
 30
0.0
 10
7.8522085459
 20
12.1204290319
 30
0.0
 10
7.845636475
 20
12.1278346352
 30
0.0
 10
7.8386504032
 20
12.1354285536
 30
0.0
 10
7.8313660725
 20
12.1430822972
 30
0.0
 10
7.826381649
 20
12.1481492861
 30
0.0
 10
7.8238591376
 20
12.150669185
 30
0.0
  0
LINE
  5
500
100
AcDbEntity
  8
0
100
AcDbLine
 62
9
  6
CONTINUOUS
 10
10.782648284
 20
14.4569952237
 11
10.7824595724
 21
14.4568994282
  0
SPLINE
  5
501
100
AcDbEntity
  8
0
100
AcDbSpline
 62
9
  6
CONTINUOUS
 70
0
 71
3
 72
9
 73
5
 74
0
 42
0.0000001
 43
0.0000001
 44
0.0000000001
 40
0.0
 40
0.0
 40
0.0
 40
0.0
 40
0.2387495462
 40
1.0
 40
1.0
 40
1.0
 40
1.0
 10
10.7824595724
 20
14.4568994282
 30
0.0
 10
10.7824517904
 20
14.4568978112
 30
0.0
 10
10.7824190407
 20
14.4568917882
 30
0.0
 10
10.7823857914
 20
14.4568886468
 30
0.0
 10
10.7823604731
 20
14.4568875334
 30
0.0
  0
SPLINE
  5
502
100
AcDbEntity
  8
0
100
AcDbSpline
 62
7
  6
CONTINUOUS
 70
0
 71
3
 72
42
 73
38
 74
0
 42
0.0000001
 43
0.0000001
 44
0.0000000001
 40
0.0
 40
0.0
 40
0.0
 40
0.0
 40
0.0001758004
 40
0.0003961964
 40
0.0009753848
 40
0.0017429236
 40
0.0027005816
 40
0.0038489651
 40
0.0051882182
 40
0.0067182518
 40
0.008438729
 40
0.0124487755
 40
0.0172134055
 40
0.022726044
 40
0.0289791837
 40
0.0359640127
 40
0.0436709375
 40
0.0520891772
 40
0.0612072416
 40
0.0814917003
 40
0.1044138251
 40
0.1298498466
 40
0.1576635628
 40
0.1877071053
 40
0.2198218952
 40
0.2538395706
 40
0.2895828465
 40
0.3268665997
 40
0.3654988762
 40
0.446012839
 40
0.5294912822
 40
0.6142582636
 40
0.6986294283
 40
0.7809453622
 40
0.8596035135
 40
0.9330884832
 40
1.0
 40
1.0
 40
1.0
 40
1.0
 10
10.7821767896
 20
14.4568760725
 30
0.0
 10
10.7821392926
 20
14.4568861001
 30
0.0
 10
10.7820567181
 20
14.4569157677
 30
0.0
 10
10.7818613605
 20
14.4570066844
 30
0.0
 10
10.7815623078
 20
14.4571818986
 30
0.0
 10
10.7811390394
 20
14.4574642897
 30
0.0
 10
10.7806250871
 20
14.4578365469
 30
0.0
 10
10.7800206473
 20
14.4582984407
 30
0.0
 10
10.7793260008
 20
14.458850174
 30
0.0
 10
10.778541413
 20
14.4594915623
 30
0.0
 10
10.7773115773
 20
14.4605198323
 30
0.0
 10
10.7755542073
 20
14.4620303058
 30
0.0
 10
10.7731859686
 20
14.4641141435
 30
0.0
 10
10.7704666701
 20
14.4665485051
 30
0.0
 10
10.7674001193
 20
14.4693297466
 30
0.0
 10
10.7639905576
 20
14.4724538399
 30
0.0
 10
10.7602426709
 20
14.4759162183
 30
0.0
 10
10.7561615091
 20
14.4797118809
 30
0.0
 10
10.7500628395
 20
14.485415838
 30
0.0
 10
10.7416539713
 20
14.4933376887
 30
0.0
 10
10.7306581653
 20
14.5037675076
 30
0.0
 10
10.7184865893
 20
14.5153732404
 30
0.0
 10
10.7052030796
 20
14.5280912162
 30
0.0
 10
10.6908769023
 20
14.5418523764
 30
0.0
 10
10.6755822835
 20
14.556582604
 30
0.0
 10
10.6593980195
 20
14.5722031874
 30
0.0
 10
10.6424070326
 20
14.5886312655
 30
0.0
 10
10.6246959087
 20
14.6057802846
 30
0.0
 10
10.5998974852
 20
14.6298199087
 30
0.0
 10
10.567798147
 20
14.6609814675
 30
0.0
 10
10.5284117771
 20
14.6992602123
 30
0.0
 10
10.4884248079
 20
14.7381429028
 30
0.0
 10
10.4486211747
 20
14.7768459619
 30
0.0
 10
10.4097733764
 20
14.814597294
 30
0.0
 10
10.3726275805
 20
14.8506512167
 30
0.0
 10
10.3378895481
 20
14.8843025176
 30
0.0
 10
10.3155938224
 20
14.90583784
 30
0.0
 10
10.3049560993
 20
14.9160890965
 30
0.0
  0
SPLINE
  5
503
100
AcDbEntity
  8
0
100
AcDbSpline
 62
7
  6
CONTINUOUS
 70
0
 71
3
 72
66
 73
62
 74
0
 42
0.0000001
 43
0.0000001
 44
0.0000000001
 40
0.0
 40
0.0
 40
0.0
 40
0.0
 40
0.0001801597
 40
0.0003862032
 40
0.0006361035
 40
0.0009401197
 40
0.0013039282
 40
0.0017308014
 40
0.0022227322
 40
0.0027809978
 40
0.0040994912
 40
0.0056902785
 40
0.0075549875
 40
0.0096942235
 40
0.0121077519
 40
0.0147948842
 40
0.0177547037
 40
0.020985879
 40
0.028255819
 40
0.0365900657
 40
0.0459708655
 40
0.0563776625
 40
0.0677875354
 40
0.0801750345
 40
0.0935124042
 40
0.1077698164
 40
0.1389142707
 40
0.173328056
 40
0.2107009155
 40
0.2506956585
 40
0.2929514803
 40
0.3370869846
 40
0.3827038964
 40
0.4293905742
 40
0.4767258196
 40
0.5242826221
 40
0.5716320683
 40
0.6183472442
 40
0.6640070119
 40
0.7081999909
 40
0.7505280226
 40
0.7906100406
 40
0.8280853722
 40
0.8626171039
 40
0.8938950683
 40
0.9082250806
 40
0.9216389465
 40
0.9341069189
 40
0.9456010746
 40
0.9560955679
 40
0.9655688259
 40
0.9739994013
 40
0.9813633381
 40
0.984644872
 40
0.9876628195
 40
0.9904144694
 40
0.992884651
 40
0.9950563898
 40
0.9969296456
 40
0.9985560794
 40
1.0
 40
1.0
 40
1.0
 40
1.0
 10
10.2152325689
 20
14.9735408546
 30
0.0
 10
10.2152650723
 20
14.9735733636
 30
0.0
 10
10.21535037
 20
14.9736283296
 30
0.0
 10
10.2155110488
 20
14.9736636569
 30
0.0
 10
10.2157060721
 20
14.9736597723
 30
0.0
 10
10.2159371796
 20
14.9736182231
 30
0.0
 10
10.21620551
 20
14.973539271
 30
0.0
 10
10.216511592
 20
14.9734227334
 30
0.0
 10
10.2168556565
 20
14.9732684907
 30
0.0
 10
10.2173957642
 20
14.9729968691
 30
0.0
 10
10.2181640683
 20
14.9725568974
 30
0.0
 10
10.2191933427
 20
14.9719049432
 30
0.0
 10
10.2203742686
 20
14.9711024504
 30
0.0
 10
10.2217062863
 20
14.9701497809
 30
0.0
 10
10.2231887305
 20
14.9690472905
 30
0.0
 10
10.2248208399
 20
14.9677955944
 30
0.0
 10
10.2266017776
 20
14.9663954131
 30
0.0
 10
10.229280639
 20
14.9642455928
 30
0.0
 10
10.2329900372
 20
14.9611892369
 30
0.0
 10
10.2378612193
 20
14.9570761199
 30
0.0
 10
10.2433007279
 20
14.9523959074
 30
0.0
 10
10.2492970285
 20
14.9471599165
 30
0.0
 10
10.2558372706
 20
14.9413806666
 30
0.0
 10
10.2629074411
 20
14.9350720081
 30
0.0
 10
10.2704923639
 20
14.9282490269
 30
0.0
 10
10.2816014592
 20
14.9181873456
 30
0.0
 10
10.2966362542
 20
14.904448921
 30
0.0
 10
10.3159507194
 20
14.8866505569
 30
0.0
 10
10.3368640733
 20
14.8672549954
 30
0.0
 10
10.3591939211
 20
14.8464442459
 30
0.0
 10
10.382745081
 20
14.8244130495
 30
0.0
 10
10.4073114763
 20
14.8013672214
 30
0.0
 10
10.4326779106
 20
14.7775217424
 30
0.0
 10
10.4586220485
 20
14.75309878
 30
0.0
 10
10.4849163947
 20
14.7283256866
 30
0.0
 10
10.5113303526
 20
14.7034329318
 30
0.0
 10
10.537632298
 20
14.6786520158
 30
0.0
 10
10.5635916629
 20
14.6542133798
 30
0.0
 10
10.5889810291
 20
14.630344301
 30
0.0
 10
10.6135781417
 20
14.6072668675
 30
0.0
 10
10.6371679354
 20
14.5851959333
 30
0.0
 10
10.6595444421
 20
14.5643372091
 30
0.0
 10
10.6805126213
 20
14.5448853045
 30
0.0
 10
10.6998901777
 20
14.527022139
 30
0.0
 10
10.714982586
 20
14.5132241884
 30
0.0
 10
10.7261418826
 20
14.503110516
 30
0.0
 10
10.7337677271
 20
14.4962454381
 30
0.0
 10
10.7408809448
 20
14.4898925636
 30
0.0
 10
10.7474662957
 20
14.4840670832
 30
0.0
 10
10.7535096702
 20
14.4787824234
 30
0.0
 10
10.7589986367
 20
14.4740515238
 30
0.0
 10
10.7639211806
 20
14.4698874138
 30
0.0
 10
10.767671964
 20
14.466784747
 30
0.0
 10
10.7703864792
 20
14.4645968122
 30
0.0
 10
10.7722000929
 20
14.4631667523
 30
0.0
 10
10.7738678368
 20
14.4618863435
 30
0.0
 10
10.7753790957
 20
14.4607569377
 30
0.0
 10
10.7767240758
 20
14.459779756
 30
0.0
 10
10.7779076897
 20
14.4589468503
 30
0.0
 10
10.7789641222
 20
14.4582568641
 30
0.0
 10
10.7796453943
 20
14.4578682324
 30
0.0
 10
10.7799734001
 20
14.457700422
 30
0.0
  0
LINE
  5
504
100
AcDbEntity
  8
0
100
AcDbLine
 62
7
  6
CONTINUOUS
 10
10.7799734001
 20
14.457700422
 11
10.781683174
 21
14.4570079882
  0
SPLINE
  5
505
100
AcDbEntity
  8
0
100
AcDbSpline
 62
7
  6
CONTINUOUS
 70
0
 71
3
 72
64
 73
60
 74
0
 42
0.0000001
 43
0.0000001
 44
0.0000000001
 40
0.0
 40
0.0
 40
0.0
 40
0.0
 40
0.0001823218
 40
0.0003909977
 40
0.000644276
 40
0.0009525789
 40
0.001321676
 40
0.0017548654
 40
0.0022541436
 40
0.0028207816
 40
0.0041591045
 40
0.0057740014
 40
0.0076670329
 40
0.0098386927
 40
0.0122888612
 40
0.0150167709
 40
0.0180213587
 40
0.0213013739
 40
0.028680828
 40
0.0371399944
 40
0.0466604118
 40
0.0572209878
 40
0.0687980168
 40
0.0813652059
 40
0.0948940406
 40
0.1093536557
 40
0.1409307899
 40
0.1758077328
 40
0.2136648529
 40
0.2541549954
 40
0.2969067373
 40
0.3415279505
 40
0.3876092505
 40
0.4347279378
 40
0.4824518825
 40
0.530343401
 40
0.577963458
 40
0.624875481
 40
0.6706496231
 40
0.7148665033
 40
0.757121235
 40
0.7970269753
 40
0.8342187212
 40
0.8683565591
 40
0.8991287987
 40
0.9262551772
 40
0.9383728987
 40
0.949489665
 40
0.9595805365
 40
0.9686231454
 40
0.9765976237
 40
0.9834871337
 40
0.9892780759
 40
0.9917583894
 40
0.9939608882
 40
0.9958852911
 40
0.9975319234
 40
0.9989023453
 40
1.0
 40
1.0
 40
1.0
 40
1.0
 10
10.1659895093
 20
14.9217651536
 30
0.0
 10
10.1660222879
 20
14.9217979281
 30
0.0
 10
10.1661083977
 20
14.9218533006
 30
0.0
 10
10.166270613
 20
14.9218886739
 30
0.0
 10
10.1664675502
 20
14.9218844209
 30
0.0
 10
10.1667009984
 20
14.9218420643
 30
0.0
 10
10.1669721131
 20
14.9217618564
 30
0.0
 10
10.1672814304
 20
14.92164362
 30
0.0
 10
10.1676291738
 20
14.921487241
 30
0.0
 10
10.1681751079
 20
14.9212119854
 30
0.0
 10
10.1689517825
 20
14.9207663442
 30
0.0
 10
10.1699923448
 20
14.9201061635
 30
0.0
 10
10.1711863063
 20
14.919293716
 30
0.0
 10
10.1725330975
 20
14.9183293889
 30
0.0
 10
10.1740320152
 20
14.9172135229
 30
0.0
 10
10.1756822864
 20
14.9159467666
 30
0.0
 10
10.1774830577
 20
14.9145298769
 30
0.0
 10
10.1801916777
 20
14.9123546083
 30
0.0
 10
10.1839422192
 20
14.9092624462
 30
0.0
 10
10.188867251
 20
14.9051016744
 30
0.0
 10
10.1943665283
 20
14.9003679189
 30
0.0
 10
10.2004281757
 20
14.8950728057
 30
0.0
 10
10.2070390036
 20
14.8892292061
 30
0.0
 10
10.2141846203
 20
14.882851352
 30
0.0
 10
10.2218494214
 20
14.8759547418
 30
0.0
 10
10.2330726609
 20
14.8657874127
 30
0.0
 10
10.2482575929
 20
14.8519093638
 30
0.0
 10
10.2677586665
 20
14.8339368288
 30
0.0
 10
10.2888641025
 20
14.8143616448
 30
0.0
 10
10.3113867804
 20
14.793370546
 30
0.0
 10
10.3351265949
 20
14.771163194
 30
0.0
 10
10.3598723778
 20
14.7479504881
 30
0.0
 10
10.3854037984
 20
14.7239525423
 30
0.0
 10
10.411493376
 20
14.6993966655
 30
0.0
 10
10.4379085669
 20
14.6745152543
 30
0.0
 10
10.4644139049
 20
14.6495436433
 30
0.0
 10
10.4907731279
 20
14.6247179648
 30
0.0
 10
10.5167513778
 20
14.6002729428
 30
0.0
 10
10.542117314
 20
14.5764397679
 30
0.0
 10
10.5666452636
 20
14.5534439319
 30
0.0
 10
10.5901172416
 20
14.5315031951
 30
0.0
 10
10.6123249672
 20
14.5108255298
 30
0.0
 10
10.6330717517
 20
14.4916072363
 30
0.0
 10
10.6521741901
 20
14.4740309902
 30
0.0
 10
10.6694640479
 20
14.4582644442
 30
0.0
 10
10.6826890792
 20
14.4463492014
 30
0.0
 10
10.6922581977
 20
14.437842382
 30
0.0
 10
10.6986198901
 20
14.4322464983
 30
0.0
 10
10.7044270988
 20
14.4272041791
 30
0.0
 10
10.7096673319
 20
14.4227276925
 30
0.0
 10
10.7143292686
 20
14.4188277218
 30
0.0
 10
10.7184030151
 20
14.4155137921
 30
0.0
 10
10.7214383936
 20
14.4131375788
 30
0.0
 10
10.723571082
 20
14.4115429521
 30
0.0
 10
10.7249344322
 20
14.4105614129
 30
0.0
 10
10.7261452972
 20
14.4097314598
 30
0.0
 10
10.7272031841
 20
14.4090532329
 30
0.0
 10
10.7281075249
 20
14.4085268247
 30
0.0
 10
10.7286693327
 20
14.4082452843
 30
0.0
 10
10.7289256874
 20
14.4081350137
 30
0.0
  0
LINE
  5
506
100
AcDbEntity
  8
0
100
AcDbLine
 62
7
  6
CONTINUOUS
 10
10.7289256874
 20
14.4081350137
 11
10.7295096304
 21
14.4079254215
  0
SPLINE
  5
507
100
AcDbEntity
  8
0
100
AcDbSpline
 62
7
  6
CONTINUOUS
 70
0
 71
3
 72
67
 73
63
 74
0
 42
0.0000001
 43
0.0000001
 44
0.0000000001
 40
0.0
 40
0.0
 40
0.0
 40
0.0
 40
0.0001845838
 40
0.0003959436
 40
0.0006525873
 40
0.0009650638
 40
0.0013392176
 40
0.0017784145
 40
0.0022846705
 40
0.0028592595
 40
0.0042163881
 40
0.0058539946
 40
0.0077737297
 40
0.0099759982
 40
0.0124606388
 40
0.0152269458
 40
0.0182737509
 40
0.0215997323
 40
0.0290823726
 40
0.0376591495
 40
0.0473111033
 40
0.0580165737
 40
0.0697510851
 40
0.0824876255
 40
0.0961968678
 40
0.1108470058
 40
0.1428319003
 40
0.1781451606
 40
0.2164583358
 40
0.2574146843
 40
0.3006327975
 40
0.3457102094
 40
0.3922270415
 40
0.4397501317
 40
0.4878369269
 40
0.5360398199
 40
0.5839101018
 40
0.6310023928
 40
0.676878581
 40
0.721112131
 40
0.763291898
 40
0.8030260121
 40
0.8399456758
 40
0.8737084992
 40
0.9040017966
 40
0.9177585998
 40
0.9305457876
 40
0.9423340793
 40
0.9530964618
 40
0.9628084959
 40
0.9714485031
 40
0.9789974709
 40
0.9854395711
 40
0.9882416585
 40
0.9907627949
 40
0.993002184
 40
0.9949596147
 40
0.9966354037
 40
0.9980309458
 40
0.9991497394
 40
0.9996076732
 40
1.0
 40
1.0
 40
1.0
 40
1.0
 10
10.1169713137
 20
14.8697638108
 30
0.0
 10
10.1170043558
 20
14.8697968458
 30
0.0
 10
10.1170912131
 20
14.8698526338
 30
0.0
 10
10.1172548428
 20
14.8698881444
 30
0.0
 10
10.1174535177
 20
14.8698836603
 30
0.0
 10
10.1176890563
 20
14.8698407176
 30
0.0
 10
10.117962632
 20
14.8697595614
 30
0.0
 10
10.1182747869
 20
14.8696399927
 30
0.0
 10
10.1186257512
 20
14.8694819033
 30
0.0
 10
10.1191767771
 20
14.8692036962
 30
0.0
 10
10.1199607244
 20
14.8687534028
 30
0.0
 10
10.1210110809
 20
14.8680864497
 30
0.0
 10
10.1222163101
 20
14.8672657425
 30
0.0
 10
10.1235758422
 20
14.8662917034
 30
0.0
 10
10.1250889564
 20
14.8651646838
 30
0.0
 10
10.1267548526
 20
14.8638853335
 30
0.0
 10
10.128572667
 20
14.8624544414
 30
0.0
 10
10.1313068544
 20
14.8602578325
 30
0.0
 10
10.1350926597
 20
14.8571356015
 30
0.0
 10
10.1400638081
 20
14.8529347709
 30
0.0
 10
10.1456141864
 20
14.8481559761
 30
0.0
 10
10.1517316364
 20
14.8428111236
 30
0.0
 10
10.1584026583
 20
14.8369134033
 30
0.0
 10
10.1656125034
 20
14.830477393
 30
0.0
 10
10.1733451896
 20
14.8235189657
 30
0.0
 10
10.1846651557
 20
14.813263154
 30
0.0
 10
10.1999768382
 20
14.7992685276
 30
0.0
 10
10.2196347507
 20
14.7811511496
 30
0.0
 10
10.2409004948
 20
14.7614276337
 30
0.0
 10
10.2635826768
 20
14.7402889819
 30
0.0
 10
10.2874767025
 20
14.7179393371
 30
0.0
 10
10.3123668021
 20
14.694594194
 30
0.0
 10
10.3380279979
 20
14.6704783068
 30
0.0
 10
10.3642281788
 20
14.6458236101
 30
0.0
 10
10.3907302947
 20
14.6208670013
 30
0.0
 10
10.4172945261
 20
14.5958481617
 30
0.0
 10
10.4436805504
 20
14.5710072788
 30
0.0
 10
10.4696497372
 20
14.5465828399
 30
0.0
 10
10.4949674078
 20
14.5228093639
 30
0.0
 10
10.5194049801
 20
14.4999152405
 30
0.0
 10
10.5427420968
 20
14.4781205749
 30
0.0
 10
10.5647686726
 20
14.4576351467
 30
0.0
 10
10.5852867705
 20
14.438656358
 30
0.0
 10
10.6041125697
 20
14.4213675703
 30
0.0
 10
10.6186830609
 20
14.4081136411
 30
0.0
 10
10.6293748755
 20
14.3984867564
 30
0.0
 10
10.6366112707
 20
14.3920227171
 30
0.0
 10
10.6433104857
 20
14.3860952317
 30
0.0
 10
10.6494578121
 20
14.3807188738
 30
0.0
 10
10.6550397855
 20
14.3759068756
 30
0.0
 10
10.6600441664
 20
14.37167097
 30
0.0
 10
10.6644601455
 20
14.3680216573
 30
0.0
 10
10.6677794575
 20
14.3653656388
 30
0.0
 10
10.6701378258
 20
14.3635468652
 30
0.0
 10
10.6716703338
 20
14.3623995496
 30
0.0
 10
10.6730496637
 20
14.3614047657
 30
0.0
 10
10.6742751053
 20
14.3605630412
 30
0.0
 10
10.6753460757
 20
14.3598744306
 30
0.0
 10
10.6762621166
 20
14.3593392337
 30
0.0
 10
10.6769347834
 20
14.3589998667
 30
0.0
 10
10.6773969208
 20
14.3588124955
 30
0.0
 10
10.6776019043
 20
14.358745859
 30
0.0
 10
10.6776978446
 20
14.3587202111
 30
0.0
  0
LINE
  5
508
100
AcDbEntity
  8
0
100
AcDbLine
 62
7
  6
CONTINUOUS
 10
10.2033746533
 20
14.9609677258
 11
10.2041200285
 21
14.9606861686
  0
SPLINE
  5
509
100
AcDbEntity
  8
0
100
AcDbSpline
 62
7
  6
CONTINUOUS
 70
0
 71
3
 72
64
 73
60
 74
0
 42
0.0000001
 43
0.0000001
 44
0.0000000001
 40
0.0
 40
0.0
 40
0.0
 40
0.0
 40
0.0011571817
 40
0.0025879624
 40
0.0042951784
 40
0.0062800707
 40
0.0085427707
 40
0.0110828654
 40
0.0169917323
 40
0.0239964945
 40
0.0320830698
 40
0.0412342006
 40
0.0514296537
 40
0.0626467209
 40
0.0748601555
 40
0.102162966
 40
0.1330899727
 40
0.1673591486
 40
0.2046574406
 40
0.2446440262
 40
0.2869533249
 40
0.3311985107
 40
0.3769749844
 40
0.4238643109
 40
0.4714378165
 40
0.5192607123
 40
0.5668960167
 40
0.6139085231
 40
0.6598689313
 40
0.70435756
 40
0.7469684173
 40
0.7873127757
 40
0.8250228716
 40
0.8597551083
 40
0.8911935173
 40
0.9055870908
 40
0.9190526681
 40
0.9315597895
 40
0.9430803452
 40
0.9535884161
 40
0.963060623
 40
0.9714762233
 40
0.9788170718
 40
0.9820797168
 40
0.9850682734
 40
0.9877815183
 40
0.9902183983
 40
0.9923781785
 40
0.9942607577
 40
0.9958666214
 40
0.9971973344
 40
0.9977606953
 40
0.998257037
 40
0.9986876168
 40
0.9990544108
 40
0.9993606897
 40
0.9996121796
 40
0.9998192295
 40
1.0
 40
1.0
 40
1.0
 40
1.0
 10
10.2041200285
 20
14.9606861686
 30
0.0
 10
10.2043886139
 20
14.9605628295
 30
0.0
 10
10.2049749747
 20
14.9602560568
 30
0.0
 10
10.2059167111
 20
14.9596929003
 30
0.0
 10
10.2070124485
 20
14.9589773151
 30
0.0
 10
10.2082615923
 20
14.9581094566
 30
0.0
 10
10.209663597
 20
14.9570895575
 30
0.0
 10
10.2118482613
 20
14.9554425831
 30
0.0
 10
10.214949545
 20
14.9530005047
 30
0.0
 10
10.2191033316
 20
14.9496070042
 30
0.0
 10
10.2238461366
 20
14.9456264923
 30
0.0
 10
10.2291678345
 20
14.9410687355
 30
0.0
 10
10.2350568842
 20
14.9359446739
 30
0.0
 10
10.2415005725
 20
14.9302668079
 30
0.0
 10
10.251178469
 20
14.9216506054
 30
0.0
 10
10.264538355
 20
14.9095999188
 30
0.0
 10
10.2819877565
 20
14.8936733898
 30
0.0
 10
10.3012452665
 20
14.8759413558
 30
0.0
 10
10.3221411662
 20
14.8565729639
 30
0.0
 10
10.3444907098
 20
14.8357522485
 30
0.0
 10
10.3680960492
 20
14.8136766773
 30
0.0
 10
10.3927479036
 20
14.790555228
 30
0.0
 10
10.4182275176
 20
14.7666064357
 30
0.0
 10
10.444308619
 20
14.7420563934
 30
0.0
 10
10.4707595126
 20
14.7171366497
 30
0.0
 10
10.4973451679
 20
14.6920821017
 30
0.0
 10
10.52382938
 20
14.6671288267
 30
0.0
 10
10.5499769323
 20
14.6425119113
 30
0.0
 10
10.5755557176
 20
14.6184633159
 30
0.0
 10
10.6003388817
 20
14.5952097257
 30
0.0
 10
10.6241068553
 20
14.5729704934
 30
0.0
 10
10.6466493913
 20
14.5519555995
 30
0.0
 10
10.6677673863
 20
14.5323637049
 30
0.0
 10
10.6872748308
 20
14.5143804369
 30
0.0
 10
10.7024616754
 20
14.500496626
 30
0.0
 10
10.7136841994
 20
14.4903267881
 30
0.0
 10
10.7213471528
 20
14.483429577
 30
0.0
 10
10.7284902469
 20
14.4770517448
 30
0.0
 10
10.7350980213
 20
14.4712086455
 30
0.0
 10
10.7411562201
 20
14.4659143745
 30
0.0
 10
10.7466517877
 20
14.4611816721
 30
0.0
 10
10.7515729787
 20
14.4570220352
 30
0.0
 10
10.7553202599
 20
14.4539307645
 30
0.0
 10
10.75802629
 20
14.4517561412
 30
0.0
 10
10.7598251925
 20
14.4503396978
 30
0.0
 10
10.7614736473
 20
14.4490733212
 30
0.0
 10
10.7629708147
 20
14.4479577588
 30
0.0
 10
10.7643159326
 20
14.446993646
 30
0.0
 10
10.765508308
 20
14.4461813118
 30
0.0
 10
10.7665473836
 20
14.4455211373
 30
0.0
 10
10.7673228692
 20
14.4450753896
 30
0.0
 10
10.7678679095
 20
14.4447999654
 30
0.0
 10
10.768215036
 20
14.4446434405
 30
0.0
 10
10.7685237653
 20
14.4445250245
 30
0.0
 10
10.7687943202
 20
14.4444446027
 30
0.0
 10
10.7690272376
 20
14.4444019937
 30
0.0
 10
10.7692236741
 20
14.4443974397
 30
0.0
 10
10.7693854387
 20
14.4444324522
 30
0.0
 10
10.7694712968
 20
14.4444875711
 30
0.0
 10
10.7695039463
 20
14.4445202157
 30
0.0
  0
LINE
  5
50A
100
AcDbEntity
  8
0
100
AcDbLine
 62
7
  6
CONTINUOUS
 10
10.1541351791
 20
14.9091922987
 11
10.1558643525
 21
14.9083976671
  0
SPLINE
  5
50B
100
AcDbEntity
  8
0
100
AcDbSpline
 62
7
  6
CONTINUOUS
 70
0
 71
3
 72
63
 73
59
 74
0
 42
0.0000001
 43
0.0000001
 44
0.0000000001
 40
0.0
 40
0.0
 40
0.0
 40
0.0
 40
0.0014818292
 40
0.0032354689
 40
0.0052618044
 40
0.0075609945
 40
0.0101324984
 40
0.0129754308
 40
0.0194708015
 40
0.0270348595
 40
0.0356521221
 40
0.0453042224
 40
0.0559700504
 40
0.0676262061
 40
0.0802468459
 40
0.108267017
 40
0.1397805634
 40
0.1745055908
 40
0.2121309719
 40
0.2523194355
 40
0.2947107075
 40
0.3389246091
 40
0.3845647068
 40
0.431221725
 40
0.4784774396
 40
0.5259082038
 40
0.5730889718
 40
0.619596986
 40
0.6650156149
 40
0.7089381889
 40
0.7509714569
 40
0.790739343
 40
0.8278862099
 40
0.8620801906
 40
0.8930160459
 40
0.9204182569
 40
0.9327169787
 40
0.9440437215
 40
0.9543736195
 40
0.9636841981
 40
0.9719553245
 40
0.9791697107
 40
0.9823760238
 40
0.9853130389
 40
0.9879794231
 40
0.9903742879
 40
0.9924970393
 40
0.9943474486
 40
0.995926132
 40
0.9972348175
 40
0.9977890576
 40
0.9982775352
 40
0.9987015417
 40
0.9990630873
 40
0.9993654594
 40
0.9996143371
 40
0.9998199253
 40
1.0
 40
1.0
 40
1.0
 40
1.0
 10
10.1558643525
 20
14.9083976671
 30
0.0
 10
10.1561908558
 20
14.908210993
 30
0.0
 10
10.1568919875
 20
14.9077828314
 30
0.0
 10
10.1580058826
 20
14.9070458033
 30
0.0
 10
10.1592694515
 20
14.9061600618
 30
0.0
 10
10.1606820255
 20
14.9051260017
 30
0.0
 10
10.1622429271
 20
14.9039441509
 30
0.0
 10
10.1646288084
 20
14.9020879869
 30
0.0
 10
10.1679708574
 20
14.8993978577
 30
0.0
 10
10.1724004059
 20
14.8957227037
 30
0.0
 10
10.1773993437
 20
14.891479724
 30
0.0
 10
10.1829571766
 20
14.8866791289
 30
0.0
 10
10.1890620991
 20
14.8813322926
 30
0.0
 10
10.1957011601
 20
14.8754519978
 30
0.0
 10
10.2055968524
 20
14.8666055566
 30
0.0
 10
10.2191779778
 20
14.854319865
 30
0.0
 10
10.2368323566
 20
14.8381746624
 30
0.0
 10
10.2562132298
 20
14.8203052681
 30
0.0
 10
10.2771530177
 20
14.800878759
 30
0.0
 10
10.2994701331
 20
14.7800761103
 30
0.0
 10
10.3229707824
 20
14.7580907759
 30
0.0
 10
10.34745063
 20
14.7351268204
 30
0.0
 10
10.3726966079
 20
14.7113971118
 30
0.0
 10
10.3984888565
 20
14.6871213463
 30
0.0
 10
10.4246026563
 20
14.6625241047
 30
0.0
 10
10.4508104709
 20
14.6378327988
 30
0.0
 10
10.4768839531
 20
14.6132756532
 30
0.0
 10
10.5025960102
 20
14.5890796343
 30
0.0
 10
10.5277228336
 20
14.5654684102
 30
0.0
 10
10.5520458832
 20
14.5426603515
 30
0.0
 10
10.575353859
 20
14.520866551
 30
0.0
 10
10.5974445538
 20
14.5002889317
 30
0.0
 10
10.6181266963
 20
14.4811184089
 30
0.0
 10
10.6372215272
 20
14.4635330878
 30
0.0
 10
10.654564604
 20
14.4476968795
 30
0.0
 10
10.6678725073
 20
14.4356833025
 30
0.0
 10
10.6775398457
 20
14.4270648089
 30
0.0
 10
10.6840007658
 20
14.4213613194
 30
0.0
 10
10.6899239113
 20
14.4161948239
 30
0.0
 10
10.6952967858
 20
14.4115775453
 30
0.0
 10
10.7001081517
 20
14.407520503
 30
0.0
 10
10.7037720168
 20
14.4045064068
 30
0.0
 10
10.7064180469
 20
14.4023867465
 30
0.0
 10
10.7081771719
 20
14.4010064274
 30
0.0
 10
10.7097893587
 20
14.3997726935
 30
0.0
 10
10.7112537974
 20
14.3986862453
 30
0.0
 10
10.7125697447
 20
14.3977476657
 30
0.0
 10
10.7137365592
 20
14.396957296
 30
0.0
 10
10.7147537056
 20
14.3963154904
 30
0.0
 10
10.7155130991
 20
14.3958826864
 30
0.0
 10
10.7160470533
 20
14.3956157589
 30
0.0
 10
10.716387299
 20
14.3954643238
 30
0.0
 10
10.7166900638
 20
14.3953500967
 30
0.0
 10
10.7169555832
 20
14.3952729574
 30
0.0
 10
10.7171843855
 20
14.3952327288
 30
0.0
 10
10.7173775911
 20
14.3952296784
 30
0.0
 10
10.7175368711
 20
14.3952653438
 30
0.0
 10
10.7176214607
 20
14.3953200766
 30
0.0
 10
10.7176537752
 20
14.395352398
 30
0.0
  0
SPLINE
  5
50C
100
AcDbEntity
  8
0
100
AcDbSpline
 62
7
  6
CONTINUOUS
 70
0
 71
3
 72
67
 73
63
 74
0
 42
0.0000001
 43
0.0000001
 44
0.0000000001
 40
0.0
 40
0.0
 40
0.0
 40
0.0
 40
0.0003934118
 40
0.0008525764
 40
0.0019742781
 40
0.00337333
 40
0.0050532285
 40
0.0070153603
 40
0.0092600282
 40
0.0117870057
 40
0.0145954809
 40
0.0210519306
 40
0.0286172133
 40
0.037275332
 40
0.0470070745
 40
0.0577905578
 40
0.0696011587
 40
0.0824116477
 40
0.0961925131
 40
0.1265353198
 40
0.1603480634
 40
0.1973162392
 40
0.237095846
 40
0.2793164744
 40
0.3235849241
 40
0.3694888605
 40
0.4166008387
 40
0.4644821163
 40
0.5126869061
 40
0.560766517
 40
0.6082734795
 40
0.6547658859
 40
0.699811271
 40
0.7429909305
 40
0.7839036232
 40
0.8221694564
 40
0.8574333231
 40
0.8893685007
 40
0.9039942223
 40
0.9176796429
 40
0.9303931638
 40
0.9421056857
 40
0.9527904403
 40
0.962423117
 40
0.970982253
 40
0.9784491051
 40
0.9817679234
 40
0.9848081058
 40
0.9875683271
 40
0.9900474261
 40
0.992244741
 40
0.9941601063
 40
0.9957939277
 40
0.9971478919
 40
0.9977211257
 40
0.9982261724
 40
0.9986643004
 40
0.9990375268
 40
0.9993492128
 40
0.9996051833
 40
0.9998159572
 40
1.0
 40
1.0
 40
1.0
 40
1.0
 10
10.1051216635
 20
14.8571912939
 30
0.0
 10
10.1052178699
 20
14.857165579
 30
0.0
 10
10.1054234149
 20
14.8570987739
 30
0.0
 10
10.1058867904
 20
14.8569109403
 30
0.0
 10
10.1065612131
 20
14.8565707552
 30
0.0
 10
10.1074795913
 20
14.8560342822
 30
0.0
 10
10.1085532265
 20
14.8553440563
 30
0.0
 10
10.1097816517
 20
14.8545003851
 30
0.0
 10
10.1111642749
 20
14.853503331
 30
0.0
 10
10.112700376
 20
14.8523534312
 30
0.0
 10
10.1150641348
 20
14.8505306476
 30
0.0
 10
10.1183908452
 20
14.8478688863
 30
0.0
 10
10.122816422
 20
14.8442118372
 30
0.0
 10
10.1278313348
 20
14.8399671998
 30
0.0
 10
10.1334246691
 20
14.8351455781
 30
0.0
 10
10.1395840781
 20
14.8297588104
 30
0.0
 10
10.1462959876
 20
14.823820237
 30
0.0
 10
10.1535455753
 20
14.817344545
 30
0.0
 10
10.1642556569
 20
14.807701378
 30
0.0
 10
10.178849308
 20
14.7944265583
 30
0.0
 10
10.197702705
 20
14.7771125923
 30
0.0
 10
10.2182475403
 20
14.7581092042
 30
0.0
 10
10.2402990871
 20
14.7376006549
 30
0.0
 10
10.2636585914
 20
14.7157851597
 30
0.0
 10
10.2881152267
 20
14.6928732355
 30
0.0
 10
10.3134480208
 20
14.6690855998
 30
0.0
 10
10.3394279025
 20
14.644651129
 30
0.0
 10
10.3658198445
 20
14.6198046893
 30
0.0
 10
10.3923850345
 20
14.5947849497
 30
0.0
 10
10.4188831051
 20
14.5698321414
 30
0.0
 10
10.4450743817
 20
14.545185802
 30
0.0
 10
10.4707220801
 20
14.5210825633
 30
0.0
 10
10.4955945424
 20
14.4977539099
 30
0.0
 10
10.5194673466
 20
14.4754240414
 30
0.0
 10
10.5421254268
 20
14.4543077523
 30
0.0
 10
10.5633649754
 20
14.4346084035
 30
0.0
 10
10.5829954759
 20
14.4165161246
 30
0.0
 10
10.5982839344
 20
14.4025425458
 30
0.0
 10
10.6095854016
 20
14.3923033267
 30
0.0
 10
10.6173045846
 20
14.3853569143
 30
0.0
 10
10.6245013311
 20
14.3789324454
 30
0.0
 10
10.6311597831
 20
14.373045673
 30
0.0
 10
10.637265305
 20
14.3677110585
 30
0.0
 10
10.6428045087
 20
14.3629416845
 30
0.0
 10
10.6477653426
 20
14.3587493546
 30
0.0
 10
10.6515431055
 20
14.3556335495
 30
0.0
 10
10.6542713631
 20
14.3534415325
 30
0.0
 10
10.6560851544
 20
14.3520136754
 30
0.0
 10
10.657747315
 20
14.350737058
 30
0.0
 10
10.6592569923
 20
14.349612462
 30
0.0
 10
10.6606133923
 20
14.348640523
 30
0.0
 10
10.6618158055
 20
14.347821586
 30
0.0
 10
10.6628636741
 20
14.3471560696
 30
0.0
 10
10.6636457376
 20
14.3467067276
 30
0.0
 10
10.664195424
 20
14.346429091
 30
0.0
 10
10.6645455206
 20
14.3462713194
 30
0.0
 10
10.6648568931
 20
14.346151982
 30
0.0
 10
10.6651297727
 20
14.3460709675
 30
0.0
 10
10.6653647017
 20
14.3460280719
 30
0.0
 10
10.6655628523
 20
14.3460235399
 30
0.0
 10
10.6657260418
 20
14.3460589022
 30
0.0
 10
10.6658126631
 20
14.3461145196
 30
0.0
 10
10.665845608
 20
14.3461474579
 30
0.0
  0
SPLINE
  5
50D
100
AcDbEntity
  8
0
100
AcDbSpline
 62
7
  6
CONTINUOUS
 70
0
 71
3
 72
67
 73
63
 74
0
 42
0.0000001
 43
0.0000001
 44
0.0000000001
 40
0.0
 40
0.0
 40
0.0
 40
0.0
 40
0.0001853632
 40
0.0003974075
 40
0.0006546353
 40
0.0009675997
 40
0.0013421442
 40
0.0017816391
 40
0.0022881392
 40
0.0028629616
 40
0.0042205389
 40
0.0058584367
 40
0.0077783599
 40
0.0099808591
 40
0.0124656175
 40
0.0152319503
 40
0.0182788362
 40
0.0216047988
 40
0.0290872551
 40
0.037663624
 40
0.0473150977
 40
0.0580198305
 40
0.06975338
 40
0.0824888497
 40
0.0961967586
 40
0.1108453751
 40
0.1428266977
 40
0.1781356911
 40
0.2164438904
 40
0.2573947624
 40
0.3006070388
 40
0.3456783024
 40
0.3921889657
 40
0.4397059585
 40
0.4877869953
 40
0.5359845528
 40
0.5838501954
 40
0.6309386356
 40
0.6768119833
 40
0.7210437546
 40
0.7632229475
 40
0.8029578427
 40
0.8398795641
 40
0.8736458505
 40
0.9039440372
 40
0.9177037673
 40
0.9304943028
 40
0.9422862265
 40
0.9530525461
 40
0.9627689342
 40
0.9714135691
 40
0.9789674751
 40
0.9854149048
 40
0.988219714
 40
0.9907437158
 40
0.9929860737
 40
0.9949464905
 40
0.9966254128
 40
0.998024214
 40
0.9991462994
 40
0.9996059287
 40
1.0
 40
1.0
 40
1.0
 40
1.0
 10
10.0676769346
 20
14.8180447776
 30
0.0
 10
10.0677099523
 20
14.8180778023
 30
0.0
 10
10.0677966295
 20
14.8181336304
 30
0.0
 10
10.0679599143
 20
14.8181694403
 30
0.0
 10
10.0681581066
 20
14.8181654002
 30
0.0
 10
10.0683929838
 20
14.8181230746
 30
0.0
 10
10.0686657027
 20
14.8180427254
 30
0.0
 10
10.0689768038
 20
14.8179241634
 30
0.0
 10
10.069326524
 20
14.8177672648
 30
0.0
 10
10.0698755194
 20
14.8174909909
 30
0.0
 10
10.0706564699
 20
14.8170435603
 30
0.0
 10
10.0717026906
 20
14.8163806285
 30
0.0
 10
10.0729030414
 20
14.8155646832
 30
0.0
 10
10.0742569403
 20
14.8145961233
 30
0.0
 10
10.0757636925
 20
14.8134753347
 30
0.0
 10
10.077422493
 20
14.8122029539
 30
0.0
 10
10.0792324676
 20
14.8107797472
 30
0.0
 10
10.0819547544
 20
14.8085948464
 30
0.0
 10
10.0857238578
 20
14.805489063
 30
0.0
 10
10.0906728554
 20
14.8013101047
 30
0.0
 10
10.0961982527
 20
14.7965559873
 30
0.0
 10
10.1022879622
 20
14.7912385837
 30
0.0
 10
10.1089285316
 20
14.7853710218
 30
0.0
 10
10.116105274
 20
14.7789678069
 30
0.0
 10
10.1238022988
 20
14.7720447443
 30
0.0
 10
10.1350698
 20
14.7618409814
 30
0.0
 10
10.1503101597
 20
14.7479171638
 30
0.0
 10
10.1698760692
 20
14.7298911971
 30
0.0
 10
10.1910418914
 20
14.7102670251
 30
0.0
 10
10.2136171917
 20
14.6892346866
 30
0.0
 10
10.2373984142
 20
14.666997293
 30
0.0
 10
10.2621708956
 20
14.6437692388
 30
0.0
 10
10.2877107963
 20
14.619774139
 30
0.0
 10
10.3137872189
 20
14.5952427187
 30
0.0
 10
10.3401643131
 20
14.5704106787
 30
0.0
 10
10.3666035038
 20
14.5455164575
 30
0.0
 10
10.3928656844
 20
14.5207990286
 30
0.0
 10
10.4187134568
 20
14.4964956492
 30
0.0
 10
10.4439133155
 20
14.4728396649
 30
0.0
 10
10.4682378333
 20
14.4500583146
 30
0.0
 10
10.4914677542
 20
14.4283706024
 30
0.0
 10
10.5133940202
 20
14.4079852774
 30
0.0
 10
10.5338196659
 20
14.389098777
 30
0.0
 10
10.5525617489
 20
14.3718935863
 30
0.0
 10
10.5670682926
 20
14.3587035076
 30
0.0
 10
10.5777139158
 20
14.3491227607
 30
0.0
 10
10.584919582
 20
14.3426894266
 30
0.0
 10
10.5915907852
 20
14.3367899441
 30
0.0
 10
10.5977128842
 20
14.3314388205
 30
0.0
 10
10.6032724662
 20
14.3266492198
 30
0.0
 10
10.6082573563
 20
14.3224328311
 30
0.0
 10
10.6126567879
 20
14.3188001145
 30
0.0
 10
10.6159641328
 20
14.316156065
 30
0.0
 10
10.6183144315
 20
14.3143453778
 30
0.0
 10
10.6198420261
 20
14.3132030026
 30
0.0
 10
10.6212171985
 20
14.3122123982
 30
0.0
 10
10.6224392555
 20
14.3113741135
 30
0.0
 10
10.6235076013
 20
14.3106881811
 30
0.0
 10
10.6244217766
 20
14.3101548921
 30
0.0
 10
10.6250933536
 20
14.30981666
 30
0.0
 10
10.6255549755
 20
14.3096297784
 30
0.0
 10
10.6257598305
 20
14.3095632444
 30
0.0
 10
10.625855741
 20
14.3095376012
 30
0.0
  0
LINE
  5
50E
100
AcDbEntity
  8
0
100
AcDbLine
 62
7
  6
CONTINUOUS
 10
8.2263437571
 20
11.9697814429
 11
8.2273942197
 21
11.9705546504
  0
SPLINE
  5
50F
100
AcDbEntity
  8
0
100
AcDbSpline
 62
7
  6
CONTINUOUS
 70
0
 71
3
 72
24
 73
20
 74
0
 42
0.0000001
 43
0.0000001
 44
0.0000000001
 40
0.0
 40
0.0
 40
0.0
 40
0.0
 40
0.0108348573
 40
0.0217830206
 40
0.0331794591
 40
0.0453216946
 40
0.0584562319
 40
0.0727778647
 40
0.1055079701
 40
0.144330896
 40
0.1896608845
 40
0.2416962607
 40
0.3005013286
 40
0.3660490781
 40
0.4382449996
 40
0.5169440455
 40
0.6019509391
 40
0.7899354594
 40
1.0
 40
1.0
 40
1.0
 40
1.0
 10
7.3135128005
 20
12.8360227542
 30
0.0
 10
7.3135878159
 20
12.8360977753
 30
0.0
 10
7.3137525593
 20
12.8362354334
 30
0.0
 10
7.3140371385
 20
12.8363956029
 30
0.0
 10
7.3143570811
 20
12.8365083972
 30
0.0
 10
7.3147113867
 20
12.8365740599
 30
0.0
 10
7.3150996467
 20
12.8365931088
 30
0.0
 10
7.3156887636
 20
12.8365548095
 30
0.0
 10
7.3165148795
 20
12.8363770818
 30
0.0
 10
7.3175946317
 20
12.8359918033
 30
0.0
 10
7.3188037374
 20
12.8354256188
 30
0.0
 10
7.320139508
 20
12.8346792924
 30
0.0
 10
7.321598732
 20
12.8337540168
 30
0.0
 10
7.3231770982
 20
12.83265193
 30
0.0
 10
7.3248697675
 20
12.8313759488
 30
0.0
 10
7.3266713049
 20
12.8299297731
 30
0.0
 10
7.3292999658
 20
12.8277046761
 30
0.0
 10
7.3328034844
 20
12.8245249153
 30
0.0
 10
7.3355975149
 20
12.8218065083
 30
0.0
 10
7.337051956
 20
12.8203520672
 30
0.0
  0
ELLIPSE
  5
510
100
AcDbEntity
  8
0
100
AcDbEllipse
 62
7
  6
CONTINUOUS
 10
9.9312525103
 20
14.1485954446
 30
0.0
 11
-0.0
 21
0.6181264952
 31
0.0
 40
0.2679491924
 41
-0.5408188012
 42
0.0172200256
  0
ENDSEC
  0
SECTION
  2
OBJECTS
  0
DICTIONARY
  5
C
100
AcDbDictionary
280
0
281
1
  3
ACAD_GROUP
350
D
  3
ACAD_MLINESTYLE
350
17
  3
ACAD_LAYOUT
350
1A
  3
ACAD_PLOTSETTINGS
350
19
  3
ACAD_PLOTSTYLENAME
350
E
  0
DICTIONARY
  5
D
102
{ACAD_REACTORS
330
C
102
}
100
AcDbDictionary
280
0
281
1
  0
ACDBDICTIONARYWDFLT
  5
E
102
{ACAD_REACTORS
330
C
102
}
100
AcDbDictionary
281
1
  3
Normal
350
F
100
AcDbDictionaryWithDefault
340
F
  0
DICTIONARY
  5
17
102
{ACAD_REACTORS
330
C
102
}
100
AcDbDictionary
280
0
281
1
  3
Standard
350
18
  0
DICTIONARY
  5
19
102
{ACAD_REACTORS
330
C
102
}
100
AcDbDictionary
281
1
  0
DICTIONARY
  5
1A
102
{ACAD_REACTORS
330
C
102
}
100
AcDbDictionary
281
1
  3
Model
350
511
  3
Layout1
350
512
  0
ACDBPLACEHOLDER
  5
F
102
{ACAD_REACTORS
330
E
102
}
  0
MLINESTYLE
  5
18
102
{ACAD_REACTORS
330
17
102
}
100
AcDbMlineStyle
  2
STANDARD
 70
0
  3

 62
256
 51
90.0
 52
90.0
 71
2
 49
0.5
 62
256
  6
BYLAYER
 49
-0.5
 62
256
  6
BYLAYER
  0
LAYOUT
  5
511
102
{ACAD_REACTORS
330
1A
102
}
100
AcDbPlotSettings
  1

  2
none_device
  4
ANSI_C_(22.00_x_17.00_Inches)
  6

 40
0.0
 41
0.0
 42
0.0
 43
0.0
 44
558.8
 45
431.8
 46
0.0
 47
0.0
 48
0.0
 49
0.0
140
0.0
141
0.0
142
1.0
143
1.0
 70
1024
 72
0
 73
0
 74
0
  7

 75
0
147
1.0
148
0.0
149
0.0
100
AcDbLayout
  1
Model
 70
0
 71
0
 10
0.0
 20
0.0
 11
22.0
 21
17.0
 12
0.0
 22
0.0
 32
0.0
 14
0.0
 24
0.0
 34
0.0
 15
0.0
 25
0.0
 35
0.0
146
0.0
 13
0.0
 23
0.0
 33
0.0
 16
1.0
 26
0.0
 36
0.0
 17
0.0
 27
1.0
 37
0.0
 76
0
330
205
345
0
346
0
  0
LAYOUT
  5
512
102
{ACAD_REACTORS
330
1A
102
}
100
AcDbPlotSettings
  1

  2
none_device
  4
ANSI_C_(22.00_x_17.00_Inches)
  6

 40
0.0
 41
0.0
 42
0.0
 43
0.0
 44
558.8
 45
431.8
 46
0.0
 47
0.0
 48
0.0
 49
0.0
140
0.0
141
0.0
142
1.0
143
1.0
 70
0
 72
0
 73
0
 74
0
  7

 75
0
147
1.0
148
0.0
149
0.0
100
AcDbLayout
  1
Layout1
 70
0
 71
1
 10
0.0
 20
0.0
 11
22.0
 21
17.0
 12
0.0
 22
0.0
 32
0.0
 14
0.0
 24
0.0
 34
0.0
 15
0.0
 25
0.0
 35
0.0
146
0.0
 13
0.0
 23
0.0
 33
0.0
 16
1.0
 26
0.0
 36
0.0
 17
0.0
 27
1.0
 37
0.0
 76
0
330
206
345
0
346
0
  0
ENDSEC
  0
EOF
