999
DXF file: E:\BT Custom\CADOUTPUT\_FRONT.dxf
999
Pro/ENGINEER 2018400 by Parametric Technology Corporation
  0
SECTION
  2
HEADER
  9
$ACADVER
  1
AC1018
  9
$DWGCODEPAGE
  3
ANSI_1252
  9
$EXTMAX
 10
22.0
 20
17.0
 30
0.0
  9
$EXTMIN
 10
0.0
 20
0.0
 30
0.0
  9
$LIMMIN
 10
0.0
 20
0.0
  9
$LIMMAX
 10
22.0
 20
17.0
  9
$VIEWCTR
 10
11.0
 20
8.5
  9
$VIEWSIZE
 40
17.0
  9
$CLAYER
  8
0
  9
$LTSCALE
 40
1.21
  9
$CELTYPE
  6
BYLAYER
  9
$DIMSCALE
 40
1.0
  9
$DIMASZ
 40
0.1
  9
$DIMEXO
 40
0.0625
  9
$DIMDLI
 40
0.836
  9
$DIMEXE
 40
0.125
  9
$DIMCEN
 40
0.198
  9
$DIMLFAC
 40
1.0
  9
$DIMBLK
  1
_FILLED
  9
$DIMALT
 70
1
  9
$DIMALTD
 70
2
  9
$DIMALTTD
 70
2
  9
$DIMALTF
 40
25.4
  9
$DIMTXT
 40
0.08
  9
$DIMTOL
 70
1
  9
$DIMLIM
 70
0
  9
$DIMTFAC
 40
1.0
  9
$DIMTP
 40
0.001
  9
$DIMTM
 40
0.001
  9
$DIMGAP
 40
0.09
  9
$DIMDSEP
 70
46
  9
$AUNITS
 70
0
  9
$PDMODE
 70
3
  9
$PDSIZE
 40
0.06
  9
$HANDSEED
  5
261
  9
$TILEMODE
 70
1
  9
$MEASUREMENT
 70
0
  9
$INSUNITS
 70
1
  0
ENDSEC
  0
SECTION
  2
CLASSES
  0
CLASS
  1
ACDBDICTIONARYWDFLT
  2
AcDbDictionaryWithDefault
  3
AutoCAD 2000
 90
0
 91
1
280
0
281
0
  0
CLASS
  1
ACDBPLACEHOLDER
  2
AcDbPlaceHolder
  3
AutoCAD 2000
 90
0
 91
1
280
0
281
0
  0
CLASS
  1
LAYOUT
  2
AcDbLayout
  3
AutoCAD 2000
 90
0
 91
0
280
0
281
0
  0
ENDSEC
  0
SECTION
  2
TABLES
  0
TABLE
  2
VPORT
  5
8
100
AcDbSymbolTable
 70
2
  0
VPORT
  5
1F4
100
AcDbSymbolTableRecord
100
AcDbViewportTableRecord
  2
*ACTIVE
 70
0
 10
0.0
 20
0.0
 11
1.0
 21
1.0
 12
11.0
 22
8.5
 13
0.0
 23
0.0
 14
1.0
 24
1.0
 15
0.0
 25
0.0
 16
0.0
 26
0.0
 36
1.0
 17
0.0
 27
0.0
 37
0.0
 40
17.0
 41
1.2941176471
 42
50.0
 43
0.0
 44
0.0
 50
0.0
 51
0.0
 71
0
 72
100
 73
1
 74
1
 75
0
 76
0
 77
0
 78
0
  0
ENDTAB
  0
TABLE
  2
LTYPE
  5
5
100
AcDbSymbolTable
 70
6
  0
LTYPE
  5
14
100
AcDbSymbolTableRecord
100
AcDbLinetypeTableRecord
  2
BYBLOCK
 70
0
  3

 72
65
 73
0
 40
0.0
  0
LTYPE
  5
15
100
AcDbSymbolTableRecord
100
AcDbLinetypeTableRecord
  2
BYLAYER
 70
0
  3

 72
65
 73
0
 40
0.0
  0
LTYPE
  5
16
100
AcDbSymbolTableRecord
100
AcDbLinetypeTableRecord
  2
CONTINUOUS
 70
64
  3
Solid line
 72
65
 73
0
 40
0.0
  0
LTYPE
  5
1F5
100
AcDbSymbolTableRecord
100
AcDbLinetypeTableRecord
  2
CENTER
 70
64
  3
____ _ ____ _ ____ _ ____ _ ____ _ ____ _ ____
 72
65
 73
4
 40
0.6
 49
0.375
 74
0
 49
-0.075
 74
0
 49
0.075
 74
0
 49
-0.075
 74
0
  0
LTYPE
  5
1F6
100
AcDbSymbolTableRecord
100
AcDbLinetypeTableRecord
  2
HIDDEN
 70
64
  3
- - - - - - - - - - - - - - - - - - - -
 72
65
 73
2
 40
0.2
 49
0.1
 74
0
 49
-0.1
 74
0
  0
LTYPE
  5
1F7
100
AcDbSymbolTableRecord
100
AcDbLinetypeTableRecord
  2
PHANTOM
 70
64
  3
_____ _ _ _____ _ _ _____ _ _ _____
 72
65
 73
6
 40
0.8
 49
0.45
 74
0
 49
-0.05
 74
0
 49
0.1
 74
0
 49
-0.05
 74
0
 49
0.1
 74
0
 49
-0.05
 74
0
  0
LTYPE
  5
1F8
100
AcDbSymbolTableRecord
100
AcDbLinetypeTableRecord
  2
DOT
 70
64
  3
. . . . . . . . . . . . . . . . . . . .
 72
65
 73
2
 40
0.2
 49
0.1
 74
0
 49
-0.1
 74
0
  0
LTYPE
  5
1F9
100
AcDbSymbolTableRecord
100
AcDbLinetypeTableRecord
  2
DASHED
 70
64
  3
- - - - - - - - - - - - - - - - - - - -
 72
65
 73
2
 40
0.2
 49
0.1
 74
0
 49
-0.1
 74
0
  0
ENDTAB
  0
TABLE
  2
LAYER
  5
2
100
AcDbSymbolTable
 70
36
  0
LAYER
  5
10
100
AcDbSymbolTableRecord
100
AcDbLayerTableRecord
  2
0
 70
0
 62
7
  6
CONTINUOUS
370
-3
390
F
  0
LAYER
  5
1FA
100
AcDbSymbolTableRecord
100
AcDbLayerTableRecord
  2
DEFAULT_1
 70
0
 62
7
  6
CENTER
370
-3
390
F
  0
LAYER
  5
1FB
100
AcDbSymbolTableRecord
100
AcDbLayerTableRecord
  2
DEFAULT_2
 70
0
 62
8
  6
HIDDEN
370
-3
390
F
  0
LAYER
  5
1FC
100
AcDbSymbolTableRecord
100
AcDbLayerTableRecord
  2
DEFAULT_3
 70
0
 62
7
  6
PHANTOM
370
-3
390
F
  0
LAYER
  5
1FD
100
AcDbSymbolTableRecord
100
AcDbLayerTableRecord
  2
ALL_FEATURES
 70
0
 62
7
  6
CONTINUOUS
370
-3
390
F
  0
LAYER
  5
1FE
100
AcDbSymbolTableRecord
100
AcDbLayerTableRecord
  2
AXES_FEATURES
 70
0
 62
7
  6
CONTINUOUS
370
-3
390
F
  0
LAYER
  5
1FF
100
AcDbSymbolTableRecord
100
AcDbLayerTableRecord
  2
DIMENSIONS
 70
0
 62
7
  6
CONTINUOUS
370
-3
390
F
  0
ENDTAB
  0
TABLE
  2
STYLE
  5
3
100
AcDbSymbolTable
 70
1
  0
STYLE
  5
11
100
AcDbSymbolTableRecord
100
AcDbTextStyleTableRecord
  2
STANDARD
 70
0
 40
0.0
 41
0.8
 50
0.0
 71
0
 42
0.2
  3
txt
  4

  0
STYLE
  5
200
100
AcDbSymbolTableRecord
100
AcDbTextStyleTableRecord
  2
TEXTSTYLE_1
 70
0
 40
0.0
 41
0.8
 50
0.0
 71
0
 42
0.2
  3
gdt
  4

  0
ENDTAB
  0
TABLE
  2
VIEW
  5
6
100
AcDbSymbolTable
 70
0
  0
ENDTAB
  0
TABLE
  2
UCS
  5
7
100
AcDbSymbolTable
 70
0
  0
ENDTAB
  0
TABLE
  2
APPID
  5
9
100
AcDbSymbolTable
 70
1
  0
APPID
  5
201
100
AcDbSymbolTableRecord
100
AcDbRegAppTableRecord
  2
ACAD
 70
0
  0
ENDTAB
  0
TABLE
  2
BLOCK_RECORD
  5
1
100
AcDbSymbolTable
 70
0
  0
BLOCK_RECORD
  5
202
100
AcDbSymbolTableRecord
100
AcDbBlockTableRecord
  2
*Model_Space
  0
BLOCK_RECORD
  5
203
100
AcDbSymbolTableRecord
100
AcDbBlockTableRecord
  2
*Paper_Space
  0
BLOCK_RECORD
  5
204
100
AcDbSymbolTableRecord
100
AcDbBlockTableRecord
  2
_FILLED
  0
ENDTAB
  0
TABLE
  2
DIMSTYLE
  5
A
100
AcDbSymbolTable
 70
1
100
AcDbDimStyleTable
 71
0
  0
DIMSTYLE
105
205
100
AcDbSymbolTableRecord
100
AcDbDimStyleTableRecord
  2
STANDARD
 70
0
  3

  4

 40
1.0
 41
0.1
 42
0.0625
 43
0.38
 44
0.125
 45
0.0
 46
0.0
 47
0.001
 48
0.001
140
0.08
141
0.09
142
0.0
143
25.4
144
1.0
145
0.0
146
1.0
147
0.09
 71
1.0
 72
0.0
 73
1
 74
1
 75
0
 76
0
 77
0
 78
4
 79
1
170
1
171
2
172
0
173
0
174
0
175
0
176
0
177
0
178
0
270
2
179
3
271
3
272
3
273
2
274
2
275
0
280
0
281
0
282
0
283
1
284
4
285
0
286
0
287
3
288
0
340
11
278
46
341
204
342
204
343
204
344
204
  0
ENDTAB
  0
ENDSEC
  0
SECTION
  2
BLOCKS
  0
BLOCK
  5
20
100
AcDbEntity
  8
0
100
AcDbBlockBegin
  2
*Model_Space
 70
0
 10
0.0
 20
0.0
 30
0.0
  3
*Model_Space
  1

  0
ENDBLK
  5
21
100
AcDbEntity
  8
0
100
AcDbBlockEnd
  0
BLOCK
  5
1C
100
AcDbEntity
  8
0
100
AcDbBlockBegin
  2
*Paper_Space
 70
0
 10
0.0
 20
0.0
 30
0.0
  3
*Paper_Space
  1

  0
ENDBLK
  5
1D
100
AcDbEntity
  8
0
100
AcDbBlockEnd
  0
BLOCK
  5
206
100
AcDbEntity
  8
0
100
AcDbBlockBegin
  2
_FILLED
 70
64
 10
0.0
 20
0.0
  3
_FILLED
  1

  0
SOLID
  5
207
100
AcDbEntity
  8
0
  6
BYBLOCK
 62
0
100
AcDbTrace
 10
0.0
 20
0.0
 11
-1.0
 21
0.2
 12
-1.0
 22
-0.2
 13
-1.0
 23
-0.2
  0
ENDBLK
  5
208
100
AcDbEntity
  8
0
  6
BYBLOCK
 62
0
100
AcDbBlockEnd
  0
ENDSEC
  0
SECTION
  2
ENTITIES
  0
LINE
  5
209
100
AcDbEntity
  8
0
100
AcDbLine
 62
7
  6
CONTINUOUS
 10
5.7502076451
 20
3.2789195021
 11
8.1251770404
 21
3.2789195021
  0
LINE
  5
20A
100
AcDbEntity
  8
0
100
AcDbLine
 62
7
  6
CONTINUOUS
 10
9.7501946004
 20
3.2789195021
 11
12.1251900851
 21
3.2789195021
  0
LINE
  5
20B
100
AcDbEntity
  8
0
100
AcDbLine
 62
7
  6
CONTINUOUS
 10
13.7502076451
 20
3.2789195021
 11
16.1251770404
 21
3.2789195021
  0
LINE
  5
20C
100
AcDbEntity
  8
0
100
AcDbLine
 62
7
  6
CONTINUOUS
 10
5.5626923427
 20
6.3044188271
 11
5.5626923427
 21
5.8594201771
  0
LINE
  5
20D
100
AcDbEntity
  8
0
100
AcDbLine
 62
7
  6
CONTINUOUS
 10
16.1251770404
 20
3.6539195021
 11
13.7502076451
 21
3.6539195021
  0
LINE
  5
20E
100
AcDbEntity
  8
0
100
AcDbLine
 62
7
  6
CONTINUOUS
 10
8.1251770404
 20
3.6539195021
 11
5.7502076451
 21
3.6539195021
  0
LINE
  5
20F
100
AcDbEntity
  8
0
100
AcDbLine
 62
7
  6
CONTINUOUS
 10
5.7501923427
 20
3.6539195021
 11
5.7501923427
 21
3.2789195021
  0
LINE
  5
210
100
AcDbEntity
  8
0
100
AcDbLine
 62
7
  6
CONTINUOUS
 10
12.1251900851
 20
4.3819195021
 11
9.7501946004
 21
4.3819195021
  0
LINE
  5
211
100
AcDbEntity
  8
0
100
AcDbLine
 62
7
  6
CONTINUOUS
 10
6.2814423427
 20
5.2219195021
 11
6.2814423427
 21
4.7819195021
  0
LINE
  5
212
100
AcDbEntity
  8
0
100
AcDbLine
 62
7
  6
CONTINUOUS
 10
6.2814423427
 20
4.7619195021
 11
6.2814423427
 21
3.6539195021
  0
LINE
  5
213
100
AcDbEntity
  8
0
100
AcDbLine
 62
7
  6
CONTINUOUS
 10
6.5626923427
 20
6.3819195021
 11
6.5626923427
 21
6.3169195021
  0
LINE
  5
214
100
AcDbEntity
  8
0
100
AcDbLine
 62
7
  6
CONTINUOUS
 10
6.5626923427
 20
5.8469195021
 11
6.5626923427
 21
5.7819195021
  0
LINE
  5
215
100
AcDbEntity
  8
0
100
AcDbLine
 62
7
  6
CONTINUOUS
 10
6.6876923427
 20
5.7819195021
 11
6.6876923427
 21
5.2219195021
  0
LINE
  5
216
100
AcDbEntity
  8
0
100
AcDbLine
 62
7
  6
CONTINUOUS
 10
15.5939414316
 20
4.7619195021
 11
14.2814432538
 21
4.7619195021
  0
LINE
  5
217
100
AcDbEntity
  8
0
100
AcDbLine
 62
7
  6
CONTINUOUS
 10
7.5939414316
 20
4.7619195021
 11
6.2814432538
 21
4.7619195021
  0
LINE
  5
218
100
AcDbEntity
  8
0
100
AcDbLine
 62
7
  6
CONTINUOUS
 10
6.2814432538
 20
4.7819195021
 11
7.5939414316
 21
4.7819195021
  0
LINE
  5
219
100
AcDbEntity
  8
0
100
AcDbLine
 62
7
  6
CONTINUOUS
 10
14.2814432538
 20
4.7819195021
 11
15.5939414316
 21
4.7819195021
  0
LINE
  5
21A
100
AcDbEntity
  8
0
100
AcDbLine
 62
7
  6
CONTINUOUS
 10
6.7376923427
 20
4.7819195021
 11
6.7376923427
 21
4.7619195021
  0
LINE
  5
21B
100
AcDbEntity
  8
0
100
AcDbLine
 62
7
  6
CONTINUOUS
 10
7.1376923427
 20
4.7819195021
 11
7.1376923427
 21
4.7619195021
  0
LINE
  5
21C
100
AcDbEntity
  8
0
100
AcDbLine
 62
7
  6
CONTINUOUS
 10
7.1876923427
 20
5.7819195021
 11
7.1876923427
 21
5.2219195021
  0
LINE
  5
21D
100
AcDbEntity
  8
0
100
AcDbLine
 62
7
  6
CONTINUOUS
 10
15.5939414316
 20
5.2219195021
 11
14.2814432538
 21
5.2219195021
  0
LINE
  5
21E
100
AcDbEntity
  8
0
100
AcDbLine
 62
7
  6
CONTINUOUS
 10
7.5939414316
 20
5.2219195021
 11
6.2814432538
 21
5.2219195021
  0
LINE
  5
21F
100
AcDbEntity
  8
0
100
AcDbLine
 62
7
  6
CONTINUOUS
 10
7.3126923427
 20
6.3819195021
 11
7.3126923427
 21
6.3169195021
  0
LINE
  5
220
100
AcDbEntity
  8
0
100
AcDbLine
 62
7
  6
CONTINUOUS
 10
7.3126923427
 20
5.8469195021
 11
7.3126923427
 21
5.7819195021
  0
LINE
  5
221
100
AcDbEntity
  8
0
100
AcDbLine
 62
7
  6
CONTINUOUS
 10
7.5939423427
 20
5.2219195021
 11
7.5939423427
 21
4.7819195021
  0
LINE
  5
222
100
AcDbEntity
  8
0
100
AcDbLine
 62
7
  6
CONTINUOUS
 10
7.5939423427
 20
4.7619195021
 11
7.5939423427
 21
3.6539195021
  0
LINE
  5
223
100
AcDbEntity
  8
0
100
AcDbLine
 62
7
  6
CONTINUOUS
 10
6.5626930535
 20
5.7819195021
 11
7.3126916319
 21
5.7819195021
  0
LINE
  5
224
100
AcDbEntity
  8
0
100
AcDbLine
 62
7
  6
CONTINUOUS
 10
14.5626930535
 20
5.7819195021
 11
15.3126916319
 21
5.7819195021
  0
LINE
  5
225
100
AcDbEntity
  8
0
100
AcDbLine
 62
7
  6
CONTINUOUS
 10
16.3126923427
 20
5.8594195021
 11
15.3049990842
 21
5.8594195021
  0
LINE
  5
226
100
AcDbEntity
  8
0
100
AcDbLine
 62
7
  6
CONTINUOUS
 10
8.3126923427
 20
5.8594195021
 11
7.3049990824
 21
5.8594195021
  0
LINE
  5
227
100
AcDbEntity
  8
0
100
AcDbLine
 62
7
  6
CONTINUOUS
 10
5.5626923427
 20
5.8594195021
 11
6.5703856096
 21
5.8594195021
  0
LINE
  5
228
100
AcDbEntity
  8
0
100
AcDbLine
 62
7
  6
CONTINUOUS
 10
13.5626923427
 20
5.8594195021
 11
14.5703856099
 21
5.8594195021
  0
LINE
  5
229
100
AcDbEntity
  8
0
100
AcDbLine
 62
7
  6
CONTINUOUS
 10
8.1251923427
 20
3.6539195021
 11
8.1251923427
 21
3.2789195021
  0
LINE
  5
22A
100
AcDbEntity
  8
0
100
AcDbLine
 62
7
  6
CONTINUOUS
 10
8.3126923427
 20
5.8594201771
 11
8.3126923427
 21
6.3044188271
  0
LINE
  5
22B
100
AcDbEntity
  8
0
100
AcDbLine
 62
7
  6
CONTINUOUS
 10
16.3126923427
 20
6.3044195021
 11
15.3049990755
 21
6.3044195021
  0
LINE
  5
22C
100
AcDbEntity
  8
0
100
AcDbLine
 62
7
  6
CONTINUOUS
 10
8.3126923427
 20
6.3044195021
 11
7.3049990759
 21
6.3044195021
  0
LINE
  5
22D
100
AcDbEntity
  8
0
100
AcDbLine
 62
7
  6
CONTINUOUS
 10
5.5626923427
 20
6.3044195021
 11
6.5703856031
 21
6.3044195021
  0
LINE
  5
22E
100
AcDbEntity
  8
0
100
AcDbLine
 62
7
  6
CONTINUOUS
 10
13.5626923427
 20
6.3044195021
 11
14.5703856013
 21
6.3044195021
  0
LINE
  5
22F
100
AcDbEntity
  8
0
100
AcDbLine
 62
7
  6
CONTINUOUS
 10
15.3126916319
 20
6.3819195021
 11
14.5626930535
 21
6.3819195021
  0
LINE
  5
230
100
AcDbEntity
  8
0
100
AcDbLine
 62
7
  6
CONTINUOUS
 10
7.3126916319
 20
6.3819195021
 11
6.5626930535
 21
6.3819195021
  0
LINE
  5
231
100
AcDbEntity
  8
0
100
AcDbLine
 62
7
  6
CONTINUOUS
 10
11.6251902575
 20
6.8189195021
 11
10.250194428
 21
6.8189195021
  0
LINE
  5
232
100
AcDbEntity
  8
0
100
AcDbLine
 62
7
  6
CONTINUOUS
 10
9.7501923427
 20
4.3819195021
 11
9.7501923427
 21
3.2789195021
  0
LINE
  5
233
100
AcDbEntity
  8
0
100
AcDbLine
 62
7
  6
CONTINUOUS
 10
10.2501923427
 20
6.8189195021
 11
10.2501923427
 21
4.3819195021
  0
LINE
  5
234
100
AcDbEntity
  8
0
100
AcDbLine
 62
7
  6
CONTINUOUS
 10
10.4376923427
 20
6.8189195021
 11
10.4376923427
 21
14.7564195021
  0
LINE
  5
235
100
AcDbEntity
  8
0
100
AcDbLine
 62
7
  6
CONTINUOUS
 10
11.4376923427
 20
6.8189195021
 11
11.4376923427
 21
14.7564195021
  0
LINE
  5
236
100
AcDbEntity
  8
0
100
AcDbLine
 62
7
  6
CONTINUOUS
 10
10.43772429
 20
9.7064195021
 11
11.4376603955
 21
9.7064195021
  0
LINE
  5
237
100
AcDbEntity
  8
0
100
AcDbLine
 62
7
  6
CONTINUOUS
 10
11.6251923427
 20
6.8189195021
 11
11.6251923427
 21
4.3819195021
  0
LINE
  5
238
100
AcDbEntity
  8
0
100
AcDbLine
 62
7
  6
CONTINUOUS
 10
12.1251923427
 20
4.3819195021
 11
12.1251923427
 21
3.2789195021
  0
LINE
  5
239
100
AcDbEntity
  8
0
100
AcDbLine
 62
9
  6
CONTINUOUS
 10
11.4376923427
 20
10.8189195021
 11
10.4376923427
 21
10.8189195021
  0
LINE
  5
23A
100
AcDbEntity
  8
0
100
AcDbLine
 62
7
  6
CONTINUOUS
 10
13.5626923427
 20
6.3044188271
 11
13.5626923427
 21
5.8594201771
  0
LINE
  5
23B
100
AcDbEntity
  8
0
100
AcDbLine
 62
7
  6
CONTINUOUS
 10
13.7501923427
 20
3.6539195021
 11
13.7501923427
 21
3.2789195021
  0
LINE
  5
23C
100
AcDbEntity
  8
0
100
AcDbLine
 62
7
  6
CONTINUOUS
 10
14.2814423427
 20
5.2219195021
 11
14.2814423427
 21
4.7819195021
  0
LINE
  5
23D
100
AcDbEntity
  8
0
100
AcDbLine
 62
7
  6
CONTINUOUS
 10
14.2814423427
 20
4.7619195021
 11
14.2814423427
 21
3.6539195021
  0
LINE
  5
23E
100
AcDbEntity
  8
0
100
AcDbLine
 62
7
  6
CONTINUOUS
 10
14.5626923427
 20
6.3819195021
 11
14.5626923427
 21
6.3169195021
  0
LINE
  5
23F
100
AcDbEntity
  8
0
100
AcDbLine
 62
7
  6
CONTINUOUS
 10
14.5626923427
 20
5.8469195021
 11
14.5626923427
 21
5.7819195021
  0
LINE
  5
240
100
AcDbEntity
  8
0
100
AcDbLine
 62
7
  6
CONTINUOUS
 10
14.6876923427
 20
5.7819195021
 11
14.6876923427
 21
5.2219195021
  0
LINE
  5
241
100
AcDbEntity
  8
0
100
AcDbLine
 62
7
  6
CONTINUOUS
 10
14.7376923427
 20
4.7819195021
 11
14.7376923427
 21
4.7619195021
  0
LINE
  5
242
100
AcDbEntity
  8
0
100
AcDbLine
 62
7
  6
CONTINUOUS
 10
15.1376923427
 20
4.7819195021
 11
15.1376923427
 21
4.7619195021
  0
LINE
  5
243
100
AcDbEntity
  8
0
100
AcDbLine
 62
7
  6
CONTINUOUS
 10
15.1876923427
 20
5.7819195021
 11
15.1876923427
 21
5.2219195021
  0
LINE
  5
244
100
AcDbEntity
  8
0
100
AcDbLine
 62
7
  6
CONTINUOUS
 10
15.3126923427
 20
6.3819195021
 11
15.3126923427
 21
6.3169195021
  0
LINE
  5
245
100
AcDbEntity
  8
0
100
AcDbLine
 62
7
  6
CONTINUOUS
 10
15.3126923427
 20
5.8469195021
 11
15.3126923427
 21
5.7819195021
  0
LINE
  5
246
100
AcDbEntity
  8
0
100
AcDbLine
 62
7
  6
CONTINUOUS
 10
15.5939423427
 20
5.2219195021
 11
15.5939423427
 21
4.7819195021
  0
LINE
  5
247
100
AcDbEntity
  8
0
100
AcDbLine
 62
7
  6
CONTINUOUS
 10
15.5939423427
 20
4.7619195021
 11
15.5939423427
 21
3.6539195021
  0
LINE
  5
248
100
AcDbEntity
  8
0
100
AcDbLine
 62
7
  6
CONTINUOUS
 10
16.1251923427
 20
3.6539195021
 11
16.1251923427
 21
3.2789195021
  0
LINE
  5
249
100
AcDbEntity
  8
0
100
AcDbLine
 62
7
  6
CONTINUOUS
 10
16.3126923427
 20
5.8594201771
 11
16.3126923427
 21
6.3044188271
  0
ARC
  5
24A
100
AcDbEntity
  8
0
100
AcDbCircle
 62
7
  6
CONTINUOUS
 10
10.9376923427
 20
14.7564195021
 40
0.5
100
AcDbArc
 50
0.0
 51
180.0
  0
CIRCLE
  5
24B
100
AcDbEntity
  8
0
100
AcDbCircle
 62
7
  6
CONTINUOUS
 10
6.9376923427
 20
6.0819195021
 40
0.235
  0
CIRCLE
  5
24C
100
AcDbEntity
  8
0
100
AcDbCircle
 62
7
  6
CONTINUOUS
 10
14.9376923427
 20
6.0819195021
 40
0.235
  0
CIRCLE
  5
24D
100
AcDbEntity
  8
0
100
AcDbCircle
 62
7
  6
CONTINUOUS
 10
6.9376923427
 20
6.0819195021
 40
0.2225
  0
CIRCLE
  5
24E
100
AcDbEntity
  8
0
100
AcDbCircle
 62
7
  6
CONTINUOUS
 10
14.9376923427
 20
6.0819195021
 40
0.2225
  0
SPLINE
  5
24F
100
AcDbEntity
  8
0
100
AcDbSpline
 62
7
  6
CONTINUOUS
 70
0
 71
3
 72
38
 73
34
 74
0
 42
0.0000001
 43
0.0000001
 44
0.0000000001
 40
0.0
 40
0.0
 40
0.0
 40
0.0
 40
0.0939728207
 40
0.1870076541
 40
0.2782603862
 40
0.3670070686
 40
0.4526335758
 40
0.5345800274
 40
0.6122888657
 40
0.6851592397
 40
0.7525184941
 40
0.8136084421
 40
0.8415423829
 40
0.8675866883
 40
0.8916266819
 40
0.9135454245
 40
0.9332266526
 40
0.9505582927
 40
0.9654318493
 40
0.9719166394
 40
0.9777512897
 40
0.9829246601
 40
0.9874281753
 40
0.9912541065
 40
0.9943947209
 40
0.9968429507
 40
0.9978061866
 40
0.9985950506
 40
0.9992092034
 40
0.9996483055
 40
0.9998021065
 40
0.9999120175
 40
1.0
 40
1.0
 40
1.0
 40
1.0
 10
7.2299251267
 20
6.0819195021
 30
0.0
 10
7.2299251267
 20
6.0740109431
 30
0.0
 10
7.2305668199
 20
6.0582654064
 30
0.0
 10
7.2333780761
 20
6.0349946942
 30
0.0
 10
7.2378157611
 20
6.0124296296
 30
0.0
 10
7.2435760079
 20
5.9908152554
 30
0.0
 10
7.2503262231
 20
5.9703165065
 30
0.0
 10
7.2577420426
 20
5.9510446601
 30
0.0
 10
7.2655228387
 20
5.9330840595
 30
0.0
 10
7.2733936787
 20
5.9165141193
 30
0.0
 10
7.281100459
 20
5.9014236397
 30
0.0
 10
7.2873619309
 20
5.8898464787
 30
0.0
 10
7.292094592
 20
5.8813977026
 30
0.0
 10
7.2953527859
 20
5.875697208
 30
0.0
 10
7.2983997661
 20
5.8704593057
 30
0.0
 10
7.3012099885
 20
5.8657033612
 30
0.0
 10
7.3037579659
 20
5.8614483259
 30
0.0
 10
7.3060207015
 20
5.8577136452
 30
0.0
 10
7.3077197598
 20
5.8549360117
 30
0.0
 10
7.3089195003
 20
5.8529871942
 30
0.0
 10
7.3096933107
 20
5.8517348081
 30
0.0
 10
7.3103809703
 20
5.850625194
 30
0.0
 10
7.3109807683
 20
5.8496600107
 30
0.0
 10
7.3114911877
 20
5.8488407009
 30
0.0
 10
7.3119107609
 20
5.8481685808
 30
0.0
 10
7.3122030545
 20
5.8477010212
 30
0.0
 10
7.3123904935
 20
5.8474013088
 30
0.0
 10
7.312496246
 20
5.8472325874
 30
0.0
 10
7.3125783012
 20
5.8471010097
 30
0.0
 10
7.3126327323
 20
5.8470153302
 30
0.0
 10
7.3126634941
 20
5.846964682
 30
0.0
 10
7.3126803726
 20
5.8469405471
 30
0.0
 10
7.3126869931
 20
5.8469246214
 30
0.0
 10
7.3126923427
 20
5.8469195021
 30
0.0
  0
LINE
  5
250
100
AcDbEntity
  8
0
100
AcDbLine
 62
7
  6
CONTINUOUS
 10
7.3119679208
 20
6.3157617744
 11
7.3126923427
 21
6.3169195021
  0
LINE
  5
251
100
AcDbEntity
  8
0
100
AcDbLine
 62
7
  6
CONTINUOUS
 10
6.5634167647
 20
5.8480772299
 11
6.5626923427
 21
5.8469195021
  0
SPLINE
  5
252
100
AcDbEntity
  8
0
100
AcDbSpline
 62
7
  6
CONTINUOUS
 70
0
 71
3
 72
38
 73
34
 74
0
 42
0.0000001
 43
0.0000001
 44
0.0000000001
 40
0.0
 40
0.0
 40
0.0
 40
0.0
 40
0.0939728207
 40
0.1870076541
 40
0.2782603862
 40
0.3670070686
 40
0.4526335758
 40
0.5345800274
 40
0.6122888657
 40
0.6851592397
 40
0.7525184941
 40
0.8136084421
 40
0.8415423829
 40
0.8675866883
 40
0.8916266819
 40
0.9135454245
 40
0.9332266526
 40
0.9505582927
 40
0.9654318493
 40
0.9719166394
 40
0.9777512897
 40
0.9829246601
 40
0.9874281753
 40
0.9912541065
 40
0.9943947209
 40
0.9968429507
 40
0.9978061866
 40
0.9985950506
 40
0.9992092034
 40
0.9996483055
 40
0.9998021065
 40
0.9999120175
 40
1.0
 40
1.0
 40
1.0
 40
1.0
 10
6.6454595588
 20
6.0819195021
 30
0.0
 10
6.6454595588
 20
6.0898280611
 30
0.0
 10
6.6448178656
 20
6.1055735979
 30
0.0
 10
6.6420066094
 20
6.1288443101
 30
0.0
 10
6.6375689244
 20
6.1514093747
 30
0.0
 10
6.6318086776
 20
6.1730237489
 30
0.0
 10
6.6250584624
 20
6.1935224978
 30
0.0
 10
6.6176426429
 20
6.2127943442
 30
0.0
 10
6.6098618468
 20
6.2307549448
 30
0.0
 10
6.6019910068
 20
6.247324885
 30
0.0
 10
6.5942842265
 20
6.2624153646
 30
0.0
 10
6.5880227546
 20
6.2739925255
 30
0.0
 10
6.5832900935
 20
6.2824413017
 30
0.0
 10
6.5800318996
 20
6.2881417963
 30
0.0
 10
6.5769849194
 20
6.2933796986
 30
0.0
 10
6.574174697
 20
6.2981356431
 30
0.0
 10
6.5716267196
 20
6.3023906784
 30
0.0
 10
6.569363984
 20
6.3061253591
 30
0.0
 10
6.5676649257
 20
6.3089029926
 30
0.0
 10
6.5664651852
 20
6.3108518101
 30
0.0
 10
6.5656913748
 20
6.3121041962
 30
0.0
 10
6.5650037152
 20
6.3132138103
 30
0.0
 10
6.5644039172
 20
6.3141789936
 30
0.0
 10
6.5638934978
 20
6.3149983034
 30
0.0
 10
6.5634739246
 20
6.3156704235
 30
0.0
 10
6.563181631
 20
6.3161379831
 30
0.0
 10
6.562994192
 20
6.3164376955
 30
0.0
 10
6.5628884394
 20
6.3166064169
 30
0.0
 10
6.5628063843
 20
6.3167379946
 30
0.0
 10
6.5627519531
 20
6.316823674
 30
0.0
 10
6.5627211914
 20
6.3168743222
 30
0.0
 10
6.5627043129
 20
6.3168984571
 30
0.0
 10
6.5626976924
 20
6.3169143828
 30
0.0
 10
6.5626923427
 20
6.3169195021
 30
0.0
  0
SPLINE
  5
253
100
AcDbEntity
  8
0
100
AcDbSpline
 62
7
  6
CONTINUOUS
 70
0
 71
3
 72
37
 73
33
 74
0
 42
0.0000001
 43
0.0000001
 44
0.0000000001
 40
0.0
 40
0.0
 40
0.0
 40
0.0
 40
0.0000879763
 40
0.0003516869
 40
0.0007907908
 40
0.001404947
 40
0.0021938147
 40
0.0031570528
 40
0.0056052771
 40
0.008745886
 40
0.0125718195
 40
0.0170753351
 40
0.0222486945
 40
0.028083328
 40
0.0345681039
 40
0.0494416415
 40
0.0667732739
 40
0.0864544863
 40
0.1083731876
 40
0.1324131437
 40
0.158457457
 40
0.1863914303
 40
0.2474813513
 40
0.3148406829
 40
0.3877110371
 40
0.4654196722
 40
0.5473661525
 40
0.6329924921
 40
0.7217392191
 40
0.8129920849
 40
0.906027178
 40
1.0
 40
1.0
 40
1.0
 40
1.0
 10
6.5626923427
 20
5.8469195021
 30
0.0
 10
6.5626869935
 20
5.8469143832
 30
0.0
 10
6.5627253193
 20
5.8469671782
 30
0.0
 10
6.5627388586
 20
5.8469968005
 30
0.0
 10
6.562810139
 20
5.8471059598
 30
0.0
 10
6.562886944
 20
5.847230616
 30
0.0
 10
6.5629947287
 20
5.8474020161
 30
0.0
 10
6.5631812006
 20
5.8477004531
 30
0.0
 10
6.563474126
 20
5.8481688465
 30
0.0
 10
6.5638934229
 20
5.8488406029
 30
0.0
 10
6.5644039419
 20
5.8496600431
 30
0.0
 10
6.5650037059
 20
5.8506251807
 30
0.0
 10
6.5656913751
 20
5.8517348079
 30
0.0
 10
6.5664651796
 20
5.8529871866
 30
0.0
 10
6.5676649196
 20
5.8549360022
 30
0.0
 10
6.5693639757
 20
5.8577136314
 30
0.0
 10
6.5716267098
 20
5.8614483094
 30
0.0
 10
6.5741746844
 20
5.8657033399
 30
0.0
 10
6.5769849023
 20
5.8704592779
 30
0.0
 10
6.5800318797
 20
5.8756971749
 30
0.0
 10
6.5832900756
 20
5.8813976687
 30
0.0
 10
6.5880227366
 20
5.8898464462
 30
0.0
 10
6.5942842109
 20
5.9014236136
 30
0.0
 10
6.6019909975
 20
5.916514093
 30
0.0
 10
6.6098618264
 20
5.9330840249
 30
0.0
 10
6.6176426237
 20
5.951044607
 30
0.0
 10
6.6250584326
 20
5.9703164268
 30
0.0
 10
6.63180865
 20
5.9908151665
 30
0.0
 10
6.6375689038
 20
6.0124295397
 30
0.0
 10
6.6420066048
 20
6.0349946389
 30
0.0
 10
6.6448178626
 20
6.0582653845
 30
0.0
 10
6.6454595588
 20
6.074010943
 30
0.0
 10
6.6454595588
 20
6.0819195021
 30
0.0
  0
LINE
  5
254
100
AcDbEntity
  8
0
100
AcDbLine
 62
7
  6
CONTINUOUS
 10
6.5626923427
 20
6.3169195021
 11
6.5634147881
 21
6.3157649381
  0
SPLINE
  5
255
100
AcDbEntity
  8
0
100
AcDbSpline
 62
7
  6
CONTINUOUS
 70
0
 71
3
 72
37
 73
33
 74
0
 42
0.0000001
 43
0.0000001
 44
0.0000000001
 40
0.0
 40
0.0
 40
0.0
 40
0.0
 40
0.0000879763
 40
0.0003516869
 40
0.0007907908
 40
0.001404947
 40
0.0021938147
 40
0.0031570528
 40
0.0056052771
 40
0.008745886
 40
0.0125718195
 40
0.0170753351
 40
0.0222486945
 40
0.028083328
 40
0.0345681039
 40
0.0494416415
 40
0.0667732739
 40
0.0864544863
 40
0.1083731876
 40
0.1324131437
 40
0.158457457
 40
0.1863914303
 40
0.2474813513
 40
0.3148406829
 40
0.3877110371
 40
0.4654196722
 40
0.5473661525
 40
0.6329924921
 40
0.7217392191
 40
0.8129920849
 40
0.906027178
 40
1.0
 40
1.0
 40
1.0
 40
1.0
 10
7.3126923427
 20
6.3169195021
 30
0.0
 10
7.312697692
 20
6.3169246211
 30
0.0
 10
7.3126593662
 20
6.3168718261
 30
0.0
 10
7.3126458269
 20
6.3168422038
 30
0.0
 10
7.3125745465
 20
6.3167330445
 30
0.0
 10
7.3124977415
 20
6.3166083883
 30
0.0
 10
7.3123899567
 20
6.3164369882
 30
0.0
 10
7.3122034849
 20
6.3161385511
 30
0.0
 10
7.3119105595
 20
6.3156701578
 30
0.0
 10
7.3114912625
 20
6.3149984014
 30
0.0
 10
7.3109807436
 20
6.3141789612
 30
0.0
 10
7.3103809796
 20
6.3132138236
 30
0.0
 10
7.3096933104
 20
6.3121041964
 30
0.0
 10
7.3089195058
 20
6.3108518177
 30
0.0
 10
7.3077197659
 20
6.308903002
 30
0.0
 10
7.3060207097
 20
6.3061253728
 30
0.0
 10
7.3037579756
 20
6.3023906949
 30
0.0
 10
7.3012100011
 20
6.2981356644
 30
0.0
 10
7.2983997831
 20
6.2933797264
 30
0.0
 10
7.2953528057
 20
6.2881418294
 30
0.0
 10
7.2920946098
 20
6.2824413356
 30
0.0
 10
7.2873619489
 20
6.2739925581
 30
0.0
 10
7.2811004745
 20
6.2624153907
 30
0.0
 10
7.2733936879
 20
6.2473249113
 30
0.0
 10
7.2655228591
 20
6.2307549794
 30
0.0
 10
7.2577420618
 20
6.2127943973
 30
0.0
 10
7.2503262529
 20
6.1935225775
 30
0.0
 10
7.2435760355
 20
6.1730238378
 30
0.0
 10
7.2378157816
 20
6.1514094646
 30
0.0
 10
7.2333780807
 20
6.1288443654
 30
0.0
 10
7.2305668229
 20
6.1055736198
 30
0.0
 10
7.2299251267
 20
6.0898280613
 30
0.0
 10
7.2299251267
 20
6.0819195021
 30
0.0
  0
LINE
  5
256
100
AcDbEntity
  8
0
100
AcDbLine
 62
7
  6
CONTINUOUS
 10
7.3126923427
 20
5.8469195021
 11
7.3119698974
 21
5.8480740662
  0
SPLINE
  5
257
100
AcDbEntity
  8
0
100
AcDbSpline
 62
7
  6
CONTINUOUS
 70
0
 71
3
 72
38
 73
34
 74
0
 42
0.0000001
 43
0.0000001
 44
0.0000000001
 40
0.0
 40
0.0
 40
0.0
 40
0.0
 40
0.0939728129
 40
0.1870076328
 40
0.2782603703
 40
0.367007056
 40
0.452633568
 40
0.5345800154
 40
0.6122888527
 40
0.685159228
 40
0.752518483
 40
0.8136084336
 40
0.8415423765
 40
0.8675866836
 40
0.8916266782
 40
0.9135454216
 40
0.9332266511
 40
0.9505582926
 40
0.9654318495
 40
0.9719166394
 40
0.9777512896
 40
0.98292466
 40
0.9874281752
 40
0.9912541065
 40
0.9943947213
 40
0.9968429513
 40
0.9978061871
 40
0.998595051
 40
0.9992092036
 40
0.9996483055
 40
0.9998021065
 40
0.9999120175
 40
1.0
 40
1.0
 40
1.0
 40
1.0
 10
15.2299251267
 20
6.0819195021
 30
0.0
 10
15.2299251267
 20
6.0740109438
 30
0.0
 10
15.2305668197
 20
6.0582654089
 30
0.0
 10
15.2333780758
 20
6.034994698
 30
0.0
 10
15.23781576
 20
6.0124296337
 30
0.0
 10
15.243576007
 20
5.9908152583
 30
0.0
 10
15.2503262221
 20
5.9703165091
 30
0.0
 10
15.2577420416
 20
5.9510446627
 30
0.0
 10
15.2655228374
 20
5.9330840623
 30
0.0
 10
15.2733936773
 20
5.916514122
 30
0.0
 10
15.2811004577
 20
5.901423642
 30
0.0
 10
15.2873619298
 20
5.8898464806
 30
0.0
 10
15.2920945912
 20
5.881397704
 30
0.0
 10
15.2953527852
 20
5.875697209
 30
0.0
 10
15.2983997656
 20
5.8704593065
 30
0.0
 10
15.3012099882
 20
5.8657033618
 30
0.0
 10
15.3037579657
 20
5.8614483262
 30
0.0
 10
15.3060207014
 20
5.8577136453
 30
0.0
 10
15.3077197598
 20
5.8549360117
 30
0.0
 10
15.3089195003
 20
5.8529871942
 30
0.0
 10
15.3096933107
 20
5.8517348081
 30
0.0
 10
15.3103809703
 20
5.850625194
 30
0.0
 10
15.3109807682
 20
5.8496600107
 30
0.0
 10
15.3114911877
 20
5.8488407009
 30
0.0
 10
15.3119107609
 20
5.8481685807
 30
0.0
 10
15.3122030547
 20
5.8477010212
 30
0.0
 10
15.3123904935
 20
5.8474013086
 30
0.0
 10
15.3124962463
 20
5.8472325876
 30
0.0
 10
15.3125783006
 20
5.8471010091
 30
0.0
 10
15.3126327334
 20
5.8470153314
 30
0.0
 10
15.3126634929
 20
5.8469646808
 30
0.0
 10
15.3126803754
 20
5.8469405501
 30
0.0
 10
15.3126869882
 20
5.8469246163
 30
0.0
 10
15.3126923427
 20
5.8469195021
 30
0.0
  0
LINE
  5
258
100
AcDbEntity
  8
0
100
AcDbLine
 62
7
  6
CONTINUOUS
 10
15.3119679988
 20
6.3157618993
 11
15.3126923427
 21
6.3169195021
  0
LINE
  5
259
100
AcDbEntity
  8
0
100
AcDbLine
 62
7
  6
CONTINUOUS
 10
14.5634166867
 20
5.8480771051
 11
14.5626923427
 21
5.8469195021
  0
SPLINE
  5
25A
100
AcDbEntity
  8
0
100
AcDbSpline
 62
7
  6
CONTINUOUS
 70
0
 71
3
 72
38
 73
34
 74
0
 42
0.0000001
 43
0.0000001
 44
0.0000000001
 40
0.0
 40
0.0
 40
0.0
 40
0.0
 40
0.0939728129
 40
0.1870076328
 40
0.2782603703
 40
0.367007056
 40
0.452633568
 40
0.5345800154
 40
0.6122888527
 40
0.685159228
 40
0.752518483
 40
0.8136084336
 40
0.8415423765
 40
0.8675866836
 40
0.8916266782
 40
0.9135454216
 40
0.9332266511
 40
0.9505582926
 40
0.9654318495
 40
0.9719166394
 40
0.9777512896
 40
0.98292466
 40
0.9874281752
 40
0.9912541065
 40
0.9943947213
 40
0.9968429513
 40
0.9978061871
 40
0.998595051
 40
0.9992092036
 40
0.9996483055
 40
0.9998021065
 40
0.9999120175
 40
1.0
 40
1.0
 40
1.0
 40
1.0
 10
14.6454595588
 20
6.0819195021
 30
0.0
 10
14.6454595588
 20
6.0898280605
 30
0.0
 10
14.6448178658
 20
6.1055735954
 30
0.0
 10
14.6420066097
 20
6.1288443063
 30
0.0
 10
14.6375689255
 20
6.1514093706
 30
0.0
 10
14.6318086784
 20
6.173023746
 30
0.0
 10
14.6250584633
 20
6.1935224952
 30
0.0
 10
14.6176426439
 20
6.2127943416
 30
0.0
 10
14.609861848
 20
6.230754942
 30
0.0
 10
14.6019910081
 20
6.2473248823
 30
0.0
 10
14.5942842277
 20
6.2624153623
 30
0.0
 10
14.5880227557
 20
6.2739925237
 30
0.0
 10
14.5832900943
 20
6.2824413003
 30
0.0
 10
14.5800319002
 20
6.2881417952
 30
0.0
 10
14.5769849198
 20
6.2933796978
 30
0.0
 10
14.5741746973
 20
6.2981356425
 30
0.0
 10
14.5716267198
 20
6.3023906781
 30
0.0
 10
14.5693639841
 20
6.306125359
 30
0.0
 10
14.5676649257
 20
6.3089029926
 30
0.0
 10
14.5664651852
 20
6.3108518101
 30
0.0
 10
14.5656913748
 20
6.3121041962
 30
0.0
 10
14.5650037152
 20
6.3132138103
 30
0.0
 10
14.5644039172
 20
6.3141789935
 30
0.0
 10
14.5638934978
 20
6.3149983034
 30
0.0
 10
14.5634739246
 20
6.3156704236
 30
0.0
 10
14.5631816308
 20
6.3161379831
 30
0.0
 10
14.562994192
 20
6.3164376956
 30
0.0
 10
14.5628884391
 20
6.3166064167
 30
0.0
 10
14.5628063848
 20
6.3167379952
 30
0.0
 10
14.562751952
 20
6.3168236729
 30
0.0
 10
14.5627211925
 20
6.3168743235
 30
0.0
 10
14.5627043101
 20
6.3168984542
 30
0.0
 10
14.5626976972
 20
6.3169143879
 30
0.0
 10
14.5626923427
 20
6.3169195021
 30
0.0
  0
SPLINE
  5
25B
100
AcDbEntity
  8
0
100
AcDbSpline
 62
7
  6
CONTINUOUS
 70
0
 71
3
 72
37
 73
33
 74
0
 42
0.0000001
 43
0.0000001
 44
0.0000000001
 40
0.0
 40
0.0
 40
0.0
 40
0.0
 40
0.0000879762
 40
0.0003516868
 40
0.0007907906
 40
0.0014049469
 40
0.0021938145
 40
0.0031570527
 40
0.0056052769
 40
0.0087458859
 40
0.0125718197
 40
0.0170753354
 40
0.0222486947
 40
0.0280833281
 40
0.0345681041
 40
0.0494416421
 40
0.0667732759
 40
0.0864544899
 40
0.1083731923
 40
0.1324131498
 40
0.1584574649
 40
0.1863914404
 40
0.2474813645
 40
0.3148406988
 40
0.3877110542
 40
0.4654196841
 40
0.5473661601
 40
0.6329925088
 40
0.721739239
 40
0.8129921115
 40
0.9060271861
 40
1.0
 40
1.0
 40
1.0
 40
1.0
 10
14.5626923427
 20
5.8469195021
 30
0.0
 10
14.5626869886
 20
5.8469143883
 30
0.0
 10
14.5627253262
 20
5.8469671709
 30
0.0
 10
14.5627388541
 20
5.8469968051
 30
0.0
 10
14.562810141
 20
5.8471059576
 30
0.0
 10
14.5628869431
 20
5.8472306168
 30
0.0
 10
14.562994729
 20
5.8474020157
 30
0.0
 10
14.5631812003
 20
5.8477004534
 30
0.0
 10
14.5634741261
 20
5.8481688463
 30
0.0
 10
14.5638934229
 20
5.8488406029
 30
0.0
 10
14.564403942
 20
5.8496600431
 30
0.0
 10
14.565003706
 20
5.8506251808
 30
0.0
 10
14.5656913751
 20
5.8517348079
 30
0.0
 10
14.5664651797
 20
5.8529871866
 30
0.0
 10
14.5676649196
 20
5.8549360023
 30
0.0
 10
14.5693639759
 20
5.8577136316
 30
0.0
 10
14.5716267101
 20
5.8614483099
 30
0.0
 10
14.5741746849
 20
5.8657033406
 30
0.0
 10
14.5769849029
 20
5.8704592789
 30
0.0
 10
14.5800318806
 20
5.8756971762
 30
0.0
 10
14.5832900766
 20
5.8813976704
 30
0.0
 10
14.5880227379
 20
5.8898464484
 30
0.0
 10
14.5942842125
 20
5.9014236165
 30
0.0
 10
14.6019909993
 20
5.9165140964
 30
0.0
 10
14.6098618278
 20
5.9330840284
 30
0.0
 10
14.6176426248
 20
5.9510446099
 30
0.0
 10
14.6250584336
 20
5.9703164296
 30
0.0
 10
14.6318086511
 20
5.99081517
 30
0.0
 10
14.6375689052
 20
6.0124295448
 30
0.0
 10
14.6420066051
 20
6.0349946435
 30
0.0
 10
14.6448178629
 20
6.0582653874
 30
0.0
 10
14.6454595588
 20
6.0740109437
 30
0.0
 10
14.6454595588
 20
6.0819195021
 30
0.0
  0
LINE
  5
25C
100
AcDbEntity
  8
0
100
AcDbLine
 62
7
  6
CONTINUOUS
 10
14.5626923427
 20
6.3169195021
 11
14.5634146159
 21
6.3157652137
  0
SPLINE
  5
25D
100
AcDbEntity
  8
0
100
AcDbSpline
 62
7
  6
CONTINUOUS
 70
0
 71
3
 72
37
 73
33
 74
0
 42
0.0000001
 43
0.0000001
 44
0.0000000001
 40
0.0
 40
0.0
 40
0.0
 40
0.0
 40
0.0000879762
 40
0.0003516868
 40
0.0007907906
 40
0.0014049469
 40
0.0021938145
 40
0.0031570527
 40
0.0056052769
 40
0.0087458859
 40
0.0125718197
 40
0.0170753354
 40
0.0222486947
 40
0.0280833281
 40
0.0345681041
 40
0.0494416421
 40
0.0667732759
 40
0.0864544899
 40
0.1083731923
 40
0.1324131498
 40
0.1584574649
 40
0.1863914404
 40
0.2474813645
 40
0.3148406988
 40
0.3877110542
 40
0.4654196841
 40
0.5473661601
 40
0.6329925088
 40
0.721739239
 40
0.8129921115
 40
0.9060271861
 40
1.0
 40
1.0
 40
1.0
 40
1.0
 10
15.3126923427
 20
6.3169195021
 30
0.0
 10
15.3126976968
 20
6.316924616
 30
0.0
 10
15.3126593592
 20
6.3168718334
 30
0.0
 10
15.3126458313
 20
6.3168421991
 30
0.0
 10
15.3125745445
 20
6.3167330466
 30
0.0
 10
15.3124977423
 20
6.3166083875
 30
0.0
 10
15.3123899565
 20
6.3164369886
 30
0.0
 10
15.3122034851
 20
6.3161385509
 30
0.0
 10
15.3119105594
 20
6.3156701579
 30
0.0
 10
15.3114912626
 20
6.3149984014
 30
0.0
 10
15.3109807435
 20
6.3141789612
 30
0.0
 10
15.3103809795
 20
6.3132138235
 30
0.0
 10
15.3096933104
 20
6.3121041964
 30
0.0
 10
15.3089195058
 20
6.3108518176
 30
0.0
 10
15.3077197659
 20
6.308903002
 30
0.0
 10
15.3060207096
 20
6.3061253726
 30
0.0
 10
15.3037579753
 20
6.3023906944
 30
0.0
 10
15.3012100006
 20
6.2981356637
 30
0.0
 10
15.2983997826
 20
6.2933797253
 30
0.0
 10
15.2953528049
 20
6.2881418281
 30
0.0
 10
15.2920946089
 20
6.2824413339
 30
0.0
 10
15.2873619476
 20
6.2739925559
 30
0.0
 10
15.281100473
 20
6.2624153878
 30
0.0
 10
15.2733936862
 20
6.2473249079
 30
0.0
 10
15.2655228577
 20
6.2307549759
 30
0.0
 10
15.2577420606
 20
6.2127943944
 30
0.0
 10
15.2503262519
 20
6.1935225746
 30
0.0
 10
15.2435760344
 20
6.1730238343
 30
0.0
 10
15.2378157803
 20
6.1514094595
 30
0.0
 10
15.2333780803
 20
6.1288443608
 30
0.0
 10
15.2305668226
 20
6.1055736169
 30
0.0
 10
15.2299251267
 20
6.0898280606
 30
0.0
 10
15.2299251267
 20
6.0819195021
 30
0.0
  0
LINE
  5
25E
100
AcDbEntity
  8
0
100
AcDbLine
 62
7
  6
CONTINUOUS
 10
15.3126923427
 20
5.8469195021
 11
15.3119700697
 21
5.8480737904
  0
ENDSEC
  0
SECTION
  2
OBJECTS
  0
DICTIONARY
  5
C
100
AcDbDictionary
280
0
281
1
  3
ACAD_GROUP
350
D
  3
ACAD_MLINESTYLE
350
17
  3
ACAD_LAYOUT
350
1A
  3
ACAD_PLOTSETTINGS
350
19
  3
ACAD_PLOTSTYLENAME
350
E
  0
DICTIONARY
  5
D
102
{ACAD_REACTORS
330
C
102
}
100
AcDbDictionary
280
0
281
1
  0
ACDBDICTIONARYWDFLT
  5
E
102
{ACAD_REACTORS
330
C
102
}
100
AcDbDictionary
281
1
  3
Normal
350
F
100
AcDbDictionaryWithDefault
340
F
  0
DICTIONARY
  5
17
102
{ACAD_REACTORS
330
C
102
}
100
AcDbDictionary
280
0
281
1
  3
Standard
350
18
  0
DICTIONARY
  5
19
102
{ACAD_REACTORS
330
C
102
}
100
AcDbDictionary
281
1
  0
DICTIONARY
  5
1A
102
{ACAD_REACTORS
330
C
102
}
100
AcDbDictionary
281
1
  3
Model
350
25F
  3
Layout1
350
260
  0
ACDBPLACEHOLDER
  5
F
102
{ACAD_REACTORS
330
E
102
}
  0
MLINESTYLE
  5
18
102
{ACAD_REACTORS
330
17
102
}
100
AcDbMlineStyle
  2
STANDARD
 70
0
  3

 62
256
 51
90.0
 52
90.0
 71
2
 49
0.5
 62
256
  6
BYLAYER
 49
-0.5
 62
256
  6
BYLAYER
  0
LAYOUT
  5
25F
102
{ACAD_REACTORS
330
1A
102
}
100
AcDbPlotSettings
  1

  2
none_device
  4
ANSI_C_(22.00_x_17.00_Inches)
  6

 40
0.0
 41
0.0
 42
0.0
 43
0.0
 44
558.8
 45
431.8
 46
0.0
 47
0.0
 48
0.0
 49
0.0
140
0.0
141
0.0
142
1.0
143
1.0
 70
1024
 72
0
 73
0
 74
0
  7

 75
0
147
1.0
148
0.0
149
0.0
100
AcDbLayout
  1
Model
 70
0
 71
0
 10
0.0
 20
0.0
 11
22.0
 21
17.0
 12
0.0
 22
0.0
 32
0.0
 14
0.0
 24
0.0
 34
0.0
 15
0.0
 25
0.0
 35
0.0
146
0.0
 13
0.0
 23
0.0
 33
0.0
 16
1.0
 26
0.0
 36
0.0
 17
0.0
 27
1.0
 37
0.0
 76
0
330
202
345
0
346
0
  0
LAYOUT
  5
260
102
{ACAD_REACTORS
330
1A
102
}
100
AcDbPlotSettings
  1

  2
none_device
  4
ANSI_C_(22.00_x_17.00_Inches)
  6

 40
0.0
 41
0.0
 42
0.0
 43
0.0
 44
558.8
 45
431.8
 46
0.0
 47
0.0
 48
0.0
 49
0.0
140
0.0
141
0.0
142
1.0
143
1.0
 70
0
 72
0
 73
0
 74
0
  7

 75
0
147
1.0
148
0.0
149
0.0
100
AcDbLayout
  1
Layout1
 70
0
 71
1
 10
0.0
 20
0.0
 11
22.0
 21
17.0
 12
0.0
 22
0.0
 32
0.0
 14
0.0
 24
0.0
 34
0.0
 15
0.0
 25
0.0
 35
0.0
146
0.0
 13
0.0
 23
0.0
 33
0.0
 16
1.0
 26
0.0
 36
0.0
 17
0.0
 27
1.0
 37
0.0
 76
0
330
203
345
0
346
0
  0
ENDSEC
  0
EOF
