999
DXF file: E:\BT Custom\CADOUTPUT\_TOP.dxf
999
Pro/ENGINEER 2018400 by Parametric Technology Corporation
  0
SECTION
  2
HEADER
  9
$ACADVER
  1
AC1018
  9
$DWGCODEPAGE
  3
ANSI_1252
  9
$EXTMAX
 10
22.0
 20
17.0
 30
0.0
  9
$EXTMIN
 10
0.0
 20
0.0
 30
0.0
  9
$LIMMIN
 10
0.0
 20
0.0
  9
$LIMMAX
 10
22.0
 20
17.0
  9
$VIEWCTR
 10
11.0
 20
8.5
  9
$VIEWSIZE
 40
17.0
  9
$CLAYER
  8
0
  9
$LTSCALE
 40
1.21
  9
$CELTYPE
  6
BYLAYER
  9
$DIMSCALE
 40
1.0
  9
$DIMASZ
 40
0.1
  9
$DIMEXO
 40
0.0625
  9
$DIMDLI
 40
0.836
  9
$DIMEXE
 40
0.125
  9
$DIMCEN
 40
0.198
  9
$DIMLFAC
 40
1.0
  9
$DIMBLK
  1
_FILLED
  9
$DIMALT
 70
1
  9
$DIMALTD
 70
2
  9
$DIMALTTD
 70
2
  9
$DIMALTF
 40
25.4
  9
$DIMTXT
 40
0.08
  9
$DIMTOL
 70
1
  9
$DIMLIM
 70
0
  9
$DIMTFAC
 40
1.0
  9
$DIMTP
 40
0.001
  9
$DIMTM
 40
0.001
  9
$DIMGAP
 40
0.09
  9
$DIMDSEP
 70
46
  9
$AUNITS
 70
0
  9
$PDMODE
 70
3
  9
$PDSIZE
 40
0.06
  9
$HANDSEED
  5
272
  9
$TILEMODE
 70
1
  9
$MEASUREMENT
 70
0
  9
$INSUNITS
 70
1
  0
ENDSEC
  0
SECTION
  2
CLASSES
  0
CLASS
  1
ACDBDICTIONARYWDFLT
  2
AcDbDictionaryWithDefault
  3
AutoCAD 2000
 90
0
 91
1
280
0
281
0
  0
CLASS
  1
ACDBPLACEHOLDER
  2
AcDbPlaceHolder
  3
AutoCAD 2000
 90
0
 91
1
280
0
281
0
  0
CLASS
  1
LAYOUT
  2
AcDbLayout
  3
AutoCAD 2000
 90
0
 91
0
280
0
281
0
  0
ENDSEC
  0
SECTION
  2
TABLES
  0
TABLE
  2
VPORT
  5
8
100
AcDbSymbolTable
 70
2
  0
VPORT
  5
1F4
100
AcDbSymbolTableRecord
100
AcDbViewportTableRecord
  2
*ACTIVE
 70
0
 10
0.0
 20
0.0
 11
1.0
 21
1.0
 12
11.0
 22
8.5
 13
0.0
 23
0.0
 14
1.0
 24
1.0
 15
0.0
 25
0.0
 16
0.0
 26
0.0
 36
1.0
 17
0.0
 27
0.0
 37
0.0
 40
17.0
 41
1.2941176471
 42
50.0
 43
0.0
 44
0.0
 50
0.0
 51
0.0
 71
0
 72
100
 73
1
 74
1
 75
0
 76
0
 77
0
 78
0
  0
ENDTAB
  0
TABLE
  2
LTYPE
  5
5
100
AcDbSymbolTable
 70
6
  0
LTYPE
  5
14
100
AcDbSymbolTableRecord
100
AcDbLinetypeTableRecord
  2
BYBLOCK
 70
0
  3

 72
65
 73
0
 40
0.0
  0
LTYPE
  5
15
100
AcDbSymbolTableRecord
100
AcDbLinetypeTableRecord
  2
BYLAYER
 70
0
  3

 72
65
 73
0
 40
0.0
  0
LTYPE
  5
16
100
AcDbSymbolTableRecord
100
AcDbLinetypeTableRecord
  2
CONTINUOUS
 70
64
  3
Solid line
 72
65
 73
0
 40
0.0
  0
LTYPE
  5
1F5
100
AcDbSymbolTableRecord
100
AcDbLinetypeTableRecord
  2
CENTER
 70
64
  3
____ _ ____ _ ____ _ ____ _ ____ _ ____ _ ____
 72
65
 73
4
 40
0.6
 49
0.375
 74
0
 49
-0.075
 74
0
 49
0.075
 74
0
 49
-0.075
 74
0
  0
LTYPE
  5
1F6
100
AcDbSymbolTableRecord
100
AcDbLinetypeTableRecord
  2
HIDDEN
 70
64
  3
- - - - - - - - - - - - - - - - - - - -
 72
65
 73
2
 40
0.2
 49
0.1
 74
0
 49
-0.1
 74
0
  0
LTYPE
  5
1F7
100
AcDbSymbolTableRecord
100
AcDbLinetypeTableRecord
  2
PHANTOM
 70
64
  3
_____ _ _ _____ _ _ _____ _ _ _____
 72
65
 73
6
 40
0.8
 49
0.45
 74
0
 49
-0.05
 74
0
 49
0.1
 74
0
 49
-0.05
 74
0
 49
0.1
 74
0
 49
-0.05
 74
0
  0
LTYPE
  5
1F8
100
AcDbSymbolTableRecord
100
AcDbLinetypeTableRecord
  2
DOT
 70
64
  3
. . . . . . . . . . . . . . . . . . . .
 72
65
 73
2
 40
0.2
 49
0.1
 74
0
 49
-0.1
 74
0
  0
LTYPE
  5
1F9
100
AcDbSymbolTableRecord
100
AcDbLinetypeTableRecord
  2
DASHED
 70
64
  3
- - - - - - - - - - - - - - - - - - - -
 72
65
 73
2
 40
0.2
 49
0.1
 74
0
 49
-0.1
 74
0
  0
ENDTAB
  0
TABLE
  2
LAYER
  5
2
100
AcDbSymbolTable
 70
36
  0
LAYER
  5
10
100
AcDbSymbolTableRecord
100
AcDbLayerTableRecord
  2
0
 70
0
 62
7
  6
CONTINUOUS
370
-3
390
F
  0
LAYER
  5
1FA
100
AcDbSymbolTableRecord
100
AcDbLayerTableRecord
  2
DEFAULT_1
 70
0
 62
7
  6
CENTER
370
-3
390
F
  0
LAYER
  5
1FB
100
AcDbSymbolTableRecord
100
AcDbLayerTableRecord
  2
DEFAULT_2
 70
0
 62
8
  6
HIDDEN
370
-3
390
F
  0
LAYER
  5
1FC
100
AcDbSymbolTableRecord
100
AcDbLayerTableRecord
  2
DEFAULT_3
 70
0
 62
7
  6
PHANTOM
370
-3
390
F
  0
LAYER
  5
1FD
100
AcDbSymbolTableRecord
100
AcDbLayerTableRecord
  2
ALL_FEATURES
 70
0
 62
7
  6
CONTINUOUS
370
-3
390
F
  0
LAYER
  5
1FE
100
AcDbSymbolTableRecord
100
AcDbLayerTableRecord
  2
AXES_FEATURES
 70
0
 62
7
  6
CONTINUOUS
370
-3
390
F
  0
LAYER
  5
1FF
100
AcDbSymbolTableRecord
100
AcDbLayerTableRecord
  2
DIMENSIONS
 70
0
 62
7
  6
CONTINUOUS
370
-3
390
F
  0
ENDTAB
  0
TABLE
  2
STYLE
  5
3
100
AcDbSymbolTable
 70
1
  0
STYLE
  5
11
100
AcDbSymbolTableRecord
100
AcDbTextStyleTableRecord
  2
STANDARD
 70
0
 40
0.0
 41
0.8
 50
0.0
 71
0
 42
0.2
  3
txt
  4

  0
STYLE
  5
200
100
AcDbSymbolTableRecord
100
AcDbTextStyleTableRecord
  2
TEXTSTYLE_1
 70
0
 40
0.0
 41
0.8
 50
0.0
 71
0
 42
0.2
  3
gdt
  4

  0
ENDTAB
  0
TABLE
  2
VIEW
  5
6
100
AcDbSymbolTable
 70
0
  0
ENDTAB
  0
TABLE
  2
UCS
  5
7
100
AcDbSymbolTable
 70
0
  0
ENDTAB
  0
TABLE
  2
APPID
  5
9
100
AcDbSymbolTable
 70
1
  0
APPID
  5
201
100
AcDbSymbolTableRecord
100
AcDbRegAppTableRecord
  2
ACAD
 70
0
  0
ENDTAB
  0
TABLE
  2
BLOCK_RECORD
  5
1
100
AcDbSymbolTable
 70
0
  0
BLOCK_RECORD
  5
202
100
AcDbSymbolTableRecord
100
AcDbBlockTableRecord
  2
*Model_Space
  0
BLOCK_RECORD
  5
203
100
AcDbSymbolTableRecord
100
AcDbBlockTableRecord
  2
*Paper_Space
  0
BLOCK_RECORD
  5
204
100
AcDbSymbolTableRecord
100
AcDbBlockTableRecord
  2
_FILLED
  0
ENDTAB
  0
TABLE
  2
DIMSTYLE
  5
A
100
AcDbSymbolTable
 70
1
100
AcDbDimStyleTable
 71
0
  0
DIMSTYLE
105
205
100
AcDbSymbolTableRecord
100
AcDbDimStyleTableRecord
  2
STANDARD
 70
0
  3

  4

 40
1.0
 41
0.1
 42
0.0625
 43
0.38
 44
0.125
 45
0.0
 46
0.0
 47
0.001
 48
0.001
140
0.08
141
0.09
142
0.0
143
25.4
144
1.0
145
0.0
146
1.0
147
0.09
 71
1.0
 72
0.0
 73
1
 74
1
 75
0
 76
0
 77
0
 78
4
 79
1
170
1
171
2
172
0
173
0
174
0
175
0
176
0
177
0
178
0
270
2
179
3
271
3
272
3
273
2
274
2
275
0
280
0
281
0
282
0
283
1
284
4
285
0
286
0
287
3
288
0
340
11
278
46
341
204
342
204
343
204
344
204
  0
ENDTAB
  0
ENDSEC
  0
SECTION
  2
BLOCKS
  0
BLOCK
  5
20
100
AcDbEntity
  8
0
100
AcDbBlockBegin
  2
*Model_Space
 70
0
 10
0.0
 20
0.0
 30
0.0
  3
*Model_Space
  1

  0
ENDBLK
  5
21
100
AcDbEntity
  8
0
100
AcDbBlockEnd
  0
BLOCK
  5
1C
100
AcDbEntity
  8
0
100
AcDbBlockBegin
  2
*Paper_Space
 70
0
 10
0.0
 20
0.0
 30
0.0
  3
*Paper_Space
  1

  0
ENDBLK
  5
1D
100
AcDbEntity
  8
0
100
AcDbBlockEnd
  0
BLOCK
  5
206
100
AcDbEntity
  8
0
100
AcDbBlockBegin
  2
_FILLED
 70
64
 10
0.0
 20
0.0
  3
_FILLED
  1

  0
SOLID
  5
207
100
AcDbEntity
  8
0
  6
BYBLOCK
 62
0
100
AcDbTrace
 10
0.0
 20
0.0
 11
-1.0
 21
0.2
 12
-1.0
 22
-0.2
 13
-1.0
 23
-0.2
  0
ENDBLK
  5
208
100
AcDbEntity
  8
0
  6
BYBLOCK
 62
0
100
AcDbBlockEnd
  0
ENDSEC
  0
SECTION
  2
ENTITIES
  0
LINE
  5
209
100
AcDbEntity
  8
0
100
AcDbLine
 62
7
  6
CONTINUOUS
 10
0.9590683549
 20
11.3685818604
 11
0.9590683549
 21
10.7835818604
  0
LINE
  5
20A
100
AcDbEntity
  8
0
100
AcDbLine
 62
7
  6
CONTINUOUS
 10
0.9790683549
 20
11.3885818604
 11
0.9790683549
 21
10.7635818604
  0
LINE
  5
20B
100
AcDbEntity
  8
0
100
AcDbLine
 62
7
  6
CONTINUOUS
 10
0.9790683549
 20
11.3885818604
 11
0.9590683549
 21
11.3685818604
  0
LINE
  5
20C
100
AcDbEntity
  8
0
100
AcDbLine
 62
7
  6
CONTINUOUS
 10
4.8140683549
 20
10.7635818604
 11
4.8340683549
 21
10.7835818604
  0
LINE
  5
20D
100
AcDbEntity
  8
0
100
AcDbLine
 62
7
  6
CONTINUOUS
 10
4.8140683549
 20
10.7635818604
 11
4.8140683549
 21
11.3885818604
  0
LINE
  5
20E
100
AcDbEntity
  8
0
100
AcDbLine
 62
7
  6
CONTINUOUS
 10
4.8340683549
 20
10.7835818604
 11
4.8340683549
 21
11.3685818604
  0
LINE
  5
20F
100
AcDbEntity
  8
0
100
AcDbLine
 62
7
  6
CONTINUOUS
 10
0.9790683549
 20
10.7635818604
 11
0.9590683549
 21
10.7835818604
  0
LINE
  5
210
100
AcDbEntity
  8
0
100
AcDbLine
 62
7
  6
CONTINUOUS
 10
7.4480683549
 20
11.0760818604
 11
7.4480683549
 21
3.2010818604
  0
LINE
  5
211
100
AcDbEntity
  8
0
100
AcDbLine
 62
7
  6
CONTINUOUS
 10
8.4480683549
 20
11.0760818604
 11
8.4480683549
 21
3.2010818604
  0
LINE
  5
212
100
AcDbEntity
  8
0
100
AcDbLine
 62
7
  6
CONTINUOUS
 10
11.0820683549
 20
11.3885818604
 11
11.0620683549
 21
11.3685818604
  0
LINE
  5
213
100
AcDbEntity
  8
0
100
AcDbLine
 62
7
  6
CONTINUOUS
 10
4.8140683549
 20
11.3885818604
 11
4.8340683549
 21
11.3685818604
  0
LINE
  5
214
100
AcDbEntity
  8
0
100
AcDbLine
 62
7
  6
CONTINUOUS
 10
11.0620683549
 20
11.3685818604
 11
11.0620683549
 21
10.7835818604
  0
LINE
  5
215
100
AcDbEntity
  8
0
100
AcDbLine
 62
7
  6
CONTINUOUS
 10
11.0820683549
 20
11.3885818604
 11
11.0820683549
 21
10.7635818604
  0
LINE
  5
216
100
AcDbEntity
  8
0
100
AcDbLine
 62
7
  6
CONTINUOUS
 10
15.0820683549
 20
11.3885818604
 11
15.0620683549
 21
11.3685818604
  0
LINE
  5
217
100
AcDbEntity
  8
0
100
AcDbLine
 62
7
  6
CONTINUOUS
 10
14.9170683549
 20
10.7635818604
 11
14.9370683549
 21
10.7835818604
  0
LINE
  5
218
100
AcDbEntity
  8
0
100
AcDbLine
 62
7
  6
CONTINUOUS
 10
11.0820683549
 20
10.7635818604
 11
11.0620683549
 21
10.7835818604
  0
LINE
  5
219
100
AcDbEntity
  8
0
100
AcDbLine
 62
7
  6
CONTINUOUS
 10
18.9170683549
 20
10.7635818604
 11
18.9370683549
 21
10.7835818604
  0
LINE
  5
21A
100
AcDbEntity
  8
0
100
AcDbLine
 62
7
  6
CONTINUOUS
 10
0.9790683549
 20
10.7635818604
 11
4.8140683549
 21
10.7635818604
  0
LINE
  5
21B
100
AcDbEntity
  8
0
100
AcDbLine
 62
7
  6
CONTINUOUS
 10
11.0820683549
 20
10.7635818604
 11
14.9170683549
 21
10.7635818604
  0
LINE
  5
21C
100
AcDbEntity
  8
0
100
AcDbLine
 62
7
  6
CONTINUOUS
 10
15.0820683549
 20
10.7635818604
 11
18.9170683549
 21
10.7635818604
  0
LINE
  5
21D
100
AcDbEntity
  8
0
100
AcDbLine
 62
7
  6
CONTINUOUS
 10
14.9170683549
 20
10.7635818604
 11
14.9170683549
 21
11.3885818604
  0
LINE
  5
21E
100
AcDbEntity
  8
0
100
AcDbLine
 62
7
  6
CONTINUOUS
 10
14.9370683549
 20
10.7835818604
 11
14.9370683549
 21
11.3685818604
  0
LINE
  5
21F
100
AcDbEntity
  8
0
100
AcDbLine
 62
7
  6
CONTINUOUS
 10
15.0620683549
 20
11.3685818604
 11
15.0620683549
 21
10.7835818604
  0
LINE
  5
220
100
AcDbEntity
  8
0
100
AcDbLine
 62
7
  6
CONTINUOUS
 10
15.0820683549
 20
11.3885818604
 11
15.0820683549
 21
10.7635818604
  0
LINE
  5
221
100
AcDbEntity
  8
0
100
AcDbLine
 62
7
  6
CONTINUOUS
 10
0.9790683549
 20
11.3885818604
 11
4.8140683549
 21
11.3885818604
  0
LINE
  5
222
100
AcDbEntity
  8
0
100
AcDbLine
 62
7
  6
CONTINUOUS
 10
11.0820683549
 20
11.3885818604
 11
14.9170683549
 21
11.3885818604
  0
LINE
  5
223
100
AcDbEntity
  8
0
100
AcDbLine
 62
7
  6
CONTINUOUS
 10
15.0820683549
 20
11.3885818604
 11
18.9170683549
 21
11.3885818604
  0
LINE
  5
224
100
AcDbEntity
  8
0
100
AcDbLine
 62
7
  6
CONTINUOUS
 10
15.0820683549
 20
10.7635818604
 11
15.0620683549
 21
10.7835818604
  0
LINE
  5
225
100
AcDbEntity
  8
0
100
AcDbLine
 62
7
  6
CONTINUOUS
 10
14.9170683549
 20
11.3885818604
 11
14.9370683549
 21
11.3685818604
  0
LINE
  5
226
100
AcDbEntity
  8
0
100
AcDbLine
 62
7
  6
CONTINUOUS
 10
20.4432944856
 20
10.8426138122
 11
20.4435292832
 21
10.8431125094
  0
LINE
  5
227
100
AcDbEntity
  8
0
100
AcDbLine
 62
7
  6
CONTINUOUS
 10
20.443491037
 20
10.8430363898
 11
20.4435436956
 21
10.8431420375
  0
LINE
  5
228
100
AcDbEntity
  8
0
100
AcDbLine
 62
7
  6
CONTINUOUS
 10
18.9170683549
 20
10.7635818604
 11
18.9170683549
 21
11.3885818604
  0
LINE
  5
229
100
AcDbEntity
  8
0
100
AcDbLine
 62
7
  6
CONTINUOUS
 10
18.9370683549
 20
10.7835818604
 11
18.9370683549
 21
11.3685818604
  0
LINE
  5
22A
100
AcDbEntity
  8
0
100
AcDbLine
 62
7
  6
CONTINUOUS
 10
19.4480683549
 20
5.0134536994
 11
19.4480683549
 21
10.4642926295
  0
LINE
  5
22B
100
AcDbEntity
  8
0
100
AcDbLine
 62
7
  6
CONTINUOUS
 10
19.4580683549
 20
10.7792585583
 11
19.4580683549
 21
10.6956961691
  0
LINE
  5
22C
100
AcDbEntity
  8
0
100
AcDbLine
 62
7
  6
CONTINUOUS
 10
19.4605683549
 20
10.801617637
 11
19.4605683549
 21
11.0760818604
  0
LINE
  5
22D
100
AcDbEntity
  8
0
100
AcDbLine
 62
7
  6
CONTINUOUS
 10
19.4780683549
 20
10.5961503657
 11
19.4780683549
 21
10.8018424008
  0
LINE
  5
22E
100
AcDbEntity
  8
0
100
AcDbLine
 62
7
  6
CONTINUOUS
 10
18.9170683549
 20
11.3885818604
 11
18.9370683549
 21
11.3685818604
  0
LINE
  5
22F
100
AcDbEntity
  8
0
100
AcDbLine
 62
7
  6
CONTINUOUS
 10
20.4180683549
 20
10.8018424008
 11
20.4180683549
 21
10.5961503657
  0
LINE
  5
230
100
AcDbEntity
  8
0
100
AcDbLine
 62
7
  6
CONTINUOUS
 10
20.4355683549
 20
10.8032102121
 11
20.4355683549
 21
11.0760818604
  0
LINE
  5
231
100
AcDbEntity
  8
0
100
AcDbLine
 62
7
  6
CONTINUOUS
 10
20.4380683549
 20
10.7792585584
 11
20.4380683549
 21
10.6956961691
  0
LINE
  5
232
100
AcDbEntity
  8
0
100
AcDbLine
 62
7
  6
CONTINUOUS
 10
20.4480683549
 20
5.0134536995
 11
20.4480683549
 21
10.4642926296
  0
LINE
  5
233
100
AcDbEntity
  8
0
100
AcDbLine
 62
7
  6
CONTINUOUS
 10
20.4440157902
 20
11.3080136386
 11
20.4434916942
 21
11.3091259078
  0
ARC
  5
234
100
AcDbEntity
  8
0
100
AcDbCircle
 62
7
  6
CONTINUOUS
 10
7.9480683549
 20
3.2010818604
 40
0.5
100
AcDbArc
 50
180.0
 51
360.0
  0
ARC
  5
235
100
AcDbEntity
  8
0
100
AcDbCircle
 62
7
  6
CONTINUOUS
 10
3.9480683549
 20
11.0760818604
 40
1.1875
100
AcDbArc
 50
195.2880264998
 51
164.713419436
  0
ARC
  5
236
100
AcDbEntity
  8
0
100
AcDbCircle
 62
7
  6
CONTINUOUS
 10
11.9480683549
 20
11.0760818604
 40
1.1875
100
AcDbArc
 50
15.2897005485
 51
344.7067318389
  0
ARC
  5
237
100
AcDbEntity
  8
0
100
AcDbCircle
 62
7
  6
CONTINUOUS
 10
7.9480683549
 20
11.0760818604
 40
1.1875
100
AcDbArc
 50
294.9901353561
 51
245.0087205482
  0
ARC
  5
238
100
AcDbEntity
  8
0
100
AcDbCircle
 62
7
  6
CONTINUOUS
 10
7.9480683549
 20
11.0760818604
 40
0.6875
100
AcDbArc
 50
317.0125252781
 51
223.0054823779
  0
ARC
  5
239
100
AcDbEntity
  8
0
100
AcDbCircle
 62
7
  6
CONTINUOUS
 10
3.9480683549
 20
11.0760818604
 40
0.65625
100
AcDbArc
 50
208.5055687823
 51
331.4995346324
  0
ARC
  5
23A
100
AcDbEntity
  8
0
100
AcDbCircle
 62
7
  6
CONTINUOUS
 10
3.9480683549
 20
11.0760818604
 40
0.65625
100
AcDbArc
 50
28.5055687823
 51
151.4995346324
  0
ARC
  5
23B
100
AcDbEntity
  8
0
100
AcDbCircle
 62
7
  6
CONTINUOUS
 10
11.9480683549
 20
11.0760818604
 40
0.65625
100
AcDbArc
 50
28.4951256496
 51
151.504458089
  0
ARC
  5
23C
100
AcDbEntity
  8
0
100
AcDbCircle
 62
7
  6
CONTINUOUS
 10
11.9480683549
 20
11.0760818604
 40
0.65625
100
AcDbArc
 50
208.4951256496
 51
331.504458089
  0
ARC
  5
23D
100
AcDbEntity
  8
0
100
AcDbCircle
 62
7
  6
CONTINUOUS
 10
7.9480683549
 20
11.0760818604
 40
0.5
100
AcDbArc
 50
0.0
 51
180.0
  0
ARC
  5
23E
100
AcDbEntity
  8
0
100
AcDbCircle
 62
7
  6
CONTINUOUS
 10
20.1506978023
 20
5.0134930678
 40
0.2973710578
100
AcDbArc
 50
356.6172988869
 51
358.5156696604
  0
ARC
  5
23F
100
AcDbEntity
  8
0
100
AcDbCircle
 62
7
  6
CONTINUOUS
 10
19.7441065526
 20
5.0134563036
 40
0.2960381977
100
AcDbArc
 50
180.0005040181
 51
181.4839812444
  0
ARC
  5
240
100
AcDbEntity
  8
0
100
AcDbCircle
 62
7
  6
CONTINUOUS
 10
20.1520302652
 20
5.0134563041
 40
0.2960380897
100
AcDbArc
 50
358.5161023897
 51
359.9994958944
  0
ARC
  5
241
100
AcDbEntity
  8
0
100
AcDbCircle
 62
9
  6
CONTINUOUS
 10
20.1504319844
 20
5.0070268098
 40
0.2876363705
100
AcDbArc
 50
358.018315405
 51
359.9998035107
  0
ARC
  5
242
100
AcDbEntity
  8
0
100
AcDbCircle
 62
7
  6
CONTINUOUS
 10
15.9480683549
 20
11.0760818604
 40
1.1875
100
AcDbArc
 50
15.2897005485
 51
164.7067318389
  0
ARC
  5
243
100
AcDbEntity
  8
0
100
AcDbCircle
 62
7
  6
CONTINUOUS
 10
15.9480683549
 20
11.0760818604
 40
1.1875
100
AcDbArc
 50
195.2897005485
 51
344.7067318389
  0
ARC
  5
244
100
AcDbEntity
  8
0
100
AcDbCircle
 62
7
  6
CONTINUOUS
 10
15.9480683549
 20
11.0760818604
 40
0.65625
100
AcDbArc
 50
28.4951256496
 51
151.504458089
  0
ARC
  5
245
100
AcDbEntity
  8
0
100
AcDbCircle
 62
7
  6
CONTINUOUS
 10
15.9480683549
 20
11.0760818604
 40
0.65625
100
AcDbArc
 50
208.4951256496
 51
331.504458089
  0
ARC
  5
246
100
AcDbEntity
  8
0
100
AcDbCircle
 62
7
  6
CONTINUOUS
 10
19.7680188718
 20
10.7011413521
 40
0.3106830316
100
AcDbArc
 50
199.8827359587
 51
201.0499015785
  0
ARC
  5
247
100
AcDbEntity
  8
0
100
AcDbCircle
 62
7
  6
CONTINUOUS
 10
20.128221471
 20
10.6902903586
 40
0.3105721723
100
AcDbArc
 50
19.7472579761
 51
21.0499897319
  0
ARC
  5
248
100
AcDbEntity
  8
0
100
AcDbCircle
 62
7
  6
CONTINUOUS
 10
20.1284759157
 20
10.7010077122
 40
0.3103008482
100
AcDbArc
 50
338.9493796244
 51
340.1179828385
  0
ARC
  5
249
100
AcDbEntity
  8
0
100
AcDbCircle
 62
7
  6
CONTINUOUS
 10
19.7670657918
 20
10.6906062726
 40
0.3096659406
100
AcDbArc
 50
158.9481092954
 51
160.6732860328
  0
ARC
  5
24A
100
AcDbEntity
  8
0
100
AcDbCircle
 62
7
  6
CONTINUOUS
 10
20.1322307253
 20
10.6917198945
 40
0.3063156939
100
AcDbArc
 50
16.3477310829
 51
19.7489686083
  0
ARC
  5
24B
100
AcDbEntity
  8
0
100
AcDbCircle
 62
7
  6
CONTINUOUS
 10
19.762041909
 20
10.6923197262
 40
0.3043580984
100
AcDbArc
 50
160.6646676787
 51
164.1150821056
  0
ARC
  5
24C
100
AcDbEntity
  8
0
100
AcDbCircle
 62
7
  6
CONTINUOUS
 10
19.7547080167
 20
10.779192693
 40
0.2966409358
100
AcDbArc
 50
175.6472597209
 51
177.472969686
  0
ARC
  5
24D
100
AcDbEntity
  8
0
100
AcDbCircle
 62
7
  6
CONTINUOUS
 10
20.1426646974
 20
10.7792474217
 40
0.2954037216
100
AcDbArc
 50
0.492717783
 51
2.5314139805
  0
ARC
  5
24E
100
AcDbEntity
  8
0
100
AcDbCircle
 62
7
  6
CONTINUOUS
 10
19.7534245326
 20
10.779249894
 40
0.2953561778
100
AcDbArc
 50
177.4730774846
 51
179.998319214
  0
ARC
  5
24F
100
AcDbEntity
  8
0
100
AcDbCircle
 62
7
  6
CONTINUOUS
 10
19.749648742
 20
10.6954542604
 40
0.2915804874
100
AcDbArc
 50
164.0409525988
 51
179.9524647507
  0
ARC
  5
250
100
AcDbEntity
  8
0
100
AcDbCircle
 62
7
  6
CONTINUOUS
 10
20.1505188876
 20
10.7792585434
 40
0.2875494673
100
AcDbArc
 50
0.0000029746
 51
0.4902043385
  0
ARC
  5
251
100
AcDbEntity
  8
0
100
AcDbCircle
 62
7
  6
CONTINUOUS
 10
19.9480683549
 20
11.0760818604
 40
1.1875
100
AcDbArc
 50
195.2767722778
 51
245.0873844266
  0
ARC
  5
252
100
AcDbEntity
  8
0
100
AcDbCircle
 62
7
  6
CONTINUOUS
 10
19.9480683549
 20
11.0760818604
 40
1.1875
100
AcDbArc
 50
294.9109030201
 51
164.7238089122
  0
ARC
  5
253
100
AcDbEntity
  8
0
100
AcDbCircle
 62
7
  6
CONTINUOUS
 10
19.9480683549
 20
11.0760818604
 40
0.5475
100
AcDbArc
 50
333.3102316216
 51
207.3459558181
  0
ARC
  5
254
100
AcDbEntity
  8
0
100
AcDbCircle
 62
9
  6
CONTINUOUS
 10
19.9480683549
 20
11.0760818604
 40
0.5175
100
AcDbArc
 50
340.5178672003
 51
199.4821327997
  0
ARC
  5
255
100
AcDbEntity
  8
0
100
AcDbCircle
 62
7
  6
CONTINUOUS
 10
19.9480683549
 20
11.0760818604
 40
0.4875
100
AcDbArc
 50
0.0
 51
180.0
  0
SPLINE
  5
256
100
AcDbEntity
  8
0
100
AcDbSpline
 62
7
  6
CONTINUOUS
 70
0
 71
3
 72
39
 73
35
 74
0
 42
0.0000001
 43
0.0000001
 44
0.0000000001
 40
0.0
 40
0.0
 40
0.0
 40
0.0
 40
0.0274236937
 40
0.0412083253
 40
0.0550568844
 40
0.0830011737
 40
0.1113935477
 40
0.1403352686
 40
0.1699014118
 40
0.200143258
 40
0.2310861584
 40
0.26272826
 40
0.2950438353
 40
0.3614236794
 40
0.3953864073
 40
0.4297172385
 40
0.4643047013
 40
0.4990304674
 40
0.533771979
 40
0.568406627
 40
0.6028143355
 40
0.6368819255
 40
0.6705055585
 40
0.7035951192
 40
0.7360765947
 40
0.7678953853
 40
0.7990192724
 40
0.8294400576
 40
0.8591761419
 40
0.888272174
 40
0.9167973116
 40
0.944845732
 40
0.9725367327
 40
1.0
 40
1.0
 40
1.0
 40
1.0
 10
20.437780151
 20
10.7922945581
 30
0.0
 10
20.4372407627
 20
10.8044982414
 30
0.0
 10
20.435290157
 20
10.8228112631
 30
0.0
 10
20.4304708637
 20
10.8468684472
 30
0.0
 10
20.4241401578
 20
10.8708160645
 30
0.0
 10
20.4134386892
 20
10.9002748547
 30
0.0
 10
20.3963803015
 20
10.9343050966
 30
0.0
 10
20.3752576287
 20
10.9668347794
 30
0.0
 10
20.3502794976
 20
10.9975680095
 30
0.0
 10
20.321700999
 20
11.0262507218
 30
0.0
 10
20.2897871234
 20
11.0526362767
 30
0.0
 10
20.254834738
 20
11.0765165484
 30
0.0
 10
20.2041717502
 20
11.1049875421
 30
0.0
 10
20.1491367606
 20
11.1273347004
 30
0.0
 10
20.0912815886
 20
11.1433413645
 30
0.0
 10
20.0462686555
 20
11.1521896199
 30
0.0
 10
20.0003903772
 20
11.1577013597
 30
0.0
 10
19.9540476798
 20
11.1598387236
 30
0.0
 10
19.9076523592
 20
11.158575168
 30
0.0
 10
19.8616146631
 20
11.1539307229
 30
0.0
 10
19.8163433638
 20
11.1459345458
 30
0.0
 10
19.7722376695
 20
11.1346634111
 30
0.0
 10
19.7296900688
 20
11.1202026075
 30
0.0
 10
19.6890752629
 20
11.1026793922
 30
0.0
 10
19.6507558436
 20
11.0822332808
 30
0.0
 10
19.615072876
 20
11.059035087
 30
0.0
 10
19.5823482488
 20
11.0332746064
 30
0.0
 10
19.5528840176
 20
11.0051618182
 30
0.0
 10
19.5269534795
 20
10.9749334507
 30
0.0
 10
19.5048171734
 20
10.9428396415
 30
0.0
 10
19.4866909369
 20
10.9091675283
 30
0.0
 10
19.4727797572
 20
10.8742122367
 30
0.0
 10
19.4632324946
 20
10.8383127042
 30
0.0
 10
19.4598510251
 20
10.81390468
 30
0.0
 10
19.4589226842
 20
10.80170673
 30
0.0
  0
SPLINE
  5
257
100
AcDbEntity
  8
0
100
AcDbSpline
 62
7
  6
CONTINUOUS
 70
0
 71
3
 72
11
 73
7
 74
0
 42
0.0000001
 43
0.0000001
 44
0.0000000001
 40
0.0
 40
0.0
 40
0.0
 40
0.0
 40
0.2480354392
 40
0.4968881112
 40
0.7472940409
 40
1.0
 40
1.0
 40
1.0
 40
1.0
 10
20.4380683549
 20
10.6956961691
 30
0.0
 10
20.4380683549
 20
10.6872409764
 30
0.0
 10
20.4373192094
 20
10.6702933991
 30
0.0
 10
20.43395788
 20
10.6450101814
 30
0.0
 10
20.4283723128
 20
10.6199608751
 30
0.0
 10
20.4232108284
 20
10.6035801903
 30
0.0
 10
20.4202812546
 20
10.5954792298
 30
0.0
  0
SPLINE
  5
258
100
AcDbEntity
  8
0
100
AcDbSpline
 62
7
  6
CONTINUOUS
 70
0
 71
3
 72
11
 73
7
 74
0
 42
0.0000001
 43
0.0000001
 44
0.0000000001
 40
0.0
 40
0.0
 40
0.0
 40
0.0
 40
0.2527059591
 40
0.5031118888
 40
0.7519645608
 40
1.0
 40
1.0
 40
1.0
 40
1.0
 10
19.4758554552
 20
10.5954792298
 30
0.0
 10
19.4729258815
 20
10.6035801903
 30
0.0
 10
19.467764397
 20
10.6199608751
 30
0.0
 10
19.4621788298
 20
10.6450101814
 30
0.0
 10
19.4588175004
 20
10.6702933991
 30
0.0
 10
19.4580683549
 20
10.6872409764
 30
0.0
 10
19.4580683549
 20
10.6956961691
 30
0.0
  0
SPLINE
  5
259
100
AcDbEntity
  8
0
100
AcDbSpline
 62
9
  6
CONTINUOUS
 70
0
 71
3
 72
23
 73
19
 74
0
 42
0.0000001
 43
0.0000001
 44
0.0000000001
 40
0.0
 40
0.0
 40
0.0
 40
0.0
 40
0.070418547
 40
0.1406078319
 40
0.2102198249
 40
0.2790178574
 40
0.4131845506
 40
0.4782898142
 40
0.5418613611
 40
0.6038315026
 40
0.6641880055
 40
0.7229860863
 40
0.7803442644
 40
0.8085495072
 40
0.8364682393
 40
0.8915675459
 40
0.9459835683
 40
1.0
 40
1.0
 40
1.0
 40
1.0
 10
19.9480683549
 20
11.2974574145
 30
0.0
 10
19.9321344973
 20
11.2974574145
 30
0.0
 10
19.9003055734
 20
11.2962585685
 30
0.0
 10
19.8529988291
 20
11.2908996605
 30
0.0
 10
19.8065902975
 20
11.2820104611
 30
0.0
 10
19.7470576216
 20
11.2657274973
 30
0.0
 10
19.6905448338
 20
11.2427888938
 30
0.0
 10
19.6387488685
 20
11.2134314859
 30
0.0
 10
19.6032344276
 20
11.1888313582
 30
0.0
 10
19.5710220228
 20
11.1616793184
 30
0.0
 10
19.5424257459
 20
11.1322196787
 30
0.0
 10
19.5177217384
 20
11.1007400058
 30
0.0
 10
19.500485603
 20
11.0729018197
 30
0.0
 10
19.488922041
 20
11.049959902
 30
0.0
 10
19.478944535
 20
11.0268418956
 30
0.0
 10
19.4692208623
 20
10.9972125988
 30
0.0
 10
19.4621530648
 20
10.9607972278
 30
0.0
 10
19.4605683549
 20
10.9362332405
 30
0.0
 10
19.4605683549
 20
10.9240107484
 30
0.0
  0
SPLINE
  5
25A
100
AcDbEntity
  8
0
100
AcDbSpline
 62
7
  6
CONTINUOUS
 70
0
 71
3
 72
9
 73
5
 74
0
 42
0.0000001
 43
0.0000001
 44
0.0000000001
 40
0.0
 40
0.0
 40
0.0
 40
0.0
 40
0.5021080902
 40
1.0
 40
1.0
 40
1.0
 40
1.0
 10
20.4261624266
 20
10.7779374062
 30
0.0
 10
20.4300849532
 20
10.764556788
 30
0.0
 10
20.436055605
 20
10.737329212
 30
0.0
 10
20.4380683549
 20
10.7095227983
 30
0.0
 10
20.4380683549
 20
10.6956961691
 30
0.0
  0
SPLINE
  5
25B
100
AcDbEntity
  8
0
100
AcDbSpline
 62
7
  6
CONTINUOUS
 70
0
 71
3
 72
23
 73
19
 74
0
 42
0.0000001
 43
0.0000001
 44
0.0000000001
 40
0.0
 40
0.0
 40
0.0
 40
0.0
 40
0.0539433027
 40
0.1086328241
 40
0.1643099296
 40
0.2211572873
 40
0.2793078006
 40
0.3388482118
 40
0.3998208666
 40
0.4622184009
 40
0.5259934011
 40
0.5910588391
 40
0.6572958015
 40
0.7245479814
 40
0.7926393841
 40
0.8613947823
 40
0.9306133999
 40
1.0
 40
1.0
 40
1.0
 40
1.0
 10
19.4665099119
 20
10.8502375499
 30
0.0
 10
19.4687561778
 20
10.8611652487
 30
0.0
 10
19.4745463946
 20
10.8829311216
 30
0.0
 10
19.4868886952
 20
10.9146608431
 30
0.0
 10
19.5028430174
 20
10.9454159152
 30
0.0
 10
19.5222683893
 20
10.9749594277
 30
0.0
 10
19.5450196241
 20
11.0030560923
 30
0.0
 10
19.570906118
 20
11.0294956059
 30
0.0
 10
19.5997308752
 20
11.0540677965
 30
0.0
 10
19.6312605385
 20
11.0765931525
 30
0.0
 10
19.665255255
 20
11.0968899365
 30
0.0
 10
19.7014451706
 20
11.1148118884
 30
0.0
 10
19.7395529956
 20
11.1302108764
 30
0.0
 10
19.779276699
 20
11.142980092
 30
0.0
 10
19.820313278
 20
11.1530122096
 30
0.0
 10
19.8623482386
 20
11.160237191
 30
0.0
 10
19.905043608
 20
11.1645875573
 30
0.0
 10
19.9337183015
 20
11.1655609766
 30
0.0
 10
19.9480683549
 20
11.1655609766
 30
0.0
  0
SPLINE
  5
25C
100
AcDbEntity
  8
0
100
AcDbSpline
 62
9
  6
CONTINUOUS
 70
0
 71
3
 72
40
 73
36
 74
0
 42
0.0000001
 43
0.0000001
 44
0.0000000001
 40
0.0
 40
0.0
 40
0.0
 40
0.0
 40
0.027005381
 40
0.0542214565
 40
0.081788454
 40
0.0957592519
 40
0.109874793
 40
0.1385831225
 40
0.1680139288
 40
0.1982243251
 40
0.2292400299
 40
0.2610535751
 40
0.2936299072
 40
0.3607438991
 40
0.3951529234
 40
0.4299598869
 40
0.4650365198
 40
0.500247492
 40
0.5354537944
 40
0.5705165501
 40
0.6053007942
 40
0.6396788828
 40
0.6735349269
 40
0.7067672836
 40
0.7392942642
 40
0.7710552241
 40
0.8020169541
 40
0.832174022
 40
0.8615543214
 40
0.8902171999
 40
0.9043126209
 40
0.9182653647
 40
0.945803318
 40
0.9730011116
 40
1.0
 40
1.0
 40
1.0
 40
1.0
 10
20.4380578307
 20
10.7817186946
 30
0.0
 10
20.4379529183
 20
10.7939807294
 30
0.0
 10
20.4361549533
 20
10.8186153688
 30
0.0
 10
20.4287674383
 20
10.8551048929
 30
0.0
 10
20.4187807938
 20
10.8847746984
 30
0.0
 10
20.4085956716
 20
10.9079155127
 30
0.0
 10
20.3968231308
 20
10.9308757046
 30
0.0
 10
20.3793299361
 20
10.9587226766
 30
0.0
 10
20.3543288119
 20
10.9901929788
 30
0.0
 10
20.3254459978
 20
11.0196258091
 30
0.0
 10
20.2929591768
 20
11.04673517
 30
0.0
 10
20.2571833519
 20
11.0712780159
 30
0.0
 10
20.2050592396
 20
11.1005376748
 30
0.0
 10
20.1482491426
 20
11.1233619574
 30
0.0
 10
20.088444542
 20
11.1395113959
 30
0.0
 10
20.0418571245
 20
11.1482915444
 30
0.0
 10
19.9943812373
 20
11.1535403223
 30
0.0
 10
19.9464631635
 20
11.1552185114
 30
0.0
 10
19.8985607635
 20
11.1533003368
 30
0.0
 10
19.8511294601
 20
11.147813332
 30
0.0
 10
19.8046218142
 20
11.1388014658
 30
0.0
 10
19.7594799726
 20
11.1263547742
 30
0.0
 10
19.7161341246
 20
11.1105887282
 30
0.0
 10
19.6749982189
 20
11.0916497169
 30
0.0
 10
19.6364621337
 20
11.0697205545
 30
0.0
 10
19.6008984955
 20
11.0449992287
 30
0.0
 10
19.5686425512
 20
11.0177262885
 30
0.0
 10
19.5400112939
 20
10.9881480405
 30
0.0
 10
19.5152790511
 20
10.9565514687
 30
0.0
 10
19.4980248936
 20
10.9286172782
 30
0.0
 10
19.4864496414
 20
10.9055994326
 30
0.0
 10
19.4764619346
 20
10.8824058944
 30
0.0
 10
19.4667288346
 20
10.8526828814
 30
0.0
 10
19.4596544751
 20
10.8161560403
 30
0.0
 10
19.4580683549
 20
10.7915180939
 30
0.0
 10
19.4580683549
 20
10.7792585583
 30
0.0
  0
SPLINE
  5
25D
100
AcDbEntity
  8
0
100
AcDbSpline
 62
7
  6
CONTINUOUS
 70
0
 71
3
 72
23
 73
19
 74
0
 42
0.0000001
 43
0.0000001
 44
0.0000000001
 40
0.0
 40
0.0
 40
0.0
 40
0.0
 40
0.0693863465
 40
0.1386047199
 40
0.2073599
 40
0.2754511204
 40
0.3427031622
 40
0.4089400378
 40
0.4740054451
 40
0.5377804718
 40
0.6001780873
 40
0.6611508723
 40
0.7206914514
 40
0.7788421558
 40
0.8356897086
 40
0.891366992
 40
0.9460566433
 40
1.0
 40
1.0
 40
1.0
 40
1.0
 10
19.9480683549
 20
11.1655609766
 30
0.0
 10
19.9624180394
 20
11.1655609766
 30
0.0
 10
19.991091997
 20
11.1645876075
 30
0.0
 10
20.0337862872
 20
11.1602374639
 30
0.0
 10
20.0758202196
 20
11.1530128511
 30
0.0
 10
20.1168558468
 20
11.142981241
 30
0.0
 10
20.1565786984
 20
11.1302126643
 30
0.0
 10
20.1946857934
 20
11.1148144365
 30
0.0
 10
20.230875122
 20
11.0968933543
 30
0.0
 10
20.2648694135
 20
11.0765975361
 30
0.0
 10
20.2963988303
 20
11.0540732261
 30
0.0
 10
20.3252235351
 20
11.029502146
 30
0.0
 10
20.3511101817
 20
11.0030637879
 30
0.0
 10
20.3738617861
 20
10.9749683066
 30
0.0
 10
20.3932877487
 20
10.9454259814
 30
0.0
 10
20.4092428899
 20
10.9146720833
 30
0.0
 10
20.4215862347
 20
10.8829434985
 30
0.0
 10
20.4273773098
 20
10.8611783327
 30
0.0
 10
20.4296240389
 20
10.8502509689
 30
0.0
  0
SPLINE
  5
25E
100
AcDbEntity
  8
0
100
AcDbSpline
 62
9
  6
CONTINUOUS
 70
0
 71
3
 72
23
 73
19
 74
0
 42
0.0000001
 43
0.0000001
 44
0.0000000001
 40
0.0
 40
0.0
 40
0.0
 40
0.0
 40
0.0540164317
 40
0.1084324541
 40
0.1635317607
 40
0.1914504928
 40
0.2196557356
 40
0.2770139137
 40
0.3358119945
 40
0.3961684974
 40
0.4581386389
 40
0.5217101858
 40
0.5868154494
 40
0.7209821426
 40
0.7897801751
 40
0.8593921681
 40
0.929581453
 40
1.0
 40
1.0
 40
1.0
 40
1.0
 10
20.4355683549
 20
10.9240107484
 30
0.0
 10
20.4355683549
 20
10.9362332405
 30
0.0
 10
20.4339836451
 20
10.9607972278
 30
0.0
 10
20.4269158475
 20
10.9972125988
 30
0.0
 10
20.4171921749
 20
11.0268418956
 30
0.0
 10
20.4072146688
 20
11.049959902
 30
0.0
 10
20.3956511068
 20
11.0729018197
 30
0.0
 10
20.3784149714
 20
11.1007400058
 30
0.0
 10
20.3537109639
 20
11.1322196787
 30
0.0
 10
20.325114687
 20
11.1616793184
 30
0.0
 10
20.2929022822
 20
11.1888313582
 30
0.0
 10
20.2573878414
 20
11.2134314859
 30
0.0
 10
20.205591876
 20
11.2427888938
 30
0.0
 10
20.1490790883
 20
11.2657274973
 30
0.0
 10
20.0895464123
 20
11.2820104611
 30
0.0
 10
20.0431378807
 20
11.2908996605
 30
0.0
 10
19.9958311365
 20
11.2962585685
 30
0.0
 10
19.9640022125
 20
11.2974574145
 30
0.0
 10
19.9480683549
 20
11.2974574145
 30
0.0
  0
SPLINE
  5
25F
100
AcDbEntity
  8
0
100
AcDbSpline
 62
9
  6
CONTINUOUS
 70
0
 71
3
 72
35
 73
31
 74
0
 42
0.0000001
 43
0.0000001
 44
0.0000000001
 40
0.0
 40
0.0
 40
0.0
 40
0.0
 40
0.0271682011
 40
0.0548324793
 40
0.0830341593
 40
0.1118223726
 40
0.1412378065
 40
0.1712963805
 40
0.2019944452
 40
0.2333139761
 40
0.2976381117
 40
0.3639080764
 40
0.3976186815
 40
0.431595566
 40
0.4657523159
 40
0.5
 40
0.5342476841
 40
0.568404434
 40
0.6023813185
 40
0.6360919236
 40
0.7023618883
 40
0.7666860239
 40
0.7980055548
 40
0.8287036195
 40
0.8587621935
 40
0.8881776274
 40
0.9169658407
 40
0.9451675207
 40
0.9728317989
 40
1.0
 40
1.0
 40
1.0
 40
1.0
 10
19.4780683549
 20
10.5961503657
 30
0.0
 10
19.4818011039
 20
10.6058494336
 30
0.0
 10
19.490322957
 20
10.6250584144
 30
0.0
 10
19.5059440335
 20
10.652765625
 30
0.0
 10
19.5244188465
 20
10.6794160012
 30
0.0
 10
19.5456126006
 20
10.7048331104
 30
0.0
 10
19.5693924925
 20
10.7288556623
 30
0.0
 10
19.5955997902
 20
10.7513382009
 30
0.0
 10
19.6240708904
 20
10.7721337934
 30
0.0
 10
19.665155197
 20
10.7976575573
 30
0.0
 10
19.7212028235
 20
10.8245227506
 30
0.0
 10
19.7811873147
 20
10.8439056264
 30
0.0
 10
19.831251983
 20
10.8549579443
 30
0.0
 10
19.8697736198
 20
10.8609493484
 30
0.0
 10
19.908794834
 20
10.8645628328
 30
0.0
 10
19.9480683549
 20
10.8657667178
 30
0.0
 10
19.9873418758
 20
10.8645628328
 30
0.0
 10
20.02636309
 20
10.8609493484
 30
0.0
 10
20.0648847268
 20
10.8549579443
 30
0.0
 10
20.1149493951
 20
10.8439056264
 30
0.0
 10
20.1749338863
 20
10.8245227506
 30
0.0
 10
20.2309815128
 20
10.7976575573
 30
0.0
 10
20.2720658195
 20
10.7721337934
 30
0.0
 10
20.3005369197
 20
10.7513382009
 30
0.0
 10
20.3267442173
 20
10.7288556623
 30
0.0
 10
20.3505241092
 20
10.7048331104
 30
0.0
 10
20.3717178633
 20
10.6794160012
 30
0.0
 10
20.3901926763
 20
10.652765625
 30
0.0
 10
20.4058137528
 20
10.6250584144
 30
0.0
 10
20.4143356059
 20
10.6058494336
 30
0.0
 10
20.4180683549
 20
10.5961503657
 30
0.0
  0
SPLINE
  5
260
100
AcDbEntity
  8
0
100
AcDbSpline
 62
7
  6
CONTINUOUS
 70
0
 71
3
 72
22
 73
18
 74
0
 42
0.0000001
 43
0.0000001
 44
0.0000000001
 40
0.0
 40
0.0
 40
0.0
 40
0.0
 40
0.0545136533
 40
0.1094183247
 40
0.1649589867
 40
0.2214103656
 40
0.2790241837
 40
0.3379887873
 40
0.3984175303
 40
0.4603686381
 40
0.5238385742
 40
0.5887731972
 40
0.6550544743
 40
0.722520164
 40
0.8601693851
 40
0.9299993452
 40
1.0
 40
1.0
 40
1.0
 40
1.0
 10
19.4880683549
 20
5.0070258234
 30
0.0
 10
19.4880683549
 20
4.9953545887
 30
0.0
 10
19.4895817588
 20
4.9719020246
 30
0.0
 10
19.4963038947
 20
4.9371398916
 30
0.0
 10
19.5074403419
 20
4.9030907543
 30
0.0
 10
19.5228463898
 20
4.8701151607
 30
0.0
 10
19.5423530419
 20
4.8385278026
 30
0.0
 10
19.5657543737
 20
4.8086261061
 30
0.0
 10
19.5928022528
 20
4.7806776083
 30
0.0
 10
19.6232420548
 20
4.7549549579
 30
0.0
 10
19.6567614402
 20
4.7316710801
 30
0.0
 10
19.6930506187
 20
4.7110574456
 30
0.0
 10
19.7317526178
 20
4.693278849
 30
0.0
 10
19.7864272631
 20
4.6734599015
 30
0.0
 10
19.8440634817
 20
4.6601423034
 30
0.0
 10
19.9031292279
 20
4.6534410653
 30
0.0
 10
19.9330813926
 20
4.652305824
 30
0.0
 10
19.9480683549
 20
4.652305824
 30
0.0
  0
SPLINE
  5
261
100
AcDbEntity
  8
0
100
AcDbSpline
 62
7
  6
CONTINUOUS
 70
0
 71
3
 72
22
 73
18
 74
0
 42
0.0000001
 43
0.0000001
 44
0.0000000001
 40
0.0
 40
0.0
 40
0.0
 40
0.0
 40
0.0700007165
 40
0.1398308333
 40
0.2774802713
 40
0.3449459452
 40
0.411227177
 40
0.4761617466
 40
0.5396316011
 40
0.6015826108
 40
0.6620112561
 40
0.7209757662
 40
0.7785895019
 40
0.8350408373
 40
0.8905815451
 40
0.9454863142
 40
1.0
 40
1.0
 40
1.0
 40
1.0
 10
19.9480683549
 20
4.652305824
 30
0.0
 10
19.9630553304
 20
4.652305824
 30
0.0
 10
19.9930075413
 20
4.6534410808
 30
0.0
 10
20.052073379
 20
4.6601423363
 30
0.0
 10
20.1097096689
 20
4.6734599673
 30
0.0
 10
20.1643843416
 20
4.6932789388
 30
0.0
 10
20.2030863006
 20
4.7110575636
 30
0.0
 10
20.23937544
 20
4.7316711868
 30
0.0
 10
20.2728947784
 20
4.7549550455
 30
0.0
 10
20.3033345198
 20
4.7806776745
 30
0.0
 10
20.3303823575
 20
4.8086261253
 30
0.0
 10
20.3537836501
 20
4.8385277783
 30
0.0
 10
20.3732902811
 20
4.8701150923
 30
0.0
 10
20.3886963488
 20
4.9030906586
 30
0.0
 10
20.3998327829
 20
4.9371398236
 30
0.0
 10
20.4065549329
 20
4.9719019903
 30
0.0
 10
20.4080683549
 20
4.9953545818
 30
0.0
 10
20.4080683549
 20
5.0070258234
 30
0.0
  0
SPLINE
  5
262
100
AcDbEntity
  8
0
100
AcDbSpline
 62
7
  6
CONTINUOUS
 70
0
 71
3
 72
11
 73
7
 74
0
 42
0.0000001
 43
0.0000001
 44
0.0000000001
 40
0.0
 40
0.0
 40
0.0
 40
0.0
 40
0.246958962
 40
0.4953438176
 40
0.7460287769
 40
1.0
 40
1.0
 40
1.0
 40
1.0
 10
20.4480683549
 20
10.4642926296
 30
0.0
 10
20.4480683549
 20
10.4754853522
 30
0.0
 10
20.4467894621
 20
10.4979551837
 30
0.0
 10
20.4410948108
 20
10.5313522137
 30
0.0
 10
20.4316517199
 20
10.564218681
 30
0.0
 10
20.4229771424
 20
10.5854366268
 30
0.0
 10
20.4180761012
 20
10.5958516246
 30
0.0
  0
SPLINE
  5
263
100
AcDbEntity
  8
0
100
AcDbSpline
 62
7
  6
CONTINUOUS
 70
0
 71
3
 72
29
 73
25
 74
0
 42
0.0000001
 43
0.0000001
 44
0.0000000001
 40
0.0
 40
0.0
 40
0.0
 40
0.0
 40
0.0275449057
 40
0.0555579908
 40
0.0840878744
 40
0.113168685
 40
0.1428219786
 40
0.1730540666
 40
0.23518122
 40
0.3650541381
 40
0.3985243854
 40
0.4322280237
 40
0.5000009132
 40
0.5677737688
 40
0.6014773365
 40
0.6349475137
 40
0.7648199272
 40
0.8269467779
 40
0.8571786971
 40
0.8868318257
 40
0.915912488
 40
0.9444422331
 40
0.972455203
 40
1.0
 40
1.0
 40
1.0
 40
1.0
 10
20.4180761012
 20
10.5958516246
 30
0.0
 10
20.4136839295
 20
10.6051852452
 30
0.0
 10
20.4039448907
 20
10.6236098199
 30
0.0
 10
20.3867798271
 20
10.6500561345
 30
0.0
 10
20.3670616837
 20
10.6753910422
 30
0.0
 10
20.3449065065
 20
10.6994628742
 30
0.0
 10
20.3204449444
 20
10.722132584
 30
0.0
 10
20.2846396487
 20
10.7505868739
 30
0.0
 10
20.2139599831
 20
10.7949918803
 30
0.0
 10
20.1337328609
 20
10.8248167433
 30
0.0
 10
20.0615163553
 20
10.8399973074
 30
0.0
 10
20.0114957915
 20
10.847427432
 30
0.0
 10
19.9480682009
 20
10.8511385275
 30
0.0
 10
19.8846406209
 20
10.8474275001
 30
0.0
 10
19.8346201451
 20
10.8399972313
 30
0.0
 10
19.7624038757
 20
10.8248167336
 30
0.0
 10
19.6821770523
 20
10.7949920318
 30
0.0
 10
19.6114976487
 20
10.7505873052
 30
0.0
 10
19.5756924885
 20
10.7221332255
 30
0.0
 10
19.5512310459
 20
10.699463657
 30
0.0
 10
19.5290758405
 20
10.675392082
 30
0.0
 10
19.5093577397
 20
10.6500573291
 30
0.0
 10
19.4921926543
 20
10.6236111948
 30
0.0
 10
19.4824535388
 20
10.6051867559
 30
0.0
 10
19.4780613351
 20
10.5958531954
 30
0.0
  0
SPLINE
  5
264
100
AcDbEntity
  8
0
100
AcDbSpline
 62
7
  6
CONTINUOUS
 70
0
 71
3
 72
11
 73
7
 74
0
 42
0.0000001
 43
0.0000001
 44
0.0000000001
 40
0.0
 40
0.0
 40
0.0
 40
0.0
 40
0.2539707813
 40
0.5046555713
 40
0.753040702
 40
1.0
 40
1.0
 40
1.0
 40
1.0
 10
19.4780613351
 20
10.5958531954
 30
0.0
 10
19.473160185
 20
10.5854381091
 30
0.0
 10
19.4644854178
 20
10.5642199548
 30
0.0
 10
19.455042082
 20
10.53135312
 30
0.0
 10
19.4493472839
 20
10.4979556552
 30
0.0
 10
19.4480683549
 20
10.4754855098
 30
0.0
 10
19.4480683549
 20
10.4642926296
 30
0.0
  0
SPLINE
  5
265
100
AcDbEntity
  8
0
100
AcDbSpline
 62
7
  6
CONTINUOUS
 70
0
 71
3
 72
32
 73
28
 74
0
 42
0.0000001
 43
0.0000001
 44
0.0000000001
 40
0.0
 40
0.0
 40
0.0
 40
0.0
 40
0.0272000232
 40
0.0546100152
 40
0.0823524943
 40
0.110563429
 40
0.1393602119
 40
0.168826195
 40
0.2298769977
 40
0.2615572352
 40
0.2939536846
 40
0.3606032494
 40
0.4292254169
 40
0.4989277096
 40
0.5686984042
 40
0.6375183899
 40
0.7044729332
 40
0.7370503019
 40
0.7689239813
 40
0.8000574086
 40
0.8304419181
 40
0.8600946481
 40
0.8890617878
 40
0.917417319
 40
0.9452708155
 40
0.9727559078
 40
1.0
 40
1.0
 40
1.0
 40
1.0
 10
19.4481676448
 20
5.0057896653
 30
0.0
 10
19.4484893397
 20
4.9933682603
 30
0.0
 10
19.4507073227
 20
4.9684433255
 30
0.0
 10
19.4586626532
 20
4.931581039
 30
0.0
 10
19.4712026448
 20
4.8955241651
 30
0.0
 10
19.4881597285
 20
4.8606248763
 30
0.0
 10
19.5093793075
 20
4.8272056712
 30
0.0
 10
19.5434195705
 20
4.784529562
 30
0.0
 10
19.5848943399
 20
4.7465341585
 30
0.0
 10
19.6319700701
 20
4.7140200083
 30
0.0
 10
19.6839669744
 20
4.6845039005
 30
0.0
 10
19.7551896983
 20
4.655336009
 30
0.0
 10
19.8466533536
 20
4.6337000126
 30
0.0
 10
19.9417340313
 20
4.6257808205
 30
0.0
 10
20.0370402979
 20
4.6318541494
 30
0.0
 10
20.1291702291
 20
4.6517061061
 30
0.0
 10
20.2012871047
 20
4.6794638887
 30
0.0
 10
20.2542048674
 20
4.7079375276
 30
0.0
 10
20.2907631016
 20
4.731924524
 30
0.0
 10
20.3241901916
 20
4.7585342416
 30
0.0
 10
20.354190149
 20
4.7875217993
 30
0.0
 10
20.3804610979
 20
4.818649759
 30
0.0
 10
20.4027683191
 20
4.8516243758
 30
0.0
 10
20.4208700201
 20
4.8861630575
 30
0.0
 10
20.4345960629
 20
4.921945457
 30
0.0
 10
20.443774061
 20
4.9586302863
 30
0.0
 10
20.4468165501
 20
4.9835226676
 30
0.0
 10
20.4475507471
 20
4.9959466945
 30
0.0
  0
SPLINE
  5
266
100
AcDbEntity
  8
0
100
AcDbSpline
 62
9
  6
CONTINUOUS
 70
0
 71
3
 72
37
 73
33
 74
0
 42
0.0000001
 43
0.0000001
 44
0.0000000001
 40
0.0
 40
0.0
 40
0.0
 40
0.0
 40
0.0351931277
 40
0.0702965127
 40
0.1394631939
 40
0.1733397953
 40
0.2065988143
 40
0.2391531767
 40
0.2709385232
 40
0.301923167
 40
0.3321010501
 40
0.3615008312
 40
0.3901798695
 40
0.4182325296
 40
0.4457823676
 40
0.4729806437
 40
0.499997874
 40
0.5270150556
 40
0.5542130852
 40
0.5817626058
 40
0.6098147792
 40
0.6384934628
 40
0.6678928919
 40
0.6980706676
 40
0.7290555354
 40
0.7608413481
 40
0.7933964762
 40
0.826656163
 40
0.8605335638
 40
0.929702543
 40
0.9648066678
 40
1.0
 40
1.0
 40
1.0
 40
1.0
 10
19.9480683549
 20
4.6558779479
 30
0.0
 10
19.9333672059
 20
4.6558779479
 30
0.0
 10
19.9039879579
 20
4.6569889043
 30
0.0
 10
19.8460640985
 20
4.6635447697
 30
0.0
 10
19.7895549922
 20
4.6765690214
 30
0.0
 10
19.7359642297
 20
4.6959472598
 30
0.0
 10
19.698059122
 20
4.7133158887
 30
0.0
 10
19.6625419399
 20
4.7334393238
 30
0.0
 10
19.6297639831
 20
4.7561489413
 30
0.0
 10
19.6000274286
 20
4.7812091651
 30
0.0
 10
19.5736348292
 20
4.8084045835
 30
0.0
 10
19.5508280369
 20
4.8374618912
 30
0.0
 10
19.5318450464
 20
4.8681175573
 30
0.0
 10
19.5168728811
 20
4.9000733153
 30
0.0
 10
19.5060595391
 20
4.9330203565
 30
0.0
 10
19.4995336994
 20
4.966639526
 30
0.0
 10
19.4973404419
 20
5.0005951851
 30
0.0
 10
19.4995331385
 20
5.034550743
 30
0.0
 10
19.5060578064
 20
5.0681699074
 30
0.0
 10
19.5168709452
 20
5.101116531
 30
0.0
 10
19.5318414644
 20
5.1330725344
 30
0.0
 10
19.5508243669
 20
5.1637276751
 30
0.0
 10
19.573629637
 20
5.1927857136
 30
0.0
 10
19.6000220343
 20
5.2199812402
 30
0.0
 10
19.6297581587
 20
5.2450423042
 30
0.0
 10
19.6625361604
 20
5.2677529782
 30
0.0
 10
19.6980539701
 20
5.287876896
 30
0.0
 10
19.7359594738
 20
5.3052468997
 30
0.0
 10
19.7895517074
 20
5.3246257639
 30
0.0
 10
19.8460622775
 20
5.3376507958
 30
0.0
 10
19.9039874817
 20
5.3442068851
 30
0.0
 10
19.9333671205
 20
5.3453179467
 30
0.0
 10
19.9480683549
 20
5.3453179467
 30
0.0
  0
SPLINE
  5
267
100
AcDbEntity
  8
0
100
AcDbSpline
 62
9
  6
CONTINUOUS
 70
0
 71
3
 72
37
 73
33
 74
0
 42
0.0000001
 43
0.0000001
 44
0.0000000001
 40
0.0
 40
0.0
 40
0.0
 40
0.0
 40
0.0351931277
 40
0.0702965127
 40
0.1394631939
 40
0.1733397953
 40
0.2065988143
 40
0.2391531767
 40
0.2709385232
 40
0.301923167
 40
0.3321010501
 40
0.3615008312
 40
0.3901798695
 40
0.4182325296
 40
0.4457823676
 40
0.4729806437
 40
0.499997874
 40
0.5270150556
 40
0.5542130852
 40
0.5817626058
 40
0.6098147792
 40
0.6384934628
 40
0.6678928919
 40
0.6980706676
 40
0.7290555354
 40
0.7608413481
 40
0.7933964762
 40
0.826656163
 40
0.8605335638
 40
0.929702543
 40
0.9648066678
 40
1.0
 40
1.0
 40
1.0
 40
1.0
 10
19.9480683549
 20
5.3453179467
 30
0.0
 10
19.9627695039
 20
5.3453179467
 30
0.0
 10
19.9921487519
 20
5.3442069902
 30
0.0
 10
20.0500726113
 20
5.3376511248
 30
0.0
 10
20.1065817177
 20
5.3246268731
 30
0.0
 10
20.1601724801
 20
5.3052486347
 30
0.0
 10
20.1980775878
 20
5.2878800058
 30
0.0
 10
20.2335947699
 20
5.2677565707
 30
0.0
 10
20.2663727268
 20
5.2450469532
 30
0.0
 10
20.2961092812
 20
5.2199867295
 30
0.0
 10
20.3225018807
 20
5.192791311
 30
0.0
 10
20.3453086729
 20
5.1637340034
 30
0.0
 10
20.3642916634
 20
5.1330783373
 30
0.0
 10
20.3792638287
 20
5.1011225792
 30
0.0
 10
20.3900771708
 20
5.068175538
 30
0.0
 10
20.3966030104
 20
5.0345563686
 30
0.0
 10
20.3987962679
 20
5.0006007094
 30
0.0
 10
20.3966035713
 20
4.9666451515
 30
0.0
 10
20.3900789035
 20
4.9330259871
 30
0.0
 10
20.3792657646
 20
4.9000793635
 30
0.0
 10
20.3642952454
 20
4.8681233602
 30
0.0
 10
20.3453123429
 20
4.8374682194
 30
0.0
 10
20.3225070728
 20
4.8084101809
 30
0.0
 10
20.2961146756
 20
4.7812146543
 30
0.0
 10
20.2663785511
 20
4.7561535904
 30
0.0
 10
20.2336005495
 20
4.7334429163
 30
0.0
 10
20.1980827397
 20
4.7133189986
 30
0.0
 10
20.160177236
 20
4.6959489949
 30
0.0
 10
20.1065850024
 20
4.6765701306
 30
0.0
 10
20.0500744324
 20
4.6635450987
 30
0.0
 10
19.9921492282
 20
4.6569890094
 30
0.0
 10
19.9627695893
 20
4.6558779479
 30
0.0
 10
19.9480683549
 20
4.6558779479
 30
0.0
  0
SPLINE
  5
268
100
AcDbEntity
  8
0
100
AcDbSpline
 62
7
  6
CONTINUOUS
 70
0
 71
3
 72
22
 73
18
 74
0
 42
0.0000001
 43
0.0000001
 44
0.0000000001
 40
0.0
 40
0.0
 40
0.0
 40
0.0
 40
0.0540341126
 40
0.1084299394
 40
0.1635287491
 40
0.2196328709
 40
0.2769900272
 40
0.3357886863
 40
0.3961440287
 40
0.4581135301
 40
0.5216848842
 40
0.5867948223
 40
0.6533138589
 40
0.721068341
 40
0.8594057184
 40
0.9296136616
 40
1.0
 40
1.0
 40
1.0
 40
1.0
 10
20.4080668716
 20
5.0070258234
 30
0.0
 10
20.4080667607
 20
5.0185623936
 30
0.0
 10
20.4065707169
 20
5.041739326
 30
0.0
 10
20.3999007081
 20
5.0761008163
 30
0.0
 10
20.3888470704
 20
5.1097805947
 30
0.0
 10
20.3735436794
 20
5.142446138
 30
0.0
 10
20.3541388087
 20
5.1737823533
 30
0.0
 10
20.3308266674
 20
5.2034858564
 30
0.0
 10
20.3038477409
 20
5.2312855055
 30
0.0
 10
20.2734508267
 20
5.2569032504
 30
0.0
 10
20.2399444933
 20
5.280118386
 30
0.0
 10
20.2036375222
 20
5.3006893064
 30
0.0
 10
20.1648898276
 20
5.318445133
 30
0.0
 10
20.1101068742
 20
5.338254444
 30
0.0
 10
20.0523407632
 20
5.3515688063
 30
0.0
 10
19.9931285931
 20
5.3582705248
 30
0.0
 10
19.9630962121
 20
5.3594062672
 30
0.0
 10
19.9480683549
 20
5.3594062672
 30
0.0
  0
SPLINE
  5
269
100
AcDbEntity
  8
0
100
AcDbSpline
 62
9
  6
CONTINUOUS
 70
0
 71
3
 72
11
 73
7
 74
0
 42
0.0000001
 43
0.0000001
 44
0.0000000001
 40
0.0
 40
0.0
 40
0.0
 40
0.0
 40
0.2466076075
 40
0.4948358193
 40
0.7456124112
 40
1.0
 40
1.0
 40
1.0
 40
1.0
 10
20.4480683549
 20
10.4642926296
 30
0.0
 10
20.4480683549
 20
10.4754638843
 30
0.0
 10
20.4467754235
 20
10.4978999921
 30
0.0
 10
20.4410178606
 20
10.5312516194
 30
0.0
 10
20.4314650966
 20
10.564086898
 30
0.0
 10
20.422689865
 20
10.5852772202
 30
0.0
 10
20.4177311756
 20
10.5956794666
 30
0.0
  0
SPLINE
  5
26A
100
AcDbEntity
  8
0
100
AcDbSpline
 62
9
  6
CONTINUOUS
 70
0
 71
3
 72
29
 73
25
 74
0
 42
0.0000001
 43
0.0000001
 44
0.0000000001
 40
0.0
 40
0.0
 40
0.0
 40
0.0
 40
0.0273627562
 40
0.0552267973
 40
0.0836399086
 40
0.112635278
 40
0.1422329793
 40
0.1724365493
 40
0.2345780001
 40
0.3646853026
 40
0.3982404157
 40
0.432035008
 40
0.5
 40
0.567964992
 40
0.6017595843
 40
0.6353146974
 40
0.7654219999
 40
0.8275634507
 40
0.8577670207
 40
0.887364722
 40
0.9163600914
 40
0.9447732027
 40
0.9726372438
 40
1.0
 40
1.0
 40
1.0
 40
1.0
 10
20.4177311756
 20
10.5956794666
 30
0.0
 10
20.413335136
 20
10.604901397
 30
0.0
 10
20.4035938028
 20
10.6231126907
 30
0.0
 10
20.3864511089
 20
10.6492591759
 30
0.0
 10
20.3667657863
 20
10.6743291511
 30
0.0
 10
20.3446483418
 20
10.6981692009
 30
0.0
 10
20.3202257433
 20
10.7206381888
 30
0.0
 10
20.2844568393
 20
10.7488724486
 30
0.0
 10
20.2137993301
 20
10.7929871149
 30
0.0
 10
20.1336531873
 20
10.8226144786
 30
0.0
 10
20.0614906225
 20
10.83770758
 30
0.0
 10
20.0114807392
 20
10.8450994242
 30
0.0
 10
19.9480683549
 20
10.848791301
 30
0.0
 10
19.8846559706
 20
10.8450994242
 30
0.0
 10
19.8346460873
 20
10.83770758
 30
0.0
 10
19.7624835225
 20
10.8226144786
 30
0.0
 10
19.6823373797
 20
10.7929871149
 30
0.0
 10
19.6116798705
 20
10.7488724486
 30
0.0
 10
19.5759109665
 20
10.7206381888
 30
0.0
 10
19.551488368
 20
10.6981692009
 30
0.0
 10
19.5293709236
 20
10.6743291511
 30
0.0
 10
19.5096856009
 20
10.6492591759
 30
0.0
 10
19.492542907
 20
10.6231126907
 30
0.0
 10
19.4828015738
 20
10.604901397
 30
0.0
 10
19.4784055342
 20
10.5956794666
 30
0.0
  0
SPLINE
  5
26B
100
AcDbEntity
  8
0
100
AcDbSpline
 62
9
  6
CONTINUOUS
 70
0
 71
3
 72
11
 73
7
 74
0
 42
0.0000001
 43
0.0000001
 44
0.0000000001
 40
0.0
 40
0.0
 40
0.0
 40
0.0
 40
0.2543875888
 40
0.5051641807
 40
0.7533923925
 40
1.0
 40
1.0
 40
1.0
 40
1.0
 10
19.4784055342
 20
10.5956794666
 30
0.0
 10
19.4734468449
 20
10.5852772202
 30
0.0
 10
19.4646716133
 20
10.564086898
 30
0.0
 10
19.4551188492
 20
10.5312516194
 30
0.0
 10
19.4493612863
 20
10.4978999921
 30
0.0
 10
19.4480683549
 20
10.4754638842
 30
0.0
 10
19.4480683549
 20
10.4642926295
 30
0.0
  0
SPLINE
  5
26C
100
AcDbEntity
  8
0
100
AcDbSpline
 62
9
  6
CONTINUOUS
 70
0
 71
3
 72
37
 73
33
 74
0
 42
0.0000001
 43
0.0000001
 44
0.0000000001
 40
0.0
 40
0.0
 40
0.0
 40
0.0
 40
0.0269958561
 40
0.0542534381
 40
0.0818934187
 40
0.1100514793
 40
0.1388535602
 40
0.1683893426
 40
0.1987055373
 40
0.2298217633
 40
0.2617255036
 40
0.2943802077
 40
0.3616051283
 40
0.3960432594
 40
0.4308607333
 40
0.4659314438
 40
0.5011202446
 40
0.5362902458
 40
0.5713050536
 40
0.6060309904
 40
0.6403445354
 40
0.707235441
 40
0.7396915427
 40
0.7713838021
 40
0.8022827741
 40
0.8323839282
 40
0.861715443
 40
0.890332851
 40
0.9183348056
 40
0.9458549313
 40
0.9730350331
 40
1.0
 40
1.0
 40
1.0
 40
1.0
 10
20.4378963288
 20
4.9970803367
 30
0.0
 10
20.4374748132
 20
4.9848977601
 30
0.0
 10
20.4350530955
 20
4.9604420534
 30
0.0
 10
20.4268164595
 20
4.9242992836
 30
0.0
 10
20.4140128925
 20
4.8889493666
 30
0.0
 10
20.3967883831
 20
4.8547555711
 30
0.0
 10
20.3753160699
 20
4.8220337609
 30
0.0
 10
20.3498053815
 20
4.7910873425
 30
0.0
 10
20.3205112957
 20
4.7621939865
 30
0.0
 10
20.2876994649
 20
4.7356428141
 30
0.0
 10
20.2516948088
 20
4.7116559147
 30
0.0
 10
20.1993901022
 20
4.6831530721
 30
0.0
 10
20.1425690458
 20
4.6610349883
 30
0.0
 10
20.0828788345
 20
4.645538366
 30
0.0
 10
20.0364604119
 20
4.6372202576
 30
0.0
 10
19.9892151063
 20
4.6324014757
 30
0.0
 10
19.941582203
 20
4.6311040887
 30
0.0
 10
19.8940105345
 20
4.633365553
 30
0.0
 10
19.8469477899
 20
4.6391389401
 30
0.0
 10
19.8008319959
 20
4.6483946146
 30
0.0
 10
19.7417228785
 20
4.6650866092
 30
0.0
 10
19.6856749354
 20
4.688345338
 30
0.0
 10
19.6343496752
 20
4.7179114719
 30
0.0
 10
19.5991821195
 20
4.7426222393
 30
0.0
 10
19.5672945295
 20
4.7698329951
 30
0.0
 10
19.5390051911
 20
4.7993157861
 30
0.0
 10
19.5145687742
 20
4.8307747227
 30
0.0
 10
19.4942329681
 20
4.863928238
 30
0.0
 10
19.4781956184
 20
4.8984671126
 30
0.0
 10
19.4666202552
 20
4.9340715987
 30
0.0
 10
19.4596393892
 20
4.9703737125
 30
0.0
 10
19.4580683549
 20
4.9948499046
 30
0.0
 10
19.4580683549
 20
5.0070258234
 30
0.0
  0
SPLINE
  5
26D
100
AcDbEntity
  8
0
100
AcDbSpline
 62
9
  6
CONTINUOUS
 70
0
 71
3
 72
31
 73
27
 74
0
 42
0.0000001
 43
0.0000001
 44
0.0000000001
 40
0.0
 40
0.0
 40
0.0
 40
0.0
 40
0.0270097523
 40
0.054232536
 40
0.0817985087
 40
0.109857168
 40
0.13854436
 40
0.1679541748
 40
0.1981433518
 40
0.2291383743
 40
0.2934336403
 40
0.3605404146
 40
0.4297209793
 40
0.4999980059
 40
0.5702747771
 40
0.6394547231
 40
0.7065610707
 40
0.770856697
 40
0.801852321
 40
0.8320421539
 40
0.8614526963
 40
0.8901404794
 40
0.9181998973
 40
0.9457667236
 40
0.9729900822
 40
1.0
 40
1.0
 40
1.0
 40
1.0
 10
19.4580683549
 20
5.0070258234
 30
0.0
 10
19.4580683549
 20
5.0193072195
 30
0.0
 10
19.459665004
 20
5.0439948365
 30
0.0
 10
19.4667654145
 20
5.0806007609
 30
0.0
 10
19.4785400591
 20
5.1164865259
 30
0.0
 10
19.4948430813
 20
5.1512833737
 30
0.0
 10
19.5155188187
 20
5.1846575682
 30
0.0
 10
19.5403449158
 20
5.2163027945
 30
0.0
 10
19.5690908296
 20
5.2459116763
 30
0.0
 10
19.612773262
 20
5.2827389834
 30
0.0
 10
19.675832022
 20
5.3220093802
 30
0.0
 10
19.7607114767
 20
5.3564537985
 30
0.0
 10
19.8526076885
 20
5.3776343886
 30
0.0
 10
19.9480654223
 20
5.3847784471
 30
0.0
 10
20.043522938
 20
5.3776352386
 30
0.0
 10
20.1354187571
 20
5.3564556784
 30
0.0
 10
20.2202983589
 20
5.3220123914
 30
0.0
 10
20.2833576648
 20
5.2827425376
 30
0.0
 10
20.3270416253
 20
5.2459158619
 30
0.0
 10
20.3557881367
 20
5.2163063036
 30
0.0
 10
20.3806155793
 20
5.1846610034
 30
0.0
 10
20.4012920476
 20
5.151286127
 30
0.0
 10
20.4175958793
 20
5.1164885527
 30
0.0
 10
20.4293709364
 20
5.08060186
 30
0.0
 10
20.4364715641
 20
5.0439952444
 30
0.0
 10
20.4380683549
 20
5.0193072947
 30
0.0
 10
20.4380683549
 20
5.0070258234
 30
0.0
  0
SPLINE
  5
26E
100
AcDbEntity
  8
0
100
AcDbSpline
 62
7
  6
CONTINUOUS
 70
0
 71
3
 72
22
 73
18
 74
0
 42
0.0000001
 43
0.0000001
 44
0.0000000001
 40
0.0
 40
0.0
 40
0.0
 40
0.0
 40
0.0703865876
 40
0.140593698
 40
0.2789277735
 40
0.3466812865
 40
0.4131995904
 40
0.4783085751
 40
0.5418795394
 40
0.6038490999
 40
0.664205123
 40
0.7230049185
 40
0.7803631965
 40
0.8364686889
 40
0.8915685474
 40
0.9459653037
 40
1.0
 40
1.0
 40
1.0
 40
1.0
 10
19.9480683549
 20
5.3594062672
 30
0.0
 10
19.9330404411
 20
5.3594062672
 30
0.0
 10
19.9030081739
 20
5.3582706126
 30
0.0
 10
19.84379682
 20
5.3515689948
 30
0.0
 10
19.7860316795
 20
5.3382551703
 30
0.0
 10
19.7312497782
 20
5.318446118
 30
0.0
 10
19.692502211
 20
5.3006913473
 30
0.0
 10
19.6561956656
 20
5.2801205322
 30
0.0
 10
19.6226892479
 20
5.2569060339
 30
0.0
 10
19.5922918526
 20
5.2312886787
 30
0.0
 10
19.5653127718
 20
5.2034886539
 30
0.0
 10
19.5419992547
 20
5.1737853884
 30
0.0
 10
19.5225945387
 20
5.1424481571
 30
0.0
 10
19.5072898785
 20
5.1097823739
 30
0.0
 10
19.4962364614
 20
5.0761017268
 30
0.0
 10
19.4895659684
 20
5.0417398102
 30
0.0
 10
19.4880697273
 20
5.0185625206
 30
0.0
 10
19.4880698382
 20
5.0070258233
 30
0.0
  0
SPLINE
  5
26F
100
AcDbEntity
  8
0
100
AcDbSpline
 62
9
  6
CONTINUOUS
 70
0
 71
3
 72
31
 73
27
 74
0
 42
0.0000001
 43
0.0000001
 44
0.0000000001
 40
0.0
 40
0.0
 40
0.0
 40
0.0
 40
0.027009667
 40
0.0542322493
 40
0.0817980932
 40
0.1098567258
 40
0.1385438634
 40
0.1679537791
 40
0.1981436802
 40
0.2291398317
 40
0.2934361811
 40
0.3605427798
 40
0.4297230147
 40
0.5
 40
0.5702769853
 40
0.6394572202
 40
0.7065638189
 40
0.7708601683
 40
0.8018563198
 40
0.8320462209
 40
0.8614561366
 40
0.8901432742
 40
0.9182019068
 40
0.9457677507
 40
0.972990333
 40
1.0
 40
1.0
 40
1.0
 40
1.0
 10
19.4480683549
 20
5.0134536994
 30
0.0
 10
19.4480683549
 20
5.0259857108
 30
0.0
 10
19.4496974905
 20
5.0511770546
 30
0.0
 10
19.4569427136
 20
5.0885299108
 30
0.0
 10
19.4689576333
 20
5.1251479124
 30
0.0
 10
19.4855931555
 20
5.1606549353
 30
0.0
 10
19.5066906749
 20
5.1947104039
 30
0.0
 10
19.5320235022
 20
5.2270019212
 30
0.0
 10
19.5613569284
 20
5.2572155708
 30
0.0
 10
19.6059319622
 20
5.2947953286
 30
0.0
 10
19.6702786368
 20
5.3348675546
 30
0.0
 10
19.7568908532
 20
5.3700146079
 30
0.0
 10
19.8506624324
 20
5.3916270691
 30
0.0
 10
19.9480683549
 20
5.3989165024
 30
0.0
 10
20.0454742773
 20
5.3916270692
 30
0.0
 10
20.1392458566
 20
5.3700146079
 30
0.0
 10
20.2258580729
 20
5.3348675546
 30
0.0
 10
20.2902047475
 20
5.2947953286
 30
0.0
 10
20.3347797814
 20
5.2572155708
 30
0.0
 10
20.3641132076
 20
5.2270019213
 30
0.0
 10
20.3894460349
 20
5.194710404
 30
0.0
 10
20.4105435543
 20
5.1606549353
 30
0.0
 10
20.4271790765
 20
5.1251479125
 30
0.0
 10
20.4391939962
 20
5.0885299108
 30
0.0
 10
20.4464392193
 20
5.0511770547
 30
0.0
 10
20.4480683549
 20
5.0259857108
 30
0.0
 10
20.4480683549
 20
5.0134536995
 30
0.0
  0
ENDSEC
  0
SECTION
  2
OBJECTS
  0
DICTIONARY
  5
C
100
AcDbDictionary
280
0
281
1
  3
ACAD_GROUP
350
D
  3
ACAD_MLINESTYLE
350
17
  3
ACAD_LAYOUT
350
1A
  3
ACAD_PLOTSETTINGS
350
19
  3
ACAD_PLOTSTYLENAME
350
E
  0
DICTIONARY
  5
D
102
{ACAD_REACTORS
330
C
102
}
100
AcDbDictionary
280
0
281
1
  0
ACDBDICTIONARYWDFLT
  5
E
102
{ACAD_REACTORS
330
C
102
}
100
AcDbDictionary
281
1
  3
Normal
350
F
100
AcDbDictionaryWithDefault
340
F
  0
DICTIONARY
  5
17
102
{ACAD_REACTORS
330
C
102
}
100
AcDbDictionary
280
0
281
1
  3
Standard
350
18
  0
DICTIONARY
  5
19
102
{ACAD_REACTORS
330
C
102
}
100
AcDbDictionary
281
1
  0
DICTIONARY
  5
1A
102
{ACAD_REACTORS
330
C
102
}
100
AcDbDictionary
281
1
  3
Model
350
270
  3
Layout1
350
271
  0
ACDBPLACEHOLDER
  5
F
102
{ACAD_REACTORS
330
E
102
}
  0
MLINESTYLE
  5
18
102
{ACAD_REACTORS
330
17
102
}
100
AcDbMlineStyle
  2
STANDARD
 70
0
  3

 62
256
 51
90.0
 52
90.0
 71
2
 49
0.5
 62
256
  6
BYLAYER
 49
-0.5
 62
256
  6
BYLAYER
  0
LAYOUT
  5
270
102
{ACAD_REACTORS
330
1A
102
}
100
AcDbPlotSettings
  1

  2
none_device
  4
ANSI_C_(22.00_x_17.00_Inches)
  6

 40
0.0
 41
0.0
 42
0.0
 43
0.0
 44
558.8
 45
431.8
 46
0.0
 47
0.0
 48
0.0
 49
0.0
140
0.0
141
0.0
142
1.0
143
1.0
 70
1024
 72
0
 73
0
 74
0
  7

 75
0
147
1.0
148
0.0
149
0.0
100
AcDbLayout
  1
Model
 70
0
 71
0
 10
0.0
 20
0.0
 11
22.0
 21
17.0
 12
0.0
 22
0.0
 32
0.0
 14
0.0
 24
0.0
 34
0.0
 15
0.0
 25
0.0
 35
0.0
146
0.0
 13
0.0
 23
0.0
 33
0.0
 16
1.0
 26
0.0
 36
0.0
 17
0.0
 27
1.0
 37
0.0
 76
0
330
202
345
0
346
0
  0
LAYOUT
  5
271
102
{ACAD_REACTORS
330
1A
102
}
100
AcDbPlotSettings
  1

  2
none_device
  4
ANSI_C_(22.00_x_17.00_Inches)
  6

 40
0.0
 41
0.0
 42
0.0
 43
0.0
 44
558.8
 45
431.8
 46
0.0
 47
0.0
 48
0.0
 49
0.0
140
0.0
141
0.0
142
1.0
143
1.0
 70
0
 72
0
 73
0
 74
0
  7

 75
0
147
1.0
148
0.0
149
0.0
100
AcDbLayout
  1
Layout1
 70
0
 71
1
 10
0.0
 20
0.0
 11
22.0
 21
17.0
 12
0.0
 22
0.0
 32
0.0
 14
0.0
 24
0.0
 34
0.0
 15
0.0
 25
0.0
 35
0.0
146
0.0
 13
0.0
 23
0.0
 33
0.0
 16
1.0
 26
0.0
 36
0.0
 17
0.0
 27
1.0
 37
0.0
 76
0
330
203
345
0
346
0
  0
ENDSEC
  0
EOF
