  0
SECTION
  2
HEADER
  9
$ACADVER
  1
AC1015
  9
$DWGCODEPAGE
  3
ANSI_1252
  9
$EXTMAX
 10
11.6929133858
 20
8.2677165354
 30
0.0
  9
$EXTMIN
 10
0.0
 20
0.0
 30
0.0
  9
$LIMMIN
 10
0.0
 20
0.0
  9
$LIMMAX
 10
11.6929133858
 20
8.2677165354
  9
$VIEWCTR
 10
5.8464566929
 20
4.1338582677
  9
$VIEWSIZE
 40
8.2677165354
  9
$CLAYER
  8
0
  9
$LTSCALE
 40
0.6431102362
  9
$CELTYPE
  6
BYLAYER
  9
$DIMSCALE
 40
1.0
  9
$DIMASZ
 40
0.1875
  9
$DIMEXO
 40
0.0730807087
  9
$DIMDLI
 40
0.4443307087
  9
$DIMEXE
 40
0.2104724409
  9
$DIMCEN
 40
0.1052362205
  9
$DIMLFAC
 40
1.0
  9
$DIMBLK
  1
_CLOSED
  9
$DIMTXT
 40
0.15625
  9
$DIMTOL
 70
0
  9
$DIMLIM
 70
0
  9
$DIMTFAC
 40
1.0
  9
$PDMODE
 70
3
  9
$PDSIZE
 40
0.3125
  9
$HANDSEED
  5
24D
  9
$TILEMODE
 70
1
  9
$MEASUREMENT
 70
0
  9
$INSUNITS
 70
1
  0
ENDSEC
  0
SECTION
  2
CLASSES
  0
CLASS
  1
ACDBDICTIONARYWDFLT
  2
AcDbDictionaryWithDefault
  3
AutoCAD 2000
 90
0
280
0
281
0
  0
CLASS
  1
ACDBPLACEHOLDER
  2
AcDbPlaceHolder
  3
AutoCAD 2000
 90
0
280
0
281
0
  0
CLASS
  1
LAYOUT
  2
AcDbLayout
  3
AutoCAD 2000
 90
0
280
0
281
0
  0
ENDSEC
  0
SECTION
  2
TABLES
  0
TABLE
  2
VPORT
  5
8
100
AcDbSymbolTable
 70
2
  0
VPORT
  5
1F4
100
AcDbSymbolTableRecord
100
AcDbViewportTableRecord
  2
*ACTIVE
 70
0
 10
0.0
 20
0.0
 11
1.0
 21
1.0
 12
5.8464566929
 22
4.1338582677
 13
0.0
 23
0.0
 14
1.0
 24
1.0
 15
0.0
 25
0.0
 16
0.0
 26
0.0
 36
1.0
 17
0.0
 27
0.0
 37
0.0
 40
8.2677165354
 41
1.4142857143
 42
50.0
 43
0.0
 44
0.0
 50
0.0
 51
0.0
 71
0
 72
100
 73
1
 74
1
 75
0
 76
0
 77
0
 78
0
  0
ENDTAB
  0
TABLE
  2
LTYPE
  5
5
100
AcDbSymbolTable
 70
6
  0
LTYPE
  5
14
100
AcDbSymbolTableRecord
100
AcDbLinetypeTableRecord
  2
BYBLOCK
 70
0
  3

 72
65
 73
0
 40
0.0
  0
LTYPE
  5
15
100
AcDbSymbolTableRecord
100
AcDbLinetypeTableRecord
  2
BYLAYER
 70
0
  3

 72
65
 73
0
 40
0.0
  0
LTYPE
  5
16
100
AcDbSymbolTableRecord
100
AcDbLinetypeTableRecord
  2
CONTINUOUS
 70
64
  3
Solid line
 72
65
 73
0
 40
0.0
  0
LTYPE
  5
1F5
100
AcDbSymbolTableRecord
100
AcDbLinetypeTableRecord
  2
CENTER
 70
64
  3
____ _ ____ _ ____ _ ____ _ ____ _ ____ _ ____
 72
65
 73
4
 40
0.6
 49
0.375
 74
0
 49
-0.075
 74
0
 49
0.075
 74
0
 49
-0.075
 74
0
  0
LTYPE
  5
1F6
100
AcDbSymbolTableRecord
100
AcDbLinetypeTableRecord
  2
HIDDEN
 70
64
  3
- - - - - - - - - - - - - - - - - - - -
 72
65
 73
2
 40
0.2
 49
0.1
 74
0
 49
-0.1
 74
0
  0
LTYPE
  5
1F7
100
AcDbSymbolTableRecord
100
AcDbLinetypeTableRecord
  2
PHANTOM
 70
64
  3
_____ _ _ _____ _ _ _____ _ _ _____
 72
65
 73
6
 40
0.8
 49
0.45
 74
0
 49
-0.05
 74
0
 49
0.1
 74
0
 49
-0.05
 74
0
 49
0.1
 74
0
 49
-0.05
 74
0
  0
LTYPE
  5
1F8
100
AcDbSymbolTableRecord
100
AcDbLinetypeTableRecord
  2
DOT
 70
64
  3
. . . . . . . . . . . . . . . . . . . .
 72
65
 73
2
 40
0.2
 49
0.1
 74
0
 49
-0.1
 74
0
  0
LTYPE
  5
1F9
100
AcDbSymbolTableRecord
100
AcDbLinetypeTableRecord
  2
DASHED
 70
64
  3
- - - - - - - - - - - - - - - - - - - -
 72
65
 73
2
 40
0.2
 49
0.1
 74
0
 49
-0.1
 74
0
  0
ENDTAB
  0
TABLE
  2
LAYER
  5
2
100
AcDbSymbolTable
 70
36
  0
LAYER
  5
10
100
AcDbSymbolTableRecord
100
AcDbLayerTableRecord
  2
0
 70
0
 62
7
  6
CONTINUOUS
370
-3
390
F
  0
LAYER
  5
1FA
100
AcDbSymbolTableRecord
100
AcDbLayerTableRecord
  2
DEFAULT_1
 70
0
 62
7
  6
CENTER
370
-3
390
F
  0
LAYER
  5
1FB
100
AcDbSymbolTableRecord
100
AcDbLayerTableRecord
  2
DEFAULT_2
 70
0
 62
8
  6
HIDDEN
370
-3
390
F
  0
LAYER
  5
1FC
100
AcDbSymbolTableRecord
100
AcDbLayerTableRecord
  2
DEFAULT_3
 70
0
 62
7
  6
PHANTOM
370
-3
390
F
  0
LAYER
  5
1FD
100
AcDbSymbolTableRecord
100
AcDbLayerTableRecord
  2
DEFAULT_COORDINATE_SYSTEM
 70
0
 62
7
  6
CONTINUOUS
370
-3
390
F
  0
LAYER
  5
1FE
100
AcDbSymbolTableRecord
100
AcDbLayerTableRecord
  2
DEFAULT_DATUM_AXES
 70
0
 62
7
  6
CONTINUOUS
370
-3
390
F
  0
LAYER
  5
1FF
100
AcDbSymbolTableRecord
100
AcDbLayerTableRecord
  2
DEFAULT_DATUM_CURVES
 70
0
 62
7
  6
CONTINUOUS
370
-3
390
F
  0
LAYER
  5
200
100
AcDbSymbolTableRecord
100
AcDbLayerTableRecord
  2
DEFAULT_DATUM_PLANES
 70
0
 62
7
  6
CONTINUOUS
370
-3
390
F
  0
ENDTAB
  0
TABLE
  2
STYLE
  5
3
100
AcDbSymbolTable
 70
1
  0
STYLE
  5
11
100
AcDbSymbolTableRecord
100
AcDbTextStyleTableRecord
  2
STANDARD
 70
0
 40
0.0
 41
0.8
 50
0.0
 71
0
 42
0.2
  3
txt
  4

  0
STYLE
  5
201
100
AcDbSymbolTableRecord
100
AcDbTextStyleTableRecord
  2
TEXTSTYLE_1
 70
0
 40
0.0
 41
0.8
 50
0.0
 71
0
 42
0.2
  3
gdt
  4

  0
ENDTAB
  0
TABLE
  2
VIEW
  5
6
100
AcDbSymbolTable
 70
0
  0
ENDTAB
  0
TABLE
  2
UCS
  5
7
100
AcDbSymbolTable
 70
0
  0
ENDTAB
  0
TABLE
  2
APPID
  5
9
100
AcDbSymbolTable
 70
1
  0
APPID
  5
202
100
AcDbSymbolTableRecord
100
AcDbRegAppTableRecord
  2
ACAD
 70
0
  0
ENDTAB
  0
TABLE
  2
BLOCK_RECORD
  5
1
100
AcDbSymbolTable
 70
0
  0
BLOCK_RECORD
  5
203
100
AcDbSymbolTableRecord
100
AcDbBlockTableRecord
  2
*Model_Space
  0
BLOCK_RECORD
  5
204
100
AcDbSymbolTableRecord
100
AcDbBlockTableRecord
  2
*Paper_Space
  0
ENDTAB
  0
TABLE
  2
DIMSTYLE
  5
A
100
AcDbSymbolTable
 70
1
100
AcDbDimStyleTable
 71
0
  0
DIMSTYLE
105
205
100
AcDbSymbolTableRecord
100
AcDbDimStyleTableRecord
  2
STANDARD
 70
0
  3

  4

 40
1.0
 41
0.1875
 42
0.0625
 43
0.38
 44
0.18
 45
0.0
 46
0.0
 47
0.01
 48
0.01
140
0.15625
141
0.09
142
0.0
143
25.4
144
1.0
145
0.0
146
1.0
147
0.09
 71
0.0
 72
0.0
 73
1
 74
1
 75
0
 76
0
 77
0
 78
4
170
0
171
2
172
0
173
0
174
0
175
0
176
0
177
0
178
0
270
2
271
2
272
2
273
2
274
2
275
0
280
0
281
0
282
0
283
1
284
4
285
0
286
0
287
3
288
0
340
11
  0
ENDTAB
  0
ENDSEC
  0
SECTION
  2
BLOCKS
  0
BLOCK
  5
20
100
AcDbEntity
  8
0
100
AcDbBlockBegin
  2
*Model_Space
 70
0
 10
0.0
 20
0.0
 30
0.0
  3
*Model_Space
  1

  0
ENDBLK
  5
21
100
AcDbEntity
  8
0
100
AcDbBlockEnd
  0
BLOCK
  5
1C
100
AcDbEntity
  8
0
100
AcDbBlockBegin
  2
*Paper_Space
 70
0
 10
0.0
 20
0.0
 30
0.0
  3
*Paper_Space
  1

  0
ENDBLK
  5
1D
100
AcDbEntity
  8
0
100
AcDbBlockEnd
  0
ENDSEC
  0
SECTION
  2
ENTITIES
  0
LINE
  5
206
100
AcDbEntity
  8
0
100
AcDbLine
 62
6
  6
CONTINUOUS
 10
4.2909325038
 20
4.1379689538
 11
4.2909325038
 21
4.1362872423
  0
LINE
  5
207
100
AcDbEntity
  8
0
100
AcDbLine
 62
6
  6
CONTINUOUS
 10
4.3729327395
 20
3.6471280981
 11
4.3729327395
 21
4.6271280981
  0
LINE
  5
208
100
AcDbEntity
  8
0
100
AcDbLine
 62
6
  6
CONTINUOUS
 10
4.6229327395
 20
4.1371280981
 11
4.6229327395
 21
4.6371280981
  0
LINE
  5
209
100
AcDbEntity
  8
0
100
AcDbLine
 62
6
  6
CONTINUOUS
 10
4.8729327395
 20
4.1371280981
 11
4.8729327395
 21
4.6371280981
  0
LINE
  5
20A
100
AcDbEntity
  8
0
100
AcDbLine
 62
6
  6
CONTINUOUS
 10
7.0839327395
 20
3.0871280981
 11
6.9839327395
 21
3.0871280981
  0
LINE
  5
20B
100
AcDbEntity
  8
0
100
AcDbLine
 62
6
  6
CONTINUOUS
 10
5.1229327395
 20
3.6471280981
 11
5.1229327395
 21
4.6271280981
  0
LINE
  5
20C
100
AcDbEntity
  8
0
100
AcDbLine
 62
6
  6
CONTINUOUS
 10
5.3338427397
 20
4.4547831061
 11
5.3338427397
 21
4.4496280981
  0
LINE
  5
20D
100
AcDbEntity
  8
0
100
AcDbLine
 62
6
  6
CONTINUOUS
 10
5.3369327395
 20
4.4621280981
 11
5.3311451828
 21
4.4563405413
  0
LINE
  5
20E
100
AcDbEntity
  8
0
100
AcDbLine
 62
6
  6
CONTINUOUS
 10
6.3339327395
 20
3.5996280981
 11
6.2839327395
 21
3.5996280981
  0
LINE
  5
20F
100
AcDbEntity
  8
0
100
AcDbLine
 62
6
  6
CONTINUOUS
 10
5.1229327395
 20
3.6471280981
 11
4.3729327395
 21
3.6471280981
  0
LINE
  5
210
100
AcDbEntity
  8
0
100
AcDbLine
 62
6
  6
CONTINUOUS
 10
6.2839327395
 20
3.6996280981
 11
6.1839327395
 21
3.6996280981
  0
LINE
  5
211
100
AcDbEntity
  8
0
100
AcDbLine
 62
6
  6
CONTINUOUS
 10
5.7461202395
 20
3.6996280981
 11
5.6417452395
 21
3.6996280981
  0
LINE
  5
212
100
AcDbEntity
  8
0
100
AcDbLine
 62
6
  6
CONTINUOUS
 10
5.3312866406
 20
4.4559442823
 11
5.3311451966
 21
4.4563405552
  0
LINE
  5
213
100
AcDbEntity
  8
0
100
AcDbLine
 62
9
  6
CONTINUOUS
 10
5.6339327395
 20
3.7074405981
 11
5.6339327395
 21
4.5668155981
  0
LINE
  5
214
100
AcDbEntity
  8
0
100
AcDbLine
 62
9
  6
CONTINUOUS
 10
5.6417452395
 20
3.6996280981
 11
5.6417452395
 21
4.5746280981
  0
LINE
  5
215
100
AcDbEntity
  8
0
100
AcDbLine
 62
6
  6
CONTINUOUS
 10
6.1761202395
 20
3.8006280981
 11
5.7539327395
 21
3.8006280981
  0
LINE
  5
216
100
AcDbEntity
  8
0
100
AcDbLine
 62
6
  6
CONTINUOUS
 10
5.6339327395
 20
3.8246280981
 11
5.1229327395
 21
3.8246280981
  0
LINE
  5
217
100
AcDbEntity
  8
0
100
AcDbLine
 62
9
  6
CONTINUOUS
 10
5.7461202395
 20
3.6996280981
 11
5.7461202395
 21
4.5746280981
  0
LINE
  5
218
100
AcDbEntity
  8
0
100
AcDbLine
 62
6
  6
CONTINUOUS
 10
5.7539327395
 20
3.7074405981
 11
5.7539327395
 21
4.5668155981
  0
LINE
  5
219
100
AcDbEntity
  8
0
100
AcDbLine
 62
6
  6
CONTINUOUS
 10
5.3312866406
 20
4.4559442823
 11
5.3338427397
 21
4.4544562307
  0
LINE
  5
21A
100
AcDbEntity
  8
0
100
AcDbLine
 62
6
  6
CONTINUOUS
 10
5.4609327395
 20
4.4621280981
 11
5.4734327395
 21
4.4496280981
  0
LINE
  5
21B
100
AcDbEntity
  8
0
100
AcDbLine
 62
9
  6
CONTINUOUS
 10
6.1761202395
 20
3.8006280981
 11
6.1761202395
 21
4.4736280981
  0
LINE
  5
21C
100
AcDbEntity
  8
0
100
AcDbLine
 62
6
  6
CONTINUOUS
 10
6.1839327395
 20
3.6996332244
 11
6.1839327395
 21
4.5746229718
  0
LINE
  5
21D
100
AcDbEntity
  8
0
100
AcDbLine
 62
6
  6
CONTINUOUS
 10
6.2839327395
 20
3.5996324764
 11
6.2839327395
 21
4.6746237198
  0
LINE
  5
21E
100
AcDbEntity
  8
0
100
AcDbLine
 62
6
  6
CONTINUOUS
 10
6.3339327395
 20
3.4996280981
 11
6.3339327395
 21
4.7746280981
  0
LINE
  5
21F
100
AcDbEntity
  8
0
100
AcDbLine
 62
7
  6
CONTINUOUS
 10
5.4156240264
 20
4.4421280981
 11
5.3538592568
 21
4.4421280981
  0
LINE
  5
220
100
AcDbEntity
  8
0
100
AcDbLine
 62
6
  6
CONTINUOUS
 10
5.6339327395
 20
4.4496280981
 11
5.4734327395
 21
4.4496280981
  0
LINE
  5
221
100
AcDbEntity
  8
0
100
AcDbLine
 62
6
  6
CONTINUOUS
 10
5.3338427397
 20
4.4496280981
 11
5.1229327395
 21
4.4496280981
  0
LINE
  5
222
100
AcDbEntity
  8
0
100
AcDbLine
 62
6
  6
CONTINUOUS
 10
5.3562448566
 20
4.4590380982
 11
5.4480483478
 21
4.4590380981
  0
LINE
  5
223
100
AcDbEntity
  8
0
100
AcDbLine
 62
6
  6
CONTINUOUS
 10
5.4609327395
 20
4.4621280981
 11
5.3369327395
 21
4.4621280981
  0
LINE
  5
224
100
AcDbEntity
  8
0
100
AcDbLine
 62
6
  6
CONTINUOUS
 10
6.1761202395
 20
4.4736280981
 11
5.7539327395
 21
4.4736280981
  0
LINE
  5
225
100
AcDbEntity
  8
0
100
AcDbLine
 62
6
  6
CONTINUOUS
 10
6.2839327395
 20
4.5746280981
 11
6.1839327395
 21
4.5746280981
  0
LINE
  5
226
100
AcDbEntity
  8
0
100
AcDbLine
 62
6
  6
CONTINUOUS
 10
5.7461202395
 20
4.5746280981
 11
5.6417452395
 21
4.5746280981
  0
LINE
  5
227
100
AcDbEntity
  8
0
100
AcDbLine
 62
6
  6
CONTINUOUS
 10
5.1229327395
 20
4.6271280981
 11
4.8729327395
 21
4.6271280981
  0
LINE
  5
228
100
AcDbEntity
  8
0
100
AcDbLine
 62
6
  6
CONTINUOUS
 10
4.6229327395
 20
4.6271280981
 11
4.3729327395
 21
4.6271280981
  0
LINE
  5
229
100
AcDbEntity
  8
0
100
AcDbLine
 62
6
  6
CONTINUOUS
 10
4.6122922348
 20
4.6371280981
 11
4.8835732443
 21
4.6371280981
  0
LINE
  5
22A
100
AcDbEntity
  8
0
100
AcDbLine
 62
6
  6
CONTINUOUS
 10
6.3339327395
 20
4.6746280981
 11
6.2839327395
 21
4.6746280981
  0
LINE
  5
22B
100
AcDbEntity
  8
0
100
AcDbLine
 62
6
  6
CONTINUOUS
 10
6.9839327395
 20
3.0871280981
 11
6.9839327395
 21
5.1871280981
  0
LINE
  5
22C
100
AcDbEntity
  8
0
100
AcDbLine
 62
6
  6
CONTINUOUS
 10
7.0839327395
 20
5.1871280981
 11
6.9839327395
 21
5.1871280981
  0
LINE
  5
22D
100
AcDbEntity
  8
0
100
AcDbLine
 62
6
  6
CONTINUOUS
 10
7.0839327395
 20
3.0121308768
 11
7.0839327395
 21
5.2621253194
  0
LINE
  5
22E
100
AcDbEntity
  8
0
100
AcDbLine
 62
9
  6
CONTINUOUS
 10
7.2283910222
 20
3.0016389897
 11
7.2283910222
 21
5.2726172065
  0
LINE
  5
22F
100
AcDbEntity
  8
0
100
AcDbLine
 62
6
  6
CONTINUOUS
 10
7.4589327395
 20
2.8746280981
 11
7.4589327395
 21
5.3996280981
  0
LINE
  5
230
100
AcDbEntity
  8
0
100
AcDbLine
 62
9
  6
CONTINUOUS
 10
7.5589327395
 20
2.8746305267
 11
7.5589327395
 21
5.3996256695
  0
ARC
  5
231
100
AcDbEntity
  8
0
100
AcDbCircle
 62
6
  6
CONTINUOUS
 10
5.7909325038
 20
4.1362872423
 40
1.5
100
AcDbArc
 50
180.0
 51
199.0326009568
  0
ARC
  5
232
100
AcDbEntity
  8
0
100
AcDbCircle
 62
7
  6
CONTINUOUS
 10
4.7479238364
 20
4.1371132843
 40
0.126008904
100
AcDbArc
 50
0.006735786
 51
4.660330257
  0
ARC
  5
233
100
AcDbEntity
  8
0
100
AcDbCircle
 62
7
  6
CONTINUOUS
 10
4.7479327502
 20
4.1371279825
 40
0.1259996403
100
AcDbArc
 50
179.9999474544
 51
0.0000525456
  0
ARC
  5
234
100
AcDbEntity
  8
0
100
AcDbCircle
 62
7
  6
CONTINUOUS
 10
4.7477071059
 20
4.1371224675
 40
0.1257743666
100
AcDbArc
 50
175.3634979969
 51
179.9974350059
  0
ARC
  5
235
100
AcDbEntity
  8
0
100
AcDbCircle
 62
6
  6
CONTINUOUS
 10
5.6417452395
 20
3.7074405981
 40
0.0078125
100
AcDbArc
 50
180.0
 51
270.0
  0
ARC
  5
236
100
AcDbEntity
  8
0
100
AcDbCircle
 62
6
  6
CONTINUOUS
 10
5.7461202395
 20
3.7074405981
 40
0.0078125
100
AcDbArc
 50
270.0
 51
360.0
  0
ARC
  5
237
100
AcDbEntity
  8
0
100
AcDbCircle
 62
6
  6
CONTINUOUS
 10
5.7909325038
 20
4.1379689538
 40
1.5
100
AcDbArc
 50
160.9673990432
 51
180.0
  0
ARC
  5
238
100
AcDbEntity
  8
0
100
AcDbCircle
 62
6
  6
CONTINUOUS
 10
4.7479327395
 20
4.8471280981
 40
0.25
100
AcDbArc
 50
302.8598803789
 51
237.1401196211
  0
ARC
  5
239
100
AcDbEntity
  8
0
100
AcDbCircle
 62
9
  6
CONTINUOUS
 10
4.7479327395
 20
4.1371280981
 40
0.125
100
AcDbArc
 50
180.0
 51
360.0
  0
ARC
  5
23A
100
AcDbEntity
  8
0
100
AcDbCircle
 62
6
  6
CONTINUOUS
 10
5.6417452395
 20
4.5668155981
 40
0.0078125
100
AcDbArc
 50
90.0
 51
180.0
  0
ARC
  5
23B
100
AcDbEntity
  8
0
100
AcDbCircle
 62
6
  6
CONTINUOUS
 10
5.7461202395
 20
4.5668155981
 40
0.0078125
100
AcDbArc
 50
0.0
 51
90.0
  0
ARC
  5
23C
100
AcDbEntity
  8
0
100
AcDbCircle
 62
6
  6
CONTINUOUS
 10
7.0839327395
 20
2.0121280981
 40
1.0
100
AcDbArc
 50
81.6940891949
 51
90.0
  0
ARC
  5
23D
100
AcDbEntity
  8
0
100
AcDbCircle
 62
6
  6
CONTINUOUS
 10
6.3339327395
 20
2.781256886
 40
0.7183712121
100
AcDbArc
 50
25.2003196522
 51
90.0
  0
ARC
  5
23E
100
AcDbEntity
  8
0
100
AcDbCircle
 62
6
  6
CONTINUOUS
 10
7.1742191662
 20
2.6305724053
 40
0.375
100
AcDbArc
 50
40.6030912348
 51
81.6940891949
  0
ARC
  5
23F
100
AcDbEntity
  8
0
100
AcDbCircle
 62
6
  6
CONTINUOUS
 10
7.5089327395
 20
2.8746280981
 40
0.05
100
AcDbArc
 50
180.0
 51
360.0
  0
ARC
  5
240
100
AcDbEntity
  8
0
100
AcDbCircle
 62
6
  6
CONTINUOUS
 10
6.1761202395
 20
3.8084405981
 40
0.0078125
100
AcDbArc
 50
270.0
 51
360.0
  0
ARC
  5
241
100
AcDbEntity
  8
0
100
AcDbCircle
 62
6
  6
CONTINUOUS
 10
7.0839327395
 20
6.2621280981
 40
1.0
100
AcDbArc
 50
270.0
 51
278.3059108051
  0
ARC
  5
242
100
AcDbEntity
  8
0
100
AcDbCircle
 62
6
  6
CONTINUOUS
 10
6.3339327395
 20
5.4929993102
 40
0.7183712121
100
AcDbArc
 50
270.0
 51
334.7996803478
  0
ARC
  5
243
100
AcDbEntity
  8
0
100
AcDbCircle
 62
6
  6
CONTINUOUS
 10
7.1742191662
 20
5.6436837908
 40
0.375
100
AcDbArc
 50
278.3059108051
 51
319.3969087652
  0
ARC
  5
244
100
AcDbEntity
  8
0
100
AcDbCircle
 62
6
  6
CONTINUOUS
 10
7.5089327395
 20
5.3996280981
 40
0.05
100
AcDbArc
 50
0.0
 51
180.0
  0
ARC
  5
245
100
AcDbEntity
  8
0
100
AcDbCircle
 62
6
  6
CONTINUOUS
 10
6.1761202395
 20
4.4658155981
 40
0.0078125
100
AcDbArc
 50
0.0
 51
90.0
  0
SPLINE
  5
246
100
AcDbEntity
  8
0
100
AcDbSpline
 62
6
  6
CONTINUOUS
 70
0
 71
3
 72
31
 73
27
 74
25
 42
0.0000001
 43
0.0000001
 44
0.0000000001
 12
0.0179042742
 22
0.0178987718
 32
0.0
 13
0.0252687137
 23
0.001556012
 33
0.0
 40
0.0
 40
0.0
 40
0.0
 40
0.0
 40
0.0024769228
 40
0.0053173012
 40
0.0085457555
 40
0.0121788768
 40
0.0162281519
 40
0.0207017429
 40
0.0309430329
 40
0.0429357748
 40
0.0566973681
 40
0.0722334695
 40
0.0895435002
 40
0.1086241181
 40
0.1294701746
 40
0.152075214
 40
0.1764290726
 40
0.2303243868
 40
0.2910344148
 40
0.3584214179
 40
0.4323050593
 40
0.512493504
 40
0.5987811233
 40
0.6909429358
 40
0.7887454004
 40
1.0
 40
1.0
 40
1.0
 40
1.0
 10
5.3311451991
 20
4.4563405552
 30
0.0
 10
5.3311599816
 20
4.4563553332
 30
0.0
 10
5.3311940833
 20
4.4563847061
 30
0.0
 10
5.331253406
 20
4.4564258619
 30
0.0
 10
5.3313242552
 20
4.4564670367
 30
0.0
 10
5.331406648
 20
4.4565082401
 30
0.0
 10
5.3315006093
 20
4.4565494911
 30
0.0
 10
5.3316481114
 20
4.4566071818
 30
0.0
 10
5.3318621212
 20
4.456678316
 30
0.0
 10
5.3321545968
 20
4.4567606014
 30
0.0
 10
5.3324931874
 20
4.4568431265
 30
0.0
 10
5.3328777351
 20
4.4569258844
 30
0.0
 10
5.3333080419
 20
4.4570088402
 30
0.0
 10
5.3337838667
 20
4.457091973
 30
0.0
 10
5.3343049636
 20
4.4571752652
 30
0.0
 10
5.3348710559
 20
4.4572587041
 30
0.0
 10
5.3357143075
 20
4.4573740708
 30
0.0
 10
5.3368782539
 20
4.4575171768
 30
0.0
 10
5.3384049672
 20
4.4576843527
 30
0.0
 10
5.3401012028
 20
4.4578521213
 30
0.0
 10
5.3419624813
 20
4.4580205009
 30
0.0
 10
5.3439838099
 20
4.458189424
 30
0.0
 10
5.346159841
 20
4.4583588649
 30
0.0
 10
5.3484848933
 20
4.4585288568
 30
0.0
 10
5.3518626785
 20
4.4587622081
 30
0.0
 10
5.3544654793
 20
4.4589285266
 30
0.0
 10
5.3562448566
 20
4.4590380982
 30
0.0
 11
5.3311451991
 21
4.4563405552
 31
0.0
 11
5.331192362
 21
4.4563818814
 31
0.0
 11
5.3312511917
 21
4.4564232326
 31
0.0
 11
5.3313216782
 21
4.456464609
 31
0.0
 11
5.3314038116
 21
4.4565060107
 31
0.0
 11
5.3314975819
 21
4.4565474376
 31
0.0
 11
5.3316029795
 21
4.4565888898
 31
0.0
 11
5.3318486162
 21
4.4566718705
 31
0.0
 11
5.3321406427
 21
4.4567549532
 31
0.0
 11
5.3324789625
 21
4.4568381382
 31
0.0
 11
5.332863364
 21
4.456921426
 31
0.0
 11
5.3332935874
 21
4.4570048167
 31
0.0
 11
5.3337693728
 21
4.4570883106
 31
0.0
 11
5.3342904605
 21
4.4571719079
 31
0.0
 11
5.3348565887
 21
4.4572556088
 31
0.0
 11
5.3354674229
 21
4.4573394139
 31
0.0
 11
5.3368214949
 21
4.457507339
 31
0.0
 11
5.3383492172
 21
4.4576756882
 31
0.0
 11
5.3400468563
 21
4.4578444654
 31
0.0
 11
5.3419096684
 21
4.458013669
 31
0.0
 11
5.3439326662
 21
4.4581832965
 31
0.0
 11
5.3461105438
 21
4.458353357
 31
0.0
 11
5.348437526
 21
4.458523877
 31
0.0
 11
5.3509076376
 21
4.4586948787
 31
0.0
 11
5.3562448566
 21
4.4590380982
 31
0.0
  0
SPLINE
  5
247
100
AcDbEntity
  8
0
100
AcDbSpline
 62
6
  6
CONTINUOUS
 70
0
 71
3
 72
28
 73
24
 74
22
 42
0.0000001
 43
0.0000001
 44
0.0000000001
 12
0.0946180929
 22
0.0148518333
 32
0.0
 13
0.0904609912
 23
0.0314637811
 33
0.0
 40
0.0
 40
0.0
 40
0.0
 40
0.0
 40
0.0652703626
 40
0.1325849224
 40
0.20145653
 40
0.2714273633
 40
0.3420056445
 40
0.4126666347
 40
0.4828672908
 40
0.5520505347
 40
0.6196433582
 40
0.6850645529
 40
0.7477300786
 40
0.7778479843
 40
0.8070598205
 40
0.8352945717
 40
0.8624819435
 40
0.8885533463
 40
0.9134452536
 40
0.9370965707
 40
0.9594470695
 40
0.9804348735
 40
1.0
 40
1.0
 40
1.0
 40
1.0
 10
5.3538592568
 20
4.4421280981
 30
0.0
 10
5.3559178426
 20
4.4424512263
 30
0.0
 10
5.3601008872
 20
4.4430986893
 30
0.0
 10
5.3664596218
 20
4.4440641613
 30
0.0
 10
5.3729684086
 20
4.4450409612
 30
0.0
 10
5.3795808123
 20
4.4460293758
 30
0.0
 10
5.3862491743
 20
4.4470298589
 30
0.0
 10
5.3929230878
 20
4.4480427552
 30
0.0
 10
5.3995499822
 20
4.4490685075
 30
0.0
 10
5.4060756594
 20
4.4501074951
 30
0.0
 10
5.4124445583
 20
4.4511601707
 30
0.0
 10
5.4186000462
 20
4.4522269846
 30
0.0
 10
5.4235677865
 20
4.4531397388
 30
0.0
 10
5.4273912553
 20
4.4538817025
 30
0.0
 10
5.4301315584
 20
4.4544348496
 30
0.0
 10
5.4327754969
 20
4.454992086
 30
0.0
 10
5.4353159795
 20
4.4555534823
 30
0.0
 10
5.4377460767
 20
4.456119136
 30
0.0
 10
5.4400590609
 20
4.4566891617
 30
0.0
 10
5.4422483478
 20
4.4572636897
 30
0.0
 10
5.4443072625
 20
4.4578428176
 30
0.0
 10
5.4462289867
 20
4.4584263889
 30
0.0
 10
5.4474583875
 20
4.4588329005
 30
0.0
 10
5.4480483478
 20
4.4590380981
 30
0.0
 11
5.3538592568
 21
4.4421280981
 31
0.0
 11
5.3600368388
 21
4.4430857851
 31
0.0
 11
5.3664107478
 21
4.4440548918
 31
0.0
 11
5.3729337976
 21
4.445035125
 31
0.0
 11
5.3795615431
 21
4.4460271063
 31
0.0
 11
5.3862462787
 21
4.4470313561
 31
0.0
 11
5.3929371139
 21
4.4480482577
 31
0.0
 11
5.399581327
 21
4.4490782964
 31
0.0
 11
5.4061247493
 21
4.450122
 31
0.0
 11
5.4125115371
 21
4.4511799146
 31
0.0
 11
5.4186848515
 21
4.4522526209
 31
0.0
 11
5.4245872827
 21
4.453340745
 31
0.0
 11
5.4274189425
 21
4.4538908079
 31
0.0
 11
5.430161319
 21
4.4544449887
 31
0.0
 11
5.4328072724
 21
4.4550033659
 31
0.0
 11
5.4353496721
 21
4.4555660156
 31
0.0
 11
5.4377814734
 21
4.4561330296
 31
0.0
 11
5.4400960142
 21
4.4567045679
 31
0.0
 11
5.4422867382
 21
4.4572808098
 31
0.0
 11
5.4443470187
 21
4.4578618855
 31
0.0
 11
5.4462699036
 21
4.458447701
 31
0.0
 11
5.4480483478
 21
4.4590380981
 31
0.0
  0
SPLINE
  5
248
100
AcDbEntity
  8
0
100
AcDbSpline
 62
6
  6
CONTINUOUS
 70
0
 71
3
 72
32
 73
28
 74
26
 42
0.0000001
 43
0.0000001
 44
0.0000000001
 12
0.0610218867
 22
0.002415955
 32
0.0
 13
0.0528057754
 23
0.0306766618
 33
0.0
 40
0.0
 40
0.0
 40
0.0
 40
0.0
 40
0.1953639105
 40
0.288729755
 40
0.3784538402
 40
0.4640000032
 40
0.5448330509
 40
0.6204484168
 40
0.690368306
 40
0.7541503878
 40
0.8113804433
 40
0.8374227613
 40
0.8616905828
 40
0.8841450444
 40
0.9047509982
 40
0.9234738489
 40
0.9402824332
 40
0.955153015
 40
0.9680645342
 40
0.9737800493
 40
0.9790000661
 40
0.983724596
 40
0.9879544229
 40
0.9916914377
 40
0.9949393107
 40
0.9977047442
 40
1.0
 40
1.0
 40
1.0
 40
1.0
 10
5.4156240264
 20
4.4421280981
 30
0.0
 10
5.4195978512
 20
4.4422854282
 30
0.0
 10
5.4254706097
 20
4.4425227882
 30
0.0
 10
5.4331676391
 20
4.4428509822
 30
0.0
 10
5.4386307463
 20
4.4430940497
 30
0.0
 10
5.443838437
 20
4.4433377321
 30
0.0
 10
5.4487585624
 20
4.4435820267
 30
0.0
 10
5.4533601456
 20
4.4438268734
 30
0.0
 10
5.457614076
 20
4.4440722321
 30
0.0
 10
5.461493041
 20
4.4443180078
 30
0.0
 10
5.4644791507
 20
4.4445291604
 30
0.0
 10
5.4666616201
 20
4.4447001683
 30
0.0
 10
5.4681376403
 20
4.4448244984
 30
0.0
 10
5.4695025629
 20
4.4449489483
 30
0.0
 10
5.4707540938
 20
4.4450734911
 30
0.0
 10
5.4718900668
 20
4.4451981033
 30
0.0
 10
5.4729085149
 20
4.4453227509
 30
0.0
 10
5.473807675
 20
4.4454473736
 30
0.0
 10
5.4744811077
 20
4.4455549921
 30
0.0
 10
5.474958649
 20
4.4456423373
 30
0.0
 10
5.4752712014
 20
4.4457051653
 30
0.0
 10
5.4755528482
 20
4.4457679828
 30
0.0
 10
5.4758034915
 20
4.445830779
 30
0.0
 10
5.4760230419
 20
4.445893529
 30
0.0
 10
5.4762114626
 20
4.4459562079
 30
0.0
 10
5.4763686993
 20
4.4460187764
 30
0.0
 10
5.4764612365
 20
4.4460645483
 30
0.0
 10
5.4765016374
 20
4.4460880186
 30
0.0
 11
5.4156240264
 21
4.4421280981
 31
0.0
 11
5.4275449987
 21
4.4426126027
 31
0.0
 11
5.4332416278
 21
4.4428559317
 31
0.0
 11
5.4387156129
 21
4.443099974
 31
0.0
 11
5.4439341526
 21
4.4433447679
 31
0.0
 11
5.4488644918
 21
4.4435903062
 31
0.0
 11
5.4534757267
 21
4.4438365914
 31
0.0
 11
5.4577385605
 21
4.4440836338
 31
0.0
 11
5.4616258222
 21
4.4443314387
 31
0.0
 11
5.4651119935
 21
4.444580011
 31
0.0
 11
5.4666975033
 21
4.4447045873
 31
0.0
 11
5.4681742702
 21
4.4448293583
 31
0.0
 11
5.4695398512
 21
4.4449543252
 31
0.0
 11
5.4707920105
 21
4.4450794892
 31
0.0
 11
5.4719285161
 21
4.4452048515
 31
0.0
 11
5.4729473028
 21
4.4453304132
 31
0.0
 11
5.4738466946
 21
4.4454561752
 31
0.0
 11
5.4746250708
 21
4.4455821383
 31
0.0
 11
5.4749683725
 21
4.4456451955
 31
0.0
 11
5.4752808484
 21
4.4457083034
 31
0.0
 11
5.4755623764
 21
4.4457714619
 31
0.0
 11
5.4758128376
 21
4.4458346713
 31
0.0
 11
5.4760321131
 21
4.4458979315
 31
0.0
 11
5.476220084
 21
4.4459612428
 31
0.0
 11
5.4763766314
 21
4.4460246051
 31
0.0
 11
5.4765016374
 21
4.4460880186
 31
0.0
  0
SPLINE
  5
249
100
AcDbEntity
  8
0
100
AcDbSpline
 62
6
  6
CONTINUOUS
 70
0
 71
3
 72
32
 73
28
 74
26
 42
0.0000001
 43
0.0000001
 44
0.0000000001
 12
-0.0229811346
 22
-0.0023261214
 32
0.0
 13
-0.0000072483
 23
-0.023098557
 33
0.0
 40
0.0
 40
0.0
 40
0.0
 40
0.0
 40
0.1115923286
 40
0.2176908261
 40
0.3179384421
 40
0.4120143244
 40
0.499677722
 40
0.5807013812
 40
0.6548755726
 40
0.722014039
 40
0.7819415358
 40
0.8091592236
 40
0.8345303958
 40
0.8580455149
 40
0.8796971878
 40
0.8994812441
 40
0.9174015811
 40
0.9334713038
 40
0.9477127958
 40
0.960162953
 40
0.9708826141
 40
0.9799748305
 40
0.9876190891
 40
0.9909934483
 40
0.9941348433
 40
0.9971106595
 40
1.0
 40
1.0
 40
1.0
 40
1.0
 10
5.3562448566
 20
4.4590380982
 30
0.0
 10
5.3553900172
 20
4.4589515724
 30
0.0
 10
5.3537228022
 20
4.4587789976
 30
0.0
 10
5.3512892213
 20
4.4585138148
 30
0.0
 10
5.3489913424
 20
4.4582486884
 30
0.0
 10
5.3468363913
 20
4.4579836589
 30
0.0
 10
5.3448306196
 20
4.4577188213
 30
0.0
 10
5.3429794859
 20
4.4574541623
 30
0.0
 10
5.3412880901
 20
4.4571897088
 30
0.0
 10
5.3397612404
 20
4.4569255737
 30
0.0
 10
5.3385949824
 20
4.4566991316
 30
0.0
 10
5.3377481317
 20
4.4565163542
 30
0.0
 10
5.3371773382
 20
4.456383759
 30
0.0
 10
5.3366506126
 20
4.4562512257
 30
0.0
 10
5.3361683373
 20
4.4561187616
 30
0.0
 10
5.3357308577
 20
4.4559863677
 30
0.0
 10
5.3353384456
 20
4.4558540576
 30
0.0
 10
5.3349912911
 20
4.4557218609
 30
0.0
 10
5.3346895198
 20
4.4555897832
 30
0.0
 10
5.3344332098
 20
4.4554578238
 30
0.0
 10
5.3342222821
 20
4.4553258434
 30
0.0
 10
5.334056648
 20
4.4551936171
 30
0.0
 10
5.3339520079
 20
4.4550779059
 30
0.0
 10
5.3338944676
 20
4.454984966
 30
0.0
 10
5.3338647659
 20
4.4549178997
 30
0.0
 10
5.3338468335
 20
4.4548506044
 30
0.0
 10
5.3338428044
 20
4.4548053529
 30
0.0
 10
5.3338427974
 20
4.4547831064
 30
0.0
 11
5.3562448566
 21
4.4590380982
 31
0.0
 11
5.3536809778
 21
4.4587722788
 31
0.0
 11
5.3512447326
 21
4.4585062919
 31
0.0
 11
5.348944488
 21
4.4582402758
 31
0.0
 11
5.3467878075
 21
4.4579743191
 31
0.0
 11
5.3447804462
 21
4.4577083999
 31
0.0
 11
5.3429279045
 21
4.4574424818
 31
0.0
 11
5.3412353521
 21
4.4571765473
 31
0.0
 11
5.3397075233
 21
4.4569106047
 31
0.0
 11
5.3383490712
 21
4.4566446636
 31
0.0
 11
5.3377346043
 21
4.4565116947
 31
0.0
 11
5.3371638509
 21
4.4563787265
 31
0.0
 11
5.3366372123
 21
4.4562457588
 31
0.0
 11
5.3361550899
 21
4.4561127912
 31
0.0
 11
5.3357178792
 21
4.4559798233
 31
0.0
 11
5.3353258834
 21
4.455846855
 31
0.0
 11
5.3349793296
 21
4.4557138866
 31
0.0
 11
5.3346784432
 21
4.4555809179
 31
0.0
 11
5.3344234491
 21
4.4554479492
 31
0.0
 11
5.3342145726
 21
4.4553149805
 31
0.0
 11
5.3340520102
 21
4.4551820119
 31
0.0
 11
5.3339358345
 21
4.4550490433
 31
0.0
 11
5.3338951536
 21
4.4549825591
 31
0.0
 11
5.333866084
 21
4.4549160749
 31
0.0
 11
5.3338486303
 21
4.4548495906
 31
0.0
 11
5.3338427974
 21
4.4547831064
 31
0.0
  0
SPLINE
  5
24A
100
AcDbEntity
  8
0
100
AcDbSpline
 62
6
  6
CONTINUOUS
 70
0
 71
3
 72
43
 73
39
 74
37
 42
0.0000001
 43
0.0000001
 44
0.0000000001
 12
-0.1135707532
 22
-0.0132245459
 32
0.0
 13
-0.0988003772
 23
-0.0575472855
 33
0.0
 40
0.0
 40
0.0
 40
0.0
 40
0.0
 40
0.028029313
 40
0.0581256846
 40
0.0901185208
 40
0.1238444257
 40
0.1591395855
 40
0.1958238211
 40
0.2337095836
 40
0.2726029393
 40
0.3526169006
 40
0.4342342585
 40
0.515789553
 40
0.5956187792
 40
0.6343751006
 40
0.6720940247
 40
0.7085836666
 40
0.743657679
 40
0.7771386601
 40
0.8088556841
 40
0.8386498522
 40
0.8663695641
 40
0.891878315
 40
0.9150479465
 40
0.9257210408
 40
0.9357688097
 40
0.9451788801
 40
0.9539414204
 40
0.9620476578
 40
0.9694893358
 40
0.9762592146
 40
0.9823533531
 40
0.987770459
 40
0.9925117459
 40
0.9946306668
 40
0.9965833446
 40
0.9983720712
 40
1.0
 40
1.0
 40
1.0
 40
1.0
 10
5.4480483478
 20
4.4590380981
 30
0.0
 10
5.4469872444
 20
4.4589145398
 30
0.0
 10
5.4447855285
 20
4.4586690542
 30
0.0
 10
5.4413692368
 20
4.4583140834
 30
0.0
 10
5.4377347533
 20
4.4579589523
 30
0.0
 10
5.4339012535
 20
4.4576036963
 30
0.0
 10
5.4298882311
 20
4.4572483523
 30
0.0
 10
5.4257160817
 20
4.4568928901
 30
0.0
 10
5.4214063214
 20
4.456537367
 30
0.0
 10
5.415449707
 20
4.4560587511
 30
0.0
 10
5.4078302362
 20
4.4554653036
 30
0.0
 10
5.398588657
 20
4.4547594054
 30
0.0
 10
5.389354138
 20
4.4540535184
 30
0.0
 10
5.3817493558
 20
4.453459863
 30
0.0
 10
5.3758114384
 20
4.4529810623
 30
0.0
 10
5.3715207402
 20
4.4526255436
 30
0.0
 10
5.3673708726
 20
4.4522701081
 30
0.0
 10
5.3633831299
 20
4.4519147504
 30
0.0
 10
5.3595780232
 20
4.4515595277
 30
0.0
 10
5.3559750514
 20
4.4512044302
 30
0.0
 10
5.3525927593
 20
4.4508495553
 30
0.0
 10
5.3494484397
 20
4.450494899
 30
0.0
 10
5.3465582856
 20
4.4501406043
 30
0.0
 10
5.3443164858
 20
4.4498380061
 30
0.0
 10
5.3426615591
 20
4.4495940953
 30
0.0
 10
5.3415270216
 20
4.449416263
 30
0.0
 10
5.3404662384
 20
4.4492384787
 30
0.0
 10
5.3394805426
 20
4.449060767
 30
0.0
 10
5.3385711498
 20
4.4488831532
 30
0.0
 10
5.3377392295
 20
4.4487056647
 30
0.0
 10
5.3369858543
 20
4.4485282977
 30
0.0
 10
5.3363119123
 20
4.4483511137
 30
0.0
 10
5.3357181715
 20
4.4481741593
 30
0.0
 10
5.3352755178
 20
4.4480217996
 30
0.0
 10
5.3349629895
 20
4.4478986032
 30
0.0
 10
5.3347580283
 20
4.4478097183
 30
0.0
 10
5.3345736209
 20
4.4477208648
 30
0.0
 10
5.3344590816
 20
4.4476587616
 30
0.0
 10
5.3344054682
 20
4.447627534
 30
0.0
 11
5.4480483478
 21
4.4590380981
 31
0.0
 11
5.4448634156
 21
4.4586816285
 31
0.0
 11
5.4414407885
 21
4.4583249455
 31
0.0
 11
5.4378002128
 21
4.4579683275
 31
0.0
 11
5.4339605758
 21
4.4576117737
 31
0.0
 11
5.4299407771
 21
4.4572552061
 31
0.0
 11
5.4257615558
 21
4.4568986195
 31
0.0
 11
5.4214444707
 21
4.4565420354
 31
0.0
 11
5.4170117967
 21
4.4561854569
 31
0.0
 11
5.4078909898
 21
4.4554722976
 31
0.0
 11
5.3985863051
 21
4.4547591371
 31
0.0
 11
5.3892887375
 21
4.4540459769
 31
0.0
 11
5.3801891175
 21
4.4533328166
 31
0.0
 11
5.3757721627
 21
4.4529762365
 31
0.0
 11
5.3714742185
 21
4.4526196564
 31
0.0
 11
5.3673173274
 21
4.4522630762
 31
0.0
 11
5.3633229153
 21
4.4519064961
 31
0.0
 11
5.3595114063
 21
4.4515499159
 31
0.0
 11
5.3559025149
 21
4.4511933358
 31
0.0
 11
5.3525146195
 21
4.4508367556
 31
0.0
 11
5.3493653225
 21
4.4504801754
 31
0.0
 11
5.3464705795
 21
4.4501235953
 31
0.0
 11
5.3438455151
 21
4.4497670151
 31
0.0
 11
5.3426382678
 21
4.449588725
 31
0.0
 11
5.3415033437
 21
4.4494104349
 31
0.0
 11
5.3404422889
 21
4.4492321448
 31
0.0
 11
5.3394563878
 21
4.4490538548
 31
0.0
 11
5.3385468455
 21
4.4488755647
 31
0.0
 11
5.3377148672
 21
4.4486972746
 31
0.0
 11
5.3369616248
 21
4.4485189845
 31
0.0
 11
5.3362880283
 21
4.4483406944
 31
0.0
 11
5.335694862
 21
4.4481624043
 31
0.0
 11
5.3351829092
 21
4.4479841142
 31
0.0
 11
5.3349576325
 21
4.4478949691
 31
0.0
 11
5.3347529361
 21
4.4478058241
 31
0.0
 11
5.3345688669
 21
4.4477166791
 31
0.0
 11
5.3344054682
 21
4.447627534
 31
0.0
  0
ENDSEC
  0
SECTION
  2
OBJECTS
  0
DICTIONARY
  5
C
100
AcDbDictionary
280
0
281
1
  3
ACAD_GROUP
350
D
  3
ACAD_MLINESTYLE
350
17
  3
ACAD_LAYOUT
350
1A
  3
ACAD_PLOTSETTINGS
350
19
  3
ACAD_PLOTSTYLENAME
350
E
  0
DICTIONARY
  5
D
102
{ACAD_REACTORS
330
C
102
}
100
AcDbDictionary
280
0
281
1
  0
ACDBDICTIONARYWDFLT
  5
E
102
{ACAD_REACTORS
330
C
102
}
100
AcDbDictionary
281
1
  3
Normal
350
F
100
AcDbDictionaryWithDefault
340
F
  0
DICTIONARY
  5
17
102
{ACAD_REACTORS
330
C
102
}
100
AcDbDictionary
280
0
281
1
  3
Standard
350
18
  0
DICTIONARY
  5
19
102
{ACAD_REACTORS
330
C
102
}
100
AcDbDictionary
281
1
  0
DICTIONARY
  5
1A
102
{ACAD_REACTORS
330
C
102
}
100
AcDbDictionary
281
1
  3
Model
350
24B
  3
Layout1
350
24C
  0
ACDBPLACEHOLDER
  5
F
102
{ACAD_REACTORS
330
E
102
}
  0
MLINESTYLE
  5
18
102
{ACAD_REACTORS
330
17
102
}
100
AcDbMlineStyle
  2
STANDARD
 70
0
  3

 62
256
 51
90.0
 52
90.0
 71
2
 49
0.5
 62
256
  6
BYLAYER
 49
-0.5
 62
256
  6
BYLAYER
  0
LAYOUT
  5
24B
102
{ACAD_REACTORS
330
1A
102
}
100
AcDbPlotSettings
  1

  2
none_device
  4
ISO_A4_(297.00_x_210.00_MM)
  6

 40
0.0
 41
0.0
 42
0.0
 43
0.0
 44
297.0
 45
210.0
 46
0.0
 47
0.0
 48
0.0
 49
0.0
140
0.0
141
0.0
142
1.0
143
1.0
 70
1024
 72
0
 73
0
 74
0
  7

 75
0
147
1.0
148
0.0
149
0.0
100
AcDbLayout
  1
Model
 70
0
 71
0
 10
0.0
 20
0.0
 11
11.6929133858
 21
8.2677165354
 12
0.0
 22
0.0
 32
0.0
 14
0.0
 24
0.0
 34
0.0
 15
0.0
 25
0.0
 35
0.0
146
0.0
 13
0.0
 23
0.0
 33
0.0
 16
1.0
 26
0.0
 36
0.0
 17
0.0
 27
1.0
 37
0.0
 76
0
330
203
345
0
346
0
  0
LAYOUT
  5
24C
102
{ACAD_REACTORS
330
1A
102
}
100
AcDbPlotSettings
  1

  2
none_device
  4
ISO_A4_(297.00_x_210.00_MM)
  6

 40
0.0
 41
0.0
 42
0.0
 43
0.0
 44
297.0
 45
210.0
 46
0.0
 47
0.0
 48
0.0
 49
0.0
140
0.0
141
0.0
142
1.0
143
1.0
 70
0
 72
0
 73
0
 74
0
  7

 75
0
147
1.0
148
0.0
149
0.0
100
AcDbLayout
  1
Layout1
 70
0
 71
1
 10
0.0
 20
0.0
 11
11.6929133858
 21
8.2677165354
 12
0.0
 22
0.0
 32
0.0
 14
0.0
 24
0.0
 34
0.0
 15
0.0
 25
0.0
 35
0.0
146
0.0
 13
0.0
 23
0.0
 33
0.0
 16
1.0
 26
0.0
 36
0.0
 17
0.0
 27
1.0
 37
0.0
 76
0
330
204
345
0
346
0
  0
ENDSEC
  0
EOF
