  0
SECTION
  2
HEADER
  9
$ACADVER
  1
AC1015
  9
$DWGCODEPAGE
  3
ANSI_1252
  9
$EXTMAX
 10
11.6929133858
 20
8.2677165354
 30
0.0
  9
$EXTMIN
 10
0.0
 20
0.0
 30
0.0
  9
$LIMMIN
 10
0.0
 20
0.0
  9
$LIMMAX
 10
11.6929133858
 20
8.2677165354
  9
$VIEWCTR
 10
5.8464566929
 20
4.1338582677
  9
$VIEWSIZE
 40
8.2677165354
  9
$CLAYER
  8
0
  9
$LTSCALE
 40
0.6431102362
  9
$CELTYPE
  6
BYLAYER
  9
$DIMSCALE
 40
1.0
  9
$DIMASZ
 40
0.1875
  9
$DIMEXO
 40
0.0730807087
  9
$DIMDLI
 40
0.4443307087
  9
$DIMEXE
 40
0.2104724409
  9
$DIMCEN
 40
0.1052362205
  9
$DIMLFAC
 40
1.0
  9
$DIMBLK
  1
_CLOSED
  9
$DIMTXT
 40
0.15625
  9
$DIMTOL
 70
0
  9
$DIMLIM
 70
0
  9
$DIMTFAC
 40
1.0
  9
$PDMODE
 70
3
  9
$PDSIZE
 40
0.3125
  9
$HANDSEED
  5
248
  9
$TILEMODE
 70
1
  9
$MEASUREMENT
 70
0
  9
$INSUNITS
 70
1
  0
ENDSEC
  0
SECTION
  2
CLASSES
  0
CLASS
  1
ACDBDICTIONARYWDFLT
  2
AcDbDictionaryWithDefault
  3
AutoCAD 2000
 90
0
280
0
281
0
  0
CLASS
  1
ACDBPLACEHOLDER
  2
AcDbPlaceHolder
  3
AutoCAD 2000
 90
0
280
0
281
0
  0
CLASS
  1
LAYOUT
  2
AcDbLayout
  3
AutoCAD 2000
 90
0
280
0
281
0
  0
ENDSEC
  0
SECTION
  2
TABLES
  0
TABLE
  2
VPORT
  5
8
100
AcDbSymbolTable
 70
2
  0
VPORT
  5
1F4
100
AcDbSymbolTableRecord
100
AcDbViewportTableRecord
  2
*ACTIVE
 70
0
 10
0.0
 20
0.0
 11
1.0
 21
1.0
 12
5.8464566929
 22
4.1338582677
 13
0.0
 23
0.0
 14
1.0
 24
1.0
 15
0.0
 25
0.0
 16
0.0
 26
0.0
 36
1.0
 17
0.0
 27
0.0
 37
0.0
 40
8.2677165354
 41
1.4142857143
 42
50.0
 43
0.0
 44
0.0
 50
0.0
 51
0.0
 71
0
 72
100
 73
1
 74
1
 75
0
 76
0
 77
0
 78
0
  0
ENDTAB
  0
TABLE
  2
LTYPE
  5
5
100
AcDbSymbolTable
 70
6
  0
LTYPE
  5
14
100
AcDbSymbolTableRecord
100
AcDbLinetypeTableRecord
  2
BYBLOCK
 70
0
  3

 72
65
 73
0
 40
0.0
  0
LTYPE
  5
15
100
AcDbSymbolTableRecord
100
AcDbLinetypeTableRecord
  2
BYLAYER
 70
0
  3

 72
65
 73
0
 40
0.0
  0
LTYPE
  5
16
100
AcDbSymbolTableRecord
100
AcDbLinetypeTableRecord
  2
CONTINUOUS
 70
64
  3
Solid line
 72
65
 73
0
 40
0.0
  0
LTYPE
  5
1F5
100
AcDbSymbolTableRecord
100
AcDbLinetypeTableRecord
  2
CENTER
 70
64
  3
____ _ ____ _ ____ _ ____ _ ____ _ ____ _ ____
 72
65
 73
4
 40
0.6
 49
0.375
 74
0
 49
-0.075
 74
0
 49
0.075
 74
0
 49
-0.075
 74
0
  0
LTYPE
  5
1F6
100
AcDbSymbolTableRecord
100
AcDbLinetypeTableRecord
  2
HIDDEN
 70
64
  3
- - - - - - - - - - - - - - - - - - - -
 72
65
 73
2
 40
0.2
 49
0.1
 74
0
 49
-0.1
 74
0
  0
LTYPE
  5
1F7
100
AcDbSymbolTableRecord
100
AcDbLinetypeTableRecord
  2
PHANTOM
 70
64
  3
_____ _ _ _____ _ _ _____ _ _ _____
 72
65
 73
6
 40
0.8
 49
0.45
 74
0
 49
-0.05
 74
0
 49
0.1
 74
0
 49
-0.05
 74
0
 49
0.1
 74
0
 49
-0.05
 74
0
  0
LTYPE
  5
1F8
100
AcDbSymbolTableRecord
100
AcDbLinetypeTableRecord
  2
DOT
 70
64
  3
. . . . . . . . . . . . . . . . . . . .
 72
65
 73
2
 40
0.2
 49
0.1
 74
0
 49
-0.1
 74
0
  0
LTYPE
  5
1F9
100
AcDbSymbolTableRecord
100
AcDbLinetypeTableRecord
  2
DASHED
 70
64
  3
- - - - - - - - - - - - - - - - - - - -
 72
65
 73
2
 40
0.2
 49
0.1
 74
0
 49
-0.1
 74
0
  0
ENDTAB
  0
TABLE
  2
LAYER
  5
2
100
AcDbSymbolTable
 70
36
  0
LAYER
  5
10
100
AcDbSymbolTableRecord
100
AcDbLayerTableRecord
  2
0
 70
0
 62
7
  6
CONTINUOUS
370
-3
390
F
  0
LAYER
  5
1FA
100
AcDbSymbolTableRecord
100
AcDbLayerTableRecord
  2
DEFAULT_1
 70
0
 62
7
  6
CENTER
370
-3
390
F
  0
LAYER
  5
1FB
100
AcDbSymbolTableRecord
100
AcDbLayerTableRecord
  2
DEFAULT_2
 70
0
 62
8
  6
HIDDEN
370
-3
390
F
  0
LAYER
  5
1FC
100
AcDbSymbolTableRecord
100
AcDbLayerTableRecord
  2
DEFAULT_3
 70
0
 62
7
  6
PHANTOM
370
-3
390
F
  0
LAYER
  5
1FD
100
AcDbSymbolTableRecord
100
AcDbLayerTableRecord
  2
DEFAULT_COORDINATE_SYSTEM
 70
0
 62
7
  6
CONTINUOUS
370
-3
390
F
  0
LAYER
  5
1FE
100
AcDbSymbolTableRecord
100
AcDbLayerTableRecord
  2
DEFAULT_DATUM_AXES
 70
0
 62
7
  6
CONTINUOUS
370
-3
390
F
  0
LAYER
  5
1FF
100
AcDbSymbolTableRecord
100
AcDbLayerTableRecord
  2
DEFAULT_DATUM_CURVES
 70
0
 62
7
  6
CONTINUOUS
370
-3
390
F
  0
LAYER
  5
200
100
AcDbSymbolTableRecord
100
AcDbLayerTableRecord
  2
DEFAULT_DATUM_PLANES
 70
0
 62
7
  6
CONTINUOUS
370
-3
390
F
  0
ENDTAB
  0
TABLE
  2
STYLE
  5
3
100
AcDbSymbolTable
 70
1
  0
STYLE
  5
11
100
AcDbSymbolTableRecord
100
AcDbTextStyleTableRecord
  2
STANDARD
 70
0
 40
0.0
 41
0.8
 50
0.0
 71
0
 42
0.2
  3
txt
  4

  0
STYLE
  5
201
100
AcDbSymbolTableRecord
100
AcDbTextStyleTableRecord
  2
TEXTSTYLE_1
 70
0
 40
0.0
 41
0.8
 50
0.0
 71
0
 42
0.2
  3
gdt
  4

  0
ENDTAB
  0
TABLE
  2
VIEW
  5
6
100
AcDbSymbolTable
 70
0
  0
ENDTAB
  0
TABLE
  2
UCS
  5
7
100
AcDbSymbolTable
 70
0
  0
ENDTAB
  0
TABLE
  2
APPID
  5
9
100
AcDbSymbolTable
 70
1
  0
APPID
  5
202
100
AcDbSymbolTableRecord
100
AcDbRegAppTableRecord
  2
ACAD
 70
0
  0
ENDTAB
  0
TABLE
  2
BLOCK_RECORD
  5
1
100
AcDbSymbolTable
 70
0
  0
BLOCK_RECORD
  5
203
100
AcDbSymbolTableRecord
100
AcDbBlockTableRecord
  2
*Model_Space
  0
BLOCK_RECORD
  5
204
100
AcDbSymbolTableRecord
100
AcDbBlockTableRecord
  2
*Paper_Space
  0
ENDTAB
  0
TABLE
  2
DIMSTYLE
  5
A
100
AcDbSymbolTable
 70
1
100
AcDbDimStyleTable
 71
0
  0
DIMSTYLE
105
205
100
AcDbSymbolTableRecord
100
AcDbDimStyleTableRecord
  2
STANDARD
 70
0
  3

  4

 40
1.0
 41
0.1875
 42
0.0625
 43
0.38
 44
0.18
 45
0.0
 46
0.0
 47
0.01
 48
0.01
140
0.15625
141
0.09
142
0.0
143
25.4
144
1.0
145
0.0
146
1.0
147
0.09
 71
0.0
 72
0.0
 73
1
 74
1
 75
0
 76
0
 77
0
 78
4
170
0
171
2
172
0
173
0
174
0
175
0
176
0
177
0
178
0
270
2
271
2
272
2
273
2
274
2
275
0
280
0
281
0
282
0
283
1
284
4
285
0
286
0
287
3
288
0
340
11
  0
ENDTAB
  0
ENDSEC
  0
SECTION
  2
BLOCKS
  0
BLOCK
  5
20
100
AcDbEntity
  8
0
100
AcDbBlockBegin
  2
*Model_Space
 70
0
 10
0.0
 20
0.0
 30
0.0
  3
*Model_Space
  1

  0
ENDBLK
  5
21
100
AcDbEntity
  8
0
100
AcDbBlockEnd
  0
BLOCK
  5
1C
100
AcDbEntity
  8
0
100
AcDbBlockBegin
  2
*Paper_Space
 70
0
 10
0.0
 20
0.0
 30
0.0
  3
*Paper_Space
  1

  0
ENDBLK
  5
1D
100
AcDbEntity
  8
0
100
AcDbBlockEnd
  0
ENDSEC
  0
SECTION
  2
ENTITIES
  0
LINE
  5
206
100
AcDbEntity
  8
0
100
AcDbLine
 62
6
  6
CONTINUOUS
 10
5.782718399
 20
2.7074923781
 11
5.7810366874
 21
2.7074923781
  0
LINE
  5
207
100
AcDbEntity
  8
0
100
AcDbLine
 62
6
  6
CONTINUOUS
 10
5.2918775432
 20
2.7894926137
 11
6.2718775432
 21
2.7894926137
  0
LINE
  5
208
100
AcDbEntity
  8
0
100
AcDbLine
 62
9
  6
CONTINUOUS
 10
4.4068775432
 20
3.0394926137
 11
4.4068775432
 21
3.2894926137
  0
LINE
  5
209
100
AcDbEntity
  8
0
100
AcDbLine
 62
6
  6
CONTINUOUS
 10
5.292777594
 20
3.0394926137
 11
4.1233011389
 21
3.0394926137
  0
LINE
  5
20A
100
AcDbEntity
  8
0
100
AcDbLine
 62
6
  6
CONTINUOUS
 10
6.2716227298
 20
3.0394926137
 11
7.4404539475
 21
3.0394926137
  0
LINE
  5
20B
100
AcDbEntity
  8
0
100
AcDbLine
 62
6
  6
CONTINUOUS
 10
4.7318775432
 20
5.5004926137
 11
4.7318775432
 21
5.4004926137
  0
LINE
  5
20C
100
AcDbEntity
  8
0
100
AcDbLine
 62
6
  6
CONTINUOUS
 10
5.2927775135
 20
3.2894926137
 11
4.1233011389
 21
3.2894926137
  0
LINE
  5
20D
100
AcDbEntity
  8
0
100
AcDbLine
 62
6
  6
CONTINUOUS
 10
6.2716227016
 20
3.2894926137
 11
7.4404539475
 21
3.2894926137
  0
LINE
  5
20E
100
AcDbEntity
  8
0
100
AcDbLine
 62
6
  6
CONTINUOUS
 10
5.2918775432
 20
3.5394926137
 11
6.2718775432
 21
3.5394926137
  0
LINE
  5
20F
100
AcDbEntity
  8
0
100
AcDbLine
 62
6
  6
CONTINUOUS
 10
5.2443775432
 20
4.7504926137
 11
5.2443775432
 21
4.7004926137
  0
LINE
  5
210
100
AcDbEntity
  8
0
100
AcDbLine
 62
6
  6
CONTINUOUS
 10
5.2918775432
 20
3.5394926137
 11
5.2918775432
 21
3.2929926137
  0
LINE
  5
211
100
AcDbEntity
  8
0
100
AcDbLine
 62
6
  6
CONTINUOUS
 10
5.2918775432
 20
3.0359926137
 11
5.2918775432
 21
2.7894926137
  0
LINE
  5
212
100
AcDbEntity
  8
0
100
AcDbLine
 62
6
  6
CONTINUOUS
 10
5.3443775432
 20
4.7004926137
 11
5.3443775432
 21
4.6004926137
  0
LINE
  5
213
100
AcDbEntity
  8
0
100
AcDbLine
 62
6
  6
CONTINUOUS
 10
5.3443775432
 20
4.0583051137
 11
5.3443775432
 21
4.1626801137
  0
LINE
  5
214
100
AcDbEntity
  8
0
100
AcDbLine
 62
6
  6
CONTINUOUS
 10
5.4453775432
 20
4.1704926137
 11
5.4453775432
 21
4.5926801137
  0
LINE
  5
215
100
AcDbEntity
  8
0
100
AcDbLine
 62
6
  6
CONTINUOUS
 10
5.4693775432
 20
4.0504926137
 11
5.4693775432
 21
3.5394926137
  0
LINE
  5
216
100
AcDbEntity
  8
0
100
AcDbLine
 62
9
  6
CONTINUOUS
 10
6.2115613027
 20
4.0504926137
 11
5.3521937837
 21
4.0504926137
  0
LINE
  5
217
100
AcDbEntity
  8
0
100
AcDbLine
 62
9
  6
CONTINUOUS
 10
6.2193775432
 20
4.0583051137
 11
5.3443775432
 21
4.0583051137
  0
LINE
  5
218
100
AcDbEntity
  8
0
100
AcDbLine
 62
9
  6
CONTINUOUS
 10
6.2193775432
 20
4.1626801137
 11
5.3443775432
 21
4.1626801137
  0
LINE
  5
219
100
AcDbEntity
  8
0
100
AcDbLine
 62
9
  6
CONTINUOUS
 10
6.2115613033
 20
4.1704926137
 11
5.3521937831
 21
4.1704926137
  0
LINE
  5
21A
100
AcDbEntity
  8
0
100
AcDbLine
 62
6
  6
CONTINUOUS
 10
6.0943775432
 20
4.0504926137
 11
6.0943775432
 21
3.5394926137
  0
LINE
  5
21B
100
AcDbEntity
  8
0
100
AcDbLine
 62
6
  6
CONTINUOUS
 10
6.1183775432
 20
4.1704926137
 11
6.1183775432
 21
4.5926801137
  0
LINE
  5
21C
100
AcDbEntity
  8
0
100
AcDbLine
 62
9
  6
CONTINUOUS
 10
6.1183775432
 20
4.5926801137
 11
5.4453775432
 21
4.5926801137
  0
LINE
  5
21D
100
AcDbEntity
  8
0
100
AcDbLine
 62
6
  6
CONTINUOUS
 10
6.2193775432
 20
4.6004926137
 11
5.3443775432
 21
4.6004926137
  0
LINE
  5
21E
100
AcDbEntity
  8
0
100
AcDbLine
 62
6
  6
CONTINUOUS
 10
6.3193775432
 20
4.7004926137
 11
5.2443775432
 21
4.7004926137
  0
LINE
  5
21F
100
AcDbEntity
  8
0
100
AcDbLine
 62
6
  6
CONTINUOUS
 10
6.2193775432
 20
4.7004926137
 11
6.2193775432
 21
4.6004926137
  0
LINE
  5
220
100
AcDbEntity
  8
0
100
AcDbLine
 62
6
  6
CONTINUOUS
 10
6.2193775432
 20
4.0583051137
 11
6.2193775432
 21
4.1626801137
  0
LINE
  5
221
100
AcDbEntity
  8
0
100
AcDbLine
 62
6
  6
CONTINUOUS
 10
6.2718775432
 20
3.5394926137
 11
6.2718775432
 21
3.2904926137
  0
LINE
  5
222
100
AcDbEntity
  8
0
100
AcDbLine
 62
6
  6
CONTINUOUS
 10
6.2718775432
 20
3.0384926137
 11
6.2718775432
 21
2.7894926137
  0
LINE
  5
223
100
AcDbEntity
  8
0
100
AcDbLine
 62
6
  6
CONTINUOUS
 10
6.3193775432
 20
4.7504926137
 11
6.3193775432
 21
4.7004926137
  0
LINE
  5
224
100
AcDbEntity
  8
0
100
AcDbLine
 62
6
  6
CONTINUOUS
 10
6.4193775432
 20
4.7504926137
 11
5.1443775432
 21
4.7504926137
  0
LINE
  5
225
100
AcDbEntity
  8
0
100
AcDbLine
 62
6
  6
CONTINUOUS
 10
6.8318775432
 20
5.5004926137
 11
6.8318775432
 21
5.4004926137
  0
LINE
  5
226
100
AcDbEntity
  8
0
100
AcDbLine
 62
6
  6
CONTINUOUS
 10
6.8318775432
 20
5.4004926137
 11
4.7318775432
 21
5.4004926137
  0
LINE
  5
227
100
AcDbEntity
  8
0
100
AcDbLine
 62
6
  6
CONTINUOUS
 10
4.6568775432
 20
5.5004926137
 11
6.9068775432
 21
5.5004926137
  0
LINE
  5
228
100
AcDbEntity
  8
0
100
AcDbLine
 62
9
  6
CONTINUOUS
 10
7.1568775432
 20
3.2894926137
 11
7.1568775432
 21
3.0394926137
  0
LINE
  5
229
100
AcDbEntity
  8
0
100
AcDbLine
 62
9
  6
CONTINUOUS
 10
4.6463884348
 20
5.6449508964
 11
6.9173666516
 21
5.6449508964
  0
LINE
  5
22A
100
AcDbEntity
  8
0
100
AcDbLine
 62
6
  6
CONTINUOUS
 10
4.5193775432
 20
5.8754926137
 11
7.0443775432
 21
5.8754926137
  0
LINE
  5
22B
100
AcDbEntity
  8
0
100
AcDbLine
 62
9
  6
CONTINUOUS
 10
4.5193775432
 20
5.9754926137
 11
7.0443775432
 21
5.9754926137
  0
ARC
  5
22C
100
AcDbEntity
  8
0
100
AcDbCircle
 62
6
  6
CONTINUOUS
 10
5.7810366874
 20
4.2074923781
 40
1.5
100
AcDbArc
 50
250.9673990432
 51
270.0
  0
CIRCLE
  5
22D
100
AcDbEntity
  8
0
100
AcDbCircle
 62
6
  6
CONTINUOUS
 10
3.9068775432
 20
3.1644926137
 40
0.25
  0
ARC
  5
22E
100
AcDbEntity
  8
0
100
AcDbCircle
 62
6
  6
CONTINUOUS
 10
5.3521900432
 20
4.0583051137
 40
0.0078125
100
AcDbArc
 50
180.0
 51
270.0000026148
  0
ARC
  5
22F
100
AcDbEntity
  8
0
100
AcDbCircle
 62
6
  6
CONTINUOUS
 10
5.3521900432
 20
4.1626801137
 40
0.0078125
100
AcDbArc
 50
89.9999997754
 51
180.0
  0
ARC
  5
230
100
AcDbEntity
  8
0
100
AcDbCircle
 62
6
  6
CONTINUOUS
 10
4.4260063311
 20
4.7504926137
 40
0.7183712121
100
AcDbArc
 50
0.0
 51
64.7996803478
  0
ARC
  5
231
100
AcDbEntity
  8
0
100
AcDbCircle
 62
6
  6
CONTINUOUS
 10
3.6568775432
 20
5.5004926137
 40
1.0
100
AcDbArc
 50
0.0
 51
8.3059108051
  0
ARC
  5
232
100
AcDbEntity
  8
0
100
AcDbCircle
 62
6
  6
CONTINUOUS
 10
4.2753218504
 20
5.5907790404
 40
0.375
100
AcDbArc
 50
8.3059108051
 51
49.3969087652
  0
ARC
  5
233
100
AcDbEntity
  8
0
100
AcDbCircle
 62
6
  6
CONTINUOUS
 10
4.5193775432
 20
5.9254926137
 40
0.05
100
AcDbArc
 50
90.0
 51
270.0
  0
ARC
  5
234
100
AcDbEntity
  8
0
100
AcDbCircle
 62
6
  6
CONTINUOUS
 10
5.4531900432
 20
4.5926801137
 40
0.0078125
100
AcDbArc
 50
89.9999989028
 51
180.0
  0
ARC
  5
235
100
AcDbEntity
  8
0
100
AcDbCircle
 62
6
  6
CONTINUOUS
 10
5.782718399
 20
4.2074923781
 40
1.5
100
AcDbArc
 50
270.0
 51
289.0326009568
  0
CIRCLE
  5
236
100
AcDbEntity
  8
0
100
AcDbCircle
 62
6
  6
CONTINUOUS
 10
7.6568775432
 20
3.1644926137
 40
0.25
  0
ARC
  5
237
100
AcDbEntity
  8
0
100
AcDbCircle
 62
7
  6
CONTINUOUS
 10
5.7818775432
 20
3.8154926137
 40
0.082
100
AcDbArc
 50
326.6551695406
 51
11.7447639377
  0
ARC
  5
238
100
AcDbEntity
  8
0
100
AcDbCircle
 62
6
  6
CONTINUOUS
 10
5.7818775432
 20
3.8154926137
 40
0.0650899999
100
AcDbArc
 50
319.0174920094
 51
48.9886794061
  0
ARC
  5
239
100
AcDbEntity
  8
0
100
AcDbCircle
 62
6
  6
CONTINUOUS
 10
5.7820239799
 20
3.8153655165
 40
0.0648960994
100
AcDbArc
 50
318.3764935051
 51
319.0174121783
  0
CIRCLE
  5
23A
100
AcDbEntity
  8
0
100
AcDbCircle
 62
6
  6
CONTINUOUS
 10
5.7818775432
 20
3.8154926137
 40
0.062
  0
ARC
  5
23B
100
AcDbEntity
  8
0
100
AcDbCircle
 62
6
  6
CONTINUOUS
 10
6.2115650432
 20
4.0583051137
 40
0.0078125
100
AcDbArc
 50
269.9999973852
 51
360.0
  0
ARC
  5
23C
100
AcDbEntity
  8
0
100
AcDbCircle
 62
6
  6
CONTINUOUS
 10
6.2115650432
 20
4.1626801137
 40
0.0078125
100
AcDbArc
 50
0.0
 51
90.0000002246
  0
ARC
  5
23D
100
AcDbEntity
  8
0
100
AcDbCircle
 62
6
  6
CONTINUOUS
 10
7.9068775432
 20
5.5004926137
 40
1.0
100
AcDbArc
 50
171.6940891949
 51
180.0
  0
ARC
  5
23E
100
AcDbEntity
  8
0
100
AcDbCircle
 62
6
  6
CONTINUOUS
 10
7.1377487553
 20
4.7504926137
 40
0.7183712121
100
AcDbArc
 50
115.2003196522
 51
180.0
  0
ARC
  5
23F
100
AcDbEntity
  8
0
100
AcDbCircle
 62
6
  6
CONTINUOUS
 10
7.288433236
 20
5.5907790404
 40
0.375
100
AcDbArc
 50
130.6030912348
 51
171.6940891949
  0
ARC
  5
240
100
AcDbEntity
  8
0
100
AcDbCircle
 62
6
  6
CONTINUOUS
 10
7.0443775432
 20
5.9254926137
 40
0.05
100
AcDbArc
 50
270.0
 51
90.0
  0
ARC
  5
241
100
AcDbEntity
  8
0
100
AcDbCircle
 62
6
  6
CONTINUOUS
 10
6.1105650432
 20
4.5926801137
 40
0.0078125
100
AcDbArc
 50
0.0
 51
90.0000010972
  0
SPLINE
  5
242
100
AcDbEntity
  8
0
100
AcDbSpline
 62
7
  6
CONTINUOUS
 70
0
 71
3
 72
57
 73
53
 74
51
 42
0.0000001
 43
0.0000001
 44
0.0000000001
 12
0.0663481369
 22
-0.2513883524
 32
0.0
 13
-0.0663550921
 23
-0.2513865178
 33
0.0
 40
0.0
 40
0.0
 40
0.0
 40
0.0
 40
0.0006225979
 40
0.0024845586
 40
0.0055771409
 40
0.0098916136
 40
0.0154164982
 40
0.0221301296
 40
0.0300085444
 40
0.0390278592
 40
0.0491622806
 40
0.0603791307
 40
0.0859240573
 40
0.115383265
 40
0.1484463275
 40
0.1847918698
 40
0.2240753027
 40
0.2447097924
 40
0.2659430452
 40
0.3100114404
 40
0.3327500208
 40
0.3558875121
 40
0.4031403791
 40
0.4271476058
 40
0.4513315738
 40
0.4756332147
 40
0.4999936285
 40
0.5243541044
 40
0.5486558388
 40
0.5728398123
 40
0.596846859
 40
0.6206188247
 40
0.6441009506
 40
0.667238794
 40
0.6899775168
 40
0.7340468788
 40
0.7759154585
 40
0.8152002643
 40
0.8515473061
 40
0.8846117089
 40
0.9140721613
 40
0.9396181541
 40
0.9508355379
 40
0.9609703091
 40
0.9699899321
 40
0.9778687703
 40
0.9845827944
 40
0.9901078943
 40
0.9944224847
 40
0.9975152315
 40
0.9993773388
 40
1.0
 40
1.0
 40
1.0
 40
1.0
 10
5.2918775432
 20
3.2929926137
 30
0.0
 10
5.2918913126
 20
3.2929404425
 30
0.0
 10
5.2919461572
 20
3.2927322187
 30
0.0
 10
5.2920684838
 20
3.2922646084
 30
0.0
 10
5.2922706463
 20
3.291487159
 30
0.0
 10
5.2925509115
 20
3.2904020142
 30
0.0
 10
5.292907228
 20
3.2890123953
 30
0.0
 10
5.2933353421
 20
3.2873223289
 30
0.0
 10
5.2938309241
 20
3.2853369524
 30
0.0
 10
5.2943894593
 20
3.2830617458
 30
0.0
 10
5.2950061685
 20
3.2805029232
 30
0.0
 10
5.2959387461
 20
3.2765470658
 30
0.0
 10
5.2972070168
 20
3.2709497312
 30
0.0
 10
5.298797064
 20
3.2634845563
 30
0.0
 10
5.3004545262
 20
3.255077578
 30
0.0
 10
5.302118015
 20
3.24580527
 30
0.0
 10
5.3034348146
 20
3.2375665072
 30
0.0
 10
5.3044371359
 20
3.230605169
 30
0.0
 10
5.3054186767
 20
3.223222321
 30
0.0
 10
5.3062954648
 20
3.2156419879
 30
0.0
 10
5.3070520486
 20
3.2078835465
 30
0.0
 10
5.3077369933
 20
3.1998414406
 30
0.0
 10
5.3082775549
 20
3.1916772272
 30
0.0
 10
5.3086617212
 20
3.1834142627
 30
0.0
 10
5.3088711106
 20
3.1771349349
 30
0.0
 10
5.3089982713
 20
3.1708227985
 30
0.0
 10
5.3090412132
 20
3.1644942181
 30
0.0
 10
5.3089982005
 20
3.1581656318
 30
0.0
 10
5.3088711919
 20
3.151853476
 30
0.0
 10
5.3086619557
 20
3.1455741607
 30
0.0
 10
5.3083722683
 20
3.1393440039
 30
0.0
 10
5.3080040311
 20
3.1331789354
 30
0.0
 10
5.3075624017
 20
3.1270942304
 30
0.0
 10
5.3070524019
 20
3.1211047403
 30
0.0
 10
5.3062957921
 20
3.1133461758
 30
0.0
 10
5.3052134414
 20
3.1039891154
 30
0.0
 10
5.3037256143
 20
3.0932382644
 30
0.0
 10
5.3021183331
 20
3.0831819778
 30
0.0
 10
5.3004548594
 20
3.0739092824
 30
0.0
 10
5.2987973171
 20
3.0655019622
 30
0.0
 10
5.2972072391
 20
3.0580364698
 30
0.0
 10
5.2959389261
 20
3.0524388919
 30
0.0
 10
5.2950062905
 20
3.0484828746
 30
0.0
 10
5.294389574
 20
3.0459239475
 30
0.0
 10
5.2938310365
 20
3.0436486449
 30
0.0
 10
5.2933354203
 20
3.0416631765
 30
0.0
 10
5.2929072698
 20
3.0399730272
 30
0.0
 10
5.2925509429
 20
3.038583346
 30
0.0
 10
5.2922706836
 20
3.0374981552
 30
0.0
 10
5.29206851
 20
3.0367206703
 30
0.0
 10
5.2919461697
 20
3.03625303
 30
0.0
 10
5.2918913154
 20
3.03604479
 30
0.0
 10
5.2918775432
 20
3.0359926137
 30
0.0
 11
5.2918775432
 21
3.2929926137
 31
0.0
 11
5.2919187774
 21
3.2928360804
 31
0.0
 11
5.2920414058
 21
3.2923677663
 31
0.0
 11
5.2922438177
 21
3.2915896002
 31
0.0
 11
5.2925244019
 21
3.2905035109
 31
0.0
 11
5.2928810294
 21
3.2891120346
 31
0.0
 11
5.2933096516
 21
3.2874199578
 31
0.0
 11
5.2938057755
 21
3.285432588
 31
0.0
 11
5.2943649082
 21
3.2831552327
 31
0.0
 11
5.2949821676
 21
3.2805936396
 31
0.0
 11
5.2956513063
 21
3.2777551015
 31
0.0
 11
5.2971190339
 21
3.2712777186
 31
0.0
 11
5.2987140837
 21
3.2637863554
 31
0.0
 11
5.3003765055
 21
3.2553523555
 31
0.0
 11
5.3020446597
 21
3.2460510489
 31
0.0
 11
5.3036557173
 21
3.2359653587
 31
0.0
 11
5.3044202873
 21
3.2306552253
 31
0.0
 11
5.3051477601
 21
3.2251827966
 31
0.0
 11
5.3064629094
 21
3.2138009003
 31
0.0
 11
5.3070367816
 21
3.2079168693
 31
0.0
 11
5.3075472453
 21
3.2019229011
 31
0.0
 11
5.3083573588
 21
3.1896640629
 31
0.0
 11
5.3086474162
 21
3.1834290128
 31
0.0
 11
5.3088569854
 21
3.1771447609
 31
0.0
 11
5.3089841206
 21
3.1708277002
 31
0.0
 11
5.3090268759
 21
3.1644942238
 31
0.0
 11
5.308984087
 21
3.1581607316
 31
0.0
 11
5.308857067
 21
3.1518436442
 31
0.0
 11
5.3086476193
 21
3.1455593868
 31
0.0
 11
5.3083575474
 21
3.1393243842
 31
0.0
 11
5.3079893017
 21
3.1331547378
 31
0.0
 11
5.3075474771
 21
3.1270654768
 31
0.0
 11
5.307037112
 21
3.1210714084
 31
0.0
 11
5.3064632449
 21
3.1151873397
 31
0.0
 11
5.305148086
 21
3.1038051914
 31
0.0
 11
5.303656088
 21
3.0930222419
 31
0.0
 11
5.3020449902
 21
3.0829361968
 31
0.0
 11
5.3003768214
 21
3.0736344967
 31
0.0
 11
5.2987143429
 21
3.0652001528
 31
0.0
 11
5.2971192504
 21
3.0577084678
 31
0.0
 11
5.2956514676
 21
3.0512308131
 31
0.0
 11
5.294982291
 21
3.0483921415
 31
0.0
 11
5.2943650236
 21
3.0458304567
 31
0.0
 11
5.2938058854
 21
3.0435530202
 31
0.0
 11
5.2933097274
 21
3.0415655455
 31
0.0
 11
5.2928810703
 21
3.0398733722
 31
0.0
 11
5.2925244346
 21
3.0384818403
 31
0.0
 11
5.2922438539
 21
3.0373957185
 31
0.0
 11
5.2920414298
 21
3.0366175113
 31
0.0
 11
5.2919187853
 21
3.036149162
 31
0.0
 11
5.2918775432
 21
3.0359926137
 31
0.0
  0
SPLINE
  5
243
100
AcDbEntity
  8
0
100
AcDbSpline
 62
6
  6
CONTINUOUS
 70
0
 71
3
 72
55
 73
51
 74
49
 42
0.0000001
 43
0.0000001
 44
0.0000000001
 12
0.0072478581
 22
-0.167202836
 32
0.0
 13
0.1035176634
 23
0.1315044227
 33
0.0
 40
0.0
 40
0.0
 40
0.0
 40
0.0
 40
0.0312426221
 40
0.0625010385
 40
0.0781306972
 40
0.093758447
 40
0.1250066717
 40
0.1562565344
 40
0.1875066812
 40
0.218755951
 40
0.2500046576
 40
0.2656318047
 40
0.2812589591
 40
0.2968860485
 40
0.31251314
 40
0.3281402462
 40
0.3437672452
 40
0.3593940889
 40
0.3750208685
 40
0.390647588
 40
0.4062741716
 40
0.4219006424
 40
0.4375271396
 40
0.4531536391
 40
0.4687800864
 40
0.4844065518
 40
0.5000331528
 40
0.5312807078
 40
0.5469072561
 40
0.5625338388
 40
0.5937809228
 40
0.6250275456
 40
0.656273599
 40
0.687519407
 40
0.7187649069
 40
0.7343906656
 40
0.7500163638
 40
0.7656418862
 40
0.7812672802
 40
0.7968926159
 40
0.8125178688
 40
0.828143117
 40
0.8437685441
 40
0.8593939178
 40
0.8750188581
 40
0.890643126
 40
0.9062670152
 40
0.9375114953
 40
0.9687638659
 40
1.0
 40
1.0
 40
1.0
 40
1.0
 10
5.7091370576
 20
3.8154926137
 30
0.0
 10
5.7092125383
 20
3.8137513287
 30
0.0
 10
5.7094893154
 20
3.810272119
 30
0.0
 10
5.7101474678
 20
3.8059594674
 30
0.0
 10
5.7108605018
 20
3.8025448847
 30
0.0
 10
5.7116967464
 20
3.7991589951
 30
0.0
 10
5.7129718239
 20
3.7949869249
 30
0.0
 10
5.7148625706
 20
3.7901059117
 30
0.0
 10
5.717104557
 20
3.7853756357
 30
0.0
 10
5.7196875368
 20
3.7808228364
 30
0.0
 10
5.7221132958
 20
3.7771967635
 30
0.0
 10
5.7242101175
 20
3.7744100312
 30
0.0
 10
5.7258590817
 20
3.7723792041
 30
0.0
 10
5.72758205
 20
3.7704108194
 30
0.0
 10
5.7293769382
 20
3.7685077725
 30
0.0
 10
5.7312413406
 20
3.7666727858
 30
0.0
 10
5.7331726799
 20
3.764908406
 30
0.0
 10
5.7351684034
 20
3.7632172168
 30
0.0
 10
5.7372259671
 20
3.7616018536
 30
0.0
 10
5.7393425153
 20
3.7600646114
 30
0.0
 10
5.7415151131
 20
3.7586076879
 30
0.0
 10
5.7437408394
 20
3.7572333115
 30
0.0
 10
5.7460167378
 20
3.7559437244
 30
0.0
 10
5.7483395763
 20
3.7547407359
 30
0.0
 10
5.7507060922
 20
3.7536261542
 30
0.0
 10
5.7531131073
 20
3.7526017996
 30
0.0
 10
5.7563713938
 20
3.7513588266
 30
0.0
 10
5.7596982617
 20
3.7503019369
 30
0.0
 10
5.7630768134
 20
3.7494375404
 30
0.0
 10
5.7664859234
 20
3.7487026661
 30
0.0
 10
5.7707962413
 20
3.7480287328
 30
0.0
 10
5.7760146306
 20
3.7476190814
 30
0.0
 10
5.7812492219
 20
3.7476112954
 30
0.0
 10
5.7864685619
 20
3.7480076941
 30
0.0
 10
5.7907801234
 20
3.7486735141
 30
0.0
 10
5.7941895444
 20
3.7494059983
 30
0.0
 10
5.7967236752
 20
3.7500545297
 30
0.0
 10
5.7992305456
 20
3.7508013361
 30
0.0
 10
5.8017062735
 20
3.7516456477
 30
0.0
 10
5.8041469976
 20
3.7525863208
 30
0.0
 10
5.8065489697
 20
3.753621935
 30
0.0
 10
5.8089084099
 20
3.7547511222
 30
0.0
 10
5.8112214803
 20
3.7559725038
 30
0.0
 10
5.813484566
 20
3.757284157
 30
0.0
 10
5.8156940468
 20
3.7586840852
 30
0.0
 10
5.8178463335
 20
3.7601703891
 30
0.0
 10
5.8206346831
 20
3.7622642388
 30
0.0
 10
5.8239614628
 20
3.7650873635
 30
0.0
 10
5.8276690541
 20
3.7687820522
 30
0.0
 10
5.8299367938
 20
3.7714355009
 30
0.0
 10
5.8310146243
 20
3.7728047309
 30
0.0
 11
5.7091370576
 21
3.8154926137
 31
0.0
 11
5.7095516427
 21
3.8102803152
 31
0.0
 11
5.7103412598
 21
3.8051088461
 31
0.0
 11
5.7108759436
 21
3.8025482985
 31
0.0
 11
5.7115030932
 21
3.8000091444
 31
0.0
 11
5.7130319098
 21
3.7950078982
 31
0.0
 11
5.7149211012
 21
3.7901310584
 31
0.0
 11
5.717161417
 21
3.7854051623
 31
0.0
 11
5.7197421973
 21
3.7808564102
 31
0.0
 11
5.7226503736
 21
3.776509791
 31
0.0
 11
5.7242228188
 21
3.7744199326
 31
0.0
 11
5.7258714184
 21
3.772389608
 31
0.0
 11
5.7275940369
 21
3.7704217087
 31
0.0
 11
5.729388524
 21
3.7685191158
 31
0.0
 11
5.7312525028
 21
3.7666845479
 31
0.0
 11
5.7331834194
 21
3.7649205967
 31
0.0
 11
5.7351787149
 21
3.7632298506
 31
0.0
 11
5.7372358025
 21
3.7616148703
 31
0.0
 11
5.7393518655
 21
3.7600779919
 31
0.0
 11
5.7415239749
 21
3.7586214412
 31
0.0
 11
5.7437492008
 21
3.7572474434
 31
0.0
 11
5.7460245612
 21
3.7559581575
 31
0.0
 11
5.7483468587
 21
3.754755469
 31
0.0
 11
5.7507128402
 21
3.7536411929
 31
0.0
 11
5.7531192521
 21
3.7526171432
 31
0.0
 11
5.7555627571
 21
3.7516849967
 31
0.0
 11
5.7605469825
 21
3.7501019397
 31
0.0
 11
5.7630806349
 21
3.7494537318
 31
0.0
 11
5.7656371753
 21
3.7489026427
 31
0.0
 11
5.7708039771
 21
3.7480952352
 31
0.0
 11
5.7760173745
 21
3.7476860571
 31
0.0
 11
5.7812467041
 21
3.7476786603
 31
0.0
 11
5.7864609726
 21
3.7480747889
 31
0.0
 11
5.7916288983
 21
3.7488732362
 31
0.0
 11
5.7941856864
 21
3.7494225189
 31
0.0
 11
5.7967191445
 21
3.7500709124
 31
0.0
 11
5.7992253652
 21
3.7508175902
 31
0.0
 11
5.8017004449
 21
3.7516617099
 31
0.0
 11
5.8041405445
 21
3.7526021466
 31
0.0
 11
5.8065418805
 21
3.7536375302
 31
0.0
 11
5.8089006717
 21
3.754766483
 31
0.0
 11
5.8112131546
 21
3.755987552
 31
0.0
 11
5.8134756617
 21
3.7572988877
 31
0.0
 11
5.8156845573
 21
3.7586985094
 31
0.0
 11
5.817836207
 21
3.7601844353
 31
0.0
 11
5.8199271179
 21
3.761754573
 31
0.0
 11
5.8239137929
 21
3.7651383004
 31
0.0
 11
5.8276186744
 21
3.7688302991
 31
0.0
 11
5.8310146243
 21
3.7728047309
 31
0.0
  0
SPLINE
  5
244
100
AcDbEntity
  8
0
100
AcDbSpline
 62
7
  6
CONTINUOUS
 70
0
 71
3
 72
57
 73
53
 74
51
 42
0.0000001
 43
0.0000001
 44
0.0000000001
 12
-0.0638501837
 22
0.2466939088
 32
0.0
 13
0.0638444382
 23
0.2466953949
 33
0.0
 40
0.0
 40
0.0
 40
0.0
 40
0.0
 40
0.0006219254
 40
0.0024819044
 40
0.0055712488
 40
0.0098812806
 40
0.0154007956
 40
0.0221084399
 40
0.0299803715
 40
0.0389928269
 40
0.0491204135
 40
0.0603308269
 40
0.0858644837
 40
0.1153160527
 40
0.1483759039
 40
0.1847231305
 40
0.2240125135
 40
0.2658892994
 40
0.3099695217
 40
0.3327142886
 40
0.3558584297
 40
0.3793470489
 40
0.4031256286
 40
0.4271393063
 40
0.4513298907
 40
0.4756382344
 40
0.5000053305
 40
0.5243723776
 40
0.5486806484
 40
0.5728712321
 40
0.5968850595
 40
0.6441511245
 40
0.6672949817
 40
0.6900396354
 40
0.7341190585
 40
0.7553569391
 40
0.7759952422
 40
0.815283483
 40
0.8516294606
 40
0.8846881889
 40
0.9141387113
 40
0.9396714696
 40
0.9508814309
 40
0.9610087215
 40
0.9700209168
 40
0.9778924912
 40
0.984599804
 40
0.9901191371
 40
0.9944290689
 40
0.9975182736
 40
0.9993781283
 40
1.0
 40
1.0
 40
1.0
 40
1.0
 10
6.2718775432
 20
3.0384926137
 30
0.0
 10
6.2718643065
 20
3.0385437555
 30
0.0
 10
6.2718115843
 20
3.0387478718
 30
0.0
 10
6.2716939991
 20
3.0392062581
 30
0.0
 10
6.2714996817
 20
3.0399683743
 30
0.0
 10
6.2712303092
 20
3.0410321417
 30
0.0
 10
6.2708878192
 20
3.0423944351
 30
0.0
 10
6.2704762936
 20
3.0440513334
 30
0.0
 10
6.2699999187
 20
3.0459978224
 30
0.0
 10
6.2694630598
 20
3.0482285591
 30
0.0
 10
6.2688702766
 20
3.0507374877
 30
0.0
 10
6.2679737952
 20
3.0546165822
 30
0.0
 10
6.2667546743
 20
3.0601056916
 30
0.0
 10
6.2652264189
 20
3.0674267506
 30
0.0
 10
6.2636334764
 20
3.0756717888
 30
0.0
 10
6.2620350634
 20
3.0847656469
 30
0.0
 10
6.2604909078
 20
3.0946278453
 30
0.0
 10
6.2590618128
 20
3.1051707561
 30
0.0
 10
6.2580224128
 20
3.1143461871
 30
0.0
 10
6.2572959327
 20
3.1219537958
 30
0.0
 10
6.2568062796
 20
3.1278265623
 30
0.0
 10
6.2563823082
 20
3.1337924737
 30
0.0
 10
6.2560288322
 20
3.1398369781
 30
0.0
 10
6.255750774
 20
3.1459451146
 30
0.0
 10
6.2555499348
 20
3.1521012998
 30
0.0
 10
6.2554280268
 20
3.1582895822
 30
0.0
 10
6.2553867526
 20
3.1644939242
 30
0.0
 10
6.2554279709
 20
3.1706982618
 30
0.0
 10
6.2555500005
 20
3.176886529
 30
0.0
 10
6.2557509606
 20
3.1830427269
 30
0.0
 10
6.2561197164
 20
3.1911438662
 30
0.0
 10
6.2566386262
 20
3.1991485216
 30
0.0
 10
6.2572962157
 20
3.2070339372
 30
0.0
 10
6.2580226754
 20
3.2146414473
 30
0.0
 10
6.2588646862
 20
3.222074753
 30
0.0
 10
6.2598074517
 20
3.229314889
 30
0.0
 10
6.2607702563
 20
3.236141628
 30
0.0
 10
6.2620353215
 20
3.2442212474
 30
0.0
 10
6.2636337461
 20
3.2533147874
 30
0.0
 10
6.2652266238
 20
3.2615595452
 30
0.0
 10
6.2667548551
 20
3.2688803426
 30
0.0
 10
6.2679739415
 20
3.2743692509
 30
0.0
 10
6.2688703758
 20
3.2782482128
 30
0.0
 10
6.2694631532
 20
3.2807570548
 30
0.0
 10
6.2700000103
 20
3.2829877122
 30
0.0
 10
6.2704763573
 20
3.284934125
 30
0.0
 10
6.2708878531
 20
3.2865909544
 30
0.0
 10
6.2712303349
 20
3.2879531962
 30
0.0
 10
6.2714997123
 20
3.2890169254
 30
0.0
 10
6.2716940206
 20
3.289779012
 30
0.0
 10
6.2718115946
 20
3.2902373734
 30
0.0
 10
6.2718643089
 20
3.2904414761
 30
0.0
 10
6.2718775432
 20
3.2904926137
 30
0.0
 11
6.2718775432
 21
3.0384926137
 31
0.0
 11
6.2718379052
 21
3.0386460575
 31
0.0
 11
6.2717200294
 21
3.0391051309
 31
0.0
 11
6.2715254733
 21
3.0398679466
 31
0.0
 11
6.2712557942
 21
3.0409326176
 31
0.0
 11
6.2709130123
 21
3.0422967067
 31
0.0
 11
6.2705010044
 21
3.0439555688
 31
0.0
 11
6.2700241131
 21
3.0459040049
 31
0.0
 11
6.2694866809
 21
3.048136816
 31
0.0
 11
6.2688933723
 21
3.0506484305
 31
0.0
 11
6.268250172
 21
3.0534317479
 31
0.0
 11
6.2668393904
 21
3.0597835206
 31
0.0
 11
6.265306316
 21
3.0671302008
 31
0.0
 11
6.2637086195
 21
3.0754017174
 31
0.0
 11
6.2621056647
 21
3.0845240593
 31
0.0
 11
6.2605578085
 21
3.0944155179
 31
0.0
 11
6.2591246635
 21
3.1049900067
 31
0.0
 11
6.2578616468
 21
3.1161514221
 31
0.0
 11
6.2573106222
 21
3.1219210561
 31
0.0
 11
6.2568206162
 21
3.1277983214
 31
0.0
 11
6.2563964551
 21
3.1337687108
 31
0.0
 11
6.2560429655
 21
3.1398177171
 31
0.0
 11
6.2557645342
 21
3.1459306137
 31
0.0
 11
6.2555634933
 21
3.1520916488
 31
0.0
 11
6.2554415753
 21
3.1582847709
 31
0.0
 11
6.2554005124
 21
3.1644939286
 31
0.0
 11
6.2554415491
 21
3.1707030741
 31
0.0
 11
6.2555635589
 21
3.1768961758
 31
0.0
 11
6.2557646964
 21
3.1830572075
 31
0.0
 11
6.2560431158
 21
3.1891701429
 31
0.0
 11
6.2568208026
 21
3.2011894844
 31
0.0
 11
6.2573108876
 21
3.2070666706
 31
0.0
 11
6.2578619156
 21
3.2128362753
 31
0.0
 11
6.2591249258
 21
3.2239974864
 31
0.0
 11
6.2598236609
 21
3.2293640875
 31
0.0
 11
6.2605581074
 21
3.2345716632
 31
0.0
 11
6.2621059316
 21
3.2444628321
 31
0.0
 11
6.2637088754
 21
3.2535848528
 31
0.0
 11
6.2653065261
 21
3.2618560869
 31
0.0
 11
6.2668395664
 21
3.2692025017
 31
0.0
 11
6.2682503033
 21
3.2755540498
 31
0.0
 11
6.2688934726
 21
3.2783372561
 31
0.0
 11
6.2694867748
 21
3.2808487947
 31
0.0
 11
6.2700242025
 21
3.2830815387
 31
0.0
 11
6.2705010661
 21
3.2850298878
 31
0.0
 11
6.2709130456
 21
3.2866886699
 31
0.0
 11
6.271255821
 21
3.2880527128
 31
0.0
 11
6.2715255029
 21
3.2891173569
 31
0.0
 11
6.2717200491
 21
3.2898801384
 31
0.0
 11
6.2718379117
 21
3.2903391824
 31
0.0
 11
6.2718775432
 21
3.2904926137
 31
0.0
  0
SPLINE
  5
245
100
AcDbEntity
  8
0
100
AcDbSpline
 62
6
  6
CONTINUOUS
 70
0
 71
3
 72
31
 73
27
 74
25
 42
0.0000001
 43
0.0000001
 44
0.0000000001
 12
0.0455255084
 22
0.0968422929
 32
0.0
 13
-0.0919516398
 23
0.0547347927
 33
0.0
 40
0.0
 40
0.0
 40
0.0
 40
0.0
 40
0.0626235354
 40
0.0939513561
 40
0.1252732063
 40
0.1565861188
 40
0.1878918638
 40
0.2191932675
 40
0.2504924987
 40
0.3130648976
 40
0.3756192695
 40
0.4068964662
 40
0.4381692008
 40
0.469437417
 40
0.5007002107
 40
0.531957902
 40
0.5632107663
 40
0.6256817784
 40
0.6881297694
 40
0.7193534102
 40
0.7505717699
 40
0.8129672949
 40
0.8753319948
 40
0.9065181441
 40
0.9377035517
 40
1.0
 40
1.0
 40
1.0
 40
1.0
 10
5.8503785005
 20
3.770419131
 30
0.0
 10
5.8513288233
 20
3.7724406666
 30
0.0
 10
5.8526298763
 20
3.775534553
 30
0.0
 10
5.8541016041
 20
3.7797546349
 30
0.0
 10
5.8550715605
 20
3.7829639681
 30
0.0
 10
5.855904596
 20
3.7862106235
 30
0.0
 10
5.8565987515
 20
3.789489058
 30
0.0
 10
5.8571518942
 20
3.7927937839
 30
0.0
 10
5.8576986336
 20
3.7972262353
 30
0.0
 10
5.8580215419
 20
3.8028040963
 30
0.0
 10
5.8578532718
 20
3.8083882381
 30
0.0
 10
5.8574218979
 20
3.8128310313
 30
0.0
 10
5.8569493727
 20
3.8161451648
 30
0.0
 10
5.8563279082
 20
3.8194340559
 30
0.0
 10
5.8555580545
 20
3.8226908709
 30
0.0
 10
5.8546401438
 20
3.825908615
 30
0.0
 10
5.8532204579
 20
3.8301359709
 30
0.0
 10
5.851081218
 20
3.8352887958
 30
0.0
 10
5.8484665813
 20
3.8402165997
 30
0.0
 10
5.8461014282
 20
3.8439934751
 30
0.0
 10
5.8435578668
 20
3.8476502834
 30
0.0
 10
5.840051395
 20
3.851982093
 30
0.0
 10
5.8361351348
 20
3.8559461847
 30
0.0
 10
5.8327776359
 20
3.8588683783
 30
0.0
 10
5.8292785471
 20
3.8616148158
 30
0.0
 10
5.8264995507
 20
3.8634716276
 30
0.0
 10
5.8245901305
 20
3.864608222
 30
0.0
 11
5.8503785005
 21
3.770419131
 31
0.0
 11
5.8529756058
 21
3.7765967131
 31
0.0
 11
5.8540793455
 21
3.7797621739
 31
0.0
 11
5.8550488612
 21
3.782970622
 31
0.0
 11
5.8558815358
 21
3.7862162872
 31
0.0
 11
5.856575294
 21
3.7894936719
 31
0.0
 11
5.857128078
 21
3.7927972862
 31
0.0
 11
5.8575379964
 21
3.7961214173
 31
0.0
 11
5.8579233214
 21
3.8028061529
 31
0.0
 11
5.8577206921
 21
3.8094969882
 31
0.0
 11
5.8573970389
 21
3.8128282552
 31
0.0
 11
5.856924509
 21
3.8161412012
 31
0.0
 11
5.8563031178
 21
3.8194289866
 31
0.0
 11
5.8555333095
 21
3.8226846235
 31
0.0
 11
5.8546155488
 21
3.8259011184
 31
0.0
 11
5.8535506959
 21
3.8290714113
 31
0.0
 11
5.8509857044
 21
3.8352447257
 31
0.0
 11
5.8478524366
 21
3.841147157
 31
0.0
 11
5.8460788908
 21
3.8439788167
 31
0.0
 11
5.844171181
 21
3.8467211933
 31
0.0
 11
5.8399685569
 21
3.8519095463
 31
0.0
 11
5.8352771545
 21
3.8566558884
 31
0.0
 11
5.8327596763
 21
3.8588466124
 31
0.0
 11
5.8301344748
 21
3.8609068929
 31
0.0
 11
5.8245901305
 21
3.864608222
 31
0.0
  0
ENDSEC
  0
SECTION
  2
OBJECTS
  0
DICTIONARY
  5
C
100
AcDbDictionary
280
0
281
1
  3
ACAD_GROUP
350
D
  3
ACAD_MLINESTYLE
350
17
  3
ACAD_LAYOUT
350
1A
  3
ACAD_PLOTSETTINGS
350
19
  3
ACAD_PLOTSTYLENAME
350
E
  0
DICTIONARY
  5
D
102
{ACAD_REACTORS
330
C
102
}
100
AcDbDictionary
280
0
281
1
  0
ACDBDICTIONARYWDFLT
  5
E
102
{ACAD_REACTORS
330
C
102
}
100
AcDbDictionary
281
1
  3
Normal
350
F
100
AcDbDictionaryWithDefault
340
F
  0
DICTIONARY
  5
17
102
{ACAD_REACTORS
330
C
102
}
100
AcDbDictionary
280
0
281
1
  3
Standard
350
18
  0
DICTIONARY
  5
19
102
{ACAD_REACTORS
330
C
102
}
100
AcDbDictionary
281
1
  0
DICTIONARY
  5
1A
102
{ACAD_REACTORS
330
C
102
}
100
AcDbDictionary
281
1
  3
Model
350
246
  3
Layout1
350
247
  0
ACDBPLACEHOLDER
  5
F
102
{ACAD_REACTORS
330
E
102
}
  0
MLINESTYLE
  5
18
102
{ACAD_REACTORS
330
17
102
}
100
AcDbMlineStyle
  2
STANDARD
 70
0
  3

 62
256
 51
90.0
 52
90.0
 71
2
 49
0.5
 62
256
  6
BYLAYER
 49
-0.5
 62
256
  6
BYLAYER
  0
LAYOUT
  5
246
102
{ACAD_REACTORS
330
1A
102
}
100
AcDbPlotSettings
  1

  2
none_device
  4
ISO_A4_(297.00_x_210.00_MM)
  6

 40
0.0
 41
0.0
 42
0.0
 43
0.0
 44
297.0
 45
210.0
 46
0.0
 47
0.0
 48
0.0
 49
0.0
140
0.0
141
0.0
142
1.0
143
1.0
 70
1024
 72
0
 73
0
 74
0
  7

 75
0
147
1.0
148
0.0
149
0.0
100
AcDbLayout
  1
Model
 70
0
 71
0
 10
0.0
 20
0.0
 11
11.6929133858
 21
8.2677165354
 12
0.0
 22
0.0
 32
0.0
 14
0.0
 24
0.0
 34
0.0
 15
0.0
 25
0.0
 35
0.0
146
0.0
 13
0.0
 23
0.0
 33
0.0
 16
1.0
 26
0.0
 36
0.0
 17
0.0
 27
1.0
 37
0.0
 76
0
330
203
345
0
346
0
  0
LAYOUT
  5
247
102
{ACAD_REACTORS
330
1A
102
}
100
AcDbPlotSettings
  1

  2
none_device
  4
ISO_A4_(297.00_x_210.00_MM)
  6

 40
0.0
 41
0.0
 42
0.0
 43
0.0
 44
297.0
 45
210.0
 46
0.0
 47
0.0
 48
0.0
 49
0.0
140
0.0
141
0.0
142
1.0
143
1.0
 70
0
 72
0
 73
0
 74
0
  7

 75
0
147
1.0
148
0.0
149
0.0
100
AcDbLayout
  1
Layout1
 70
0
 71
1
 10
0.0
 20
0.0
 11
11.6929133858
 21
8.2677165354
 12
0.0
 22
0.0
 32
0.0
 14
0.0
 24
0.0
 34
0.0
 15
0.0
 25
0.0
 35
0.0
146
0.0
 13
0.0
 23
0.0
 33
0.0
 16
1.0
 26
0.0
 36
0.0
 17
0.0
 27
1.0
 37
0.0
 76
0
330
204
345
0
346
0
  0
ENDSEC
  0
EOF
